0
SECTION
2
HEADER
9
$MEASUREMENT
70
1
0
ENDSEC
0
SECTION
2
TABLES
0
TABLE
2
LTYPE
0
LTYPE
72
65
70
64
2
CONTINUOUS
3
______
73
0
40
0
0
ENDTAB
0
TABLE
2
LAYER
0
LAYER
2
DEFAULT_255_2_778
70
0
62
255
6
CONTINUOUS
0
ENDTAB
0
ENDSEC
0
SECTION
2
ENTITIES
0
LINE
8
DEFAULT_255_2_778
10
6.2295752
20
13.5450777
11
0.2764752
21
10.1070777
0
LINE
8
DEFAULT_255_2_778
10
0.2764752
20
10.1070777
11
0.2645752
21
3.2548777
0
LINE
8
DEFAULT_255_2_778
10
0.2645752
20
3.2548777
11
6.2057752
21
-0.1593223
0
LINE
8
DEFAULT_255_2_778
10
6.2057752
20
-0.1593223
11
12.1588752
21
3.2786777
0
LINE
8
DEFAULT_255_2_778
10
12.1588752
20
3.2786777
11
12.1707752
21
10.1308777
0
LINE
8
DEFAULT_255_2_778
10
12.1707752
20
10.1308777
11
6.2295752
21
13.5450777
0
LINE
8
DEFAULT_255_2_778
10
8.9857752
20
3.7554777
11
8.4380752
21
3.4369777
0
LINE
8
DEFAULT_255_2_778
10
8.4380752
20
3.4369777
11
7.8845752
21
3.7665777
0
LINE
8
DEFAULT_255_2_778
10
7.8845752
20
3.7665777
11
7.8845752
21
6.1266777
0
LINE
8
DEFAULT_255_2_778
10
7.8845752
20
6.1266777
11
4.5508752
21
6.1266777
0
LINE
8
DEFAULT_255_2_778
10
4.5508752
20
6.1266777
11
4.5508752
21
3.7573777
0
LINE
8
DEFAULT_255_2_778
10
4.5508752
20
3.7573777
11
4.0031752
21
3.4387777
0
LINE
8
DEFAULT_255_2_778
10
4.0031752
20
3.4387777
11
3.4496752
21
3.7663777
0
LINE
8
DEFAULT_255_2_778
10
3.4496752
20
3.7663777
11
3.4496752
21
9.6308777
0
LINE
8
DEFAULT_255_2_778
10
3.4496752
20
9.6308777
11
3.9999752
21
9.9464777
0
LINE
8
DEFAULT_255_2_778
10
3.9999752
20
9.9464777
11
4.5502752
21
9.6249777
0
LINE
8
DEFAULT_255_2_778
10
4.5502752
20
9.6249777
11
4.5502752
21
7.2585777
0
LINE
8
DEFAULT_255_2_778
10
4.5502752
20
7.2585777
11
7.8840752
21
7.2585777
0
LINE
8
DEFAULT_255_2_778
10
7.8840752
20
7.2585777
11
7.8840752
21
9.6278777
0
LINE
8
DEFAULT_255_2_778
10
7.8840752
20
9.6278777
11
8.4343752
21
9.9435777
0
LINE
8
DEFAULT_255_2_778
10
8.4343752
20
9.9435777
11
8.9846752
21
9.6220777
0
LINE
8
DEFAULT_255_2_778
10
8.9846752
20
9.6220777
11
8.9857752
21
3.7554777
0
ENDSEC
0
EOF