0
SECTION
2
HEADER
9
$MEASUREMENT
70
1
0
ENDSEC
0
SECTION
2
TABLES
0
TABLE
2
LTYPE
0
LTYPE
72
65
70
64
2
CONTINUOUS
3
______
73
0
40
0
0
ENDTAB
0
TABLE
2
LAYER
0
LAYER
2
DEFAULT_255_2_778
70
0
62
255
6
CONTINUOUS
0
ENDTAB
0
ENDSEC
0
SECTION
2
ENTITIES
0
ARC
8
DEFAULT_255_2_778
10
8.7588364
20
-0.5223378
40
1.4352045
50
12.1231646
51
78.1820937
0
ARC
8
DEFAULT_255_2_778
10
8.7321812
20
-0.5928808
40
1.509756
50
77.7402353
51
90.0359618
0
ARC
8
DEFAULT_255_2_778
10
8.728211
20
-0.5662952
40
1.4831733
50
89.8832357
51
117.760174
0
ARC
8
DEFAULT_255_2_778
10
8.6985063
20
-0.5221031
40
1.4302431
50
117.5317349
51
167.8437593
0
ARC
8
DEFAULT_255_2_778
10
4.522128
20
0.9924978
40
1.213666
50
218.4441674
51
268.8530106
0
ARC
8
DEFAULT_255_2_778
10
4.8315983
20
1.2838956
40
1.6376163
50
196.887736
51
219.6972771
0
ARC
8
DEFAULT_255_2_778
10
5.008579
20
1.3437031
40
1.8243481
50
179.9035235
51
197.0703926
0
ARC
8
DEFAULT_255_2_778
10
4.9973932
20
1.3510636
40
1.8131647
50
159.937593
51
180.135519
0
ARC
8
DEFAULT_255_2_778
10
4.7955712
20
1.430227
40
1.5964411
50
136.5625364
51
160.1215629
0
ARC
8
DEFAULT_255_2_778
10
4.5163008
20
1.7207946
40
1.1940231
50
90.8861928
51
137.4729883
0
ARC
8
DEFAULT_255_2_778
10
12.9402486
20
1.7010858
40
1.2138321
50
38.4509756
51
88.8536151
0
ARC
8
DEFAULT_255_2_778
10
12.6310874
20
1.409913
40
1.6374041
50
16.891058
51
39.7030471
0
ARC
8
DEFAULT_255_2_778
10
12.4542586
20
1.3501504
40
1.8239776
50
359.9033935
51
17.0734464
0
ARC
8
DEFAULT_255_2_778
10
12.4651641
20
1.3427993
40
1.8130745
50
339.9355645
51
0.1351192
0
ARC
8
DEFAULT_255_2_778
10
12.666669
20
1.2637416
40
1.5966849
50
316.5621712
51
340.1195741
0
ARC
8
DEFAULT_255_2_778
10
12.9460291
20
0.9730463
40
1.1941146
50
270.8879139
51
317.4739163
0
ARC
8
DEFAULT_255_2_778
10
4.522128
20
10.1150978
40
1.213666
50
218.4441674
51
268.8530106
0
ARC
8
DEFAULT_255_2_778
10
4.8315983
20
10.4064956
40
1.6376163
50
196.887736
51
219.6972771
0
ARC
8
DEFAULT_255_2_778
10
5.008579
20
10.4663031
40
1.8243481
50
179.9035235
51
197.0703926
0
ARC
8
DEFAULT_255_2_778
10
4.9973932
20
10.4736636
40
1.8131647
50
159.937593
51
180.135519
0
ARC
8
DEFAULT_255_2_778
10
4.7955712
20
10.552827
40
1.5964411
50
136.5625364
51
160.1215629
0
ARC
8
DEFAULT_255_2_778
10
4.5163008
20
10.8433946
40
1.1940231
50
90.8861928
51
137.4729883
0
ARC
8
DEFAULT_255_2_778
10
12.9402222
20
10.8237149
40
1.2138036
50
38.4472842
51
88.8523424
0
ARC
8
DEFAULT_255_2_778
10
12.6308753
20
10.5323805
40
1.63762
50
16.890402
51
39.7005316
0
ARC
8
DEFAULT_255_2_778
10
12.4541386
20
10.4726448
40
1.8240976
50
359.9035768
51
17.0728784
0
ARC
8
DEFAULT_255_2_778
10
12.4654517
20
10.4653074
40
1.8127869
50
339.9339594
51
0.134883
0
ARC
8
DEFAULT_255_2_778
10
12.6667278
20
10.3863266
40
1.5966385
50
316.5608658
51
340.1179821
0
ARC
8
DEFAULT_255_2_778
10
12.9460261
20
10.0956727
40
1.194141
50
270.8880385
51
317.4727502
0
ARC
8
DEFAULT_255_2_778
10
1.7723065
20
5.8241625
40
1.4840329
50
205.2263391
51
269.1979696
0
ARC
8
DEFAULT_255_2_778
10
1.8875824
20
5.9052297
40
1.6230461
50
180.0026272
51
206.0808711
0
ARC
8
DEFAULT_255_2_778
10
1.8927298
20
5.908067
40
1.6281961
50
179.9961978
51
180.1024616
0
ARC
8
DEFAULT_255_2_778
10
1.8867319
20
5.9110119
40
1.6222008
50
154.0660557
51
180.1001975
0
ARC
8
DEFAULT_255_2_778
10
1.7728517
20
5.9910976
40
1.4849304
50
90.8225828
51
154.9233334
0
ARC
8
DEFAULT_255_2_778
10
15.6899858
20
5.9916567
40
1.4843661
50
25.0742785
51
89.1914006
0
ARC
8
DEFAULT_255_2_778
10
15.5749077
20
5.9110812
40
1.6229271
50
359.923895
51
25.929114
0
ARC
8
DEFAULT_255_2_778
10
16.4938495
20
5.9083626
40
0.7039841
50
359.9847289
51
0.0458118
0
ARC
8
DEFAULT_255_2_778
10
15.5758389
20
5.9053511
40
1.6219972
50
334.0646115
51
0.0997532
0
ARC
8
DEFAULT_255_2_778
10
15.6895606
20
5.8253099
40
1.4848886
50
270.8247229
51
334.9229104
0
LINE
8
DEFAULT_255_2_778
10
7.3003336
20
-0.220925
11
4.4978336
21
-0.220925
0
LINE
8
DEFAULT_255_2_778
10
4.4978336
20
2.914675
11
12.9645336
21
2.914675
0
LINE
8
DEFAULT_255_2_778
10
12.9645336
20
-0.220925
11
10.1620336
21
-0.220925
0
LINE
8
DEFAULT_255_2_778
10
12.9645336
20
8.901675
11
4.4978336
21
8.901675
0
LINE
8
DEFAULT_255_2_778
10
4.4978336
20
12.037275
11
12.9645336
21
12.037275
0
LINE
8
DEFAULT_255_2_778
10
12.9645336
20
8.901675
11
12.9645336
21
8.901675
0
LINE
8
DEFAULT_255_2_778
10
1.7515336
20
7.475875
11
15.7109336
21
7.475875
0
LINE
8
DEFAULT_255_2_778
10
15.7109336
20
4.340575
11
1.7515336
21
4.340275
0
ENDSEC
0
EOF