0
SECTION
2
HEADER
9
$MEASUREMENT
70
1
0
ENDSEC
0
SECTION
2
TABLES
0
TABLE
2
LTYPE
0
LTYPE
72
65
70
64
2
CONTINUOUS
3
______
73
0
40
0
0
ENDTAB
0
TABLE
2
LAYER
0
LAYER
2
DEFAULT_255_2_778
70
0
62
255
6
CONTINUOUS
0
ENDTAB
0
ENDSEC
0
SECTION
2
ENTITIES
0
ARC
8
DEFAULT_255_2_778
10
19.564994
20
4.4585923
40
0.8305853
50
14.6914084
51
25.99578
0
ARC
8
DEFAULT_255_2_778
10
19.12989
20
4.3422086
40
1.2809824
50
6.8238551
51
14.791182
0
ARC
8
DEFAULT_255_2_778
10
18.4371671
20
4.2592945
40
1.9786498
50
0.1361628
51
6.8244102
0
ARC
8
DEFAULT_255_2_778
10
17.9196444
20
4.2481344
40
2.4962172
50
359.9997312
51
0.3640923
0
ARC
8
DEFAULT_255_2_778
10
17.4387713
20
4.2544665
40
2.9770971
50
355.6461179
51
359.8779106
0
ARC
8
DEFAULT_255_2_778
10
16.1742161
20
4.3545998
40
4.2456067
50
350.9654269
51
355.5942448
0
ARC
8
DEFAULT_255_2_778
10
14.9879022
20
4.5335436
40
5.445311
50
348.9452761
51
351.0660555
0
ARC
8
DEFAULT_255_2_778
10
14.4665362
20
4.6334639
40
5.9761623
50
347.8894308
51
348.9635285
0
ARC
8
DEFAULT_255_2_778
10
14.2527507
20
4.6791712
40
6.1947793
50
346.6559477
51
347.8909282
0
ARC
8
DEFAULT_255_2_778
10
14.3585997
20
4.6536041
40
6.0858873
50
345.6920829
51
346.6601575
0
ARC
8
DEFAULT_255_2_778
10
14.7927565
20
4.5428529
40
5.637827
50
345.0308149
51
345.6923007
0
ARC
8
DEFAULT_255_2_778
10
15.5609137
20
4.3369351
40
4.842549
50
344.3371575
51
345.036912
0
ARC
8
DEFAULT_255_2_778
10
16.7150332
20
4.0131801
40
3.6438793
50
343.7635291
51
344.3394908
0
ARC
8
DEFAULT_255_2_778
10
18.2259141
20
3.572363
40
2.0700051
50
343.1212304
51
343.7853867
0
ARC
8
DEFAULT_255_2_778
10
13.6636894
20
7.6725687
40
8.6148888
50
326.9268378
51
329.1580109
0
ARC
8
DEFAULT_255_2_778
10
15.0716347
20
6.8317106
40
6.9749645
50
329.1591055
51
331.3786659
0
ARC
8
DEFAULT_255_2_778
10
16.3349452
20
6.1437604
40
5.5364839
50
331.3655902
51
333.9272641
0
ARC
8
DEFAULT_255_2_778
10
17.5046247
20
5.5721712
40
4.2346145
50
333.9182602
51
336.6558291
0
ARC
8
DEFAULT_255_2_778
10
18.5755826
20
5.1114545
40
3.0687636
50
336.6302917
51
339.7564913
0
ARC
8
DEFAULT_255_2_778
10
19.5604609
20
4.7495
40
2.0194807
50
339.7229628
51
343.1119187
0
ARC
8
DEFAULT_255_2_778
10
20.4144174
20
4.4911467
40
1.1272999
50
343.0679292
51
346.4347893
0
ARC
8
DEFAULT_255_2_778
10
21.1253306
20
4.3208997
40
0.396289
50
346.2543126
51
349.3912021
0
ARC
8
DEFAULT_255_2_778
10
19.9193952
20
2.5541221
40
2.3269054
50
46.7129812
51
48.9936808
0
ARC
8
DEFAULT_255_2_778
10
19.9377705
20
2.5751335
40
2.2989927
50
48.9956788
51
50.3454561
0
ARC
8
DEFAULT_255_2_778
10
19.9740423
20
2.6206743
40
2.2407837
50
50.3164006
51
59.0736989
0
ARC
8
DEFAULT_255_2_778
10
20.0077933
20
2.6764748
40
2.1755707
50
59.0809351
51
66.6980691
0
ARC
8
DEFAULT_255_2_778
10
20.041681
20
2.7561925
40
2.0889503
50
66.6868006
51
73.1654708
0
ARC
8
DEFAULT_255_2_778
10
20.0970545
20
2.9414347
40
1.8956101
50
73.1459058
51
78.306017
0
ARC
8
DEFAULT_255_2_778
10
20.16995
20
3.2971315
40
1.5325216
50
78.2794078
51
82.3412325
0
ARC
8
DEFAULT_255_2_778
10
20.2445929
20
3.8594956
40
0.9652268
50
82.2836001
51
85.4996664
0
ARC
8
DEFAULT_255_2_778
10
20.2941781
20
4.4866773
40
0.3360882
50
85.5372729
51
87.1231863
0
LINE
8
DEFAULT_255_2_778
10
20.2067459
20
2.971342
11
20.8827459
21
2.971342
0
LINE
8
DEFAULT_255_2_778
10
20.3110459
20
4.822342
11
20.3115459
21
4.822642
0
ARC
8
DEFAULT_255_2_778
10
11.8896134
20
5.6211872
40
4.8481113
50
354.8482476
51
357.531995
0
ARC
8
DEFAULT_255_2_778
10
10.2580985
20
5.7728844
40
6.4866584
50
351.5679021
51
354.8077557
0
ARC
8
DEFAULT_255_2_778
10
9.0872613
20
5.9353575
40
7.6686716
50
351.4651761
51
351.6498746
0
ARC
8
DEFAULT_255_2_778
10
7.6224149
20
6.169809
40
9.1521025
50
348.2544884
51
351.3746723
0
ARC
8
DEFAULT_255_2_778
10
5.4602175
20
6.6077637
40
11.3581845
50
346.802334
51
348.3118094
0
ARC
8
DEFAULT_255_2_778
10
4.4660345
20
6.8383575
40
12.3787568
50
346.023459
51
346.8138118
0
ARC
8
DEFAULT_255_2_778
10
3.9981057
20
6.9545848
40
12.8609043
50
345.2324774
51
346.0244833
0
ARC
8
DEFAULT_255_2_778
10
3.9389174
20
6.9695636
40
12.9219556
50
344.290797
51
345.2351508
0
ARC
8
DEFAULT_255_2_778
10
4.6266818
20
6.7756454
40
12.2073761
50
343.5771864
51
344.2929529
0
ARC
8
DEFAULT_255_2_778
10
6.1781943
20
6.3171983
40
10.5895494
50
342.8327735
51
343.5831069
0
ARC
8
DEFAULT_255_2_778
10
8.4552192
20
5.6137943
40
8.2063542
50
342.2233806
51
342.8326006
0
ARC
8
DEFAULT_255_2_778
10
11.230466
20
4.7218967
40
5.2913121
50
341.4194751
51
342.2451625
0
ARC
8
DEFAULT_255_2_778
10
14.0112809
20
3.7857862
40
2.357163
50
340.3757036
51
341.4497726
0
ARC
8
DEFAULT_255_2_778
10
15.7520216
20
3.162227
40
0.5081172
50
337.8463536
51
340.6813202
0
ARC
8
DEFAULT_255_2_778
10
15.0519515
20
4.7231916
40
2.5417182
50
316.4076932
51
324.22357
0
ARC
8
DEFAULT_255_2_778
10
14.6766675
20
5.0039917
40
3.0103619
50
324.0634211
51
325.8579458
0
ARC
8
DEFAULT_255_2_778
10
14.3043727
20
5.2496875
40
3.4563918
50
325.9507673
51
331.6698796
0
ARC
8
DEFAULT_255_2_778
10
13.9194648
20
5.4620494
40
3.8959775
50
331.607105
51
335.0304063
0
ARC
8
DEFAULT_255_2_778
10
13.9302096
20
5.4583217
40
3.8846636
50
335.0133494
51
337.1373953
0
ARC
8
DEFAULT_255_2_778
10
14.3065608
20
5.3006399
40
3.4766159
50
337.1221212
51
338.9969822
0
ARC
8
DEFAULT_255_2_778
10
15.1478624
20
4.978639
40
2.5757987
50
338.9763117
51
340.5150817
0
ARC
8
DEFAULT_255_2_778
10
16.4242115
20
4.5279232
40
1.2222072
50
340.4759673
51
341.6102025
0
ARC
8
DEFAULT_255_2_778
10
17.470837
20
4.1796362
40
0.1191533
50
341.7598965
51
341.9517186
0
ARC
8
DEFAULT_255_2_778
10
16.1808634
20
3.9497262
40
1.4164735
50
7.8308893
51
28.8650208
0
ARC
8
DEFAULT_255_2_778
10
15.6141592
20
3.6563803
40
2.0544497
50
28.3999798
51
38.0196181
0
ARC
8
DEFAULT_255_2_778
10
15.2969025
20
3.4190037
40
2.4506065
50
37.823153
51
40.3998138
0
ARC
8
DEFAULT_255_2_778
10
15.117569
20
3.2648383
40
2.6870937
50
40.4248452
51
44.797824
0
ARC
8
DEFAULT_255_2_778
10
15.0165739
20
3.1664415
40
2.828091
50
44.7706819
51
47.8439217
0
ARC
8
DEFAULT_255_2_778
10
15.088879
20
3.2469935
40
2.7198485
50
47.8341989
51
49.8791934
0
ARC
8
DEFAULT_255_2_778
10
15.3139531
20
3.5149987
40
2.3698702
50
49.8648914
51
51.702574
0
ARC
8
DEFAULT_255_2_778
10
15.7195589
20
4.0296109
40
1.7146288
50
51.6823037
51
53.2171114
0
ARC
8
DEFAULT_255_2_778
10
16.2834254
20
4.7850529
40
0.7719534
50
53.1621549
51
54.3558392
0
LINE
8
DEFAULT_255_2_778
10
16.2226276
20
2.9706203
11
16.8928276
21
2.9706203
0
LINE
8
DEFAULT_255_2_778
10
16.7332276
20
5.4124203
11
16.7332276
21
5.4124203
0
ARC
8
DEFAULT_255_2_778
10
19.9498077
20
6.0494818
40
4.2703934
50
358.8427781
51
359.4202807
0
ARC
8
DEFAULT_255_2_778
10
20.0002145
20
6.0489513
40
4.2199838
50
359.4205581
51
359.9994339
0
ARC
8
DEFAULT_255_2_778
10
20.1948591
20
6.0511744
40
4.0253398
50
359.9677637
51
4.6498739
0
ARC
8
DEFAULT_255_2_778
10
20.4854212
20
6.0747048
40
3.7338264
50
4.6514378
51
9.5610819
0
ARC
8
DEFAULT_255_2_778
10
20.7126994
20
6.1128524
40
3.5033689
50
9.5632574
51
14.6519558
0
ARC
8
DEFAULT_255_2_778
10
20.8836692
20
6.1573014
40
3.3267158
50
14.6561366
51
19.6041873
0
ARC
8
DEFAULT_255_2_778
10
21.0148601
20
6.203933
40
3.1874839
50
19.6057811
51
24.5038227
0
ARC
8
DEFAULT_255_2_778
10
21.1221044
20
6.2526138
40
3.069708
50
24.5072512
51
28.727098
0
ARC
8
DEFAULT_255_2_778
10
21.2030903
20
6.2965342
40
2.9775802
50
28.7349924
51
31.1402099
0
ARC
8
DEFAULT_255_2_778
10
21.2965325
20
6.353724
40
2.8680279
50
31.1276883
51
35.1112973
0
ARC
8
DEFAULT_255_2_778
10
21.4389934
20
6.4539755
40
2.6938284
50
35.1097943
51
38.5321053
0
ARC
8
DEFAULT_255_2_778
10
21.6106313
20
6.5907018
40
2.4743892
50
38.5313406
51
41.3999374
0
ARC
8
DEFAULT_255_2_778
10
21.830924
20
6.7855135
40
2.180314
50
41.3881486
51
44.2224055
0
ARC
8
DEFAULT_255_2_778
10
22.1173235
20
7.0646873
40
1.7803609
50
44.212158
51
46.7180343
0
ARC
8
DEFAULT_255_2_778
10
22.4640195
20
7.4334909
40
1.2741851
50
46.697483
51
48.9246592
0
ARC
8
DEFAULT_255_2_778
10
22.8696429
20
7.8999257
40
0.65605
50
48.8640713
51
50.8077449
0
ARC
8
DEFAULT_255_2_778
10
23.1834508
20
8.2841176
40
0.1599875
50
50.9618217
51
51.5069562
0
ARC
8
DEFAULT_255_2_778
10
20.1604565
20
1.8239192
40
7.2882231
50
64.6313369
51
66.9170152
0
ARC
8
DEFAULT_255_2_778
10
20.8148746
20
3.3626815
40
5.6160835
50
66.9040678
51
69.5312265
0
ARC
8
DEFAULT_255_2_778
10
21.3242584
20
4.730577
40
4.1564232
50
69.5157049
51
72.4778528
0
ARC
8
DEFAULT_255_2_778
10
21.6928438
20
5.9010276
40
2.9293093
50
72.4600645
51
75.710081
0
ARC
8
DEFAULT_255_2_778
10
21.9418278
20
6.8827431
40
1.9165129
50
75.6791335
51
79.2528528
0
ARC
8
DEFAULT_255_2_778
10
22.0996287
20
7.7235124
40
1.0610666
50
79.1583785
51
83.2989328
0
ARC
8
DEFAULT_255_2_778
10
22.1797574
20
8.4192088
40
0.3607762
50
83.0450066
51
87.1445337
0
ARC
8
DEFAULT_255_2_778
10
19.2160211
20
3.7703412
40
5.8294624
50
59.236902
51
62.2513847
0
ARC
8
DEFAULT_255_2_778
10
19.8548331
20
4.9879633
40
4.454442
50
62.2312096
51
65.922998
0
ARC
8
DEFAULT_255_2_778
10
20.3158801
20
6.0234554
40
3.3209496
50
65.8969709
51
70.4339854
0
ARC
8
DEFAULT_255_2_778
10
20.611946
20
6.8601464
40
2.4334222
50
70.404983
51
75.9404961
0
ARC
8
DEFAULT_255_2_778
10
20.7653365
20
7.4736221
40
1.8010609
50
75.9329962
51
82.257252
0
ARC
8
DEFAULT_255_2_778
10
20.8128462
20
7.8104073
40
1.4609464
50
82.3240398
51
88.3770426
0
ARC
8
DEFAULT_255_2_778
10
20.8129903
20
7.7776896
40
1.4936475
50
88.4181108
51
90.0138155
0
ARC
8
DEFAULT_255_2_778
10
20.7907141
20
8.7828638
40
0.4889647
50
87.4310689
51
89.9992875
0
ARC
8
DEFAULT_255_2_778
10
20.7906683
20
8.7852548
40
0.4865737
50
89.9938914
51
106.272169
0
ARC
8
DEFAULT_255_2_778
10
20.6901258
20
9.151239
40
0.1072481
50
109.4974804
51
154.0704942
0
ARC
8
DEFAULT_255_2_778
10
17.6349903
20
10.7594512
40
3.3453727
50
331.343347
51
332.1791039
0
ARC
8
DEFAULT_255_2_778
10
20.494433
20
9.2025455
40
0.0896996
50
326.7296441
51
328.1002313
0
ARC
8
DEFAULT_255_2_778
10
22.5769925
20
7.630886
40
2.5195564
50
142.8248448
51
144.9071009
0
ARC
8
DEFAULT_255_2_778
10
22.3326283
20
7.8046268
40
2.2197287
50
144.9502699
51
147.8526062
0
ARC
8
DEFAULT_255_2_778
10
22.4109849
20
7.7560785
40
2.3119045
50
147.8671915
51
151.085708
0
ARC
8
DEFAULT_255_2_778
10
22.592226
20
7.6562334
40
2.518828
50
151.0909724
51
154.4089074
0
ARC
8
DEFAULT_255_2_778
10
22.7486528
20
7.5800463
40
2.6928182
50
154.3845399
51
155.5175824
0
ARC
8
DEFAULT_255_2_778
10
22.9660103
20
7.4833075
40
2.9307234
50
155.5573683
51
159.5165543
0
ARC
8
DEFAULT_255_2_778
10
23.3723544
20
7.331534
40
3.3644868
50
159.5168507
51
163.3649253
0
ARC
8
DEFAULT_255_2_778
10
23.8650577
20
7.184084
40
3.8787805
50
163.3615238
51
166.9390254
0
ARC
8
DEFAULT_255_2_778
10
24.4453048
20
7.0492593
40
4.4744854
50
166.9363627
51
170.2763786
0
ARC
8
DEFAULT_255_2_778
10
25.1228657
20
6.9328794
40
5.1619685
50
170.2733723
51
173.3720105
0
ARC
8
DEFAULT_255_2_778
10
25.6373032
20
6.8698462
40
5.680244
50
173.3393865
51
174.3422646
0
ARC
8
DEFAULT_255_2_778
10
20.6850735
20
7.6472128
40
0.7333028
50
197.243528
51
205.5382289
0
ARC
8
DEFAULT_255_2_778
10
21.0562244
20
7.8236406
40
1.1442521
50
205.4972892
51
211.9355192
0
ARC
8
DEFAULT_255_2_778
10
21.5477123
20
8.1275822
40
1.7221259
50
211.8675982
51
216.4883463
0
ARC
8
DEFAULT_255_2_778
10
22.284776
20
8.6769363
40
2.6413894
50
216.5613761
51
221.5002685
0
ARC
8
DEFAULT_255_2_778
10
23.2651661
20
9.5376606
40
3.9459945
50
221.4278443
51
224.7858568
0
ARC
8
DEFAULT_255_2_778
10
24.2282467
20
10.4905324
40
5.3007954
50
224.7625619
51
227.5162432
0
ARC
8
DEFAULT_255_2_778
10
24.8014245
20
11.1102358
40
6.1449222
50
227.4774104
51
229.0227933
0
ARC
8
DEFAULT_255_2_778
10
24.8163364
20
11.1259827
40
6.1665893
50
229.0141356
51
229.9689362
0
ARC
8
DEFAULT_255_2_778
10
24.4899687
20
10.7373377
40
5.6590849
50
229.9681343
51
230.5942501
0
ARC
8
DEFAULT_255_2_778
10
23.8048022
20
9.9017596
40
4.5785099
50
230.5814332
51
231.3040127
0
ARC
8
DEFAULT_255_2_778
10
22.7766829
20
8.61879
40
2.9344174
50
231.3103271
51
231.7241763
0
ARC
8
DEFAULT_255_2_778
10
21.7264344
20
7.2871961
40
1.2384916
50
231.7071444
51
232.0461969
0
ARC
8
DEFAULT_255_2_778
10
21.3927943
20
7.7645689
40
1.5156373
50
233.578122
51
253.5946027
0
ARC
8
DEFAULT_255_2_778
10
21.7737301
20
8.3121535
40
2.1825115
50
225.4080543
51
234.0661255
0
ARC
8
DEFAULT_255_2_778
10
22.012002
20
8.5647565
40
2.5296876
50
224.2648249
51
225.5815801
0
ARC
8
DEFAULT_255_2_778
10
22.1796962
20
8.7248122
40
2.7614931
50
219.4231692
51
224.2144647
0
ARC
8
DEFAULT_255_2_778
10
22.3394105
20
8.8583745
40
2.9696868
50
216.2350648
51
219.4569014
0
ARC
8
DEFAULT_255_2_778
10
22.2903344
20
8.823221
40
2.9093231
50
214.0287258
51
216.247946
0
ARC
8
DEFAULT_255_2_778
10
22.0314642
20
8.6489706
40
2.5972707
50
212.2318313
51
214.0387567
0
ARC
8
DEFAULT_255_2_778
10
21.5281153
20
8.3322442
40
2.0025645
50
210.7191766
51
212.2473192
0
ARC
8
DEFAULT_255_2_778
10
20.7482842
20
7.8697861
40
1.0959209
50
209.4803865
51
210.7607453
0
ARC
8
DEFAULT_255_2_778
10
20.0130587
20
7.453748
40
0.2511466
50
209.0137241
51
209.4010053
0
ARC
8
DEFAULT_255_2_778
10
22.6936926
20
7.6707412
40
2.9199848
50
182.2381818
51
186.6630033
0
ARC
8
DEFAULT_255_2_778
10
23.0421167
20
7.6863783
40
3.2687543
50
179.9846844
51
182.2735515
0
ARC
8
DEFAULT_255_2_778
10
23.4459652
20
7.6841084
40
3.672604
50
176.2056522
51
179.9509573
0
ARC
8
DEFAULT_255_2_778
10
24.0025682
20
7.6484134
40
4.230349
50
173.6677553
51
176.2221307
0
ARC
8
DEFAULT_255_2_778
10
24.6222762
20
7.5804659
40
4.8537705
50
172.0861058
51
173.677399
0
ARC
8
DEFAULT_255_2_778
10
25.2180309
20
7.4993138
40
5.4550251
50
171.6692436
51
172.103405
0
ARC
8
DEFAULT_255_2_778
10
25.3569983
20
7.4793575
40
5.5954177
50
171.6345121
51
171.6732265
0
ARC
8
DEFAULT_255_2_778
10
25.2824224
20
7.4904102
40
5.5200272
50
171.5963311
51
171.6353964
0
ARC
8
DEFAULT_255_2_778
10
25.123579
20
7.5140006
40
5.3594417
50
171.5579063
51
171.5976434
0
ARC
8
DEFAULT_255_2_778
10
25.2159984
20
7.5005137
40
5.4528398
50
171.5217227
51
171.5602947
0
ARC
8
DEFAULT_255_2_778
10
27.0128411
20
7.2326617
40
7.2695369
50
171.4930828
51
171.5216565
0
ARC
8
DEFAULT_255_2_778
10
27.2779176
20
7.1918402
40
7.5377357
50
171.4570513
51
171.4842662
0
ARC
8
DEFAULT_255_2_778
10
24.7675252
20
7.5691072
40
4.9991534
50
171.4183654
51
171.4588904
0
ARC
8
DEFAULT_255_2_778
10
24.8657082
20
7.5546765
40
5.0983904
50
171.3834113
51
171.4226537
0
ARC
8
DEFAULT_255_2_778
10
27.1303628
20
7.2116745
40
7.3888731
50
171.3579397
51
171.3846807
0
ARC
8
DEFAULT_255_2_778
10
24.5849549
20
7.5987229
40
4.8142066
50
171.319527
51
171.3600589
0
ARC
8
DEFAULT_255_2_778
10
27.2508491
20
7.1920206
40
7.510945
50
171.2961865
51
171.3218425
0
ARC
8
DEFAULT_255_2_778
10
27.0249822
20
7.2256326
40
7.2825928
50
171.2625436
51
171.2886747
0
ARC
8
DEFAULT_255_2_778
10
26.8145879
20
7.257977
40
7.069727
50
171.236031
51
171.2626137
0
ARC
8
DEFAULT_255_2_778
10
26.1026788
20
7.3672316
40
6.3494832
50
171.2023746
51
171.231604
0
ARC
8
DEFAULT_255_2_778
10
26.4072154
20
7.3204996
40
6.6575844
50
171.1782459
51
171.2057752
0
ARC
8
DEFAULT_255_2_778
10
26.2101528
20
7.3507022
40
6.458221
50
171.1468808
51
171.1749062
0
ARC
8
DEFAULT_255_2_778
10
26.5630037
20
7.2962453
40
6.8152491
50
171.1248276
51
171.1510537
0
ARC
8
DEFAULT_255_2_778
10
26.3610537
20
7.3273304
40
6.6109211
50
171.0942766
51
171.1209761
0
ARC
8
DEFAULT_255_2_778
10
33.8650337
20
6.1500776
40
14.2066856
50
171.0764577
51
171.088727
0
ARC
8
DEFAULT_255_2_778
10
25.9865013
20
7.3865093
40
6.2317226
50
171.04311
51
171.0707316
0
ARC
8
DEFAULT_255_2_778
10
25.8052552
20
7.4150892
40
6.048237
50
171.0151283
51
171.0432326
0
ARC
8
DEFAULT_255_2_778
10
26.1823483
20
7.3563993
40
6.4298691
50
170.9972402
51
171.0233463
0
ARC
8
DEFAULT_255_2_778
10
25.9955632
20
7.385966
40
6.2407582
50
170.9704395
51
170.9970008
0
ARC
8
DEFAULT_255_2_778
10
34.3205964
20
6.0621844
40
14.6703831
50
170.9561085
51
170.9672665
0
ARC
8
DEFAULT_255_2_778
10
25.6504568
20
7.4421315
40
5.8911135
50
170.9279272
51
170.9553662
0
ARC
8
DEFAULT_255_2_778
10
25.4812706
20
7.4694556
40
5.7197353
50
170.9030797
51
170.9309877
0
ARC
8
DEFAULT_255_2_778
10
36.6261621
20
5.6847769
40
17.0066164
50
170.8932431
51
170.9025119
0
ARC
8
DEFAULT_255_2_778
10
36.0305298
20
5.7766501
40
16.4039511
50
170.8713256
51
170.8808148
0
ARC
8
DEFAULT_255_2_778
10
25.548965
20
7.4610317
40
5.7879094
50
170.8460018
51
170.8725596
0
ARC
8
DEFAULT_255_2_778
10
26.016936
20
7.3861315
40
6.2618361
50
170.8263594
51
170.8506002
0
ARC
8
DEFAULT_255_2_778
10
25.8419299
20
7.4149528
40
6.0844735
50
170.8069222
51
170.8315576
0
ARC
8
DEFAULT_255_2_778
10
25.6729385
20
7.4429841
40
5.9131744
50
170.7884096
51
170.8134416
0
ARC
8
DEFAULT_255_2_778
10
25.5097797
20
7.4702454
40
5.7477557
50
170.7708659
51
170.7962961
0
ARC
8
DEFAULT_255_2_778
10
32.8532594
20
6.2765904
40
13.1876149
50
170.7525875
51
170.7689855
0
ARC
8
DEFAULT_255_2_778
10
27.0344001
20
7.2237914
40
7.2921664
50
170.7220093
51
170.7511084
0
ARC
8
DEFAULT_255_2_778
10
33.2348958
20
6.2107692
40
13.5748698
50
170.7062645
51
170.7216029
0
ARC
8
DEFAULT_255_2_778
10
34.539538
20
5.9951658
40
14.8972057
50
170.6845541
51
170.698269
0
ARC
8
DEFAULT_255_2_778
10
33.8529858
20
6.1063349
40
14.2017128
50
170.6646714
51
170.6787883
0
ARC
8
DEFAULT_255_2_778
10
26.8428342
20
7.258648
40
7.0974851
50
170.6363
51
170.6640175
0
ARC
8
DEFAULT_255_2_778
10
37.9336782
20
5.4301585
40
18.3380454
50
170.6269122
51
170.6374388
0
ARC
8
DEFAULT_255_2_778
10
37.0491923
20
5.5736835
40
17.4419937
50
170.6080344
51
170.6188943
0
ARC
8
DEFAULT_255_2_778
10
32.1133278
20
6.3900158
40
12.4390791
50
170.5902318
51
170.6076539
0
ARC
8
DEFAULT_255_2_778
10
31.488982
20
6.4936361
40
11.8061929
50
170.5730006
51
170.5909555
0
LINE
8
DEFAULT_255_2_778
10
19.8422309
20
8.4273824
11
19.8425704
21
8.429426
0
LINE
8
DEFAULT_255_2_778
10
19.8425704
20
8.429426
11
19.842906
21
8.431444
0
LINE
8
DEFAULT_255_2_778
10
19.842906
20
8.431444
11
19.8432377
21
8.4334367
0
ARC
8
DEFAULT_255_2_778
10
40.7512823
20
4.950844
40
21.1961029
50
170.5331376
51
170.5432274
0
ARC
8
DEFAULT_255_2_778
10
-2587.1958446
20
445.0320549
40
2643.3446833
50
350.4930283
51
350.4942777
0
ARC
8
DEFAULT_255_2_778
10
16.7786732
20
9.0148526
40
3.1185075
50
350.3847912
51
351.4869708
0
ARC
8
DEFAULT_255_2_778
10
19.3378225
20
8.6348761
40
0.5313135
50
351.1578522
51
355.4165095
0
ARC
8
DEFAULT_255_2_778
10
19.7305277
20
8.6019929
40
0.1372436
50
355.9994247
51
359.7219438
0
ARC
8
DEFAULT_255_2_778
10
19.8172292
20
8.6020141
40
0.0505452
50
359.2210351
51
7.9408774
0
ARC
8
DEFAULT_255_2_778
10
19.8536158
20
8.6072588
40
0.0137842
50
7.244194
51
24.7844083
0
ARC
8
DEFAULT_255_2_778
10
19.8624217
20
8.601884
40
0.0117535
50
71.6082079
51
90.4466576
0
ARC
8
DEFAULT_255_2_778
10
19.8622385
20
8.601884
40
0.0117535
50
89.5533424
51
108.3917921
0
ARC
8
DEFAULT_255_2_778
10
20.7635999
20
1.4709054
40
7.1992497
50
97.2221775
51
100.1422079
0
ARC
8
DEFAULT_255_2_778
10
20.7873582
20
1.3365472
40
7.3356921
50
100.1400808
51
102.5626786
0
ARC
8
DEFAULT_255_2_778
10
20.8052314
20
1.2556104
40
7.4185787
50
102.5614501
51
104.887003
0
ARC
8
DEFAULT_255_2_778
10
20.8087423
20
1.2416387
40
7.4329834
50
104.8854884
51
106.9517962
0
ARC
8
DEFAULT_255_2_778
10
20.7872242
20
1.3115638
40
7.3598224
50
106.9502761
51
108.8756317
0
LINE
8
DEFAULT_255_2_778
10
18.4062112
20
8.2755974
11
18.4061019
21
8.2755601
0
ARC
8
DEFAULT_255_2_778
10
20.7294761
20
1.4798829
40
7.1818727
50
108.8750463
51
110.6053346
0
ARC
8
DEFAULT_255_2_778
10
20.6171378
20
1.7775092
40
6.8637514
50
110.6019255
51
112.3661865
0
ARC
8
DEFAULT_255_2_778
10
20.4217269
20
2.2514008
40
6.3511516
50
112.3627327
51
114.0231828
0
ARC
8
DEFAULT_255_2_778
10
20.131356
20
2.9022261
40
5.6384886
50
114.020498
51
115.4868076
0
ARC
8
DEFAULT_255_2_778
10
19.7553715
20
3.6907935
40
4.7648737
50
115.4859401
51
116.7136748
0
ARC
8
DEFAULT_255_2_778
10
19.3513958
20
4.4943852
40
3.8654539
50
116.7193562
51
117.5932585
0
ARC
8
DEFAULT_255_2_778
10
18.8589366
20
5.4341662
40
2.8044627
50
117.569823
51
118.6549061
0
ARC
8
DEFAULT_255_2_778
10
18.1884176
20
6.6596301
40
1.407553
50
118.6245396
51
119.5879406
0
ARC
8
DEFAULT_255_2_778
10
17.6428306
20
7.6212144
40
0.3019721
50
119.6541314
51
119.9593313
0
ARC
8
DEFAULT_255_2_778
10
18.5251164
20
6.2749603
40
1.9111607
50
122.7213856
51
135.6247641
0
ARC
8
DEFAULT_255_2_778
10
19.3735546
20
5.4278701
40
3.1100431
50
135.4014822
51
143.467171
0
ARC
8
DEFAULT_255_2_778
10
20.2563736
20
4.7573848
40
4.2185515
50
143.287643
51
147.4208326
0
ARC
8
DEFAULT_255_2_778
10
20.7486151
20
4.4384478
40
4.8050756
50
147.3767468
51
149.8884975
0
ARC
8
DEFAULT_255_2_778
10
20.8359596
20
4.3864136
40
4.9067377
50
149.874569
51
151.7281601
0
ARC
8
DEFAULT_255_2_778
10
20.5524999
20
4.5385659
40
4.585024
50
151.7249095
51
152.9258286
0
ARC
8
DEFAULT_255_2_778
10
19.9050186
20
4.8685588
40
3.8583009
50
152.9129796
51
154.1020728
0
ARC
8
DEFAULT_255_2_778
10
18.8251657
20
5.3926029
40
2.6580075
50
154.0971071
51
154.9757931
0
ARC
8
DEFAULT_255_2_778
10
17.444274
20
6.0363584
40
1.1344321
50
154.9357364
51
155.6532442
0
ARC
8
DEFAULT_255_2_778
10
16.8982618
20
6.2432978
40
0.5528762
50
151.8614545
51
153.6673621
0
ARC
8
DEFAULT_255_2_778
10
17.6407893
20
5.8730639
40
1.3825858
50
153.5660618
51
155.679379
0
ARC
8
DEFAULT_255_2_778
10
18.3350274
20
5.5583171
40
2.1448401
50
155.6553897
51
158.0295133
0
ARC
8
DEFAULT_255_2_778
10
18.9220169
20
5.3201769
40
2.7782959
50
158.0040263
51
160.2218367
0
ARC
8
DEFAULT_255_2_778
10
19.4409923
20
5.1337093
40
3.3297534
50
160.2242922
51
162.888161
0
ARC
8
DEFAULT_255_2_778
10
19.8003942
20
5.0211058
40
3.706378
50
162.8592657
51
164.1135956
0
ARC
8
DEFAULT_255_2_778
10
20.056439
20
4.9486573
40
3.972475
50
164.1194516
51
165.995662
0
ARC
8
DEFAULT_255_2_778
10
20.3590038
20
4.873328
40
4.2842761
50
165.9973869
51
168.1724439
0
ARC
8
DEFAULT_255_2_778
10
20.6359315
20
4.8149472
40
4.5672905
50
168.1676718
51
170.0300613
0
ARC
8
DEFAULT_255_2_778
10
20.8775836
20
4.772439
40
4.8126527
50
170.0297198
51
171.9349987
0
ARC
8
DEFAULT_255_2_778
10
12.908676
20
5.901412
40
3.2358295
50
350.3808469
51
351.9385849
0
ARC
8
DEFAULT_255_2_778
10
10.0738848
20
6.3830043
40
6.1112376
50
348.9977687
51
350.3702309
0
ARC
8
DEFAULT_255_2_778
10
5.5359258
20
7.2602156
40
10.7332023
50
348.1225654
51
349.0242938
0
ARC
8
DEFAULT_255_2_778
10
1.2449638
20
8.1559009
40
15.1166455
50
347.7455457
51
348.1477776
0
ARC
8
DEFAULT_255_2_778
10
-2.9167617
20
9.0619461
40
19.3758561
50
347.2036691
51
347.7394564
0
ARC
8
DEFAULT_255_2_778
10
-6.0865368
20
9.7787012
40
22.6256567
50
346.9122721
51
347.2115385
0
ARC
8
DEFAULT_255_2_778
10
-6.2370851
20
9.8129128
40
22.7800416
50
346.7297491
51
346.9142027
0
ARC
8
DEFAULT_255_2_778
10
-3.7848367
20
9.2339548
40
20.2603759
50
346.5554523
51
346.7314426
0
ARC
8
DEFAULT_255_2_778
10
1.7214238
20
7.9173817
40
14.5989035
50
346.4302355
51
346.5564898
0
ARC
8
DEFAULT_255_2_778
10
9.9020074
20
5.9419946
40
6.1831978
50
346.3329949
51
346.438025
0
ARC
8
DEFAULT_255_2_778
10
15.9189804
20
4.5835311
40
0.1028754
50
265.0647689
51
270.0006033
0
ARC
8
DEFAULT_255_2_778
10
15.9189304
20
4.5839404
40
0.1032848
50
270.0283726
51
310.954993
0
ARC
8
DEFAULT_255_2_778
10
22.9599691
20
1.8074815
40
7.47724
50
156.4706616
51
158.8451816
0
ARC
8
DEFAULT_255_2_778
10
21.9435876
20
2.2511218
40
6.3682554
50
153.8629046
51
156.479621
0
ARC
8
DEFAULT_255_2_778
10
20.9408341
20
2.7438105
40
5.2510016
50
151.205973
51
153.869169
0
ARC
8
DEFAULT_255_2_778
10
19.9738154
20
3.2761743
40
4.1471285
50
148.5016396
51
151.2165322
0
ARC
8
DEFAULT_255_2_778
10
19.0208513
20
3.8613583
40
3.0288355
50
145.7476826
51
148.5217091
0
ARC
8
DEFAULT_255_2_778
10
18.0744442
20
4.5074004
40
1.8829499
50
143.0043041
51
145.7879348
0
ARC
8
DEFAULT_255_2_778
10
17.1054763
20
5.2413273
40
0.667417
50
139.8159318
51
143.269745
0
ARC
8
DEFAULT_255_2_778
10
16.6081017
20
5.6621219
40
0.0159287
50
131.5806049
51
141.7880304
0
ARC
8
DEFAULT_255_2_778
10
15.8533589
20
3.8855358
40
1.9371442
50
58.5871874
51
67.4084651
0
ARC
8
DEFAULT_255_2_778
10
15.9155541
20
3.9891789
40
1.8162757
50
47.8871122
51
58.557557
0
ARC
8
DEFAULT_255_2_778
10
15.8761796
20
3.9505285
40
1.8713547
50
34.7118857
51
47.7863733
0
ARC
8
DEFAULT_255_2_778
10
15.5924662
20
3.7605308
40
2.2127752
50
21.3691153
51
34.5726417
0
ARC
8
DEFAULT_255_2_778
10
15.2202945
20
3.6035455
40
2.6165838
50
17.9910909
51
21.6008527
0
ARC
8
DEFAULT_255_2_778
10
14.8787531
20
3.4964252
40
2.9745137
50
11.4614741
51
17.921574
0
ARC
8
DEFAULT_255_2_778
10
14.4407707
20
3.4049142
40
3.4219472
50
7.1985499
51
11.5059299
0
ARC
8
DEFAULT_255_2_778
10
14.1320918
20
3.364595
40
3.7332455
50
4.1902667
51
7.2188295
0
ARC
8
DEFAULT_255_2_778
10
13.9528198
20
3.3509195
40
3.9130374
50
1.7188057
51
4.19817
0
ARC
8
DEFAULT_255_2_778
10
13.9058585
20
3.3491486
40
3.9600307
50
0.0008974
51
1.7240364
0
ARC
8
DEFAULT_255_2_778
10
13.9605568
20
3.3490723
40
3.9053325
50
358.8453422
51
0.0020307
0
ARC
8
DEFAULT_255_2_778
10
14.0658254
20
3.346937
40
3.8000423
50
357.9574792
51
358.8455456
0
ARC
8
DEFAULT_255_2_778
10
14.2242575
20
3.3411848
40
3.6415059
50
357.0168131
51
357.9590821
0
ARC
8
DEFAULT_255_2_778
10
14.4458636
20
3.3296917
40
3.4196021
50
356.2721147
51
357.0158831
0
ARC
8
DEFAULT_255_2_778
10
14.708239
20
3.3125742
40
3.1566688
50
355.5636927
51
356.2725168
0
ARC
8
DEFAULT_255_2_778
10
15.0268553
20
3.2877954
40
2.8370906
50
354.9167818
51
355.5648914
0
ARC
8
DEFAULT_255_2_778
10
15.3676086
20
3.2575318
40
2.4949959
50
354.4063062
51
354.9157017
0
ARC
8
DEFAULT_255_2_778
10
15.7435817
20
3.2206042
40
2.1172135
50
353.8563186
51
354.4091319
0
ARC
8
DEFAULT_255_2_778
10
16.1585388
20
3.1759804
40
1.6998641
50
353.4095522
51
353.8548983
0
ARC
8
DEFAULT_255_2_778
10
16.6110492
20
3.123618
40
1.2443342
50
352.9705551
51
353.4132871
0
ARC
8
DEFAULT_255_2_778
10
15.7367714
20
4.1862915
40
3.037522
50
336.4229423
51
346.0430953
0
ARC
8
DEFAULT_255_2_778
10
14.1602827
20
4.5963384
40
4.6664024
50
345.8257093
51
351.4108577
0
ARC
8
DEFAULT_255_2_778
10
13.0787853
20
4.7701968
40
5.7617453
50
351.3075466
51
354.1420817
0
ARC
8
DEFAULT_255_2_778
10
12.7799141
20
4.8030815
40
6.0624124
50
354.121199
51
355.982908
0
ARC
8
DEFAULT_255_2_778
10
13.0782618
20
4.7826277
40
5.7633649
50
355.9779678
51
357.1703997
0
ARC
8
DEFAULT_255_2_778
10
13.9266657
20
4.7417733
40
4.9139787
50
357.1578359
51
358.3283134
0
ARC
8
DEFAULT_255_2_778
10
15.4171731
20
4.698605
40
3.4228465
50
358.3227621
51
359.1814899
0
ARC
8
DEFAULT_255_2_778
10
17.359661
20
4.671849
40
1.4801751
50
359.142953
51
359.8369626
0
ARC
8
DEFAULT_255_2_778
10
20.7043268
20
0.5134161
40
4.5534492
50
111.8095157
51
114.1714873
0
ARC
8
DEFAULT_255_2_778
10
20.5369059
20
0.9323653
40
4.1022862
50
109.1685266
51
111.8124673
0
ARC
8
DEFAULT_255_2_778
10
20.4066864
20
1.3066304
40
3.7060143
50
106.5052035
51
109.1668155
0
ARC
8
DEFAULT_255_2_778
10
20.3106759
20
1.6307683
40
3.3679559
50
103.6760627
51
106.5057848
0
ARC
8
DEFAULT_255_2_778
10
20.2388838
20
1.9266402
40
3.0634987
50
100.4662564
51
103.6797459
0
ARC
8
DEFAULT_255_2_778
10
20.1877607
20
2.2049482
40
2.7805343
50
96.6850613
51
100.4721063
0
ARC
8
DEFAULT_255_2_778
10
20.1587351
20
2.4528183
40
2.5309704
50
92.5697041
51
96.685667
0
ARC
8
DEFAULT_255_2_778
10
20.1504862
20
2.6179127
40
2.3656725
50
90.0098882
51
92.5493946
0
ARC
8
DEFAULT_255_2_778
10
20.1528658
20
2.8035869
40
2.1800001
50
82.3037743
51
90.0732722
0
ARC
8
DEFAULT_255_2_778
10
20.1762477
20
2.9802427
40
2.0018044
50
73.1758749
51
82.2898461
0
ARC
8
DEFAULT_255_2_778
10
20.1881907
20
3.024865
40
1.9556359
50
62.4910472
51
73.132414
0
ARC
8
DEFAULT_255_2_778
10
20.1218709
20
2.9040553
40
2.0934213
50
50.8546043
51
62.4083604
0
ARC
8
DEFAULT_255_2_778
10
19.8965332
20
2.6295844
40
2.4485403
50
40.7222214
51
50.8197609
0
ARC
8
DEFAULT_255_2_778
10
19.5617361
20
2.3363531
40
2.8935813
50
34.498224
51
40.7977712
0
ARC
8
DEFAULT_255_2_778
10
19.2495263
20
2.1197131
40
3.2735881
50
29.9390512
51
34.5282037
0
ARC
8
DEFAULT_255_2_778
10
19.0092537
20
1.979941
40
3.5515556
50
26.6614478
51
29.9585001
0
ARC
8
DEFAULT_255_2_778
10
18.8689799
20
1.9089281
40
3.7087793
50
23.8946331
51
26.6694661
0
ARC
8
DEFAULT_255_2_778
10
18.8489849
20
1.8996341
40
3.7308252
50
21.8106785
51
23.9007508
0
ARC
8
DEFAULT_255_2_778
10
18.964567
20
1.9455369
40
3.6064623
50
19.9305646
51
21.8158658
0
ARC
8
DEFAULT_255_2_778
10
19.2134205
20
2.0357573
40
3.341759
50
18.5543657
51
19.9307819
0
ARC
8
DEFAULT_255_2_778
10
19.5188881
20
2.1384653
40
3.0194869
50
17.6151246
51
18.551171
0
ARC
8
DEFAULT_255_2_778
10
19.9129914
20
2.2630984
40
2.6061463
50
16.4801482
51
17.6255671
0
ARC
8
DEFAULT_255_2_778
10
20.1576001
20
2.3363763
40
2.350799
50
15.7990209
51
16.4587957
0
ARC
8
DEFAULT_255_2_778
10
34.3986637
20
6.3668689
40
12.4496323
50
195.8031868
51
195.8274697
0
ARC
8
DEFAULT_255_2_778
10
22.6135387
20
2.9407832
40
0.4825596
50
3.6301893
51
8.9987334
0
ARC
8
DEFAULT_255_2_778
10
20.8726088
20
2.6817863
40
2.2426327
50
8.5773252
51
10.9180082
0
ARC
8
DEFAULT_255_2_778
10
17.9471474
20
2.1296249
40
5.2197363
50
10.7870836
51
11.9963121
0
ARC
8
DEFAULT_255_2_778
10
14.604178
20
1.4201853
40
8.6371547
50
11.9904357
51
13.1918514
0
ARC
8
DEFAULT_255_2_778
10
11.6846714
20
0.7391833
40
11.6350332
50
13.1759143
51
14.3330388
0
ARC
8
DEFAULT_255_2_778
10
10.4015675
20
0.4138937
40
12.9587263
50
14.3220832
51
15.653018
0
ARC
8
DEFAULT_255_2_778
10
11.3632383
20
0.6912656
40
11.9578852
50
15.6165272
51
18.0943924
0
ARC
8
DEFAULT_255_2_778
10
12.872799
20
1.1747001
40
10.3728356
50
18.1458596
51
18.3418243
0
ARC
8
DEFAULT_255_2_778
10
14.7421955
20
1.8122923
40
8.397788
50
18.2263286
51
21.726681
0
ARC
8
DEFAULT_255_2_778
10
17.2927732
20
2.8202862
40
5.6552694
50
21.8055531
51
24.4171404
0
ARC
8
DEFAULT_255_2_778
10
18.2038254
20
3.2274206
40
4.6574054
50
24.4895702
51
24.928241
0
ARC
8
DEFAULT_255_2_778
10
24.3486678
20
6.0840068
40
2.1189632
50
201.2263335
51
204.9420493
0
ARC
8
DEFAULT_255_2_778
10
23.9505036
20
5.9299298
40
1.6920276
50
196.7452551
51
201.2443631
0
ARC
8
DEFAULT_255_2_778
10
23.6132959
20
5.8287572
40
1.3399697
50
191.5672618
51
196.756925
0
ARC
8
DEFAULT_255_2_778
10
23.3382851
20
5.7728472
40
1.0593337
50
185.3805544
51
191.587285
0
ARC
8
DEFAULT_255_2_778
10
23.1460149
20
5.7539994
40
0.8661435
50
180.0729776
51
185.3319001
0
ARC
8
DEFAULT_255_2_778
10
22.9821455
20
5.7553916
40
0.702278
50
170.4107929
51
180.2035871
0
ARC
8
DEFAULT_255_2_778
10
22.8427692
20
5.7790656
40
0.5609055
50
158.5431717
51
170.4236144
0
ARC
8
DEFAULT_255_2_778
10
22.7634924
20
5.8099013
40
0.4758437
50
145.6868609
51
158.5069387
0
ARC
8
DEFAULT_255_2_778
10
22.7273885
20
5.8337901
40
0.4325568
50
137.3981807
51
145.6046145
0
ARC
8
DEFAULT_255_2_778
10
22.6968576
20
5.8625324
40
0.3906283
50
127.2696403
51
137.4700688
0
ARC
8
DEFAULT_255_2_778
10
22.6441701
20
5.9327639
40
0.3028332
50
118.3261363
51
127.3834357
0
ARC
8
DEFAULT_255_2_778
10
22.5728701
20
6.0678624
40
0.1500861
50
107.902233
51
118.8378295
0
ARC
8
DEFAULT_255_2_778
10
22.5420227
20
6.1598413
40
0.0530892
50
102.1707709
51
106.7363638
0
ARC
8
DEFAULT_255_2_778
10
22.6570338
20
5.4962247
40
0.7265573
50
92.2573464
51
100.003072
0
ARC
8
DEFAULT_255_2_778
10
22.6605915
20
5.4306
40
0.7922718
50
89.9908281
51
92.3275031
0
ARC
8
DEFAULT_255_2_778
10
22.6321312
20
5.0933377
40
1.1298959
50
65.2948444
51
88.550224
0
ARC
8
DEFAULT_255_2_778
10
22.4835456
20
4.7043492
40
1.545628
50
61.0734237
51
66.3177066
0
ARC
8
DEFAULT_255_2_778
10
22.4966672
20
4.7271688
40
1.5193088
50
58.8548553
51
61.0902808
0
ARC
8
DEFAULT_255_2_778
10
22.6247039
20
4.9391267
40
1.2716811
50
58.7704395
51
58.8528375
0
ARC
8
DEFAULT_255_2_778
10
22.9292395
20
5.4994116
40
0.6354036
50
12.5775301
51
56.0568156
0
ARC
8
DEFAULT_255_2_778
10
21.0514197
20
4.9236283
40
2.5980546
50
10.297107
51
15.9547672
0
ARC
8
DEFAULT_255_2_778
10
10.3518008
20
2.8618411
40
13.4943943
50
10.3444228
51
10.7896206
0
ARC
8
DEFAULT_255_2_778
10
50.5027103
20
10.1259876
40
27.3083674
50
190.2109375
51
190.7247674
0
ARC
8
DEFAULT_255_2_778
10
27.0948065
20
5.6440242
40
3.4756146
50
189.9389659
51
198.4657837
0
ARC
8
DEFAULT_255_2_778
10
24.9107621
20
4.9184713
40
1.1742153
50
198.6401827
51
213.9392999
0
ARC
8
DEFAULT_255_2_778
10
24.3745501
20
4.5411477
40
0.5188728
50
212.4302981
51
267.117971
0
ARC
8
DEFAULT_255_2_778
10
24.3818233
20
4.6449555
40
0.6229184
50
266.9299128
51
270.0190205
0
ARC
8
DEFAULT_255_2_778
10
24.3850313
20
4.6716267
40
0.6495965
50
269.7352892
51
287.1792635
0
ARC
8
DEFAULT_255_2_778
10
24.3880644
20
4.6505774
40
0.6285992
50
287.481822
51
308.9140767
0
ARC
8
DEFAULT_255_2_778
10
24.3259332
20
4.7281495
40
0.7279853
50
308.883876
51
323.4955566
0
ARC
8
DEFAULT_255_2_778
10
24.299268
20
4.7508133
40
0.7629052
50
323.3187172
51
332.8202364
0
ARC
8
DEFAULT_255_2_778
10
24.4369043
20
4.681881
40
0.6089818
50
332.6744616
51
340.684584
0
ARC
8
DEFAULT_255_2_778
10
24.7223294
20
4.5842195
40
0.3073276
50
340.2659886
51
350.5749992
0
ARC
8
DEFAULT_255_2_778
10
24.9148985
20
4.5510893
40
0.1119386
50
351.1629036
51
359.3590472
0
ARC
8
DEFAULT_255_2_778
10
24.3188865
20
5.184931
40
0.8631253
50
304.9050423
51
315.1807009
0
ARC
8
DEFAULT_255_2_778
10
24.3971001
20
5.0782798
40
0.7309118
50
303.4851814
51
304.6608296
0
ARC
8
DEFAULT_255_2_778
10
24.4925819
20
4.9203721
40
0.5465844
50
286.8571991
51
304.2699807
0
ARC
8
DEFAULT_255_2_778
10
24.5620023
20
4.6986984
40
0.3143123
50
270.6276546
51
286.4643964
0
ARC
8
DEFAULT_255_2_778
10
24.5653084
20
4.6235593
40
0.2391544
50
265.8328914
51
270.0328105
0
ARC
8
DEFAULT_255_2_778
10
24.5735532
20
4.6308059
40
0.2471008
50
206.7080441
51
264.0480148
0
ARC
8
DEFAULT_255_2_778
10
24.9104746
20
4.8317581
40
0.6390099
50
194.8389785
51
209.2270402
0
ARC
8
DEFAULT_255_2_778
10
25.7064364
20
5.055242
40
1.4657115
50
187.9689768
51
195.3151882
0
ARC
8
DEFAULT_255_2_778
10
27.2096822
20
5.2760804
40
2.9850749
50
184.045195
51
188.1666856
0
ARC
8
DEFAULT_255_2_778
10
29.7728847
20
5.4649571
40
5.5552212
50
181.5751616
51
184.1234704
0
ARC
8
DEFAULT_255_2_778
10
34.1159837
20
5.5902359
40
9.9001244
50
179.9242332
51
181.6090008
0
ARC
8
DEFAULT_255_2_778
10
38.4082907
20
5.6022127
40
14.1924229
50
179.6515602
51
179.995499
0
ARC
8
DEFAULT_255_2_778
10
41.0879308
20
5.5852125
40
16.8721169
50
179.2521781
51
179.6491695
0
ARC
8
DEFAULT_255_2_778
10
44.699138
20
5.5385388
40
20.4836258
50
178.9226138
51
179.2534712
0
ARC
8
DEFAULT_255_2_778
10
47.4618502
20
5.4886378
40
23.2467878
50
178.827474
51
178.9276778
0
ARC
8
DEFAULT_255_2_778
10
23.35432
20
7.2589227
40
0.1618856
50
202.474946
51
270.0389608
0
ARC
8
DEFAULT_255_2_778
10
23.3542013
20
7.2592626
40
0.1619063
50
183.4064869
51
202.6021511
0
ARC
8
DEFAULT_255_2_778
10
23.3540216
20
7.2592324
40
0.1617249
50
179.9986715
51
183.3996163
0
ARC
8
DEFAULT_255_2_778
10
23.3537541
20
7.2593261
40
0.1614575
50
134.8777898
51
180.0319118
0
ARC
8
DEFAULT_255_2_778
10
23.3548885
20
7.2582021
40
0.1630546
50
90.0461413
51
134.8815666
0
ARC
8
DEFAULT_255_2_778
10
23.3547617
20
7.2596595
40
0.161597
50
86.6960522
51
90.0016081
0
ARC
8
DEFAULT_255_2_778
10
23.3547564
20
7.2597227
40
0.1615342
50
67.4780177
51
86.6928652
0
ARC
8
DEFAULT_255_2_778
10
23.3547446
20
7.2593472
40
0.1618857
50
359.9610392
51
67.525054
0
ARC
8
DEFAULT_255_2_778
10
23.354455
20
7.2592123
40
0.1621751
50
269.991218
51
0.0087497
0
LINE
8
DEFAULT_255_2_778
10
17.8460301
20
2.9713371
11
18.5207301
21
2.9713371
0
LINE
8
DEFAULT_255_2_778
10
22.4210301
20
2.9713371
11
23.0951301
21
2.9713371
0
LINE
8
DEFAULT_255_2_778
10
25.0268301
20
4.5498371
11
24.9311301
21
4.5765371
0
LINE
8
DEFAULT_255_2_778
10
24.2199301
20
5.9643371
11
24.2193301
21
5.9632371
0
LINE
8
DEFAULT_255_2_778
10
23.3544301
20
7.0970371
11
23.3544301
21
7.0970371
0
ARC
8
DEFAULT_255_2_778
10
15.3459643
20
3.7650243
40
1.9025934
50
34.4281217
51
44.2777066
0
ARC
8
DEFAULT_255_2_778
10
15.0533149
20
3.5622886
40
2.2586028
50
27.4565191
51
34.4729702
0
ARC
8
DEFAULT_255_2_778
10
14.6729644
20
3.3660674
40
2.6865842
50
20.0627995
51
27.4298352
0
ARC
8
DEFAULT_255_2_778
10
14.3329158
20
3.2382073
40
3.049862
50
15.3500967
51
20.1275672
0
ARC
8
DEFAULT_255_2_778
10
14.2566003
20
3.215713
40
3.1294099
50
12.1867707
51
15.3773752
0
ARC
8
DEFAULT_255_2_778
10
14.4781822
20
3.262708
40
2.9029009
50
9.6709818
51
12.2033453
0
ARC
8
DEFAULT_255_2_778
10
15.0019581
20
3.3516973
40
2.3716193
50
7.8626446
51
9.6773734
0
ARC
8
DEFAULT_255_2_778
10
15.8442918
20
3.466878
40
1.5214483
50
6.2525154
51
7.9052826
0
ARC
8
DEFAULT_255_2_778
10
16.8355837
20
3.5756378
40
0.5242081
50
5.413671
51
6.2360436
0
ARC
8
DEFAULT_255_2_778
10
14.2166378
20
5.3206492
40
3.5692617
50
331.6378174
51
340.6972409
0
ARC
8
DEFAULT_255_2_778
10
16.1844676
20
3.9487219
40
1.4138929
50
7.8075873
51
28.2906799
0
ARC
8
DEFAULT_255_2_778
10
15.6345538
20
3.6695275
40
2.0304986
50
27.8735344
51
37.5927965
0
ARC
8
DEFAULT_255_2_778
10
15.3068083
20
3.4275813
40
2.4378052
50
37.3993746
51
40.3714869
0
ARC
8
DEFAULT_255_2_778
10
15.118253
20
3.2660482
40
2.6860899
50
40.3913407
51
44.7716146
0
ARC
8
DEFAULT_255_2_778
10
15.0182162
20
3.1686869
40
2.8256782
50
44.7445356
51
47.8238237
0
ARC
8
DEFAULT_255_2_778
10
15.0912255
20
3.2499543
40
2.7164329
50
47.8141648
51
49.863774
0
ARC
8
DEFAULT_255_2_778
10
15.3161972
20
3.5176901
40
2.3667268
50
49.8494819
51
51.6912923
0
ARC
8
DEFAULT_255_2_778
10
15.7217372
20
4.0320118
40
1.7117543
50
51.6709687
51
53.2096621
0
ARC
8
DEFAULT_255_2_778
10
16.2844241
20
4.7856761
40
0.7712091
50
53.1544618
51
54.3502568
0
ARC
8
DEFAULT_255_2_778
10
18.5880553
20
1.3645813
40
5.513745
50
60.8262414
51
61.2233434
0
ARC
8
DEFAULT_255_2_778
10
19.8187515
20
3.5076484
40
3.042768
50
52.5451336
51
61.3896029
0
ARC
8
DEFAULT_255_2_778
10
19.9588595
20
3.7248655
40
2.7852073
50
46.6057966
51
52.1156944
0
ARC
8
DEFAULT_255_2_778
10
19.2842213
20
3.0107892
40
3.7675726
50
42.9016272
51
46.6112496
0
ARC
8
DEFAULT_255_2_778
10
18.0329094
20
1.8432767
40
5.4789636
50
40.5246148
51
42.9372893
0
ARC
8
DEFAULT_255_2_778
10
16.1802952
20
0.2545516
40
7.9194998
50
38.9766849
51
40.5524755
0
ARC
8
DEFAULT_255_2_778
10
13.4592636
20
-1.9485357
40
11.4205861
50
37.7528562
51
38.9824261
0
ARC
8
DEFAULT_255_2_778
10
24.7519618
20
6.2325852
40
2.5561645
50
203.7311525
51
207.7146279
0
ARC
8
DEFAULT_255_2_778
10
24.2454668
20
6.0105701
40
2.0031477
50
199.0250473
51
203.7481538
0
ARC
8
DEFAULT_255_2_778
10
23.8180864
20
5.863789
40
1.5512646
50
193.417035
51
199.0455336
0
ARC
8
DEFAULT_255_2_778
10
23.4649588
20
5.7802141
40
1.1883827
50
186.5414716
51
193.4481239
0
ARC
8
DEFAULT_255_2_778
10
23.2118265
20
5.7504354
40
0.9335062
50
180.1123544
51
186.4955991
0
ARC
8
DEFAULT_255_2_778
10
23.0017025
20
5.7520918
40
0.7233887
50
169.0764269
51
180.2761875
0
ARC
8
DEFAULT_255_2_778
10
22.8274603
20
5.7862126
40
0.545838
50
154.9662773
51
169.1272086
0
ARC
8
DEFAULT_255_2_778
10
22.7181769
20
5.8375783
40
0.4250854
50
138.0160295
51
155.0062955
0
ARC
8
DEFAULT_255_2_778
10
22.6586763
20
5.889585
40
0.34607
50
126.9256761
51
137.8267764
0
ARC
8
DEFAULT_255_2_778
10
22.6220716
20
5.9382425
40
0.285181
50
117.2623254
51
126.9196542
0
ARC
8
DEFAULT_255_2_778
10
22.5990594
20
5.9818667
40
0.235862
50
111.6468469
51
117.1473684
0
ARC
8
DEFAULT_255_2_778
10
22.3503104
20
6.7960321
40
0.6165317
50
284.4345704
51
285.2091678
0
ARC
8
DEFAULT_255_2_778
10
22.1275737
20
7.6574588
40
1.5062887
50
283.4541588
51
284.4716193
0
ARC
8
DEFAULT_255_2_778
10
21.9814421
20
8.2638939
40
2.1300813
50
282.6444684
51
283.4816919
0
ARC
8
DEFAULT_255_2_778
10
21.8776051
20
8.7281763
40
2.6058335
50
281.2833101
51
282.6375851
0
ARC
8
DEFAULT_255_2_778
10
21.8099755
20
9.0653581
40
2.9497307
50
279.7189966
51
281.2900955
0
ARC
8
DEFAULT_255_2_778
10
21.7854737
20
9.2066308
40
3.093112
50
277.7985531
51
279.7245727
0
ARC
8
DEFAULT_255_2_778
10
21.7903622
20
9.1674551
40
3.0536354
50
275.2901574
51
277.8074171
0
ARC
8
DEFAULT_255_2_778
10
21.8104527
20
8.9386098
40
2.8239127
50
271.5966863
51
275.3123655
0
ARC
8
DEFAULT_255_2_778
10
21.8187138
20
8.6945781
40
2.579746
50
270.0075906
51
271.5642981
0
ARC
8
DEFAULT_255_2_778
10
21.8157963
20
8.3953502
40
2.2805204
50
264.7793022
51
270.0818855
0
ARC
8
DEFAULT_255_2_778
10
21.7880506
20
8.0676209
40
1.9516272
50
261.6092411
51
264.7150029
0
ARC
8
DEFAULT_255_2_778
10
21.7300363
20
7.7122717
40
1.5916257
50
252.1345696
51
261.8086537
0
LINE
8
DEFAULT_255_2_778
10
16.7335535
20
5.4123947
11
16.7081535
21
5.0932947
0
LINE
8
DEFAULT_255_2_778
10
16.7338535
20
5.4123947
11
16.7335535
21
5.4123947
0
LINE
8
DEFAULT_255_2_778
10
21.2417535
20
6.1973947
11
21.2423535
21
6.1973947
0
ARC
8
DEFAULT_255_2_778
10
18.599119
20
2.1318343
40
3.987897
50
59.9617693
51
67.1996874
0
ARC
8
DEFAULT_255_2_778
10
18.6435368
20
2.2378768
40
3.8729276
50
67.1975188
51
75.1044347
0
ARC
8
DEFAULT_255_2_778
10
18.6672711
20
2.3235314
40
3.7840505
50
75.1183424
51
79.2663044
0
ARC
8
DEFAULT_255_2_778
10
18.6826811
20
2.4085457
40
3.6976536
50
79.255566
51
85.9351574
0
ARC
8
DEFAULT_255_2_778
10
18.6900958
20
2.503792
40
3.6021214
50
85.945408
51
89.992695
0
ARC
8
DEFAULT_255_2_778
10
18.6850408
20
2.6834754
40
3.4224425
50
89.907685
51
103.3500671
0
ARC
8
DEFAULT_255_2_778
10
18.5976428
20
3.0291753
40
3.0659084
50
103.2526237
51
121.8062168
0
ARC
8
DEFAULT_255_2_778
10
18.4937707
20
3.2151265
40
2.8531514
50
122.0016314
51
125.2258227
0
ARC
8
DEFAULT_255_2_778
10
15.9092457
20
3.98148
40
1.824435
50
49.019571
51
59.0303229
0
ARC
8
DEFAULT_255_2_778
10
15.8867282
20
3.9594532
40
1.8558326
50
36.6982734
51
48.9407194
0
ARC
8
DEFAULT_255_2_778
10
15.6543073
20
3.792685
40
2.1418533
50
23.4891181
51
36.559671
0
ARC
8
DEFAULT_255_2_778
10
15.2731634
20
3.6187099
40
2.5607676
50
18.0234484
51
23.6601581
0
ARC
8
DEFAULT_255_2_778
10
14.8728859
20
3.49058
40
2.9810482
50
11.4116629
51
17.9848972
0
ARC
8
DEFAULT_255_2_778
10
14.4309239
20
3.398454
40
3.432502
50
7.1696849
51
11.4593955
0
ARC
8
DEFAULT_255_2_778
10
14.1243582
20
3.3585796
40
3.7416474
50
4.1732526
51
7.1896012
0
ARC
8
DEFAULT_255_2_778
10
13.9455775
20
3.3450374
40
3.9209398
50
1.5831405
51
4.1805007
0
ARC
8
DEFAULT_255_2_778
10
13.9039115
20
3.3435093
40
3.9626323
50
0.001073
51
1.5885816
0
ARC
8
DEFAULT_255_2_778
10
13.9623916
20
3.3434444
40
3.9041522
50
358.796112
51
0.0020423
0
ARC
8
DEFAULT_255_2_778
10
14.0721219
20
3.3411648
40
3.7943984
50
357.9379298
51
358.7957139
0
ARC
8
DEFAULT_255_2_778
10
14.233899
20
3.335263
40
3.6325137
50
357.02722
51
357.9391426
0
ARC
8
DEFAULT_255_2_778
10
14.4536541
20
3.3238697
40
3.4124634
50
356.3062756
51
357.0269031
0
ARC
8
DEFAULT_255_2_778
10
14.700927
20
3.3078634
40
3.1646731
50
355.6220037
51
356.3070545
0
ARC
8
DEFAULT_255_2_778
10
15.0232791
20
3.2831053
40
2.8413717
50
354.953749
51
355.6235902
0
ARC
8
DEFAULT_255_2_778
10
15.354549
20
3.2539594
40
2.5088222
50
354.4618341
51
354.9513391
0
ARC
8
DEFAULT_255_2_778
10
15.7187178
20
3.2185387
40
2.142935
50
353.9362614
51
354.4647731
0
ARC
8
DEFAULT_255_2_778
10
16.1085081
20
3.1771832
40
1.7509569
50
353.5151561
51
353.9345818
0
ARC
8
DEFAULT_255_2_778
10
16.5060153
20
3.131979
40
1.3508876
50
353.1186059
51
353.5160218
0
ARC
8
DEFAULT_255_2_778
10
15.7365738
20
4.1850705
40
3.0374633
50
336.4226022
51
346.0406611
0
ARC
8
DEFAULT_255_2_778
10
14.1605282
20
4.5950502
40
4.6658979
50
345.8235898
51
351.4094603
0
ARC
8
DEFAULT_255_2_778
10
13.0795821
20
4.7688521
40
5.7606877
50
351.3061325
51
354.1412374
0
ARC
8
DEFAULT_255_2_778
10
12.7812279
20
4.8017101
40
6.0608379
50
354.1201428
51
355.9823654
0
ARC
8
DEFAULT_255_2_778
10
13.0789035
20
4.7813184
40
5.7624652
50
355.9772496
51
357.1698861
0
ARC
8
DEFAULT_255_2_778
10
13.9272224
20
4.7404716
40
4.9131642
50
357.1571914
51
358.3278806
0
ARC
8
DEFAULT_255_2_778
10
15.4157361
20
4.6973416
40
3.4240256
50
358.3224759
51
359.1809208
0
ARC
8
DEFAULT_255_2_778
10
17.3593892
20
4.6705348
40
1.4801882
50
359.1429604
51
359.8369741
0
ARC
8
DEFAULT_255_2_778
10
20.7044324
20
0.5121911
40
4.5535172
50
111.8137665
51
114.1761277
0
ARC
8
DEFAULT_255_2_778
10
20.5368718
20
0.9314156
40
4.1020466
50
109.172248
51
111.816802
0
ARC
8
DEFAULT_255_2_778
10
20.4066448
20
1.3056224
40
3.7058272
50
106.5083389
51
109.170531
0
ARC
8
DEFAULT_255_2_778
10
20.3106672
20
1.629593
40
3.3679388
50
103.6787658
51
106.5089606
0
ARC
8
DEFAULT_255_2_778
10
20.238836
20
1.9255588
40
3.0633811
50
100.4683081
51
103.6824246
0
ARC
8
DEFAULT_255_2_778
10
20.1877273
20
2.2036924
40
2.7805909
50
96.6864637
51
100.4740064
0
ARC
8
DEFAULT_255_2_778
10
20.1586729
20
2.451743
40
2.5308446
50
92.5702595
51
96.6870353
0
ARC
8
DEFAULT_255_2_778
10
20.1504206
20
2.6168315
40
2.3655522
50
90.0098914
51
92.5498961
0
ARC
8
DEFAULT_255_2_778
10
20.152801
20
2.8024824
40
2.1799031
50
82.303406
51
90.0733003
0
ARC
8
DEFAULT_255_2_778
10
20.1761684
20
2.9790336
40
2.0018129
50
73.1753552
51
82.2894333
0
ARC
8
DEFAULT_255_2_778
10
20.1880995
20
3.0236261
40
1.9556763
50
62.4903763
51
73.131801
0
ARC
8
DEFAULT_255_2_778
10
20.1217685
20
2.9028011
40
2.0934804
50
50.8538371
51
62.4076595
0
ARC
8
DEFAULT_255_2_778
10
19.8964755
20
2.6283916
40
2.4485235
50
40.7210361
51
50.8190084
0
ARC
8
DEFAULT_255_2_778
10
19.5618664
20
2.3353366
40
2.8933068
50
34.4962125
51
40.7965597
0
ARC
8
DEFAULT_255_2_778
10
19.2501087
20
2.1190169
40
3.2727597
50
29.9385967
51
34.5262942
0
ARC
8
DEFAULT_255_2_778
10
19.0108019
20
1.9798043
40
3.5496108
50
26.6608759
51
29.9580469
0
ARC
8
DEFAULT_255_2_778
10
18.871577
20
1.9093063
40
3.7056661
50
23.893083
51
26.6690858
0
ARC
8
DEFAULT_255_2_778
10
18.853155
20
1.9007082
40
3.7259918
50
21.8070302
51
23.8992316
0
ARC
8
DEFAULT_255_2_778
10
18.9715768
20
1.9477349
40
3.5985746
50
19.9229764
51
21.812284
0
ARC
8
DEFAULT_255_2_778
10
19.2249453
20
2.0395614
40
3.3290793
50
18.5410752
51
19.9230831
0
ARC
8
DEFAULT_255_2_778
10
19.5374929
20
2.1445465
40
2.9993707
50
17.5952416
51
18.5381973
0
ARC
8
DEFAULT_255_2_778
10
19.9516503
20
2.2753511
40
2.5650482
50
16.4412033
51
17.6066539
0
ARC
8
DEFAULT_255_2_778
10
20.3094898
20
2.3816564
40
2.191753
50
15.7133814
51
16.423459
0
ARC
8
DEFAULT_255_2_778
10
12.1458112
20
0.0852723
40
10.6722618
50
15.6828913
51
15.7114181
0
ARC
8
DEFAULT_255_2_778
10
19.1485973
20
2.5242435
40
3.3024131
50
7.7595626
51
28.1124852
0
ARC
8
DEFAULT_255_2_778
10
18.8125001
20
2.3532439
40
3.6794423
50
27.9950017
51
44.1001627
0
ARC
8
DEFAULT_255_2_778
10
18.6425623
20
2.1920224
40
3.9136761
50
44.06378
51
58.0159024
0
ARC
8
DEFAULT_255_2_778
10
18.5729924
20
2.0887092
40
4.0381583
50
57.9550974
51
59.9508384
0
LINE
8
DEFAULT_255_2_778
10
17.8471714
20
2.9701231
11
18.5204714
21
2.9701231
0
LINE
8
DEFAULT_255_2_778
10
20.5950714
20
5.5841231
11
20.5953714
21
5.5841231
0
ARC
8
DEFAULT_255_2_778
10
27.5505755
20
6.4842046
40
7.4418125
50
170.1810114
51
172.3343157
0
ARC
8
DEFAULT_255_2_778
10
26.1165431
20
6.7330406
40
5.986351
50
167.7624584
51
170.187105
0
ARC
8
DEFAULT_255_2_778
10
24.8548297
20
7.0080573
40
4.6950136
50
164.8188999
51
167.7786679
0
ARC
8
DEFAULT_255_2_778
10
23.7398904
20
7.312157
40
3.539348
50
161.1729239
51
164.8434649
0
ARC
8
DEFAULT_255_2_778
10
22.823138
20
7.6257088
40
2.5704576
50
156.8731609
51
161.1936045
0
ARC
8
DEFAULT_255_2_778
10
22.1889293
20
7.8953666
40
1.8813028
50
152.901638
51
156.8393739
0
ARC
8
DEFAULT_255_2_778
10
21.7560605
20
8.1174239
40
1.3948005
50
148.29627
51
152.9222197
0
ARC
8
DEFAULT_255_2_778
10
21.4128396
20
8.3305281
40
0.9908044
50
142.3786922
51
148.3501798
0
ARC
8
DEFAULT_255_2_778
10
21.1554879
20
8.5298389
40
0.6652989
50
134.84017
51
142.44491
0
ARC
8
DEFAULT_255_2_778
10
21.0345515
20
8.6484465
40
0.4959254
50
131.6193247
51
134.5953344
0
ARC
8
DEFAULT_255_2_778
10
21.0498673
20
8.5244572
40
0.6029722
50
91.929204
51
124.8664969
0
ARC
8
DEFAULT_255_2_778
10
21.0569516
20
7.9772133
40
1.1502003
50
89.9956784
51
91.3641841
0
ARC
8
DEFAULT_255_2_778
10
21.0359207
20
7.5777028
40
1.5498548
50
74.4601578
51
89.219289
0
ARC
8
DEFAULT_255_2_778
10
20.6157622
20
6.0079886
40
3.1747901
50
67.5001161
51
74.7442248
0
ARC
8
DEFAULT_255_2_778
10
19.019951
20
2.0912703
40
7.4040969
50
64.6150744
51
67.6898414
0
ARC
8
DEFAULT_255_2_778
10
19.2191614
20
3.7765591
40
5.8214579
50
59.2679114
51
62.2793314
0
ARC
8
DEFAULT_255_2_778
10
19.8564836
20
4.9927802
40
4.4483701
50
62.2591728
51
65.9476621
0
ARC
8
DEFAULT_255_2_778
10
20.3163107
20
6.0267141
40
3.3167973
50
65.9217599
51
70.4551278
0
ARC
8
DEFAULT_255_2_778
10
20.6115308
20
6.862012
40
2.4308654
50
70.426012
51
75.9620828
0
ARC
8
DEFAULT_255_2_778
10
20.7642607
20
7.47373
40
1.8003693
50
75.9553349
51
82.2715577
0
ARC
8
DEFAULT_255_2_778
10
20.811362
20
7.8080628
40
1.4627403
50
82.3386546
51
88.380975
0
ARC
8
DEFAULT_255_2_778
10
20.8114381
20
7.7737155
40
1.4970721
50
88.4210255
51
90.0141448
0
ARC
8
DEFAULT_255_2_778
10
20.7891525
20
8.7823155
40
0.4889635
50
87.4310692
51
89.9992643
0
ARC
8
DEFAULT_255_2_778
10
20.7890444
20
8.7858394
40
0.4854396
50
89.986499
51
106.2912925
0
ARC
8
DEFAULT_255_2_778
10
20.6885794
20
9.1506201
40
0.1072853
50
109.4424084
51
154.0388928
0
ARC
8
DEFAULT_255_2_778
10
17.5703088
20
10.793382
40
3.4172959
50
331.343461
51
332.1617906
0
ARC
8
DEFAULT_255_2_778
10
20.4909798
20
9.203198
40
0.0919407
50
326.7499917
51
328.0833677
0
ARC
8
DEFAULT_255_2_778
10
22.5754309
20
7.6303364
40
2.5195564
50
142.8248448
51
144.9071009
0
ARC
8
DEFAULT_255_2_778
10
22.3310666
20
7.8040772
40
2.2197287
50
144.9502699
51
147.8526062
0
ARC
8
DEFAULT_255_2_778
10
22.4094233
20
7.7555289
40
2.3119045
50
147.8671915
51
151.085708
0
ARC
8
DEFAULT_255_2_778
10
22.5906643
20
7.6556839
40
2.518828
50
151.0909724
51
154.4089074
0
ARC
8
DEFAULT_255_2_778
10
22.7470911
20
7.5794968
40
2.6928182
50
154.3845399
51
155.5175824
0
ARC
8
DEFAULT_255_2_778
10
22.9644487
20
7.4827579
40
2.9307234
50
155.5573683
51
159.5165543
0
ARC
8
DEFAULT_255_2_778
10
23.3707928
20
7.3309845
40
3.3644868
50
159.5168507
51
163.3649253
0
ARC
8
DEFAULT_255_2_778
10
23.8634961
20
7.1835344
40
3.8787805
50
163.3615238
51
166.9390254
0
ARC
8
DEFAULT_255_2_778
10
24.4437432
20
7.0487098
40
4.4744854
50
166.9363627
51
170.2763786
0
ARC
8
DEFAULT_255_2_778
10
25.1213041
20
6.9323299
40
5.1619685
50
170.2733723
51
173.3720105
0
ARC
8
DEFAULT_255_2_778
10
25.6357415
20
6.8692967
40
5.680244
50
173.3393865
51
174.3422646
0
ARC
8
DEFAULT_255_2_778
10
20.6834958
20
7.646549
40
0.7332537
50
197.235375
51
205.520511
0
ARC
8
DEFAULT_255_2_778
10
21.0537004
20
7.8223875
40
1.1430954
50
205.4796746
51
211.9150435
0
ARC
8
DEFAULT_255_2_778
10
21.5438591
20
8.1252706
40
1.7192819
50
211.8473697
51
216.4684386
0
ARC
8
DEFAULT_255_2_778
10
22.2801388
20
8.6737092
40
2.6373696
50
216.542648
51
221.4954989
0
ARC
8
DEFAULT_255_2_778
10
23.260852
20
9.5345591
40
3.9423004
50
221.4228421
51
224.7885527
0
ARC
8
DEFAULT_255_2_778
10
24.2234086
20
10.4869789
40
5.296411
50
224.7650716
51
227.5208695
0
ARC
8
DEFAULT_255_2_778
10
24.7958769
20
11.1060093
40
6.139562
50
227.4820088
51
229.0286154
0
ARC
8
DEFAULT_255_2_778
10
24.8109035
20
11.1219088
40
6.1614195
50
229.020054
51
229.9755668
0
ARC
8
DEFAULT_255_2_778
10
24.4846403
20
10.733291
40
5.6540031
50
229.9747264
51
230.6013423
0
ARC
8
DEFAULT_255_2_778
10
23.8023872
20
9.9010865
40
4.577884
50
230.5888196
51
231.3114213
0
ARC
8
DEFAULT_255_2_778
10
22.7745869
20
8.6182268
40
2.9340767
50
231.3183679
51
231.7322192
0
ARC
8
DEFAULT_255_2_778
10
21.7179631
20
7.2781399
40
1.2275343
50
231.7142623
51
232.0563024
0
ARC
8
DEFAULT_255_2_778
10
22.1586214
20
7.5218125
40
1.7021706
50
224.9670849
51
225.387301
0
ARC
8
DEFAULT_255_2_778
10
23.6100285
20
8.974212
40
3.7554718
50
224.5388625
51
224.9957878
0
ARC
8
DEFAULT_255_2_778
10
24.7073239
20
10.0539936
40
5.2949474
50
223.8578892
51
224.5389268
0
ARC
8
DEFAULT_255_2_778
10
25.3738064
20
10.6953063
40
6.2198694
50
222.9990757
51
223.8637681
0
ARC
8
DEFAULT_255_2_778
10
25.492314
20
10.8068514
40
6.3826139
50
221.8303681
51
223.0058947
0
ARC
8
DEFAULT_255_2_778
10
25.0356485
20
10.4007337
40
5.7714914
50
219.9619861
51
221.8497785
0
ARC
8
DEFAULT_255_2_778
10
24.4600292
20
9.9154066
40
5.018581
50
219.1643931
51
219.9359478
0
ARC
8
DEFAULT_255_2_778
10
23.4237846
20
9.0877976
40
3.6924897
50
214.4834334
51
219.362417
0
ARC
8
DEFAULT_255_2_778
10
22.0838955
20
8.1660127
40
2.0661479
50
208.9626246
51
214.4497196
0
ARC
8
DEFAULT_255_2_778
10
21.2909645
20
7.7278307
40
1.1601994
50
201.9630782
51
208.9916097
0
ARC
8
DEFAULT_255_2_778
10
20.795514
20
7.529766
40
0.6266304
50
191.6591559
51
202.1105415
0
ARC
8
DEFAULT_255_2_778
10
20.5314455
20
7.4740396
40
0.3567507
50
180.4465791
51
191.4646443
0
ARC
8
DEFAULT_255_2_778
10
20.4513711
20
7.4712929
40
0.2766655
50
178.7791554
51
180.0070112
0
LINE
8
DEFAULT_255_2_778
10
20.1747685
20
7.4771876
11
20.1752685
21
7.4768876
0
ARC
8
DEFAULT_255_2_778
10
17.5715785
20
4.93645
40
1.2408943
50
19.2824052
51
63.907438
0
ARC
8
DEFAULT_255_2_778
10
17.2231524
20
4.7840538
40
1.6203552
50
359.7719606
51
20.300412
0
ARC
8
DEFAULT_255_2_778
10
17.1032337
20
4.7777658
40
1.740261
50
356.3433969
51
359.994698
0
ARC
8
DEFAULT_255_2_778
10
17.6726334
20
4.6168513
40
1.4906514
50
6.8475301
51
57.7493891
0
ARC
8
DEFAULT_255_2_778
10
17.5825169
20
4.5361995
40
1.607291
50
56.5666738
51
70.5941305
0
LINE
8
DEFAULT_255_2_778
10
18.8399519
20
4.6667781
11
19.1526519
21
4.7945781
0
LINE
8
DEFAULT_255_2_778
10
18.1165519
20
6.0521781
11
18.1173519
21
6.0508781
0
ARC
8
DEFAULT_255_2_778
10
11.5173873
20
4.1539793
40
0.683938
50
13.4036062
51
25.88226
0
ARC
8
DEFAULT_255_2_778
10
11.0981332
20
4.0514464
40
1.1155431
50
5.006395
51
13.5347354
0
ARC
8
DEFAULT_255_2_778
10
10.5233815
20
3.9967504
40
1.6928809
50
359.849501
51
5.1529644
0
ARC
8
DEFAULT_255_2_778
10
9.8316805
20
3.9973359
40
2.3845815
50
355.6698459
51
359.879087
0
ARC
8
DEFAULT_255_2_778
10
8.7487788
20
4.0846637
40
3.4709897
50
350.5064731
51
355.5821013
0
ARC
8
DEFAULT_255_2_778
10
7.7336518
20
4.2444212
40
4.4985742
50
348.5163085
51
350.632076
0
ARC
8
DEFAULT_255_2_778
10
7.3973376
20
4.3110022
40
4.8414118
50
347.9270783
51
348.5365253
0
ARC
8
DEFAULT_255_2_778
10
7.2628851
20
4.3398779
40
4.9789301
50
346.5754136
51
347.9257501
0
ARC
8
DEFAULT_255_2_778
10
7.3541405
20
4.3177185
40
4.8850236
50
345.6604926
51
346.5797244
0
ARC
8
DEFAULT_255_2_778
10
7.7017428
20
4.2288477
40
4.5262404
50
345.0327743
51
345.6606492
0
ARC
8
DEFAULT_255_2_778
10
8.346675
20
4.0557618
40
3.858486
50
344.2784788
51
345.0424173
0
ARC
8
DEFAULT_255_2_778
10
9.5271928
20
3.7228174
40
2.6319162
50
343.5710274
51
344.2918355
0
ARC
8
DEFAULT_255_2_778
10
10.6581508
20
3.3901079
40
1.4530351
50
343.2617554
51
343.5418611
0
ARC
8
DEFAULT_255_2_778
10
6.7627761
20
6.7545379
40
6.9471208
50
327.0075661
51
329.355093
0
ARC
8
DEFAULT_255_2_778
10
8.0531024
20
5.9917109
40
5.4481731
50
329.3402956
51
332.0715756
0
ARC
8
DEFAULT_255_2_778
10
9.2316506
20
5.3677877
40
4.1146607
50
332.0613054
51
335.0048835
0
ARC
8
DEFAULT_255_2_778
10
10.2778686
20
4.8812909
40
2.9608629
50
334.9828883
51
338.2643934
0
ARC
8
DEFAULT_255_2_778
10
11.1897288
20
4.5184676
40
1.9794715
50
338.2453963
51
341.6388557
0
ARC
8
DEFAULT_255_2_778
10
12.0012551
20
4.251016
40
1.1250128
50
341.5472038
51
345.4576466
0
ARC
8
DEFAULT_255_2_778
10
12.7127011
20
4.0679527
40
0.3903961
50
345.2459305
51
348.9211278
0
ARC
8
DEFAULT_255_2_778
10
11.9441387
20
2.8215037
40
1.6427484
50
45.4870318
51
83.3905232
0
LINE
8
DEFAULT_255_2_778
10
12.0496215
20
2.9716341
11
12.5896215
21
2.9716341
0
LINE
8
DEFAULT_255_2_778
10
12.1332215
20
4.4533341
11
12.1327215
21
4.4525341
0
ARC
8
DEFAULT_255_2_778
10
5.2498486
20
5.10328
40
4.0248026
50
354.106928
51
357.4585084
0
ARC
8
DEFAULT_255_2_778
10
3.8610197
20
5.2450702
40
5.42085
50
351.3886365
51
354.1233457
0
ARC
8
DEFAULT_255_2_778
10
1.8238182
20
5.5602373
40
7.4822788
50
347.931355
51
351.338242
0
ARC
8
DEFAULT_255_2_778
10
-0.0655531
20
5.9521018
40
9.4118305
50
346.4997818
51
348.0033889
0
ARC
8
DEFAULT_255_2_778
10
-0.7695629
20
6.1186972
40
10.1352796
50
346.0689556
51
346.5131132
0
ARC
8
DEFAULT_255_2_778
10
-1.1512201
20
6.2140526
40
10.528668
50
344.9181401
51
346.0653358
0
ARC
8
DEFAULT_255_2_778
10
-1.1352836
20
6.2087265
40
10.5118946
50
343.9647262
51
344.923569
0
ARC
8
DEFAULT_255_2_778
10
-0.2344218
20
5.9490972
40
9.5743665
50
343.1752663
51
343.9688156
0
ARC
8
DEFAULT_255_2_778
10
1.3640312
20
5.4657704
40
7.9044394
50
342.582763
51
343.1750745
0
ARC
8
DEFAULT_255_2_778
10
3.6081498
20
4.7601374
40
5.5519976
50
341.8625481
51
342.5987874
0
ARC
8
DEFAULT_255_2_778
10
6.2777101
20
3.8845901
40
2.7425256
50
341.0257524
51
341.8837648
0
ARC
8
DEFAULT_255_2_778
10
8.2851775
20
3.191716
40
0.6188562
50
339.1458163
51
341.2583603
0
ARC
8
DEFAULT_255_2_778
10
7.9137534
20
4.3863806
40
2.0519398
50
316.4033121
51
324.7733271
0
ARC
8
DEFAULT_255_2_778
10
7.6107885
20
4.6101226
40
2.428495
50
324.5842155
51
325.8548702
0
ARC
8
DEFAULT_255_2_778
10
7.3139407
20
4.804695
40
2.7833891
50
325.9698631
51
332.1621682
0
ARC
8
DEFAULT_255_2_778
10
7.0087861
20
4.970553
40
3.1306826
50
332.0859333
51
335.6878236
0
ARC
8
DEFAULT_255_2_778
10
7.1071641
20
4.9273445
40
3.0232402
50
335.6664759
51
337.9998232
0
ARC
8
DEFAULT_255_2_778
10
7.6085799
20
4.7257611
40
2.4828214
50
337.9783514
51
339.8700886
0
ARC
8
DEFAULT_255_2_778
10
8.4089154
20
4.4319704
40
1.6302666
50
339.8844641
51
340.9515346
0
ARC
8
DEFAULT_255_2_778
10
9.291869
20
4.1277234
40
0.6963649
50
340.9037874
51
341.7726663
0
ARC
8
DEFAULT_255_2_778
10
8.8049517
20
3.7446806
40
1.1601665
50
8.1877694
51
30.5203456
0
ARC
8
DEFAULT_255_2_778
10
8.3160224
20
3.4766216
40
1.7175743
50
29.9405342
51
39.3891463
0
ARC
8
DEFAULT_255_2_778
10
8.0941538
20
3.3035418
40
1.9988922
50
39.1876722
51
40.436336
0
ARC
8
DEFAULT_255_2_778
10
7.9700622
20
3.1955742
40
2.1633705
50
40.4811192
51
45.3416414
0
ARC
8
DEFAULT_255_2_778
10
7.8982225
20
3.1248489
40
2.2641731
50
45.3064907
51
48.2937347
0
ARC
8
DEFAULT_255_2_778
10
7.9918596
20
3.2308287
40
2.1227545
50
48.2774462
51
50.6315283
0
ARC
8
DEFAULT_255_2_778
10
8.2551076
20
3.5526689
40
1.7069659
50
50.610302
51
52.5459206
0
ARC
8
DEFAULT_255_2_778
10
8.6210571
20
4.0298358
40
1.105628
50
52.5629387
51
53.6642689
0
ARC
8
DEFAULT_255_2_778
10
9.0027204
20
4.5494604
40
0.4608986
50
53.6103902
51
54.5264755
0
LINE
8
DEFAULT_255_2_778
10
8.8634922
20
2.9714088
11
9.3997922
21
2.9714088
0
LINE
8
DEFAULT_255_2_778
10
9.2701922
20
4.9248088
11
9.2706922
21
4.9248088
0
ARC
8
DEFAULT_255_2_778
10
11.8532354
20
5.434797
40
3.4062639
50
358.8262885
51
359.705231
0
ARC
8
DEFAULT_255_2_778
10
11.9003151
20
5.4345051
40
3.3591833
50
359.7060772
51
0.0003128
0
ARC
8
DEFAULT_255_2_778
10
12.0523534
20
5.4367412
40
3.2071458
50
359.9603795
51
5.1625369
0
ARC
8
DEFAULT_255_2_778
10
12.300004
20
5.4588569
40
2.9585097
50
5.1675338
51
10.4181802
0
ARC
8
DEFAULT_255_2_778
10
12.4876444
20
5.4932897
40
2.7677363
50
10.4195475
51
15.9897404
0
ARC
8
DEFAULT_255_2_778
10
12.6288954
20
5.5335778
40
2.6208523
50
15.9936833
51
21.5098295
0
ARC
8
DEFAULT_255_2_778
10
12.7372821
20
5.5761795
40
2.5043939
50
21.5122658
51
26.7877544
0
ARC
8
DEFAULT_255_2_778
10
12.828914
20
5.6222554
40
2.40183
50
26.7917194
51
31.1360273
0
ARC
8
DEFAULT_255_2_778
10
12.9284346
20
5.6826485
40
2.2854186
50
31.130167
51
35.4979903
0
ARC
8
DEFAULT_255_2_778
10
13.0558276
20
5.7735616
40
2.1289125
50
35.4968653
51
39.1239687
0
ARC
8
DEFAULT_255_2_778
10
13.2210106
20
5.9083328
40
1.9157257
50
39.1143201
51
42.4948434
0
ARC
8
DEFAULT_255_2_778
10
13.4426439
20
6.1118304
40
1.6148395
50
42.4832082
51
45.4834584
0
ARC
8
DEFAULT_255_2_778
10
13.7125743
20
6.3865933
40
1.229668
50
45.475673
51
47.9223676
0
ARC
8
DEFAULT_255_2_778
10
14.0387357
20
6.7489975
40
0.7421056
50
47.8628263
51
50.184254
0
ARC
8
DEFAULT_255_2_778
10
14.356927
20
7.1304808
40
0.2453409
50
50.2154081
51
51.401636
0
ARC
8
DEFAULT_255_2_778
10
12.0254695
20
2.0762097
40
5.8046087
50
64.657741
51
67.2102597
0
ARC
8
DEFAULT_255_2_778
10
12.5969923
20
3.4394953
40
4.3263718
50
67.1948449
51
70.1097638
0
ARC
8
DEFAULT_255_2_778
10
13.0238408
20
4.6230076
40
3.0682387
50
70.0860775
51
73.4341926
0
ARC
8
DEFAULT_255_2_778
10
13.3174692
20
5.613226
40
2.0354031
50
73.4092294
51
77.0708095
0
ARC
8
DEFAULT_255_2_778
10
13.5066053
20
6.4451318
40
1.1822712
50
76.9838135
51
81.3430484
0
ARC
8
DEFAULT_255_2_778
10
13.6094221
20
7.130181
40
0.489553
50
81.1713658
51
85.7478993
0
ARC
8
DEFAULT_255_2_778
10
13.6390786
20
7.5194397
40
0.0991696
50
86.1599948
51
87.6270115
0
ARC
8
DEFAULT_255_2_778
10
11.3160368
20
3.6932875
40
4.5632334
50
59.3376476
51
63.0357011
0
ARC
8
DEFAULT_255_2_778
10
11.8804724
20
4.8053506
40
3.3161288
50
63.0154294
51
67.4198304
0
ARC
8
DEFAULT_255_2_778
10
12.2421572
20
5.6784933
40
2.3710407
50
67.3882616
51
72.7915733
0
ARC
8
DEFAULT_255_2_778
10
12.4458241
20
6.339708
40
1.6791712
50
72.755075
51
79.414242
0
ARC
8
DEFAULT_255_2_778
10
12.5260442
20
6.7658521
40
1.2455427
50
79.4404235
51
86.7726611
0
ARC
8
DEFAULT_255_2_778
10
12.5331275
20
6.8447818
40
1.1663424
50
86.9017857
51
90.0315816
0
ARC
8
DEFAULT_255_2_778
10
12.5129962
20
7.6294347
40
0.3821866
50
87.0771066
51
89.9927964
0
ARC
8
DEFAULT_255_2_778
10
12.5129343
20
7.6328344
40
0.3787869
50
89.9833744
51
106.6054756
0
ARC
8
DEFAULT_255_2_778
10
12.4334535
20
7.9140503
40
0.0866867
50
109.3824026
51
154.0708988
0
ARC
8
DEFAULT_255_2_778
10
38.5617675
20
-6.0262675
40
29.7011704
50
151.9248872
51
151.9954679
0
ARC
8
DEFAULT_255_2_778
10
12.2627679
20
7.9641484
40
0.0876541
50
327.2455285
51
329.5007319
0
ARC
8
DEFAULT_255_2_778
10
13.9291889
20
6.7136048
40
1.9960468
50
142.9328191
51
145.1288623
0
ARC
8
DEFAULT_255_2_778
10
13.7523394
20
6.8386225
40
1.7794764
50
145.1758335
51
148.5676358
0
ARC
8
DEFAULT_255_2_778
10
13.8454291
20
6.7822867
40
1.8882843
50
148.5820989
51
152.0483485
0
ARC
8
DEFAULT_255_2_778
10
14.0257277
20
6.6869261
40
2.0922478
50
152.055867
51
155.7275479
0
ARC
8
DEFAULT_255_2_778
10
14.2939652
20
6.5666499
40
2.3862163
50
155.7424863
51
159.9510141
0
ARC
8
DEFAULT_255_2_778
10
14.6681681
20
6.4302822
40
2.7844926
50
159.9547534
51
164.1576565
0
ARC
8
DEFAULT_255_2_778
10
15.1410087
20
6.2959014
40
3.2760578
50
164.1542431
51
168.0780903
0
ARC
8
DEFAULT_255_2_778
10
15.7048504
20
6.1764164
40
3.8524205
50
168.0716908
51
171.6094003
0
ARC
8
DEFAULT_255_2_778
10
16.2940925
20
6.0880169
40
4.4482551
50
171.590457
51
174.2287017
0
ARC
8
DEFAULT_255_2_778
10
12.4518772
20
6.7189767
40
0.6117122
50
197.4712473
51
206.8107793
0
ARC
8
DEFAULT_255_2_778
10
12.8068353
20
6.8967515
40
1.0086981
50
206.7290967
51
213.5121471
0
ARC
8
DEFAULT_255_2_778
10
13.1776185
20
7.1365319
40
1.4502394
50
213.3227798
51
216.3474667
0
ARC
8
DEFAULT_255_2_778
10
13.78775
20
7.5976962
40
2.2150072
50
216.6016369
51
222.5491106
0
ARC
8
DEFAULT_255_2_778
10
14.5830756
20
8.3122427
40
3.2841338
50
222.3500189
51
224.7823382
0
ARC
8
DEFAULT_255_2_778
10
15.2498832
20
8.9758292
40
4.2248666
50
224.7999158
51
227.5631524
0
ARC
8
DEFAULT_255_2_778
10
15.7056329
20
9.469361
40
4.8966343
50
227.5241989
51
229.075166
0
ARC
8
DEFAULT_255_2_778
10
15.7174485
20
9.4818478
40
4.9138091
50
229.0664465
51
230.0246823
0
ARC
8
DEFAULT_255_2_778
10
15.3634373
20
9.0584133
40
4.3618851
50
230.0147989
51
230.9304984
0
ARC
8
DEFAULT_255_2_778
10
14.5995297
20
8.1169557
40
3.1494919
50
230.925378
51
231.5808689
0
ARC
8
DEFAULT_255_2_778
10
13.5126416
20
6.7454766
40
1.3995548
50
231.5526867
51
232.0724318
0
ARC
8
DEFAULT_255_2_778
10
12.9998738
20
6.8163742
40
1.2251618
50
231.5222031
51
253.5231962
0
ARC
8
DEFAULT_255_2_778
10
13.3543268
20
7.2964123
40
1.8216275
50
223.8320912
51
232.1890805
0
ARC
8
DEFAULT_255_2_778
10
13.6444789
20
7.5803264
40
2.2275624
50
218.576873
51
223.9314732
0
ARC
8
DEFAULT_255_2_778
10
13.7693997
20
7.6824474
40
2.3889017
50
215.4405448
51
218.6233824
0
ARC
8
DEFAULT_255_2_778
10
13.6785674
20
7.6187217
40
2.2779473
50
212.9793715
51
215.4594438
0
ARC
8
DEFAULT_255_2_778
10
13.3614555
20
7.4132646
40
1.900095
50
211.2346535
51
212.987353
0
ARC
8
DEFAULT_255_2_778
10
12.7953513
20
7.0709762
40
1.2385556
50
209.695901
51
211.2751835
0
ARC
8
DEFAULT_255_2_778
10
12.0966211
20
6.6723442
40
0.4341108
50
208.9033165
51
209.6787462
0
ARC
8
DEFAULT_255_2_778
10
14.004285
20
6.7400215
40
2.3044691
50
181.686056
51
186.9161725
0
ARC
8
DEFAULT_255_2_778
10
14.286959
20
6.7511218
40
2.5873488
50
179.9907867
51
181.7475831
0
ARC
8
DEFAULT_255_2_778
10
14.5892099
20
6.748817
40
2.8896011
50
176.0127674
51
179.9460497
0
ARC
8
DEFAULT_255_2_778
10
15.0450583
20
6.7182345
40
3.3464728
50
173.4670143
51
176.033117
0
ARC
8
DEFAULT_255_2_778
10
15.6334987
20
6.650692
40
3.9387769
50
171.5550881
51
173.4647754
0
ARC
8
DEFAULT_255_2_778
10
13.641707
20
6.9484017
40
1.924861
50
171.5996255
51
171.6137385
0
ARC
8
DEFAULT_255_2_778
10
16.0260648
20
6.5950685
40
4.3352562
50
171.5435987
51
171.5835961
0
ARC
8
DEFAULT_255_2_778
10
16.1473981
20
6.5772093
40
4.4578967
50
171.5074693
51
171.545885
0
ARC
8
DEFAULT_255_2_778
10
16.0209115
20
6.5962948
40
4.3299785
50
171.4710106
51
171.5100715
0
ARC
8
DEFAULT_255_2_778
10
15.8981614
20
6.6149636
40
4.205817
50
171.4347997
51
171.4745157
0
ARC
8
DEFAULT_255_2_778
10
18.3549012
20
6.2440743
40
6.6903951
50
171.4027874
51
171.4274448
0
ARC
8
DEFAULT_255_2_778
10
18.1483124
20
6.2741114
40
6.4816375
50
171.3671955
51
171.3923314
0
ARC
8
DEFAULT_255_2_778
10
18.6083713
20
6.2030061
40
6.9471574
50
171.3337733
51
171.3569341
0
ARC
8
DEFAULT_255_2_778
10
15.6745439
20
6.6502434
40
3.979437
50
171.2948145
51
171.3347459
0
ARC
8
DEFAULT_255_2_778
10
15.5624297
20
6.6678219
40
3.8659538
50
171.2602615
51
171.3008546
0
ARC
8
DEFAULT_255_2_778
10
15.4547974
20
6.684926
40
3.7569724
50
171.2274146
51
171.2686664
0
ARC
8
DEFAULT_255_2_778
10
15.3493432
20
6.7017314
40
3.6501888
50
171.1937356
51
171.2356666
0
ARC
8
DEFAULT_255_2_778
10
18.304901
20
6.2443773
40
6.6409236
50
171.1754187
51
171.1981795
0
ARC
8
DEFAULT_255_2_778
10
18.101191
20
6.2749452
40
6.4349356
50
171.1429167
51
171.166114
0
ARC
8
DEFAULT_255_2_778
10
17.9073241
20
6.3043894
40
6.238847
50
171.1123392
51
171.135968
0
ARC
8
DEFAULT_255_2_778
10
15.1781192
20
6.7315426
40
3.4764172
50
171.0765403
51
171.1184172
0
ARC
8
DEFAULT_255_2_778
10
17.2834447
20
6.4015697
40
5.6074445
50
171.044138
51
171.0825513
0
ARC
8
DEFAULT_255_2_778
10
17.0410788
20
6.4397537
40
5.3620891
50
171.0045946
51
171.0440159
0
ARC
8
DEFAULT_255_2_778
10
17.0651041
20
6.4354406
40
5.3864931
50
170.9607279
51
170.9992379
0
ARC
8
DEFAULT_255_2_778
10
17.1111245
20
6.4283478
40
5.4330565
50
170.9256406
51
170.9631074
0
ARC
8
DEFAULT_255_2_778
10
16.8795749
20
6.4656564
40
5.1985207
50
170.8907699
51
170.9291955
0
ARC
8
DEFAULT_255_2_778
10
19.7912529
20
5.9982133
40
8.1474817
50
170.8626362
51
170.8866955
0
ARC
8
DEFAULT_255_2_778
10
16.7133762
20
6.4930175
40
5.030086
50
170.8215758
51
170.8598172
0
ARC
8
DEFAULT_255_2_778
10
19.7655971
20
5.9997503
40
8.1219082
50
170.7976752
51
170.8209161
0
ARC
8
DEFAULT_255_2_778
10
19.3907359
20
6.0591529
40
7.7423719
50
170.7640557
51
170.7879798
0
ARC
8
DEFAULT_255_2_778
10
19.554496
20
6.0319418
40
7.9083764
50
170.7330928
51
170.7598911
0
ARC
8
DEFAULT_255_2_778
10
19.1380284
20
6.0988786
40
7.4865651
50
170.6977331
51
170.7254235
0
ARC
8
DEFAULT_255_2_778
10
16.850028
20
6.4740915
40
5.1680031
50
170.6633697
51
170.7026076
0
ARC
8
DEFAULT_255_2_778
10
18.0009925
20
6.2853476
40
6.3343406
50
170.6341962
51
170.6677372
0
ARC
8
DEFAULT_255_2_778
10
20.7819369
20
5.8263085
40
9.1529163
50
170.6085397
51
170.6319614
0
ARC
8
DEFAULT_255_2_778
10
19.4790125
20
6.0418064
40
7.8322909
50
170.5810241
51
170.6085376
0
ARC
8
DEFAULT_255_2_778
10
19.6275755
20
6.0171738
40
7.9828821
50
170.5547381
51
170.581112
0
ARC
8
DEFAULT_255_2_778
10
19.7803102
20
5.9912759
40
8.137796
50
170.5261161
51
170.5513428
0
ARC
8
DEFAULT_255_2_778
10
29.7278707
20
4.3300038
40
18.2231213
50
170.511155
51
170.5221395
0
ARC
8
DEFAULT_255_2_778
10
19.5302911
20
6.0337845
40
7.8841902
50
170.4816117
51
170.5063676
0
ARC
8
DEFAULT_255_2_778
10
20.7051163
20
5.8381048
40
9.0751997
50
170.4687742
51
170.4897451
0
ARC
8
DEFAULT_255_2_778
10
45.6836933
20
1.6402676
40
34.4040594
50
170.4570385
51
170.4624324
0
ARC
8
DEFAULT_255_2_778
10
21.9076814
20
5.6367837
40
10.2944994
50
170.4364257
51
170.454003
0
ARC
8
DEFAULT_255_2_778
10
-4.4652785
20
10.1095744
40
16.4550688
50
350.3355381
51
350.5636894
0
ARC
8
DEFAULT_255_2_778
10
10.7062934
20
7.5919868
40
1.0760372
50
350.3572992
51
352.8203664
0
ARC
8
DEFAULT_255_2_778
10
11.5937829
20
7.4809955
40
0.1816363
50
352.5686729
51
358.8776644
0
ARC
8
DEFAULT_255_2_778
10
11.7376285
20
7.4781061
40
0.0377618
50
358.9858498
51
9.237453
0
ARC
8
DEFAULT_255_2_778
10
11.7651724
20
7.4826229
40
0.0098502
50
9.0238195
51
26.5390236
0
ARC
8
DEFAULT_255_2_778
10
11.7707616
20
7.4786678
40
0.0089564
50
68.9081432
51
89.8523916
0
ARC
8
DEFAULT_255_2_778
10
11.7708077
20
7.4786678
40
0.0089564
50
90.1476084
51
111.0918568
0
ARC
8
DEFAULT_255_2_778
10
12.4169544
20
2.0224754
40
5.5029968
50
96.7768602
51
117.5195884
0
ARC
8
DEFAULT_255_2_778
10
10.7505427
20
5.5593893
40
1.6039467
50
123.1144813
51
137.4127063
0
ARC
8
DEFAULT_255_2_778
10
11.4670636
20
4.8718515
40
2.5968363
50
136.9423255
51
143.4237254
0
ARC
8
DEFAULT_255_2_778
10
12.1453075
20
4.3629494
40
3.4447637
50
143.3485335
51
147.9557299
0
ARC
8
DEFAULT_255_2_778
10
12.5523342
20
4.1034376
40
3.9274675
50
147.8971679
51
150.5113949
0
ARC
8
DEFAULT_255_2_778
10
12.5427857
20
4.107779
40
3.9170191
50
150.4979198
51
152.1196993
0
ARC
8
DEFAULT_255_2_778
10
12.2508389
20
4.2621547
40
3.5867694
50
152.1186583
51
153.1835595
0
ARC
8
DEFAULT_255_2_778
10
11.6351456
20
4.572166
40
2.8974337
50
153.1620379
51
154.392356
0
ARC
8
DEFAULT_255_2_778
10
10.4839328
20
5.1229104
40
1.6212641
50
154.360065
51
155.3753459
0
ARC
8
DEFAULT_255_2_778
10
9.3709148
20
5.6335834
40
0.3966846
50
155.4428632
51
155.7318101
0
ARC
8
DEFAULT_255_2_778
10
9.4170611
20
5.5793513
40
0.4620488
50
151.9502674
51
153.8479938
0
ARC
8
DEFAULT_255_2_778
10
10.0654255
20
5.2589264
40
1.1852687
50
153.7584175
51
156.1688941
0
ARC
8
DEFAULT_255_2_778
10
10.6776212
20
4.987304
40
1.855016
50
156.1345726
51
158.7824935
0
ARC
8
DEFAULT_255_2_778
10
11.2007967
20
4.7831833
40
2.4166004
50
158.7601604
51
161.4309298
0
ARC
8
DEFAULT_255_2_778
10
11.6450428
20
4.6334981
40
2.8853863
50
161.4225211
51
164.2290627
0
ARC
8
DEFAULT_255_2_778
10
11.9976752
20
4.5329645
40
3.2520685
50
164.2130928
51
166.5174247
0
ARC
8
DEFAULT_255_2_778
10
12.2885766
20
4.463177
40
3.5512237
50
166.5167686
51
168.9741298
0
ARC
8
DEFAULT_255_2_778
10
12.5652343
20
4.409177
40
3.8331022
50
168.9727573
51
171.4862827
0
ARC
8
DEFAULT_255_2_778
10
12.7162456
20
4.385549
40
3.9859477
50
171.4717514
51
171.8368346
0
ARC
8
DEFAULT_255_2_778
10
5.9217889
20
5.3650622
40
2.8787534
50
349.9627663
51
351.7407844
0
ARC
8
DEFAULT_255_2_778
10
3.3013144
20
5.8254521
40
5.5393622
50
348.834311
51
349.9976657
0
ARC
8
DEFAULT_255_2_778
10
-0.1957193
20
6.512165
40
9.103182
50
348.0997408
51
348.856185
0
ARC
8
DEFAULT_255_2_778
10
-3.4525839
20
7.1947332
40
12.4308023
50
347.7351217
51
348.116772
0
ARC
8
DEFAULT_255_2_778
10
-6.8533452
20
7.9359095
40
15.9113938
50
347.2044621
51
347.728528
0
ARC
8
DEFAULT_255_2_778
10
-9.503664
20
8.5352049
40
18.6286238
50
346.9201691
51
347.2123359
0
ARC
8
DEFAULT_255_2_778
10
-9.3524487
20
8.4991419
40
18.4731702
50
346.6638093
51
346.9229793
0
ARC
8
DEFAULT_255_2_778
10
-5.5690522
20
7.6018094
40
14.5848164
50
346.4907993
51
346.6655363
0
ARC
8
DEFAULT_255_2_778
10
1.8325944
20
5.8227954
40
6.9723752
50
346.3655679
51
346.4970214
0
ARC
8
DEFAULT_255_2_778
10
8.6180147
20
4.2577474
40
0.0790995
50
263.0800906
51
263.9511919
0
ARC
8
DEFAULT_255_2_778
10
8.6182231
20
4.2595701
40
0.080934
50
263.9404593
51
269.9999037
0
ARC
8
DEFAULT_255_2_778
10
8.6180787
20
4.2608888
40
0.0822527
50
270.1004558
51
311.2248721
0
ARC
8
DEFAULT_255_2_778
10
14.1541106
20
2.0795687
40
5.8772874
50
155.8954501
51
158.8618484
0
ARC
8
DEFAULT_255_2_778
10
13.1985678
20
2.5077132
40
4.8302109
50
152.877439
51
155.9021465
0
ARC
8
DEFAULT_255_2_778
10
12.321478
20
2.9571733
40
3.844665
50
150.0019633
51
152.8800213
0
ARC
8
DEFAULT_255_2_778
10
11.480769
20
3.4439379
40
2.8732077
50
146.9656543
51
150.0264775
0
ARC
8
DEFAULT_255_2_778
10
10.6736413
20
3.9692136
40
1.9102074
50
144.2154454
51
146.9765343
0
ARC
8
DEFAULT_255_2_778
10
9.8742325
20
4.5482728
40
0.9231142
50
141.1769905
51
144.3581849
0
ARC
8
DEFAULT_255_2_778
10
9.2159929
20
5.0801712
40
0.0768523
50
136.0325251
51
142.4693308
0
ARC
8
DEFAULT_255_2_778
10
8.5671427
20
3.7082451
40
1.5439276
50
57.4476675
51
67.3912438
0
ARC
8
DEFAULT_255_2_778
10
8.6156379
20
3.7865152
40
1.4518603
50
44.8813682
51
57.3988034
0
ARC
8
DEFAULT_255_2_778
10
8.5373911
20
3.7153094
40
1.5575566
50
29.5543576
51
44.7062733
0
ARC
8
DEFAULT_255_2_778
10
8.2166725
20
3.5344609
40
1.9257495
50
17.8255659
51
29.5282877
0
ARC
8
DEFAULT_255_2_778
10
7.768358
20
3.3850301
40
2.3982909
50
10.9071675
51
17.9454723
0
ARC
8
DEFAULT_255_2_778
10
7.392718
20
3.3097834
40
2.7813843
50
6.5155216
51
10.9650397
0
ARC
8
DEFAULT_255_2_778
10
7.1395622
20
3.2798244
40
3.0363045
50
3.191139
51
6.535133
0
ARC
8
DEFAULT_255_2_778
10
7.0203477
20
3.2725411
40
3.1557396
50
0.7483734
51
3.2026818
0
ARC
8
DEFAULT_255_2_778
10
7.0183772
20
3.2723897
40
3.1577119
50
0.0003829
51
0.7506533
0
ARC
8
DEFAULT_255_2_778
10
7.0601232
20
3.2722822
40
3.1159659
50
358.7720347
51
0.0023643
0
ARC
8
DEFAULT_255_2_778
10
7.1527861
20
3.2703041
40
3.0232819
50
357.9048478
51
358.7718804
0
ARC
8
DEFAULT_255_2_778
10
7.2985909
20
3.2647673
40
2.8773722
50
356.8378746
51
357.9088817
0
ARC
8
DEFAULT_255_2_778
10
7.5329418
20
3.2517315
40
2.6426591
50
355.8728087
51
356.8397997
0
ARC
8
DEFAULT_255_2_778
10
7.7423547
20
3.2369131
40
2.4327228
50
355.5554481
51
355.8659409
0
ARC
8
DEFAULT_255_2_778
10
7.9284784
20
3.2221937
40
2.2460182
50
354.8753484
51
355.5618647
0
ARC
8
DEFAULT_255_2_778
10
8.2200168
20
3.1961179
40
1.953316
50
354.3747626
51
354.8733119
0
ARC
8
DEFAULT_255_2_778
10
8.5452894
20
3.1638694
40
1.6264487
50
353.7494585
51
354.3821456
0
ARC
8
DEFAULT_255_2_778
10
8.9756831
20
3.1166291
40
1.1934703
50
353.1575205
51
353.7542513
0
ARC
8
DEFAULT_255_2_778
10
9.3664958
20
3.0699
40
0.7998739
50
352.9281251
51
353.1456817
0
ARC
8
DEFAULT_255_2_778
10
8.45635
20
3.9468546
40
2.4455828
50
336.493442
51
345.8952476
0
ARC
8
DEFAULT_255_2_778
10
7.1529954
20
4.2852687
40
3.7921284
50
345.7352431
51
351.9190364
0
ARC
8
DEFAULT_255_2_778
10
6.2726264
20
4.4211479
40
4.682869
50
351.7872083
51
354.5768982
0
ARC
8
DEFAULT_255_2_778
10
6.1378526
20
4.4355459
40
4.8184005
50
354.5579192
51
356.2529127
0
ARC
8
DEFAULT_255_2_778
10
6.4556163
20
4.4149544
40
4.4999704
50
356.2501223
51
357.3486498
0
ARC
8
DEFAULT_255_2_778
10
7.2570537
20
4.3792066
40
3.6977375
50
357.3275217
51
358.5821675
0
ARC
8
DEFAULT_255_2_778
10
8.5527308
20
4.3466657
40
2.4016519
50
358.5934166
51
359.305807
0
ARC
8
DEFAULT_255_2_778
10
9.9426926
20
4.3303847
40
1.0115951
50
359.2740644
51
359.8606354
0
ARC
8
DEFAULT_255_2_778
10
12.4394976
20
1.0173817
40
3.6284361
50
111.6390426
51
114.1624977
0
ARC
8
DEFAULT_255_2_778
10
12.2970415
20
1.3772436
40
3.2414034
50
108.7148237
51
111.644087
0
ARC
8
DEFAULT_255_2_778
10
12.1848986
20
1.7084394
40
2.8917368
50
105.5691929
51
108.7158796
0
ARC
8
DEFAULT_255_2_778
10
12.1019414
20
2.007005
40
2.5818605
50
101.9638923
51
105.5741259
0
ARC
8
DEFAULT_255_2_778
10
12.0457975
20
2.2722331
40
2.3107552
50
98.0350448
51
101.9652828
0
ARC
8
DEFAULT_255_2_778
10
12.0137213
20
2.5002252
40
2.0805177
50
93.6078499
51
98.0379976
0
ARC
8
DEFAULT_255_2_778
10
12.0025678
20
2.6683242
40
1.9120501
50
90.019968
51
93.5912666
0
ARC
8
DEFAULT_255_2_778
10
12.0046536
20
2.8465342
40
1.7338421
50
81.3311208
51
90.0909472
0
ARC
8
DEFAULT_255_2_778
10
12.0260947
20
2.99131
40
1.5874888
50
70.7754691
51
81.3085609
0
ARC
8
DEFAULT_255_2_778
10
12.0255369
20
2.9962969
40
1.5829651
50
58.1038301
51
70.6969724
0
ARC
8
DEFAULT_255_2_778
10
11.9167539
20
2.8281439
40
1.7832106
50
45.3005537
51
57.9910967
0
ARC
8
DEFAULT_255_2_778
10
11.6504024
20
2.556741
40
2.1634746
50
36.2464926
51
45.3423244
0
ARC
8
DEFAULT_255_2_778
10
11.4374228
20
2.3935172
40
2.4317529
50
34.5938581
51
36.3810386
0
ARC
8
DEFAULT_255_2_778
10
11.2667197
20
2.278435
40
2.6376147
50
29.3340282
51
34.5464552
0
ARC
8
DEFAULT_255_2_778
10
11.0551798
20
2.1580538
40
2.8810057
50
25.6540009
51
29.3601256
0
ARC
8
DEFAULT_255_2_778
10
10.962435
20
2.1127533
40
2.9842205
50
23.0800303
51
25.6671043
0
ARC
8
DEFAULT_255_2_778
10
10.9940065
20
2.1258135
40
2.9500562
50
20.7915703
51
23.0870543
0
ARC
8
DEFAULT_255_2_778
10
11.1550278
20
2.1868467
40
2.7778561
50
19.1389393
51
20.7936144
0
ARC
8
DEFAULT_255_2_778
10
11.4475488
20
2.2880082
40
2.468337
50
17.5753121
51
19.1467383
0
ARC
8
DEFAULT_255_2_778
10
11.8591398
20
2.4184085
40
2.0365833
50
16.3948114
51
17.5744778
0
ARC
8
DEFAULT_255_2_778
10
11.8257354
20
2.4103991
40
2.0708909
50
15.7184216
51
16.3465362
0
ARC
8
DEFAULT_255_2_778
10
13.879511
20
2.9378852
40
0.4803459
50
4.0037803
51
9.8179559
0
ARC
8
DEFAULT_255_2_778
10
12.1552376
20
2.6649699
40
2.2260453
50
9.1718515
51
11.1599083
0
ARC
8
DEFAULT_255_2_778
10
9.78428
20
2.2049742
40
4.6412075
50
11.0661311
51
12.1728344
0
ARC
8
DEFAULT_255_2_778
10
7.0324866
20
1.6102798
40
7.4565275
50
12.1811057
51
13.4980942
0
ARC
8
DEFAULT_255_2_778
10
4.7598604
20
1.068036
40
9.7929456
50
13.4794025
51
14.8278915
0
ARC
8
DEFAULT_255_2_778
10
4.268477
20
0.9410556
40
10.3004623
50
14.8111973
51
16.4091424
0
ARC
8
DEFAULT_255_2_778
10
5.3898907
20
1.2743804
40
9.130563
50
16.3905995
51
18.3174675
0
ARC
8
DEFAULT_255_2_778
10
7.697336
20
2.0484004
40
6.6967831
50
18.2352312
51
21.7519453
0
ARC
8
DEFAULT_255_2_778
10
9.8353943
20
2.8968167
40
4.3965495
50
21.8084309
51
24.8713068
0
ARC
8
DEFAULT_255_2_778
10
15.3313888
20
5.4482606
40
1.6628111
50
200.6083247
51
204.9848745
0
ARC
8
DEFAULT_255_2_778
10
14.9759549
20
5.3151077
40
1.2832553
50
195.3574067
51
200.629423
0
ARC
8
DEFAULT_255_2_778
10
14.6883468
20
5.236422
40
0.9850779
50
189.1809806
51
195.3745034
0
ARC
8
DEFAULT_255_2_778
10
14.4595191
20
5.1999736
40
0.7533662
50
181.3737336
51
189.2211978
0
ARC
8
DEFAULT_255_2_778
10
14.3550883
20
5.1954963
40
0.6488612
50
180.0040169
51
181.1995625
0
ARC
8
DEFAULT_255_2_778
10
14.2576743
20
5.1979673
40
0.5514529
50
169.0761717
51
180.2614697
0
ARC
8
DEFAULT_255_2_778
10
14.1390852
20
5.2209443
40
0.4306584
50
155.3210819
51
169.0878166
0
ARC
8
DEFAULT_255_2_778
10
14.0771082
20
5.2490851
40
0.3625928
50
140.5412164
51
155.272588
0
ARC
8
DEFAULT_255_2_778
10
14.0543442
20
5.2666685
40
0.3338438
50
137.1089799
51
140.3882599
0
ARC
8
DEFAULT_255_2_778
10
14.0325317
20
5.2880692
40
0.3032986
50
125.8835033
51
137.2664305
0
ARC
8
DEFAULT_255_2_778
10
13.9811792
20
5.3604989
40
0.2145172
50
115.3942936
51
126.1098598
0
ARC
8
DEFAULT_255_2_778
10
13.9243532
20
5.4828309
40
0.0796436
50
102.3751407
51
116.2045104
0
ARC
8
DEFAULT_255_2_778
10
14.0086165
20
4.983947
40
0.5855122
50
92.2117077
51
99.9660881
0
ARC
8
DEFAULT_255_2_778
10
14.0114428
20
4.9311527
40
0.6383768
50
89.991734
51
92.2823233
0
ARC
8
DEFAULT_255_2_778
10
13.9868221
20
4.6532557
40
0.9166071
50
64.1263525
51
88.4550535
0
ARC
8
DEFAULT_255_2_778
10
13.8859892
20
4.3954718
40
1.1927511
50
60.5717087
51
65.1720952
0
ARC
8
DEFAULT_255_2_778
10
13.91388
20
4.4448682
40
1.1360247
50
58.3974085
51
60.5728169
0
ARC
8
DEFAULT_255_2_778
10
14.2189366
20
4.9834857
40
0.5179112
50
11.1576099
51
55.9151246
0
ARC
8
DEFAULT_255_2_778
10
12.5986598
20
4.5058797
40
2.2054399
50
10.3397898
51
15.1887944
0
ARC
8
DEFAULT_255_2_778
10
4.2672045
20
2.9054819
40
10.6891378
50
10.315906
51
10.7634278
0
ARC
8
DEFAULT_255_2_778
10
35.9368914
20
8.6169654
40
21.491469
50
190.1770065
51
190.7068909
0
ARC
8
DEFAULT_255_2_778
10
17.4260178
20
5.0742229
40
2.6450076
50
189.7964889
51
199.2253507
0
ARC
8
DEFAULT_255_2_778
10
15.7126679
20
4.476724
40
0.8304628
50
199.2255304
51
218.2268779
0
ARC
8
DEFAULT_255_2_778
10
15.3784381
20
4.213236
40
0.4048627
50
218.202302
51
269.3899326
0
ARC
8
DEFAULT_255_2_778
10
15.3873537
20
4.3162528
40
0.5080287
50
268.5081546
51
270.0034962
0
ARC
8
DEFAULT_255_2_778
10
15.3782924
20
4.345307
40
0.5371599
50
270.9698698
51
347.7816979
0
ARC
8
DEFAULT_255_2_778
10
15.3919567
20
4.6651018
40
0.5989351
50
302.6384587
51
316.5661648
0
ARC
8
DEFAULT_255_2_778
10
15.4490694
20
4.5820121
40
0.4981738
50
300.9524235
51
302.2611282
0
ARC
8
DEFAULT_255_2_778
10
15.509242
20
4.4694649
40
0.3707589
50
280.7253914
51
301.9233065
0
ARC
8
DEFAULT_255_2_778
10
15.5380425
20
4.3399218
40
0.238156
50
270.1880136
51
279.7175078
0
ARC
8
DEFAULT_255_2_778
10
15.5386328
20
4.3018771
40
0.2001102
50
264.3939952
51
270.054739
0
ARC
8
DEFAULT_255_2_778
10
15.5395652
20
4.3014256
40
0.1997542
50
203.8586326
51
264.1151943
0
ARC
8
DEFAULT_255_2_778
10
15.8762871
20
4.4854
40
0.582998
50
192.6737055
51
207.0105493
0
ARC
8
DEFAULT_255_2_778
10
16.6990546
20
4.6847587
40
1.4295266
50
186.3527265
51
193.2343341
0
ARC
8
DEFAULT_255_2_778
10
18.3464607
20
4.8778868
40
3.0882016
50
182.6429816
51
186.531922
0
ARC
8
DEFAULT_255_2_778
10
21.4348659
20
5.0295468
40
6.1803216
50
180.4349279
51
182.7272051
0
ARC
8
DEFAULT_255_2_778
10
24.8520581
20
5.0737737
40
9.5977685
50
179.9899243
51
180.5440914
0
ARC
8
DEFAULT_255_2_778
10
27.2622993
20
5.0734685
40
12.0080098
50
179.4969818
51
179.9904905
0
ARC
8
DEFAULT_255_2_778
10
30.0834181
20
5.0496127
40
14.8292292
50
179.1495613
51
179.5005066
0
ARC
8
DEFAULT_255_2_778
10
33.2462205
20
5.0028726
40
17.992377
50
178.8473067
51
179.1502256
0
ARC
8
DEFAULT_255_2_778
10
14.5667776
20
6.398917
40
0.127393
50
179.9518426
51
270.0481574
0
ARC
8
DEFAULT_255_2_778
10
14.567162
20
6.399047
40
0.1277774
50
90.1243653
51
180.0102899
0
ARC
8
DEFAULT_255_2_778
10
14.5668436
20
6.3989831
40
0.127841
50
0.0183757
51
89.9815926
0
ARC
8
DEFAULT_255_2_778
10
14.567227
20
6.3989813
40
0.1274577
50
269.8461154
51
0.0192294
0
LINE
8
DEFAULT_255_2_778
10
10.1602847
20
2.9714241
11
10.6989847
21
2.9714241
0
LINE
8
DEFAULT_255_2_778
10
13.8191847
20
2.9714241
11
14.3586847
21
2.9714241
0
LINE
8
DEFAULT_255_2_778
10
15.9032847
20
4.2316241
11
15.8268847
21
4.2533241
0
LINE
8
DEFAULT_255_2_778
10
15.2574847
20
5.3648241
11
15.2587847
21
5.3650241
0
LINE
8
DEFAULT_255_2_778
10
14.5668847
20
6.2715241
11
14.5668847
21
6.2715241
0
ARC
8
DEFAULT_255_2_778
10
8.032137
20
4.9400126
40
1.2386019
50
355.2487364
51
359.2947404
0
ARC
8
DEFAULT_255_2_778
10
5.8613488
20
5.0955473
40
3.4149036
50
355.064281
51
355.6649475
0
ARC
8
DEFAULT_255_2_778
10
3.1504014
20
5.3293518
40
6.1359143
50
354.7190404
51
355.0671486
0
ARC
8
DEFAULT_255_2_778
10
-16.2136616
20
7.1128781
40
25.5819393
50
354.7255431
51
354.7331649
0
ARC
8
DEFAULT_255_2_778
10
-14.226012
20
6.9335819
40
23.5862241
50
354.7074118
51
354.7153867
0
ARC
8
DEFAULT_255_2_778
10
25.0447097
20
3.2641154
40
15.8555815
50
174.5938691
51
174.8461221
0
ARC
8
DEFAULT_255_2_778
10
11.3194907
20
4.5060416
40
2.0742934
50
174.9554101
51
175.4812119
0
ARC
8
DEFAULT_255_2_778
10
8.1508534
20
3.5954332
40
1.5379502
50
33.4592909
51
44.2950978
0
ARC
8
DEFAULT_255_2_778
10
7.9154999
20
3.4359966
40
1.8222079
50
27.571299
51
33.5615936
0
ARC
8
DEFAULT_255_2_778
10
7.6106866
20
3.2803227
40
2.1644614
50
19.1979712
51
27.4895388
0
ARC
8
DEFAULT_255_2_778
10
7.3368802
20
3.1807815
40
2.4557763
50
14.5716361
51
19.2905691
0
ARC
8
DEFAULT_255_2_778
10
7.3346325
20
3.178826
40
2.4584439
50
11.1210216
51
14.6025668
0
ARC
8
DEFAULT_255_2_778
10
7.6435401
20
3.2388582
40
2.1437579
50
8.6504354
51
11.1391363
0
ARC
8
DEFAULT_255_2_778
10
8.2423192
20
3.3295989
40
1.5381425
50
6.8737725
51
8.6635217
0
ARC
8
DEFAULT_255_2_778
10
9.0939019
20
3.4313075
40
0.6805086
50
5.5283771
51
6.9530707
0
ARC
8
DEFAULT_255_2_778
10
7.2637934
20
4.8537266
40
2.8510317
50
331.5808084
51
340.6541567
0
ARC
8
DEFAULT_255_2_778
10
8.8054458
20
3.7440612
40
1.1602214
50
8.1862552
51
30.5211598
0
ARC
8
DEFAULT_255_2_778
10
8.3165846
20
3.4760264
40
1.7175579
50
29.9415397
51
39.3914049
0
ARC
8
DEFAULT_255_2_778
10
8.0934222
20
3.3018556
40
2.000568
50
39.1904124
51
40.4381753
0
ARC
8
DEFAULT_255_2_778
10
7.9707039
20
3.1950187
40
2.1632677
50
40.4836217
51
45.3448131
0
ARC
8
DEFAULT_255_2_778
10
7.898744
20
3.1241586
40
2.2642506
50
45.3097568
51
48.2971617
0
ARC
8
DEFAULT_255_2_778
10
7.9924855
20
3.2302613
40
2.1226708
50
48.2809986
51
50.6353794
0
ARC
8
DEFAULT_255_2_778
10
8.2554485
20
3.5517884
40
1.7073049
50
50.614361
51
52.5497643
0
ARC
8
DEFAULT_255_2_778
10
8.6213499
20
4.0289531
40
1.1059981
50
52.5669584
51
53.6680166
0
ARC
8
DEFAULT_255_2_778
10
9.0021181
20
4.5473945
40
0.462752
50
53.6170918
51
54.5295879
0
ARC
8
DEFAULT_255_2_778
10
10.7124422
20
1.6182332
40
4.4898052
50
60.7288696
51
61.1705403
0
ARC
8
DEFAULT_255_2_778
10
11.7318402
20
3.3883579
40
2.4473853
50
52.5798648
51
61.2848174
0
ARC
8
DEFAULT_255_2_778
10
11.8354707
20
3.5531154
40
2.2536335
50
46.0298879
51
52.1270064
0
ARC
8
DEFAULT_255_2_778
10
11.1934355
20
2.8856152
40
3.1797891
50
42.2671707
51
46.0543931
0
ARC
8
DEFAULT_255_2_778
10
9.9418517
20
1.7448306
40
4.8732612
50
39.7153055
51
42.2953706
0
ARC
8
DEFAULT_255_2_778
10
7.8790974
20
0.0253745
40
7.5586793
50
38.1129748
51
39.7502528
0
ARC
8
DEFAULT_255_2_778
10
5.8958813
20
-1.5417354
40
10.0863105
50
37.7154417
51
38.1636783
0
ARC
8
DEFAULT_255_2_778
10
15.659595
20
5.573379
40
2.0195416
50
203.5431975
51
207.8970596
0
ARC
8
DEFAULT_255_2_778
10
15.2201878
20
5.3828106
40
1.5405904
50
198.1481369
51
203.5733817
0
ARC
8
DEFAULT_255_2_778
10
14.8526852
20
5.262986
40
1.1540473
50
191.5632904
51
198.1781266
0
ARC
8
DEFAULT_255_2_778
10
14.5586313
20
5.203531
40
0.854044
50
183.2558462
51
191.6099044
0
ARC
8
DEFAULT_255_2_778
10
14.404602
20
5.1924505
40
0.6996379
50
180.0241521
51
183.0662955
0
ARC
8
DEFAULT_255_2_778
10
14.2681669
20
5.1956618
40
0.5632136
50
167.4568799
51
180.3566965
0
ARC
8
DEFAULT_255_2_778
10
14.1217388
20
5.2287067
40
0.4131042
50
150.8781455
51
167.520089
0
ARC
8
DEFAULT_255_2_778
10
14.0365305
20
5.2765477
40
0.3153847
50
131.1525482
51
150.9372006
0
ARC
8
DEFAULT_255_2_778
10
14.0002528
20
5.3149863
40
0.2625767
50
126.4637892
51
130.7116577
0
ARC
8
DEFAULT_255_2_778
10
13.9795193
20
5.344228
40
0.2267383
50
115.7768809
51
126.6417251
0
ARC
8
DEFAULT_255_2_778
10
13.9617532
20
5.3795769
40
0.1871818
50
111.3046616
51
115.5852211
0
ARC
8
DEFAULT_255_2_778
10
13.7460458
20
6.0972146
40
0.5629681
50
284.291703
51
285.2100329
0
ARC
8
DEFAULT_255_2_778
10
13.5659955
20
6.798371
40
1.2868724
50
283.3579356
51
284.3536525
0
ARC
8
DEFAULT_255_2_778
10
13.439887
20
7.3283759
40
1.8316739
50
282.1244441
51
283.3656865
0
ARC
8
DEFAULT_255_2_778
10
13.357006
20
7.7133865
40
2.2255042
50
280.5275645
51
282.1287241
0
ARC
8
DEFAULT_255_2_778
10
13.3249575
20
7.8823962
40
2.3975247
50
279.7418174
51
280.542608
0
ARC
8
DEFAULT_255_2_778
10
13.3128784
20
7.9534943
40
2.4696414
50
277.4178477
51
279.7389065
0
ARC
8
DEFAULT_255_2_778
10
13.3208412
20
7.887138
40
2.4028126
50
274.2407122
51
277.4338412
0
ARC
8
DEFAULT_255_2_778
10
13.3378103
20
7.6456604
40
2.1607414
50
270.0542561
51
274.2654747
0
ARC
8
DEFAULT_255_2_778
10
13.336559
20
7.284076
40
1.7991592
50
264.059693
51
270.1050083
0
ARC
8
DEFAULT_255_2_778
10
13.3122432
20
7.0237099
40
1.5376771
50
261.5383952
51
263.9568275
0
ARC
8
DEFAULT_255_2_778
10
13.2687823
20
6.7626439
40
1.2730659
50
252.1637412
51
261.7442019
0
LINE
8
DEFAULT_255_2_778
10
9.270645
20
4.9242669
11
9.270645
21
4.9247669
0
LINE
8
DEFAULT_255_2_778
10
12.878845
20
5.5507669
11
12.877445
21
5.5515669
0
ARC
8
DEFAULT_255_2_778
10
10.764183
20
2.3025332
40
3.1864425
50
59.9741082
51
68.2661553
0
ARC
8
DEFAULT_255_2_778
10
10.8030639
20
2.4003824
40
3.0811516
50
68.263996
51
77.2010291
0
ARC
8
DEFAULT_255_2_778
10
10.8189152
20
2.4644465
40
3.015168
50
77.225073
51
79.2918487
0
ARC
8
DEFAULT_255_2_778
10
10.8291218
20
2.5235361
40
2.955211
50
79.2734216
51
86.61113
0
ARC
8
DEFAULT_255_2_778
10
10.8343884
20
2.5988708
40
2.8796968
50
86.627131
51
89.9949514
0
ARC
8
DEFAULT_255_2_778
10
10.8291253
20
2.7492321
40
2.729341
50
89.8841861
51
105.0548407
0
ARC
8
DEFAULT_255_2_778
10
10.746612
20
3.0409694
40
2.4261878
50
104.9626368
51
124.9065522
0
ARC
8
DEFAULT_255_2_778
10
8.6139519
20
3.7879847
40
1.4485185
50
47.4932225
51
59.0803949
0
ARC
8
DEFAULT_255_2_778
10
8.5696542
20
3.7449904
40
1.5101492
50
32.9690769
51
47.3564176
0
ARC
8
DEFAULT_255_2_778
10
8.2905916
20
3.5692131
40
1.8399337
50
19.3269524
51
32.8323349
0
ARC
8
DEFAULT_255_2_778
10
7.9982463
20
3.4552704
40
2.1535413
50
18.0114084
51
19.613423
0
ARC
8
DEFAULT_255_2_778
10
7.743189
20
3.3774351
40
2.4201715
50
10.7024084
51
17.896723
0
ARC
8
DEFAULT_255_2_778
10
7.34803
20
3.2997654
40
2.822882
50
6.1269831
51
10.761969
0
ARC
8
DEFAULT_255_2_778
10
7.0912725
20
3.270916
40
3.0812524
50
2.8217972
51
6.1507897
0
ARC
8
DEFAULT_255_2_778
10
6.9887782
20
3.2652084
40
3.1839034
50
0.3307603
51
2.8335829
0
ARC
8
DEFAULT_255_2_778
10
7.0100786
20
3.2653136
40
3.1626027
50
359.9993694
51
0.3310815
0
ARC
8
DEFAULT_255_2_778
10
7.0393814
20
3.2651559
40
3.1332999
50
358.8020807
51
0.0022478
0
ARC
8
DEFAULT_255_2_778
10
7.1323237
20
3.2632524
40
3.0403382
50
357.9558663
51
358.801327
0
ARC
8
DEFAULT_255_2_778
10
7.281182
20
3.2577919
40
2.8913798
50
356.9138679
51
357.9587863
0
ARC
8
DEFAULT_255_2_778
10
7.5195293
20
3.2448744
40
2.6526826
50
355.9710313
51
356.9153117
0
ARC
8
DEFAULT_255_2_778
10
7.7382687
20
3.2297469
40
2.4334207
50
355.6602194
51
355.9644688
0
ARC
8
DEFAULT_255_2_778
10
7.9159223
20
3.2159728
40
2.2552343
50
354.9965447
51
355.667621
0
ARC
8
DEFAULT_255_2_778
10
8.1971746
20
3.1914447
40
1.9729143
50
354.5093795
51
354.9937876
0
ARC
8
DEFAULT_255_2_778
10
8.5314784
20
3.1591047
40
1.6370499
50
353.862318
51
354.5165355
0
ARC
8
DEFAULT_255_2_778
10
8.9661547
20
3.1123722
40
1.1998687
50
353.3217327
51
353.8618341
0
ARC
8
DEFAULT_255_2_778
10
9.2497309
20
3.0794255
40
0.9143851
50
353.1302271
51
353.3057543
0
ARC
8
DEFAULT_255_2_778
10
8.4547935
20
3.9452282
40
2.4444015
50
336.4879273
51
345.90498
0
ARC
8
DEFAULT_255_2_778
10
7.1498748
20
4.2838939
40
3.7925239
50
345.7436034
51
351.923854
0
ARC
8
DEFAULT_255_2_778
10
6.2693339
20
4.419718
40
4.683426
50
351.7920886
51
354.5801802
0
ARC
8
DEFAULT_255_2_778
10
6.1348905
20
4.4340843
40
4.8186254
50
354.5611137
51
356.2552666
0
ARC
8
DEFAULT_255_2_778
10
6.4533412
20
4.4134823
40
4.4995091
50
356.2522045
51
357.3503533
0
ARC
8
DEFAULT_255_2_778
10
7.2542094
20
4.3777884
40
3.6978472
50
357.3291689
51
358.5832176
0
ARC
8
DEFAULT_255_2_778
10
8.5537519
20
4.3452244
40
2.3978969
50
358.5933213
51
359.3065094
0
ARC
8
DEFAULT_255_2_778
10
9.9408419
20
4.3290126
40
1.0107123
50
359.2737477
51
359.8605696
0
ARC
8
DEFAULT_255_2_778
10
12.439726
20
1.0148197
40
3.6307358
50
111.6718595
51
114.1974502
0
ARC
8
DEFAULT_255_2_778
10
12.2965082
20
1.376009
40
3.2421885
50
108.7443873
51
111.6769754
0
ARC
8
DEFAULT_255_2_778
10
12.1839713
20
1.7078179
40
2.8918149
50
105.594935
51
108.7455269
0
ARC
8
DEFAULT_255_2_778
10
12.1007382
20
2.0068486
40
2.5814166
50
101.9848117
51
105.5998354
0
ARC
8
DEFAULT_255_2_778
10
12.0443099
20
2.2728922
40
2.3094545
50
98.0494227
51
101.9859603
0
ARC
8
DEFAULT_255_2_778
10
12.0121195
20
2.5013481
40
2.078742
50
93.6146025
51
98.0526419
0
ARC
8
DEFAULT_255_2_778
10
12.0009299
20
2.6696584
40
1.9100612
50
90.0199215
51
93.5979193
0
ARC
8
DEFAULT_255_2_778
10
12.0030208
20
2.8479328
40
1.731789
50
81.3235581
51
90.091147
0
ARC
8
DEFAULT_255_2_778
10
12.0244746
20
2.992675
40
1.5854669
50
70.7578129
51
81.3009113
0
ARC
8
DEFAULT_255_2_778
10
12.023826
20
2.9974287
40
1.581194
50
58.0539674
51
70.678854
0
ARC
8
DEFAULT_255_2_778
10
11.9146153
20
2.8289002
40
1.7819875
50
45.253948
51
57.9414797
0
ARC
8
DEFAULT_255_2_778
10
11.6479161
20
2.5575784
40
2.1624372
50
36.2025676
51
45.2958757
0
ARC
8
DEFAULT_255_2_778
10
11.4344197
20
2.394239
40
2.4311964
50
34.5505915
51
36.3369991
0
ARC
8
DEFAULT_255_2_778
10
11.2644643
20
2.2798601
40
2.636045
50
29.2947842
51
34.5031632
0
ARC
8
DEFAULT_255_2_778
10
11.0535489
20
2.1600154
40
2.8786278
50
25.6159145
51
29.3209917
0
ARC
8
DEFAULT_255_2_778
10
10.9620584
20
2.1154011
40
2.9804142
50
23.0404761
51
25.628883
0
ARC
8
DEFAULT_255_2_778
10
10.995372
20
2.1291679
40
2.9443702
50
20.7483599
51
23.0476706
0
ARC
8
DEFAULT_255_2_778
10
11.1616202
20
2.1920366
40
2.7666318
50
19.0883395
51
20.750523
0
ARC
8
DEFAULT_255_2_778
10
11.4624753
20
2.2957471
40
2.4484032
50
17.5103003
51
19.0972152
0
ARC
8
DEFAULT_255_2_778
10
11.8995576
20
2.4336489
40
1.9900824
50
16.2979241
51
17.5101926
0
ARC
8
DEFAULT_255_2_778
10
12.170914
20
2.5138969
40
1.7071103
50
15.4982862
51
16.2686578
0
ARC
8
DEFAULT_255_2_778
10
11.2066022
20
2.6246015
40
2.6321168
50
7.5415296
51
29.8219121
0
ARC
8
DEFAULT_255_2_778
10
10.9174811
20
2.4672724
40
2.9612006
50
29.6809215
51
47.3480044
0
ARC
8
DEFAULT_255_2_778
10
10.7817591
20
2.3249981
40
3.1578005
50
47.2858765
51
60.058819
0
LINE
8
DEFAULT_255_2_778
10
10.1575511
20
2.9700531
11
10.6962511
21
2.9700531
0
LINE
8
DEFAULT_255_2_778
10
12.3578511
20
5.0613531
11
12.3586511
21
5.0613531
0
ARC
8
DEFAULT_255_2_778
10
17.912711
20
5.7714431
40
5.9439778
50
169.6523517
51
172.2252384
0
ARC
8
DEFAULT_255_2_778
10
16.5309668
20
6.0246662
40
4.5392223
50
166.6778556
51
169.6639051
0
ARC
8
DEFAULT_255_2_778
10
15.3967911
20
6.2942799
40
3.3734417
50
163.1602872
51
166.6950947
0
ARC
8
DEFAULT_255_2_778
10
14.4635275
20
6.5785619
40
2.397843
50
158.6544136
51
163.2016154
0
ARC
8
DEFAULT_255_2_778
10
13.7271509
20
6.8678961
40
1.6066656
50
152.9456487
51
158.7061561
0
ARC
8
DEFAULT_255_2_778
10
13.2519605
20
7.1094719
40
1.0735959
50
147.4226792
51
152.8927073
0
ARC
8
DEFAULT_255_2_778
10
12.9568748
20
7.2988853
40
0.7229504
50
140.5648125
51
147.4802983
0
ARC
8
DEFAULT_255_2_778
10
12.756819
20
7.4642091
40
0.4634245
50
131.8262689
51
140.6402694
0
ARC
8
DEFAULT_255_2_778
10
12.7230631
20
7.4145367
40
0.4814682
50
91.9031894
51
124.873875
0
ARC
8
DEFAULT_255_2_778
10
12.7284566
20
6.9754642
40
0.9205234
50
89.9971631
51
91.331086
0
ARC
8
DEFAULT_255_2_778
10
12.7059864
20
6.6015462
40
1.2946371
50
72.9557183
51
89.003483
0
ARC
8
DEFAULT_255_2_778
10
12.2377639
20
4.9985089
40
2.9645909
50
66.4632369
51
73.384967
0
ARC
8
DEFAULT_255_2_778
10
10.7255712
20
1.4206102
40
6.8488292
50
64.8220748
51
66.8179855
0
ARC
8
DEFAULT_255_2_778
10
11.3311975
20
3.7352601
40
4.5175905
50
59.2756328
51
63.0042582
0
ARC
8
DEFAULT_255_2_778
10
11.8916554
20
4.8379696
40
3.2806267
50
62.9840677
51
67.4253676
0
ARC
8
DEFAULT_255_2_778
10
12.2493294
20
5.7016434
40
2.3458215
50
67.394017
51
72.8392233
0
ARC
8
DEFAULT_255_2_778
10
12.4493471
20
6.3528169
40
1.6646221
50
72.8041715
51
79.4988447
0
ARC
8
DEFAULT_255_2_778
10
12.5267169
20
6.7664391
40
1.2438267
50
79.5305877
51
86.8469227
0
ARC
8
DEFAULT_255_2_778
10
12.532446
20
6.8233598
40
1.1866797
50
86.9719505
51
90.0373151
0
ARC
8
DEFAULT_255_2_778
10
12.5121703
20
7.6279132
40
0.3826234
50
87.0782917
51
88.1549978
0
ARC
8
DEFAULT_255_2_778
10
12.5121837
20
7.6284433
40
0.3820932
50
88.1544521
51
90.0061394
0
ARC
8
DEFAULT_255_2_778
10
12.5120382
20
7.6323291
40
0.3782075
50
89.9841523
51
106.6182757
0
ARC
8
DEFAULT_255_2_778
10
12.432642
20
7.9129655
40
0.0866867
50
109.3824026
51
154.0708988
0
ARC
8
DEFAULT_255_2_778
10
38.560956
20
-6.0273523
40
29.7011704
50
151.9248872
51
151.9954679
0
ARC
8
DEFAULT_255_2_778
10
12.2619563
20
7.9630636
40
0.0876541
50
327.2455285
51
329.5007319
0
ARC
8
DEFAULT_255_2_778
10
13.9221402
20
6.7162569
40
1.9888177
50
142.9104147
51
145.1132299
0
ARC
8
DEFAULT_255_2_778
10
13.7487939
20
6.8388973
40
1.7764802
50
145.1601056
51
148.5549579
0
ARC
8
DEFAULT_255_2_778
10
13.8425751
20
6.7821089
40
1.8861141
50
148.5693975
51
152.0363763
0
ARC
8
DEFAULT_255_2_778
10
14.0227956
20
6.68674
40
2.0900128
50
152.0438653
51
155.7156307
0
ARC
8
DEFAULT_255_2_778
10
14.2909105
20
6.5664554
40
2.3838726
50
155.7306571
51
159.9441942
0
ARC
8
DEFAULT_255_2_778
10
14.6653543
20
6.4299505
40
2.7824221
50
159.9479593
51
164.1552495
0
ARC
8
DEFAULT_255_2_778
10
15.1383787
20
6.2955001
40
3.2741833
50
164.1519016
51
168.0794982
0
ARC
8
DEFAULT_255_2_778
10
15.7021894
20
6.1760348
40
3.8505113
50
168.0730778
51
171.6141614
0
ARC
8
DEFAULT_255_2_778
10
16.2923088
20
6.0875548
40
4.4472253
50
171.5951977
51
174.2354243
0
ARC
8
DEFAULT_255_2_778
10
12.4507041
20
6.7176253
40
0.6112873
50
197.4575895
51
206.8029087
0
ARC
8
DEFAULT_255_2_778
10
12.8054864
20
6.8952511
40
1.0080494
50
206.7212196
51
213.5082302
0
ARC
8
DEFAULT_255_2_778
10
13.1758975
20
7.1347416
40
1.4491209
50
213.3184763
51
216.3453781
0
ARC
8
DEFAULT_255_2_778
10
13.7861421
20
7.5959436
40
2.2140017
50
216.5994346
51
222.5508869
0
ARC
8
DEFAULT_255_2_778
10
14.5811919
20
8.3102638
40
3.2827718
50
222.351481
51
224.785369
0
ARC
8
DEFAULT_255_2_778
10
15.2480286
20
8.9739207
40
4.223575
50
224.802676
51
227.5665005
0
ARC
8
DEFAULT_255_2_778
10
15.7033546
20
9.4670323
40
4.8947465
50
227.527414
51
229.0788314
0
ARC
8
DEFAULT_255_2_778
10
15.7148505
20
9.4791333
40
4.9114203
50
229.0699645
51
230.028574
0
ARC
8
DEFAULT_255_2_778
10
15.3622211
20
9.0572941
40
4.3616066
50
230.0187351
51
230.9344042
0
ARC
8
DEFAULT_255_2_778
10
14.597027
20
8.1141284
40
3.1470766
50
230.9293723
51
231.5853024
0
ARC
8
DEFAULT_255_2_778
10
13.5071249
20
6.738588
40
1.3920847
50
231.5558758
51
232.0783589
0
ARC
8
DEFAULT_255_2_778
10
13.6173152
20
6.6090558
40
1.3677996
50
224.666665
51
225.0851395
0
ARC
8
DEFAULT_255_2_778
10
14.8055688
20
7.78578
40
3.0401111
50
224.2446972
51
224.6963796
0
ARC
8
DEFAULT_255_2_778
10
15.6975552
20
8.6546022
40
4.2852985
50
223.5717815
51
224.2451608
0
ARC
8
DEFAULT_255_2_778
10
16.2403591
20
9.1716575
40
5.034953
50
222.7224538
51
223.5772205
0
ARC
8
DEFAULT_255_2_778
10
16.3204561
20
9.2466271
40
5.1446591
50
221.3504759
51
222.7306353
0
ARC
8
DEFAULT_255_2_778
10
15.8031414
20
8.7949604
40
4.4579214
50
218.9808652
51
221.3853409
0
ARC
8
DEFAULT_255_2_778
10
14.6650167
20
7.883251
40
2.9996812
50
214.3863998
51
219.1188996
0
ARC
8
DEFAULT_255_2_778
10
13.5412207
20
7.1152924
40
1.6385506
50
208.3331819
51
214.4189764
0
ARC
8
DEFAULT_255_2_778
10
12.8556445
20
6.7462957
40
0.8599798
50
200.3640132
51
208.371903
0
ARC
8
DEFAULT_255_2_778
10
12.4487552
20
6.5974178
40
0.4267185
50
187.5434304
51
200.6349186
0
ARC
8
DEFAULT_255_2_778
10
12.2804365
20
6.5717817
40
0.2565123
50
180.1488822
51
186.8023422
0
ARC
8
DEFAULT_255_2_778
10
12.2437068
20
6.5711366
40
0.2197818
50
178.8000226
51
180.0055836
0
LINE
8
DEFAULT_255_2_778
10
12.0239731
20
6.5757393
11
12.0233731
21
6.5755393
0
ARC
8
DEFAULT_255_2_778
10
9.9194528
20
4.5228656
40
1.0205559
50
15.0213539
51
63.4008824
0
ARC
8
DEFAULT_255_2_778
10
9.6498494
20
4.4204975
40
1.3077998
50
359.8531476
51
16.291737
0
ARC
8
DEFAULT_255_2_778
10
9.5666951
20
4.4172939
40
1.3909497
50
356.3360925
51
359.9938883
0
ARC
8
DEFAULT_255_2_778
10
10.0032884
20
4.2786839
40
1.2112031
50
7.1389346
51
63.9666102
0
ARC
8
DEFAULT_255_2_778
10
9.9576513
20
4.2396336
40
1.2665462
50
62.8868241
51
70.7556462
0
LINE
8
DEFAULT_255_2_778
10
10.9548019
20
4.3284071
11
11.2051019
21
4.4292071
0
LINE
8
DEFAULT_255_2_778
10
10.3751019
20
5.4354071
11
10.3764019
21
5.4354071
0
ARC
8
DEFAULT_255_2_778
10
5.0909185
20
3.9137631
40
0.5561097
50
12.4341002
51
25.8460463
0
ARC
8
DEFAULT_255_2_778
10
4.7047374
20
3.8260625
40
0.9521193
50
3.5407315
51
12.5840854
0
ARC
8
DEFAULT_255_2_778
10
4.2488697
20
3.7910985
40
1.4092923
50
359.9161231
51
3.8149028
0
ARC
8
DEFAULT_255_2_778
10
3.7533253
20
3.7931639
40
1.9048396
50
355.6089318
51
359.8758176
0
ARC
8
DEFAULT_255_2_778
10
2.8576962
20
3.8669567
40
2.8034941
50
350.2073794
51
355.5066717
0
ARC
8
DEFAULT_255_2_778
10
2.0286773
20
4.0013125
40
3.6432958
50
348.1079714
51
350.3426807
0
ARC
8
DEFAULT_255_2_778
10
1.8013492
20
4.047788
40
3.8753222
50
347.8486832
51
348.1281834
0
ARC
8
DEFAULT_255_2_778
10
1.7521205
20
4.0585052
40
3.9257039
50
346.4390377
51
347.847009
0
ARC
8
DEFAULT_255_2_778
10
1.8874763
20
4.0255766
40
3.7864007
50
345.5118093
51
346.4431583
0
ARC
8
DEFAULT_255_2_778
10
2.3435739
20
3.9071559
40
3.315181
50
344.5562102
51
345.5212837
0
ARC
8
DEFAULT_255_2_778
10
3.201684
20
3.6697954
40
2.424848
50
343.7592497
51
344.5628552
0
ARC
8
DEFAULT_255_2_778
10
4.3961293
20
3.3207278
40
1.1804424
50
342.7867941
51
343.8118044
0
ARC
8
DEFAULT_255_2_778
10
1.4926035
20
5.8893013
40
5.3323784
50
326.824583
51
329.6874397
0
ARC
8
DEFAULT_255_2_778
10
2.6332556
20
5.2235028
40
4.011631
50
329.6741195
51
332.8431495
0
ARC
8
DEFAULT_255_2_778
10
3.6177387
20
4.7192157
40
2.9055063
50
332.8303124
51
336.2191867
0
ARC
8
DEFAULT_255_2_778
10
4.4854151
20
4.3385256
40
1.9579917
50
336.1749033
51
340.1114366
0
ARC
8
DEFAULT_255_2_778
10
5.247731
20
4.063892
40
1.1477156
50
340.0575071
51
344.2237675
0
ARC
8
DEFAULT_255_2_778
10
5.8993147
20
3.881593
40
0.4711161
50
344.0144279
51
348.4322627
0
ARC
8
DEFAULT_255_2_778
10
6.2861976
20
3.8016806
40
0.0760702
50
348.9663283
51
349.9468528
0
ARC
8
DEFAULT_255_2_778
10
5.4422319
20
2.8518387
40
1.3120473
50
45.5464073
51
83.4806654
0
LINE
8
DEFAULT_255_2_778
10
5.5236998
20
2.9714016
11
5.9557998
21
2.9714016
0
LINE
8
DEFAULT_255_2_778
10
5.5911998
20
4.1554016
11
5.5913998
21
4.1562016
0
ARC
8
DEFAULT_255_2_778
10
0.0778033
20
4.6761522
40
3.2273141
50
354.0158518
51
357.4668149
0
ARC
8
DEFAULT_255_2_778
10
-1.0331757
20
4.7906574
40
4.3441772
50
351.3955484
51
354.0414645
0
ARC
8
DEFAULT_255_2_778
10
-2.7484194
20
5.058351
40
6.0801711
50
347.6064233
51
351.3196026
0
ARC
8
DEFAULT_255_2_778
10
-4.3649581
20
5.4015545
40
7.7327077
50
346.1489565
51
347.693451
0
ARC
8
DEFAULT_255_2_778
10
-4.71132
20
5.4848028
40
8.0889278
50
346.0695085
51
346.1637673
0
ARC
8
DEFAULT_255_2_778
10
-5.0748646
20
5.5757468
40
8.4636745
50
344.7436137
51
346.0644463
0
ARC
8
DEFAULT_255_2_778
10
-4.9773906
20
5.5480118
40
8.3623376
50
343.7273837
51
344.7512078
0
ARC
8
DEFAULT_255_2_778
10
-4.0919287
20
5.2893072
40
7.4398568
50
343.0140056
51
343.7291335
0
ARC
8
DEFAULT_255_2_778
10
-2.4038947
20
4.772145
40
5.6743787
50
342.2090785
51
343.0287772
0
ARC
8
DEFAULT_255_2_778
10
0.0720859
20
3.9764813
40
3.0736944
50
341.3677544
51
342.2294191
0
ARC
8
DEFAULT_255_2_778
10
2.3363133
20
3.2099499
40
0.6832432
50
339.5660769
51
341.6153519
0
ARC
8
DEFAULT_255_2_778
10
1.7388169
20
4.4598907
40
2.2345654
50
318.2320124
51
340.7047977
0
ARC
8
DEFAULT_255_2_778
10
2.9047458
20
3.5826832
40
0.9532809
50
8.3738722
51
32.3271814
0
ARC
8
DEFAULT_255_2_778
10
2.4873288
20
3.3405977
40
1.435579
50
31.5827815
51
40.5579868
0
ARC
8
DEFAULT_255_2_778
10
2.2585709
20
3.1498703
40
1.7333959
50
40.4311405
51
45.634989
0
ARC
8
DEFAULT_255_2_778
10
2.2132087
20
3.1054689
40
1.7968576
50
45.5908972
51
49.0783744
0
ARC
8
DEFAULT_255_2_778
10
2.3440083
20
3.2571785
40
1.596548
50
49.0589675
51
51.4462635
0
ARC
8
DEFAULT_255_2_778
10
2.6156761
20
3.5984861
40
1.1603208
50
51.432996
51
53.1353849
0
ARC
8
DEFAULT_255_2_778
10
3.000785
20
4.1132076
40
0.5174788
50
53.0593805
51
54.4078533
0
LINE
8
DEFAULT_255_2_778
10
2.9765637
20
2.9714113
11
3.4054637
21
2.9714113
0
LINE
8
DEFAULT_255_2_778
10
3.3019637
20
4.5340113
11
3.3019637
21
4.5335113
0
ARC
8
DEFAULT_255_2_778
10
5.3749328
20
4.9413296
40
2.7181888
50
358.8416469
51
359.8535243
0
ARC
8
DEFAULT_255_2_778
10
5.3431734
20
4.9412587
40
2.7499478
50
359.8566942
51
359.9982275
0
ARC
8
DEFAULT_255_2_778
10
5.5455472
20
4.9434772
40
2.547575
50
359.9481923
51
5.939268
0
ARC
8
DEFAULT_255_2_778
10
5.7618843
20
4.9656211
40
2.3301078
50
5.9481254
51
11.892988
0
ARC
8
DEFAULT_255_2_778
10
5.9183623
20
4.9985277
40
2.1702071
50
11.8942423
51
18.2935102
0
ARC
8
DEFAULT_255_2_778
10
6.0304616
20
5.0352782
40
2.0522377
50
18.3016919
51
24.1928829
0
ARC
8
DEFAULT_255_2_778
10
6.1183832
20
5.0747848
40
1.955848
50
24.1927164
51
29.9076063
0
ARC
8
DEFAULT_255_2_778
10
6.173724
20
5.105767
40
1.8924292
50
29.9299144
51
31.1793367
0
ARC
8
DEFAULT_255_2_778
10
6.2316116
20
5.1416969
40
1.8243019
50
31.1551417
51
35.9029847
0
ARC
8
DEFAULT_255_2_778
10
6.348838
20
5.2267602
40
1.6794649
50
35.8975626
51
39.9898084
0
ARC
8
DEFAULT_255_2_778
10
6.5000944
20
5.3537493
40
1.4819689
50
39.9863794
51
43.3149465
0
ARC
8
DEFAULT_255_2_778
10
6.6986003
20
5.5415535
40
1.2087019
50
43.2927381
51
46.4187214
0
ARC
8
DEFAULT_255_2_778
10
6.9600529
20
5.8169803
40
0.8289426
50
46.385614
51
49.0916573
0
ARC
8
DEFAULT_255_2_778
10
7.2720301
20
6.1781454
40
0.3516913
50
48.9727185
51
51.185862
0
ARC
8
DEFAULT_255_2_778
10
5.5496974
20
2.351089
40
4.5379835
50
64.6521491
51
67.5263425
0
ARC
8
DEFAULT_255_2_778
10
6.0296091
20
3.5132898
40
3.2805953
50
67.5124336
51
70.7018009
0
ARC
8
DEFAULT_255_2_778
10
6.3729801
20
4.4983347
40
2.2374206
50
70.6642913
51
74.4571266
0
ARC
8
DEFAULT_255_2_778
10
6.6055002
20
5.3403716
40
1.3638719
50
74.3892877
51
78.8849261
0
ARC
8
DEFAULT_255_2_778
10
6.7399264
20
6.0338013
40
0.6575373
50
78.7302715
51
83.9037851
0
ARC
8
DEFAULT_255_2_778
10
6.7897695
20
6.4996512
40
0.1890286
50
83.9306706
51
87.3630625
0
ARC
8
DEFAULT_255_2_778
10
4.9466446
20
3.5502933
40
3.6438244
50
59.4554465
51
63.5827875
0
ARC
8
DEFAULT_255_2_778
10
5.4382722
20
4.5429789
40
2.53607
50
63.5520818
51
68.6039104
0
ARC
8
DEFAULT_255_2_778
10
5.7336757
20
5.3013802
40
1.7221707
50
68.5496704
51
75.0279019
0
ARC
8
DEFAULT_255_2_778
10
5.8759575
20
5.8355837
40
1.1693443
50
75.0005011
51
82.7871941
0
ARC
8
DEFAULT_255_2_778
10
5.9110911
20
6.095902
40
0.9066774
50
82.9244062
51
90.0015777
0
ARC
8
DEFAULT_255_2_778
10
5.8966083
20
6.6926169
40
0.3102997
50
87.3294582
51
89.9997356
0
ARC
8
DEFAULT_255_2_778
10
5.8965724
20
6.6940476
40
0.3088691
50
89.9930753
51
106.3806204
0
ARC
8
DEFAULT_255_2_778
10
5.8321706
20
6.9258684
40
0.0683899
50
109.3894027
51
154.6190153
0
ARC
8
DEFAULT_255_2_778
10
3.9172096
20
7.9136833
40
2.0863773
50
331.7775907
51
332.6510244
0
ARC
8
DEFAULT_255_2_778
10
5.7005011
20
6.9609331
40
0.0646481
50
327.9003315
51
328.3860096
0
ARC
8
DEFAULT_255_2_778
10
7.092816
20
5.9195058
40
1.6742871
50
143.0230218
51
145.6376323
0
ARC
8
DEFAULT_255_2_778
10
6.9168874
20
6.0421174
40
1.4598568
50
145.7128104
51
149.6253731
0
ARC
8
DEFAULT_255_2_778
10
7.015892
20
5.9848434
40
1.5742328
50
149.6490096
51
153.9817239
0
ARC
8
DEFAULT_255_2_778
10
7.1352312
20
5.9253605
40
1.7075705
50
153.9446315
51
155.4493865
0
ARC
8
DEFAULT_255_2_778
10
7.3070642
20
5.8490596
40
1.8955728
50
155.5096321
51
160.4166641
0
ARC
8
DEFAULT_255_2_778
10
7.6376288
20
5.7313126
40
2.2464822
50
160.4131418
51
164.9854153
0
ARC
8
DEFAULT_255_2_778
10
8.0562014
20
5.6188976
40
2.6798872
50
164.9824305
51
169.2491294
0
ARC
8
DEFAULT_255_2_778
10
8.5760096
20
5.5199474
40
3.2090297
50
169.2446843
51
173.1708909
0
ARC
8
DEFAULT_255_2_778
10
8.9869496
20
5.4673859
40
3.6233058
50
173.1183227
51
174.3790108
0
ARC
8
DEFAULT_255_2_778
10
5.8591737
20
5.972738
40
0.5012231
50
197.4685693
51
207.6976191
0
ARC
8
DEFAULT_255_2_778
10
6.1899334
20
6.1445576
40
0.8739462
50
207.5922249
51
214.8149546
0
ARC
8
DEFAULT_255_2_778
10
6.4810634
20
6.3398656
40
1.2244849
50
214.5404615
51
216.3648072
0
ARC
8
DEFAULT_255_2_778
10
7.1420851
20
6.8551132
40
2.0624087
50
217.0029907
51
225.178706
0
ARC
8
DEFAULT_255_2_778
10
8.1419471
20
7.8286774
40
3.457843
50
224.7984651
51
227.9681523
0
ARC
8
DEFAULT_255_2_778
10
8.4945492
20
8.2142224
40
3.9802996
50
227.9139691
51
229.5929964
0
ARC
8
DEFAULT_255_2_778
10
8.3182945
20
8.0058971
40
3.7074178
50
229.5801948
51
230.6826679
0
ARC
8
DEFAULT_255_2_778
10
7.723962
20
7.2796438
40
2.7689749
50
230.6752084
51
231.4475677
0
ARC
8
DEFAULT_255_2_778
10
6.7871706
20
6.1029383
40
1.2649095
50
231.4134961
51
232.0144577
0
ARC
8
DEFAULT_255_2_778
10
6.3001026
20
6.0763108
40
1.0131525
50
230.2378302
51
253.2824916
0
ARC
8
DEFAULT_255_2_778
10
6.5905977
20
6.4592104
40
1.4934472
50
224.1633399
51
231.066469
0
ARC
8
DEFAULT_255_2_778
10
6.8050629
20
6.6690675
40
1.7935043
50
218.3966172
51
224.199217
0
ARC
8
DEFAULT_255_2_778
10
6.8918748
20
6.7402801
40
1.9057727
50
214.8523724
51
218.4535157
0
ARC
8
DEFAULT_255_2_778
10
6.7429928
20
6.6374617
40
1.7248392
50
212.3646666
51
214.8757923
0
ARC
8
DEFAULT_255_2_778
10
6.3595347
20
6.3948377
40
1.2710701
50
210.6057859
51
212.379683
0
ARC
8
DEFAULT_255_2_778
10
5.7566243
20
6.0391276
40
0.5710492
50
209.2869465
51
210.6862943
0
ARC
8
DEFAULT_255_2_778
10
7.1637887
20
5.9783354
40
1.9177174
50
181.0160788
51
186.544028
0
ARC
8
DEFAULT_255_2_778
10
7.3952044
20
5.9853756
40
2.1492235
50
179.9965976
51
181.0943316
0
ARC
8
DEFAULT_255_2_778
10
7.6501213
20
5.9825001
40
2.4041423
50
175.5070819
51
179.9284305
0
ARC
8
DEFAULT_255_2_778
10
8.09822
20
5.9487466
40
2.8535086
50
172.8808755
51
175.5362441
0
ARC
8
DEFAULT_255_2_778
10
8.5919841
20
5.8883564
40
3.3509506
50
171.7040101
51
172.9025719
0
ARC
8
DEFAULT_255_2_778
10
9.8440885
20
5.7066272
40
4.616174
50
171.6688993
51
171.7143715
0
ARC
8
DEFAULT_255_2_778
10
9.819511
20
5.7094138
40
4.5914522
50
171.6139982
51
171.6588669
0
ARC
8
DEFAULT_255_2_778
10
9.6166513
20
5.7386594
40
4.3864963
50
171.5593826
51
171.6054757
0
ARC
8
DEFAULT_255_2_778
10
9.4225003
20
5.7669221
40
4.1902996
50
171.5046206
51
171.5519751
0
ARC
8
DEFAULT_255_2_778
10
9.4080576
20
5.7686569
40
4.1757593
50
171.4522516
51
171.4988873
0
ARC
8
DEFAULT_255_2_778
10
9.2295905
20
5.795682
40
3.9952578
50
171.4072657
51
171.4551011
0
ARC
8
DEFAULT_255_2_778
10
9.2239721
20
5.7963215
40
3.9896068
50
171.3572803
51
171.4042914
0
ARC
8
DEFAULT_255_2_778
10
8.8255969
20
5.8570931
40
3.5866231
50
171.3009056
51
171.3607421
0
ARC
8
DEFAULT_255_2_778
10
9.6637888
20
5.7289866
40
4.4345481
50
171.2553682
51
171.3027112
0
ARC
8
DEFAULT_255_2_778
10
9.6138679
20
5.7366668
40
4.3840399
50
171.2085397
51
171.2553862
0
ARC
8
DEFAULT_255_2_778
10
10.5280271
20
5.5946268
40
5.3091679
50
171.160966
51
171.2014984
0
ARC
8
DEFAULT_255_2_778
10
10.1235613
20
5.6569942
40
4.8999222
50
171.1105328
51
171.1548489
0
ARC
8
DEFAULT_255_2_778
10
9.7001331
20
5.7230671
40
4.4713698
50
171.0600441
51
171.1085776
0
ARC
8
DEFAULT_255_2_778
10
9.678886
20
5.7262913
40
4.4498797
50
171.0106062
51
171.0585417
0
ARC
8
DEFAULT_255_2_778
10
11.1317508
20
5.496322
40
5.9208325
50
170.974198
51
171.0093268
0
ARC
8
DEFAULT_255_2_778
10
11.1065814
20
5.4995512
40
5.8954682
50
170.9324175
51
170.9668181
0
ARC
8
DEFAULT_255_2_778
10
9.4666297
20
5.7612183
40
4.2347721
50
170.8849322
51
170.9316291
0
ARC
8
DEFAULT_255_2_778
10
11.1156117
20
5.4968141
40
5.9048174
50
170.8538565
51
170.8865109
0
ARC
8
DEFAULT_255_2_778
10
9.3747932
20
5.7774151
40
4.141529
50
170.8129532
51
170.858349
0
ARC
8
DEFAULT_255_2_778
10
9.3451708
20
5.7830767
40
4.1113828
50
170.7803433
51
170.8249309
0
ARC
8
DEFAULT_255_2_778
10
11.3323012
20
5.4610095
40
6.1244437
50
170.7555666
51
170.7847516
0
ARC
8
DEFAULT_255_2_778
10
11.4836361
20
5.4366958
40
6.277719
50
170.7306668
51
170.7584286
0
ARC
8
DEFAULT_255_2_778
10
11.6787341
20
5.4048421
40
6.4754001
50
170.7043159
51
170.7305585
0
ARC
8
DEFAULT_255_2_778
10
11.9206828
20
5.3645537
40
6.7206792
50
170.6738866
51
170.6985404
0
ARC
8
DEFAULT_255_2_778
10
11.5520175
20
5.4259358
40
6.3469401
50
170.6558999
51
170.6813538
0
ARC
8
DEFAULT_255_2_778
10
12.7267688
20
5.2328824
40
7.5374483
50
170.6368618
51
170.6577606
0
ARC
8
DEFAULT_255_2_778
10
37.0839389
20
1.2119745
40
32.2242754
50
170.6238451
51
170.6286115
0
ARC
8
DEFAULT_255_2_778
10
14.1821809
20
4.9928518
40
9.0125208
50
170.6028847
51
170.6195018
0
ARC
8
DEFAULT_255_2_778
10
13.6771443
20
5.0768122
40
8.5005528
50
170.5882218
51
170.6054004
0
ARC
8
DEFAULT_255_2_778
10
-3.3975854
20
7.9299248
40
8.8109214
50
350.4419336
51
350.8336007
0
ARC
8
DEFAULT_255_2_778
10
4.7460092
20
6.61957
40
0.5625911
50
350.459665
51
354.276434
0
ARC
8
DEFAULT_255_2_778
10
5.2021642
20
6.5728458
40
0.1040552
50
354.8267592
51
359.5063768
0
ARC
8
DEFAULT_255_2_778
10
5.2785843
20
6.572618
40
0.0276394
50
358.6137791
51
10.8807332
0
ARC
8
DEFAULT_255_2_778
10
5.2986879
20
6.5763522
40
0.0071935
50
11.8980701
51
25.7685696
0
ARC
8
DEFAULT_255_2_778
10
5.8169385
20
2.2125768
40
4.3967886
50
96.6842002
51
117.5111855
0
ARC
8
DEFAULT_255_2_778
10
4.5062822
20
5.000722
40
1.3244595
50
122.9465639
51
139.5671769
0
ARC
8
DEFAULT_255_2_778
10
5.1106013
20
4.4463229
40
2.1442168
50
138.7640363
51
143.4325914
0
ARC
8
DEFAULT_255_2_778
10
5.5744459
20
4.1025536
40
2.7215634
50
143.4377137
51
148.0634675
0
ARC
8
DEFAULT_255_2_778
10
5.9021875
20
3.894651
40
3.1096739
50
148.0069987
51
150.9190341
0
ARC
8
DEFAULT_255_2_778
10
5.8407927
20
3.927603
40
3.040003
50
150.8993819
51
152.7705405
0
ARC
8
DEFAULT_255_2_778
10
5.3731967
20
4.1673583
40
2.5145242
50
152.7531076
51
154.2628255
0
ARC
8
DEFAULT_255_2_778
10
4.6036613
20
4.5386898
40
1.6600819
50
154.2741409
51
155.1222738
0
ARC
8
DEFAULT_255_2_778
10
3.7358442
20
4.9405754
40
0.7037252
50
155.0830055
51
155.7793848
0
ARC
8
DEFAULT_255_2_778
10
5.0671848
20
4.3051751
40
2.1787993
50
154.9040928
51
173.4826005
0
ARC
8
DEFAULT_255_2_778
10
0.4386656
20
4.9036225
40
2.4886973
50
349.8789211
51
351.8887814
0
ARC
8
DEFAULT_255_2_778
10
-2.9169151
20
5.5028371
40
5.8973598
50
348.3227096
51
349.8768087
0
ARC
8
DEFAULT_255_2_778
10
-5.7897703
20
6.0819617
40
8.8279816
50
348.3437309
51
348.4156819
0
ARC
8
DEFAULT_255_2_778
10
-7.0172234
20
6.3363514
40
10.0815183
50
347.9596669
51
348.3372007
0
ARC
8
DEFAULT_255_2_778
10
-9.7877074
20
6.9287273
40
12.9146243
50
347.4370449
51
347.9533637
0
ARC
8
DEFAULT_255_2_778
10
-11.9279158
20
7.4035684
40
15.1068748
50
347.1567561
51
347.444817
0
ARC
8
DEFAULT_255_2_778
10
-11.7739782
20
7.3676638
40
14.9488072
50
346.9037269
51
347.159778
0
ARC
8
DEFAULT_255_2_778
10
-8.7230721
20
6.6574368
40
11.8163242
50
346.7335207
51
346.9059372
0
ARC
8
DEFAULT_255_2_778
10
-2.4918244
20
5.1874014
40
5.4140237
50
346.6072542
51
346.7425817
0
ARC
8
DEFAULT_255_2_778
10
2.7816211
20
3.9964017
40
0.0633725
50
263.9719855
51
269.9962935
0
ARC
8
DEFAULT_255_2_778
10
2.7814257
20
3.9973591
40
0.0643302
50
270.170389
51
311.6355369
0
ARC
8
DEFAULT_255_2_778
10
7.080028
20
2.3178853
40
4.5578293
50
155.6996652
51
159.0267355
0
ARC
8
DEFAULT_255_2_778
10
6.2547598
20
2.6914109
40
3.6519661
50
152.2395744
51
155.7124889
0
ARC
8
DEFAULT_255_2_778
10
5.4984719
20
3.0895476
40
2.7972825
50
149.0432384
51
152.2406391
0
ARC
8
DEFAULT_255_2_778
10
4.7696486
20
3.5285772
40
1.9464436
50
145.5829548
51
149.0901047
0
ARC
8
DEFAULT_255_2_778
10
3.9939898
20
4.0628649
40
1.0045842
50
141.8412056
51
145.7167678
0
ARC
8
DEFAULT_255_2_778
10
3.2932225
20
4.6179322
40
0.1106804
50
135.0071278
51
143.6460925
0
ARC
8
DEFAULT_255_2_778
10
2.7427849
20
3.5626168
40
1.2279738
50
56.084114
51
67.3860177
0
ARC
8
DEFAULT_255_2_778
10
2.7771527
20
3.6168226
40
1.1638156
50
41.5468692
51
55.9991842
0
ARC
8
DEFAULT_255_2_778
10
2.6561668
20
3.5183417
40
1.319695
50
24.0417117
51
41.2630455
0
ARC
8
DEFAULT_255_2_778
10
2.3794916
20
3.386112
40
1.6262588
50
17.9999306
51
24.3250015
0
ARC
8
DEFAULT_255_2_778
10
2.0833285
20
3.2920768
40
1.9369862
50
10.2617174
51
17.9382187
0
ARC
8
DEFAULT_255_2_778
10
1.7524666
20
3.2293806
40
2.2737263
50
5.4837772
51
10.3310645
0
ARC
8
DEFAULT_255_2_778
10
1.5534127
20
3.2090617
40
2.4738111
50
2.2108353
51
5.5116528
0
ARC
8
DEFAULT_255_2_778
10
1.4932966
20
3.206239
40
2.5339914
50
0.0010479
51
2.2221753
0
ARC
8
DEFAULT_255_2_778
10
1.5308005
20
3.2061839
40
2.4964876
50
358.7803451
51
0.0023269
0
ARC
8
DEFAULT_255_2_778
10
1.6242581
20
3.2040834
40
2.4030063
50
357.509564
51
358.7829862
0
ARC
8
DEFAULT_255_2_778
10
1.7754659
20
3.1975282
40
2.2516566
50
356.5228099
51
357.5090197
0
ARC
8
DEFAULT_255_2_778
10
1.979236
20
3.1850881
40
2.0475072
50
355.5988452
51
356.5244426
0
ARC
8
DEFAULT_255_2_778
10
2.2142826
20
3.1670578
40
1.8117701
50
354.9133714
51
355.5969431
0
ARC
8
DEFAULT_255_2_778
10
2.492893
20
3.1421251
40
1.5320461
50
354.1854376
51
354.9183218
0
ARC
8
DEFAULT_255_2_778
10
2.8135294
20
3.1094534
40
1.2097495
50
353.6036317
51
354.1863975
0
ARC
8
DEFAULT_255_2_778
10
3.1542071
20
3.0711335
40
0.8669234
50
353.0530972
51
353.6120804
0
ARC
8
DEFAULT_255_2_778
10
2.6697847
20
3.7456872
40
1.9394809
50
336.305239
51
345.8958218
0
ARC
8
DEFAULT_255_2_778
10
1.5866152
20
4.0258134
40
3.05827
50
345.7510291
51
352.3350883
0
ARC
8
DEFAULT_255_2_778
10
0.8742945
20
4.1316771
40
3.7783591
50
352.1848255
51
355.0944376
0
ARC
8
DEFAULT_255_2_778
10
0.9030224
20
4.1308673
40
3.7496676
50
355.0692284
51
357.0790283
0
ARC
8
DEFAULT_255_2_778
10
1.6064513
20
4.0959381
40
3.045373
50
357.0609307
51
358.5388622
0
ARC
8
DEFAULT_255_2_778
10
2.9467031
20
4.0624831
40
1.7047042
50
358.5143004
51
359.5634887
0
ARC
8
DEFAULT_255_2_778
10
4.2295846
20
4.0521715
40
0.4217817
50
359.6365365
51
359.9331792
0
ARC
8
DEFAULT_255_2_778
10
5.8295743
20
1.4302126
40
2.8740674
50
111.1859259
51
114.2013509
0
ARC
8
DEFAULT_255_2_778
10
5.7023545
20
1.7589961
40
2.5215288
50
107.787981
51
111.190459
0
ARC
8
DEFAULT_255_2_778
10
5.6082037
20
2.0528954
40
2.2129171
50
103.9988659
51
107.7914795
0
ARC
8
DEFAULT_255_2_778
10
5.5449782
20
2.306641
40
1.9514132
50
99.8773561
51
103.9998665
0
ARC
8
DEFAULT_255_2_778
10
5.5071678
20
2.5249186
40
1.7298852
50
95.0818642
51
99.8837581
0
ARC
8
DEFAULT_255_2_778
10
5.4911902
20
2.7032914
40
1.5507983
50
90.0408545
51
95.0776264
0
ARC
8
DEFAULT_255_2_778
10
5.4928217
20
2.8783473
40
1.3757448
50
80.1668459
51
90.1140002
0
ARC
8
DEFAULT_255_2_778
10
5.5119873
20
2.9939333
40
1.258584
50
67.8497086
51
80.1278936
0
ARC
8
DEFAULT_255_2_778
10
5.4949493
20
2.9602482
40
1.2962107
50
53.1969706
51
67.7135612
0
ARC
8
DEFAULT_255_2_778
10
5.3456377
20
2.7648706
40
1.542099
50
40.3326916
51
53.1037263
0
ARC
8
DEFAULT_255_2_778
10
5.108338
20
2.5563285
40
1.8579738
50
34.5027235
51
40.4987599
0
ARC
8
DEFAULT_255_2_778
10
4.896332
20
2.4102853
40
2.1154133
50
29.0965819
51
34.5098813
0
ARC
8
DEFAULT_255_2_778
10
4.7186023
20
2.3101503
40
2.319408
50
25.069854
51
29.1230394
0
ARC
8
DEFAULT_255_2_778
10
4.6539707
20
2.2791478
40
2.3910874
50
22.1019742
51
25.0865303
0
ARC
8
DEFAULT_255_2_778
10
4.7218096
20
2.3064092
40
2.3179763
50
20.0026495
51
22.1085681
0
ARC
8
DEFAULT_255_2_778
10
4.9218544
20
2.378866
40
2.1052142
50
18.1213399
51
20.0119578
0
ARC
8
DEFAULT_255_2_778
10
5.2658013
20
2.4912554
40
1.7433704
50
16.605335
51
18.1266999
0
ARC
8
DEFAULT_255_2_778
10
5.4881987
20
2.5586161
40
1.5109981
50
15.6829378
51
16.5675947
0
ARC
8
DEFAULT_255_2_778
10
7.9985199
20
3.2649058
40
1.0967904
50
195.7572142
51
195.7995595
0
ARC
8
DEFAULT_255_2_778
10
0.9520386
20
1.8092609
40
6.5261106
50
10.2119896
51
23.2612431
0
ARC
8
DEFAULT_255_2_778
10
8.1417584
20
4.9427764
40
1.3172742
50
200.1025753
51
204.9756553
0
ARC
8
DEFAULT_255_2_778
10
7.8313331
20
4.8297353
40
0.9869081
50
194.0958906
51
200.133884
0
ARC
8
DEFAULT_255_2_778
10
7.5834199
20
4.7679361
40
0.7314088
50
186.6697742
51
194.1303421
0
ARC
8
DEFAULT_255_2_778
10
7.4192725
20
4.748013
40
0.5660588
50
180.1138656
51
186.5965797
0
ARC
8
DEFAULT_255_2_778
10
7.2872902
20
4.7494272
40
0.4340827
50
167.5767424
51
180.3351485
0
ARC
8
DEFAULT_255_2_778
10
7.1884373
20
4.7711108
40
0.3328795
50
152.2779018
51
167.561164
0
ARC
8
DEFAULT_255_2_778
10
7.142773
20
4.794604
40
0.2815284
50
137.744802
51
152.187174
0
ARC
8
DEFAULT_255_2_778
10
7.1125345
20
4.822338
40
0.2404981
50
125.4562401
51
137.7910599
0
ARC
8
DEFAULT_255_2_778
10
7.0652856
20
4.8902804
40
0.1577495
50
114.0710764
51
125.7922305
0
ARC
8
DEFAULT_255_2_778
10
7.0222534
20
4.9873515
40
0.0515691
50
102.0744127
51
114.4068573
0
ARC
8
DEFAULT_255_2_778
10
7.0929393
20
4.5786469
40
0.4663053
50
92.1820061
51
100.0624125
0
ARC
8
DEFAULT_255_2_778
10
7.0951908
20
4.5366631
40
0.5083448
50
89.9909891
51
92.2554187
0
ARC
8
DEFAULT_255_2_778
10
7.0727664
20
4.2994448
40
0.7459029
50
62.8363361
51
88.2710913
0
ARC
8
DEFAULT_255_2_778
10
6.9907051
20
4.0982294
40
0.9625736
50
60.5776621
51
63.958492
0
ARC
8
DEFAULT_255_2_778
10
7.010129
20
4.1325598
40
0.9231292
50
58.4196442
51
60.5810223
0
ARC
8
DEFAULT_255_2_778
10
7.2527588
20
4.5681936
40
0.4254867
50
9.8360881
51
55.5312125
0
ARC
8
DEFAULT_255_2_778
10
5.8844058
20
4.1824732
40
1.8454262
50
10.2350039
51
14.3829329
0
ARC
8
DEFAULT_255_2_778
10
-1.3172248
20
2.8044157
40
9.1776392
50
10.3181056
51
10.7125969
0
ARC
8
DEFAULT_255_2_778
10
25.4523608
20
7.6359663
40
18.0244834
50
190.1866098
51
190.6790408
0
ARC
8
DEFAULT_255_2_778
10
9.7325725
20
4.6301676
40
2.0203666
50
189.5233011
51
200.3101316
0
ARC
8
DEFAULT_255_2_778
10
8.37121
20
4.123708
40
0.5678557
50
200.0638564
51
224.8149577
0
ARC
8
DEFAULT_255_2_778
10
8.1883977
20
3.9560536
40
0.3201588
50
226.5901442
51
271.318766
0
ARC
8
DEFAULT_255_2_778
10
8.1881164
20
4.0659174
40
0.4300059
50
271.0193362
51
347.7090574
0
ARC
8
DEFAULT_255_2_778
10
8.2900419
20
4.1993794
40
0.3285003
50
271.4171416
51
320.7599218
0
ARC
8
DEFAULT_255_2_778
10
8.3173119
20
4.0299213
40
0.1600907
50
201.7452492
51
263.1313449
0
ARC
8
DEFAULT_255_2_778
10
8.6410587
20
4.1941884
40
0.5226772
50
190.8095453
51
205.3251459
0
ARC
8
DEFAULT_255_2_778
10
9.5017272
20
4.3743866
40
1.401956
50
184.7826537
51
191.446563
0
ARC
8
DEFAULT_255_2_778
10
11.3129002
20
4.5378869
40
3.2204767
50
181.4876373
51
184.9947659
0
ARC
8
DEFAULT_255_2_778
10
14.3920429
20
4.631504
40
6.3010268
50
179.9233819
51
181.611732
0
ARC
8
DEFAULT_255_2_778
10
17.5563217
20
4.6381563
40
9.4653001
50
179.4655618
51
179.9892637
0
ARC
8
DEFAULT_255_2_778
10
19.8782925
20
4.6172899
40
11.7873646
50
179.098937
51
179.4694155
0
ARC
8
DEFAULT_255_2_778
10
22.4897684
20
4.5762993
40
14.3991622
50
178.7807889
51
179.0992643
0
ARC
8
DEFAULT_255_2_778
10
7.540982
20
5.7155667
40
0.1039872
50
202.4361922
51
269.9361336
0
ARC
8
DEFAULT_255_2_778
10
7.540972
20
5.7156997
40
0.1040289
50
183.330355
51
202.5060043
0
ARC
8
DEFAULT_255_2_778
10
7.5411437
20
5.7156964
40
0.1042001
50
180.002052
51
183.3230473
0
ARC
8
DEFAULT_255_2_778
10
7.541471
20
5.715661
40
0.1045274
50
135.1497213
51
179.9826093
0
ARC
8
DEFAULT_255_2_778
10
7.5406457
20
5.7166361
40
0.1032546
50
89.9062354
51
135.2103773
0
ARC
8
DEFAULT_255_2_778
10
7.5408144
20
5.715715
40
0.1041757
50
86.7205691
51
89.9998308
0
ARC
8
DEFAULT_255_2_778
10
7.5408158
20
5.7157738
40
0.1041169
50
67.3769385
51
86.7194863
0
ARC
8
DEFAULT_255_2_778
10
7.5412818
20
5.7158325
40
0.1038843
50
0.0259648
51
67.6017653
0
ARC
8
DEFAULT_255_2_778
10
7.5411179
20
5.7159277
40
0.1040482
50
270.026534
51
359.973466
0
LINE
8
DEFAULT_255_2_778
10
4.0147661
20
2.9662796
11
4.4457661
21
2.9662796
0
LINE
8
DEFAULT_255_2_778
10
6.9431661
20
2.9662796
11
7.3747661
21
2.9662796
0
LINE
8
DEFAULT_255_2_778
10
8.6082661
20
3.9743796
11
8.5444661
21
3.9915796
0
LINE
8
DEFAULT_255_2_778
10
8.0938661
20
4.8826796
11
8.0925661
21
4.8863796
0
LINE
8
DEFAULT_255_2_778
10
7.5411661
20
5.6118796
11
7.5408661
21
5.6115796
0
ARC
8
DEFAULT_255_2_778
10
2.2953774
20
4.5461278
40
1.006726
50
355.1391052
51
359.2784479
0
ARC
8
DEFAULT_255_2_778
10
0.7330617
20
4.6599444
40
2.5731369
50
354.9506159
51
355.5617015
0
ARC
8
DEFAULT_255_2_778
10
-0.8780365
20
4.8028154
40
4.1905574
50
354.4458147
51
354.9435497
0
ARC
8
DEFAULT_255_2_778
10
-2.0591173
20
4.9151529
40
5.3769666
50
354.4467949
51
354.4724891
0
ARC
8
DEFAULT_255_2_778
10
-1.8980286
20
4.8989662
40
5.2150676
50
354.4142498
51
354.4525312
0
ARC
8
DEFAULT_255_2_778
10
-3.7227477
20
5.0766668
40
7.0484189
50
354.3935633
51
354.4203704
0
ARC
8
DEFAULT_255_2_778
10
32.7244979
20
1.4409266
40
29.5797277
50
174.2819041
51
174.3964037
0
ARC
8
DEFAULT_255_2_778
10
2.4007629
20
3.4658037
40
1.2366903
50
32.3476512
51
44.2820598
0
ARC
8
DEFAULT_255_2_778
10
2.2057701
20
3.3373332
40
1.4701684
50
27.4792704
51
32.5114182
0
ARC
8
DEFAULT_255_2_778
10
1.9607335
20
3.2141976
40
1.7443818
50
18.4331276
51
27.3536864
0
ARC
8
DEFAULT_255_2_778
10
1.736398
20
3.1353932
40
1.982129
50
13.3701626
51
18.543748
0
ARC
8
DEFAULT_255_2_778
10
1.8072906
20
3.1508699
40
1.9095794
50
9.9310953
51
13.4102479
0
ARC
8
DEFAULT_255_2_778
10
2.2181309
20
3.2219292
40
1.4926402
50
7.4119094
51
9.9641258
0
ARC
8
DEFAULT_255_2_778
10
2.9627983
20
3.3179545
40
0.741808
50
5.6618701
51
7.4768232
0
ARC
8
DEFAULT_255_2_778
10
3.535929
20
3.3756065
40
0.1657877
50
5.2408531
51
5.3760561
0
ARC
8
DEFAULT_255_2_778
10
1.6890277
20
4.4784336
40
2.287178
50
331.6043744
51
340.6511961
0
ARC
8
DEFAULT_255_2_778
10
2.9068653
20
3.5842124
40
0.9500067
50
8.2572256
51
31.8894652
0
ARC
8
DEFAULT_255_2_778
10
2.4921818
20
3.3465175
40
1.4277758
50
31.1971929
51
40.5187721
0
ARC
8
DEFAULT_255_2_778
10
2.2596689
20
3.1533547
40
1.730033
50
40.3789491
51
45.588281
0
ARC
8
DEFAULT_255_2_778
10
2.2151839
20
3.1099073
40
1.7922002
50
45.5444176
51
49.0370863
0
ARC
8
DEFAULT_255_2_778
10
2.3462152
20
3.2616593
40
1.5917071
50
49.0177231
51
51.4092954
0
ARC
8
DEFAULT_255_2_778
10
2.6169803
20
3.6013639
40
1.1572962
50
51.3966291
51
53.1011841
0
ARC
8
DEFAULT_255_2_778
10
3.0017826
20
4.1150388
40
0.5154755
50
53.0248177
51
54.3766362
0
ARC
8
DEFAULT_255_2_778
10
4.4771077
20
1.9179939
40
3.555585
50
60.823893
51
61.2459662
0
ARC
8
DEFAULT_255_2_778
10
5.2786876
20
3.3140547
40
1.9459778
50
52.5186195
51
61.3923409
0
ARC
8
DEFAULT_255_2_778
10
5.3376415
20
3.4165717
40
1.8288182
50
45.3785669
51
52.0299073
0
ARC
8
DEFAULT_255_2_778
10
4.7195778
20
2.7865629
40
2.7113765
50
41.6545584
51
45.4338321
0
ARC
8
DEFAULT_255_2_778
10
3.5838928
20
1.7716304
40
4.2344855
50
39.3413751
51
41.7019593
0
ARC
8
DEFAULT_255_2_778
10
1.6172824
20
0.1576541
40
6.7785914
50
37.6327718
51
39.3541315
0
ARC
8
DEFAULT_255_2_778
10
8.3831988
20
5.0377512
40
1.5820009
50
202.852071
51
207.9342585
0
ARC
8
DEFAULT_255_2_778
10
7.9952351
20
4.8750774
40
1.1613137
50
196.5343827
51
202.8896331
0
ARC
8
DEFAULT_255_2_778
10
7.6826476
20
4.7830574
40
0.8354644
50
188.5073175
51
196.5854435
0
ARC
8
DEFAULT_255_2_778
10
7.4633774
20
4.7498406
40
0.6136929
50
180.1923701
51
188.4687196
0
ARC
8
DEFAULT_255_2_778
10
7.2935029
20
4.7511773
40
0.4438282
50
166.0045774
51
180.4385595
0
ARC
8
DEFAULT_255_2_778
10
7.170496
20
4.7822989
40
0.3169465
50
147.1225471
51
166.0857891
0
ARC
8
DEFAULT_255_2_778
10
7.1044752
20
4.82493
40
0.2383581
50
127.2553118
51
147.1138955
0
ARC
8
DEFAULT_255_2_778
10
7.0673662
20
4.8724382
40
0.1780811
50
114.7456313
51
127.0053817
0
ARC
8
DEFAULT_255_2_778
10
7.0529867
20
4.901879
40
0.1453265
50
111.3309032
51
114.45566
0
ARC
8
DEFAULT_255_2_778
10
6.8676248
20
5.531993
40
0.5121783
50
283.9736202
51
284.992743
0
ARC
8
DEFAULT_255_2_778
10
6.702939
20
6.1894583
40
1.1899553
50
282.6855194
51
284.0242093
0
ARC
8
DEFAULT_255_2_778
10
6.6015198
20
6.6369787
40
1.6488235
50
281.2539269
51
282.7087417
0
ARC
8
DEFAULT_255_2_778
10
6.5515233
20
6.8865469
40
1.9033502
50
279.6137401
51
281.263863
0
ARC
8
DEFAULT_255_2_778
10
6.5345336
20
6.9855764
40
2.0038264
50
277.1967718
51
279.6198201
0
ARC
8
DEFAULT_255_2_778
10
6.5428493
20
6.9136793
40
1.9314541
50
273.5544307
51
277.2192256
0
ARC
8
DEFAULT_255_2_778
10
6.5551604
20
6.7139576
40
1.7313534
50
270.038449
51
273.557564
0
ARC
8
DEFAULT_255_2_778
10
6.5527119
20
6.4125114
40
1.4299114
50
263.0710445
51
270.1446643
0
ARC
8
DEFAULT_255_2_778
10
6.5309564
20
6.20451
40
1.2208095
50
261.6950814
51
262.9069462
0
ARC
8
DEFAULT_255_2_778
10
6.4992604
20
6.0151057
40
1.0288211
50
252.361892
51
261.9181748
0
LINE
8
DEFAULT_255_2_778
10
3.3020236
20
4.53405
11
3.3020236
21
4.53345
0
LINE
8
DEFAULT_255_2_778
10
6.1875236
20
5.03465
11
6.1875236
21
5.03515
0
ARC
8
DEFAULT_255_2_778
10
4.4986809
20
2.4402777
40
2.5452461
50
59.9669898
51
69.2757734
0
ARC
8
DEFAULT_255_2_778
10
4.5317461
20
2.5280094
40
2.4514904
50
69.2729703
51
79.1822141
0
ARC
8
DEFAULT_255_2_778
10
4.5494748
20
2.6195237
40
2.358275
50
79.1879879
51
87.5930342
0
ARC
8
DEFAULT_255_2_778
10
4.553157
20
2.6825182
40
2.2951817
50
87.6188304
51
89.9975938
0
ARC
8
DEFAULT_255_2_778
10
4.5473768
20
2.8139234
40
2.1637845
50
89.8443912
51
107.1368262
0
ARC
8
DEFAULT_255_2_778
10
4.4744998
20
3.0495716
40
1.9171247
50
107.1306462
51
125.0258521
0
ARC
8
DEFAULT_255_2_778
10
2.7746426
20
3.6226391
40
1.1632511
50
45.9670802
51
58.9762932
0
ARC
8
DEFAULT_255_2_778
10
2.716782
20
3.5691889
40
1.2419039
50
29.5298079
51
45.7619345
0
ARC
8
DEFAULT_255_2_778
10
2.4530787
20
3.4197832
40
1.5449906
50
17.8444812
51
29.5307235
0
ARC
8
DEFAULT_255_2_778
10
2.0716573
20
3.2937263
40
1.9466931
50
10.1097837
51
17.9360716
0
ARC
8
DEFAULT_255_2_778
10
1.7392233
20
3.2313647
40
2.2849141
50
5.4202547
51
10.1860034
0
ARC
8
DEFAULT_255_2_778
10
1.5451119
20
3.2118401
40
2.4800018
50
2.0237828
51
5.4457018
0
ARC
8
DEFAULT_255_2_778
10
1.4970049
20
3.2096182
40
2.5281573
50
0.0017102
51
2.0356041
0
ARC
8
DEFAULT_255_2_778
10
1.543372
20
3.2095714
40
2.4817902
50
358.769193
51
0.0028239
0
ARC
8
DEFAULT_255_2_778
10
1.6479905
20
3.2071909
40
2.3771446
50
357.4823286
51
358.7723912
0
ARC
8
DEFAULT_255_2_778
10
1.8179033
20
3.1997102
40
2.2070672
50
356.4762741
51
357.4825804
0
ARC
8
DEFAULT_255_2_778
10
2.0408347
20
3.1858971
40
1.9837082
50
355.525775
51
356.4787341
0
ARC
8
DEFAULT_255_2_778
10
2.3021383
20
3.1655194
40
1.7216112
50
354.825225
51
355.5234847
0
ARC
8
DEFAULT_255_2_778
10
2.6046617
20
3.1379701
40
1.417836
50
354.0612611
51
354.8313326
0
ARC
8
DEFAULT_255_2_778
10
2.9677354
20
3.1002122
40
1.0528044
50
353.4073143
51
354.0607083
0
ARC
8
DEFAULT_255_2_778
10
3.3738494
20
3.0530631
40
0.6439628
50
352.6868765
51
353.4261075
0
ARC
8
DEFAULT_255_2_778
10
2.6670142
20
3.7504315
40
1.9400745
50
336.3151283
51
345.8986842
0
ARC
8
DEFAULT_255_2_778
10
1.583737
20
4.0305105
40
3.0589561
50
345.7542256
51
352.3369092
0
ARC
8
DEFAULT_255_2_778
10
0.871362
20
4.1363637
40
3.7790974
50
352.1865964
51
355.0957016
0
ARC
8
DEFAULT_255_2_778
10
0.9005124
20
4.1355398
40
3.7499838
50
355.0701669
51
357.0798435
0
ARC
8
DEFAULT_255_2_778
10
1.6033405
20
4.1006578
40
3.0462914
50
357.06163
51
358.5391509
0
ARC
8
DEFAULT_255_2_778
10
2.9444308
20
4.0671955
40
1.7047842
50
358.5143425
51
359.5635068
0
ARC
8
DEFAULT_255_2_778
10
4.2273821
20
4.0568838
40
0.4217918
50
359.6365365
51
359.9331792
0
ARC
8
DEFAULT_255_2_778
10
5.8271833
20
1.4337023
40
2.8751013
50
111.1738164
51
114.1877524
0
ARC
8
DEFAULT_255_2_778
10
5.7000165
20
1.7625514
40
2.5225208
50
107.7775458
51
111.1783168
0
ARC
8
DEFAULT_255_2_778
10
5.6059341
20
2.0564229
40
2.2139566
50
103.9905368
51
107.781053
0
ARC
8
DEFAULT_255_2_778
10
5.5427379
20
2.3102146
40
1.9524151
50
99.8714388
51
103.9915825
0
ARC
8
DEFAULT_255_2_778
10
5.5049312
20
2.5286308
40
1.7307511
50
95.0787001
51
99.8779886
0
ARC
8
DEFAULT_255_2_778
10
5.4889675
20
2.7069586
40
1.5517102
50
90.0408034
51
95.0744646
0
ARC
8
DEFAULT_255_2_778
10
5.4906014
20
2.8821687
40
1.3765026
50
80.1703423
51
90.1140046
0
ARC
8
DEFAULT_255_2_778
10
5.5098011
20
2.9979969
40
1.2590972
50
67.8562969
51
80.1313754
0
ARC
8
DEFAULT_255_2_778
10
5.4928809
20
2.9645835
40
1.2964275
50
53.2050224
51
67.7202836
0
ARC
8
DEFAULT_255_2_778
10
5.3438385
20
2.7695083
40
1.5419121
50
40.3393694
51
53.1117578
0
ARC
8
DEFAULT_255_2_778
10
5.106871
20
2.5612085
40
1.8573774
50
34.5077706
51
40.5052918
0
ARC
8
DEFAULT_255_2_778
10
4.8951692
20
2.4153389
40
2.1144679
50
29.101952
51
34.5151102
0
ARC
8
DEFAULT_255_2_778
10
4.7178545
20
2.3154128
40
2.3179984
50
25.0745513
51
29.1284339
0
ARC
8
DEFAULT_255_2_778
10
4.653273
20
2.2844302
40
2.3896242
50
22.105825
51
25.0911721
0
ARC
8
DEFAULT_255_2_778
10
4.7214336
20
2.3118292
40
2.3161634
50
20.0052345
51
22.1123845
0
ARC
8
DEFAULT_255_2_778
10
4.921876
20
2.3844371
40
2.102976
50
18.1219075
51
20.014655
0
ARC
8
DEFAULT_255_2_778
10
5.2669161
20
2.4971732
40
1.7399856
50
16.6024766
51
18.1277396
0
ARC
8
DEFAULT_255_2_778
10
5.5102542
20
2.5706847
40
1.485788
50
15.6654231
51
16.5670838
0
ARC
8
DEFAULT_255_2_778
10
8.1062261
20
3.3000871
40
1.2107097
50
195.7291136
51
195.7676818
0
ARC
8
DEFAULT_255_2_778
10
4.823586
20
2.681027
40
2.1372627
50
7.8001375
51
32.3652773
0
ARC
8
DEFAULT_255_2_778
10
4.5885838
20
2.5411149
40
2.4106671
50
32.1840945
51
51.4079256
0
ARC
8
DEFAULT_255_2_778
10
4.5003103
20
2.4375888
40
2.5466501
50
51.3085151
51
60.0197832
0
LINE
8
DEFAULT_255_2_778
10
4.0125737
20
2.9710919
11
4.4436737
21
2.9710919
0
LINE
8
DEFAULT_255_2_778
10
5.7728737
20
4.6434919
11
5.7725737
21
4.6437919
0
ARC
8
DEFAULT_255_2_778
10
10.207208
20
5.2137744
40
4.7460289
50
169.6514423
51
172.2347047
0
ARC
8
DEFAULT_255_2_778
10
9.0675574
20
5.4232654
40
3.587285
50
166.4584753
51
169.6731804
0
ARC
8
DEFAULT_255_2_778
10
8.0720299
20
5.6650814
40
2.5628121
50
162.2352296
51
166.5029844
0
ARC
8
DEFAULT_255_2_778
10
7.2623046
20
5.9261901
40
1.7120307
50
156.8122494
51
162.288882
0
ARC
8
DEFAULT_255_2_778
10
6.7762477
20
6.1317998
40
1.1842823
50
152.7260041
51
156.6969975
0
ARC
8
DEFAULT_255_2_778
10
6.4655383
20
6.2937445
40
0.8339068
50
146.635245
51
152.8331285
0
ARC
8
DEFAULT_255_2_778
10
6.2111009
20
6.4624925
40
0.5285991
50
138.3278537
51
146.7440524
0
ARC
8
DEFAULT_255_2_778
10
6.0737219
20
6.5832609
40
0.3456891
50
131.5576519
51
138.1406421
0
ARC
8
DEFAULT_255_2_778
10
6.0610434
20
6.5252478
40
0.3836998
50
91.3802685
51
124.3755394
0
ARC
8
DEFAULT_255_2_778
10
6.0724056
20
6.1864643
40
0.7226656
50
89.9947493
51
91.6338446
0
ARC
8
DEFAULT_255_2_778
10
6.0493587
20
5.8447694
40
1.0646114
50
71.3271466
51
88.7559871
0
ARC
8
DEFAULT_255_2_778
10
5.5249318
20
4.2056055
40
2.7855364
50
65.2784998
51
71.9026661
0
ARC
8
DEFAULT_255_2_778
10
4.0130603
20
0.7851722
40
6.5250184
50
64.7454199
51
65.780266
0
ARC
8
DEFAULT_255_2_778
10
4.9543303
20
3.6015426
40
3.5933622
50
59.1514424
51
63.3266506
0
ARC
8
DEFAULT_255_2_778
10
5.4442139
20
4.5797099
40
2.4993811
50
63.2956499
51
68.4081628
0
ARC
8
DEFAULT_255_2_778
10
5.7377772
20
5.3258657
40
1.6975556
50
68.3536271
51
74.9086137
0
ARC
8
DEFAULT_255_2_778
10
5.8785307
20
5.8498565
40
1.1549899
50
74.8824833
51
82.7492191
0
ARC
8
DEFAULT_255_2_778
10
5.9128173
20
6.1017691
40
0.9007672
50
82.8902969
51
90.0074048
0
ARC
8
DEFAULT_255_2_778
10
5.8982385
20
6.6927265
40
0.310147
50
87.3272773
51
88.516317
0
ARC
8
DEFAULT_255_2_778
10
5.8982384
20
6.6927787
40
0.3100947
50
88.516053
51
89.9997973
0
ARC
8
DEFAULT_255_2_778
10
5.8981241
20
6.6945824
40
0.3082908
50
89.9785565
51
106.3961065
0
ARC
8
DEFAULT_255_2_778
10
5.8338526
20
6.925738
40
0.0684877
50
109.4024464
51
154.5771734
0
ARC
8
DEFAULT_255_2_778
10
3.8791392
20
7.9385075
40
2.133055
50
331.6994929
51
332.5474458
0
ARC
8
DEFAULT_255_2_778
10
5.7048165
20
6.9594745
40
0.061541
50
327.6408447
51
328.4074014
0
ARC
8
DEFAULT_255_2_778
10
7.0918362
20
5.9213831
40
1.6711229
50
143.0237743
51
145.6429423
0
ARC
8
DEFAULT_255_2_778
10
6.9178798
20
6.0426113
40
1.4591019
50
145.717796
51
149.6315947
0
ARC
8
DEFAULT_255_2_778
10
7.0172453
20
5.9851364
40
1.5738907
50
149.655119
51
153.9878466
0
ARC
8
DEFAULT_255_2_778
10
7.1365955
20
5.9256603
40
1.707235
50
153.9506337
51
155.4553629
0
ARC
8
DEFAULT_255_2_778
10
7.3090064
20
5.8491108
40
1.8958665
50
155.5154284
51
160.421611
0
ARC
8
DEFAULT_255_2_778
10
7.6398564
20
5.7312995
40
2.247066
50
160.4182108
51
164.9893697
0
ARC
8
DEFAULT_255_2_778
10
8.0590174
20
5.6187554
40
2.6810731
50
164.9863371
51
169.2513351
0
ARC
8
DEFAULT_255_2_778
10
8.5792168
20
5.5197512
40
3.2106099
50
169.2468854
51
173.1714135
0
ARC
8
DEFAULT_255_2_778
10
8.9906113
20
5.4671432
40
3.6253425
50
173.11894
51
174.3790148
0
ARC
8
DEFAULT_255_2_778
10
5.8557835
20
5.9678311
40
0.4949799
50
197.1061688
51
207.3925314
0
ARC
8
DEFAULT_255_2_778
10
6.179853
20
6.1340268
40
0.8591785
50
207.2899574
51
214.5783584
0
ARC
8
DEFAULT_255_2_778
10
6.4652322
20
6.3237279
40
1.2018214
50
214.3032076
51
216.1468435
0
ARC
8
DEFAULT_255_2_778
10
7.123609
20
6.833701
40
2.0344123
50
216.8075507
51
225.1632507
0
ARC
8
DEFAULT_255_2_778
10
8.1185026
20
7.8008302
40
3.4217917
50
224.7683257
51
227.9591089
0
ARC
8
DEFAULT_255_2_778
10
8.4651635
20
8.1797312
40
3.9353359
50
227.9049701
51
229.596186
0
ARC
8
DEFAULT_255_2_778
10
8.2891046
20
7.9716041
40
3.6627319
50
229.583142
51
230.6943005
0
ARC
8
DEFAULT_255_2_778
10
7.7020051
20
7.2538565
40
2.7354524
50
230.6863692
51
231.4647797
0
ARC
8
DEFAULT_255_2_778
10
6.7700064
20
6.082393
40
1.238473
50
231.4285298
51
232.0395991
0
ARC
8
DEFAULT_255_2_778
10
6.7779658
20
5.8847778
40
1.095049
50
224.9176218
51
225.3358228
0
ARC
8
DEFAULT_255_2_778
10
7.8959759
20
7.000098
40
2.6742531
50
224.2265406
51
224.9255168
0
ARC
8
DEFAULT_255_2_778
10
8.6606862
20
7.7454688
40
3.7421291
50
223.3297926
51
224.2378733
0
ARC
8
DEFAULT_255_2_778
10
8.920428
20
7.9914789
40
4.0998809
50
222.0791139
51
223.3398235
0
ARC
8
DEFAULT_255_2_778
10
8.6700221
20
7.7675973
40
3.7639893
50
220.0195087
51
222.1041024
0
ARC
8
DEFAULT_255_2_778
10
8.2608824
20
7.4218758
40
3.2283445
50
219.1136144
51
219.9899458
0
ARC
8
DEFAULT_255_2_778
10
7.5859745
20
6.8836087
40
2.3651286
50
214.4300001
51
219.3106371
0
ARC
8
DEFAULT_255_2_778
10
6.657423
20
6.2497452
40
1.2408591
50
207.5028647
51
214.5306721
0
ARC
8
DEFAULT_255_2_778
10
6.0834006
20
5.9520807
40
0.5942498
50
197.5601058
51
207.6045659
0
ARC
8
DEFAULT_255_2_778
10
5.773984
20
5.8557819
40
0.2702022
50
181.2018077
51
197.8869799
0
ARC
8
DEFAULT_255_2_778
10
5.6807535
20
5.8501443
40
0.1769123
50
178.5127105
51
180.0096061
0
LINE
8
DEFAULT_255_2_778
10
5.5039009
20
5.8547361
11
5.5047009
21
5.8550361
0
ARC
8
DEFAULT_255_2_778
10
3.8203007
20
4.2100034
40
0.818684
50
13.4578923
51
63.3868465
0
ARC
8
DEFAULT_255_2_778
10
3.5981268
20
4.1290419
40
1.0539463
50
359.8839458
51
14.9275793
0
ARC
8
DEFAULT_255_2_778
10
3.5404087
20
4.1270111
40
1.1116622
50
356.3710661
51
359.9946398
0
ARC
8
DEFAULT_255_2_778
10
3.8768436
20
4.0109552
40
0.9808373
50
7.3862327
51
71.5631808
0
LINE
8
DEFAULT_255_2_778
10
4.649842
20
4.056649
11
4.849542
21
4.137049
0
LINE
8
DEFAULT_255_2_778
10
4.187042
20
4.941449
11
4.187042
21
4.941949
0
ARC
8
DEFAULT_255_2_778
10
3.7052798
20
0.6984351
40
0.9578601
50
270.0043667
51
316.1670297
0
ARC
8
DEFAULT_255_2_778
10
3.7053623
20
0.6995546
40
0.9589795
50
267.6800717
51
269.9994311
0
ARC
8
DEFAULT_255_2_778
10
3.6277107
20
0.7002435
40
0.9596684
50
270.0005907
51
272.3190919
0
ARC
8
DEFAULT_255_2_778
10
3.6276636
20
0.6980984
40
0.9575232
50
223.8243856
51
270.0034142
0
ARC
8
DEFAULT_255_2_778
10
3.5996366
20
0.6656329
40
0.9148309
50
182.8991675
51
223.5728944
0
ARC
8
DEFAULT_255_2_778
10
6.2397723
20
0.9350536
40
3.5677898
50
179.1262706
51
185.0763849
0
ARC
8
DEFAULT_255_2_778
10
48.6562364
20
0.9826751
40
45.9838396
50
179.9420742
51
179.991548
0
ARC
8
DEFAULT_255_2_778
10
-43.4576936
20
1.0757065
40
46.1301375
50
359.9421927
51
359.9917461
0
ARC
8
DEFAULT_255_2_778
10
-40.2536361
20
1.0616981
40
42.9260802
50
0.0098278
51
0.0668655
0
ARC
8
DEFAULT_255_2_778
10
45.454645
20
1.1618315
40
42.7822594
50
180.0100772
51
180.0670126
0
ARC
8
DEFAULT_255_2_778
10
5.269978
20
1.2315792
40
2.5987408
50
170.745966
51
181.7039125
0
ARC
8
DEFAULT_255_2_778
10
3.5386945
20
1.5097569
40
0.8452643
50
135.4000768
51
170.4847216
0
ARC
8
DEFAULT_255_2_778
10
3.6276636
20
1.4402238
40
0.9575233
50
89.9965858
51
136.1756144
0
ARC
8
DEFAULT_255_2_778
10
3.6277107
20
1.4380787
40
0.9596683
50
87.6809081
51
89.9994093
0
ARC
8
DEFAULT_255_2_778
10
3.7053623
20
1.4387676
40
0.9589795
50
90.0005689
51
92.3199283
0
ARC
8
DEFAULT_255_2_778
10
3.7052798
20
1.4398871
40
0.95786
50
43.8329703
51
89.9956333
0
ARC
8
DEFAULT_255_2_778
10
3.7333343
20
1.472788
40
0.9148469
50
2.9145322
51
43.5634117
0
ARC
8
DEFAULT_255_2_778
10
1.0993631
20
1.203742
40
3.5616417
50
359.1263721
51
5.0830889
0
ARC
8
DEFAULT_255_2_778
10
-40.1345314
20
1.155986
40
44.7951228
50
359.9403466
51
359.9916238
0
ARC
8
DEFAULT_255_2_778
10
49.6045366
20
1.0626528
40
44.9439936
50
179.9404722
51
179.9918305
0
ARC
8
DEFAULT_255_2_778
10
46.7932776
20
1.0762174
40
42.1327347
50
180.0097318
51
180.0683825
0
ARC
8
DEFAULT_255_2_778
10
-37.3241793
20
0.9757094
40
41.9847822
50
0.0099917
51
0.0685378
0
ARC
8
DEFAULT_255_2_778
10
2.0457397
20
0.9065799
40
2.6159799
50
350.8803389
51
1.6746871
0
ARC
8
DEFAULT_255_2_778
10
3.7931482
20
0.6290049
40
0.8466697
50
315.423557
51
350.6845986
0
ARC
8
DEFAULT_255_2_778
10
3.668627
20
1.4762686
40
0.3465925
50
42.553398
51
89.9972831
0
ARC
8
DEFAULT_255_2_778
10
3.6685879
20
1.4764325
40
0.3464286
50
89.9908079
51
137.4585188
0
ARC
8
DEFAULT_255_2_778
10
3.6562908
20
1.518015
40
0.3100579
50
141.5871913
51
164.7211928
0
ARC
8
DEFAULT_255_2_778
10
4.0684037
20
1.40321
40
0.7378608
50
164.5543392
51
173.5813674
0
ARC
8
DEFAULT_255_2_778
10
5.3029261
20
1.2505397
40
1.9817596
50
173.1851768
51
177.3629478
0
ARC
8
DEFAULT_255_2_778
10
7.886993
20
1.1199378
40
4.5691135
50
177.2178209
51
179.4185305
0
ARC
8
DEFAULT_255_2_778
10
11.1548552
20
1.0716349
40
7.8373123
50
179.3078701
51
180.0188163
0
ARC
8
DEFAULT_255_2_778
10
9.8697736
20
1.057708
40
6.55224
50
179.9007233
51
181.618005
0
ARC
8
DEFAULT_255_2_778
10
6.2523815
20
0.9505901
40
2.9332698
50
181.5216017
51
184.6462624
0
ARC
8
DEFAULT_255_2_778
10
4.4558371
20
0.7990938
40
1.1303706
50
184.3689168
51
190.8992128
0
ARC
8
DEFAULT_255_2_778
10
3.73023
20
0.6543577
40
0.3905167
50
190.1764478
51
206.2634603
0
ARC
8
DEFAULT_255_2_778
10
3.6667675
20
0.6325188
40
0.3240534
50
207.7661099
51
218.5519092
0
ARC
8
DEFAULT_255_2_778
10
3.6685123
20
0.6543834
40
0.3394224
50
221.2557338
51
270.0221344
0
ARC
8
DEFAULT_255_2_778
10
3.668775
20
0.6543828
40
0.3394218
50
269.9777986
51
318.7442899
0
ARC
8
DEFAULT_255_2_778
10
3.6804324
20
0.6241677
40
0.3110967
50
321.5130942
51
344.7134611
0
ARC
8
DEFAULT_255_2_778
10
3.2732117
20
0.7370094
40
0.7336615
50
344.5973314
51
353.6011993
0
ARC
8
DEFAULT_255_2_778
10
2.0433684
20
0.8886134
40
1.9727859
50
353.2063316
51
357.372173
0
ARC
8
DEFAULT_255_2_778
10
-0.5351651
20
1.0184607
40
4.5545756
50
357.2276337
51
359.4207493
0
ARC
8
DEFAULT_255_2_778
10
-3.7971262
20
1.0664995
40
7.8168703
50
359.31037
51
0.0187757
0
ARC
8
DEFAULT_255_2_778
10
-2.5050772
20
1.0802975
40
6.5248303
50
359.9013309
51
1.627051
0
ARC
8
DEFAULT_255_2_778
10
1.0685539
20
1.1866676
40
2.9496238
50
1.5326664
51
4.6495244
0
ARC
8
DEFAULT_255_2_778
10
2.8617683
20
1.337937
40
1.1500612
50
4.3798572
51
10.8389643
0
ARC
8
DEFAULT_255_2_778
10
3.5943069
20
1.4830435
40
0.4033323
50
10.1621336
51
25.7160643
0
ARC
8
DEFAULT_255_2_778
10
3.6690471
20
1.5100138
40
0.324394
50
27.152456
51
38.208827
0
ARC
8
DEFAULT_255_2_778
10
6.1448181
20
1.3318308
40
1.0445639
50
72.6448349
51
90.4593639
0
ARC
8
DEFAULT_255_2_778
10
6.2114635
20
1.5439833
40
0.8221899
50
43.7637616
51
72.6676578
0
ARC
8
DEFAULT_255_2_778
10
6.1954658
20
1.5426857
40
0.8347023
50
359.5589967
51
43.0685154
0
ARC
8
DEFAULT_255_2_778
10
6.2839759
20
1.5313441
40
0.7461838
50
359.9977761
51
0.3775534
0
ARC
8
DEFAULT_255_2_778
10
6.2788712
20
1.5313001
40
0.7512884
50
295.7227897
51
0.0011465
0
ARC
8
DEFAULT_255_2_778
10
6.1229931
20
1.5357424
40
0.2650645
50
267.3512042
51
269.9996685
0
ARC
8
DEFAULT_255_2_778
10
6.1228924
20
1.5352205
40
0.2645426
50
270.0214831
51
329.1237675
0
ARC
8
DEFAULT_255_2_778
10
6.1226891
20
1.5351469
40
0.2646794
50
329.1600355
51
0.013909
0
ARC
8
DEFAULT_255_2_778
10
6.1226891
20
1.5352754
40
0.2646794
50
359.986091
51
30.8399645
0
ARC
8
DEFAULT_255_2_778
10
6.1232209
20
1.5344205
40
0.2646629
50
31.0578724
51
89.9801579
0
ARC
8
DEFAULT_255_2_778
10
6.1233175
20
1.5338341
40
0.2652493
50
90.0010696
51
92.8252237
0
ARC
8
DEFAULT_255_2_778
10
10.4791002
20
0.7917536
40
1.0500622
50
289.6571124
51
313.8945687
0
ARC
8
DEFAULT_255_2_778
10
10.4777983
20
0.7974645
40
1.0558783
50
269.9848169
51
289.619396
0
LINE
8
DEFAULT_255_2_778
10
10.4775185
20
-0.2584139
11
10.4771842
21
-0.2584138
0
ARC
8
DEFAULT_255_2_778
10
10.4765408
20
0.7932637
40
1.0516777
50
235.0116955
51
270.0350522
0
ARC
8
DEFAULT_255_2_778
10
10.4827603
20
0.8007829
40
1.0614045
50
226.1721034
51
234.9693834
0
ARC
8
DEFAULT_255_2_778
10
10.4105366
20
0.6656329
40
0.9148309
50
182.8991675
51
223.5728944
0
ARC
8
DEFAULT_255_2_778
10
13.0506723
20
0.9350536
40
3.5677898
50
179.1262706
51
185.0763849
0
ARC
8
DEFAULT_255_2_778
10
55.4671364
20
0.9826751
40
45.9838396
50
179.9420742
51
179.991548
0
ARC
8
DEFAULT_255_2_778
10
-36.6467936
20
1.0757065
40
46.1301375
50
359.9421927
51
359.9917461
0
ARC
8
DEFAULT_255_2_778
10
-33.4427361
20
1.0616981
40
42.9260802
50
0.0098278
51
0.0668655
0
ARC
8
DEFAULT_255_2_778
10
52.265545
20
1.1618315
40
42.7822594
50
180.0100772
51
180.0670126
0
ARC
8
DEFAULT_255_2_778
10
12.080878
20
1.2315792
40
2.5987408
50
170.745966
51
181.7039125
0
ARC
8
DEFAULT_255_2_778
10
10.3495945
20
1.5097569
40
0.8452643
50
135.4000768
51
170.4847216
0
ARC
8
DEFAULT_255_2_778
10
10.4758027
20
1.3465673
40
1.0500741
50
109.6587321
51
133.8951429
0
ARC
8
DEFAULT_255_2_778
10
10.4770504
20
1.3409858
40
1.0557501
50
89.984771
51
109.6205954
0
LINE
8
DEFAULT_255_2_778
10
10.477331
20
2.3967361
11
10.4778326
21
2.396736
0
ARC
8
DEFAULT_255_2_778
10
10.47827
20
1.3448751
40
1.051861
50
55.3631873
51
90.0238256
0
ARC
8
DEFAULT_255_2_778
10
10.4721393
20
1.3373976
40
1.061498
50
46.1778907
51
55.320321
0
ARC
8
DEFAULT_255_2_778
10
10.5442343
20
1.472788
40
0.9148469
50
2.9145322
51
43.5634117
0
ARC
8
DEFAULT_255_2_778
10
7.9102631
20
1.203742
40
3.5616417
50
359.1263721
51
5.0830889
0
ARC
8
DEFAULT_255_2_778
10
-33.3236314
20
1.155986
40
44.7951228
50
359.9403466
51
359.9916238
0
ARC
8
DEFAULT_255_2_778
10
56.4154366
20
1.0626528
40
44.9439936
50
179.9404722
51
179.9918305
0
ARC
8
DEFAULT_255_2_778
10
53.6041776
20
1.0762174
40
42.1327347
50
180.0097318
51
180.0683825
0
ARC
8
DEFAULT_255_2_778
10
-30.5132793
20
0.9757094
40
41.9847822
50
0.0099917
51
0.0685378
0
ARC
8
DEFAULT_255_2_778
10
8.8566397
20
0.9065799
40
2.6159799
50
350.8803389
51
1.6746871
0
ARC
8
DEFAULT_255_2_778
10
10.6040482
20
0.6290049
40
0.8466697
50
315.423557
51
350.6845986
0
ARC
8
DEFAULT_255_2_778
10
10.4774272
20
1.4762691
40
0.346592
50
42.553342
51
89.9973029
0
ARC
8
DEFAULT_255_2_778
10
10.4773878
20
1.4764326
40
0.3464285
50
89.9907937
51
137.4585238
0
ARC
8
DEFAULT_255_2_778
10
10.4650908
20
1.518015
40
0.3100579
50
141.5871913
51
164.7211928
0
ARC
8
DEFAULT_255_2_778
10
10.8772037
20
1.40321
40
0.7378608
50
164.5543392
51
173.5813674
0
ARC
8
DEFAULT_255_2_778
10
12.1117261
20
1.2505397
40
1.9817596
50
173.1851768
51
177.3629478
0
ARC
8
DEFAULT_255_2_778
10
14.695793
20
1.1199378
40
4.5691135
50
177.2178209
51
179.4185305
0
ARC
8
DEFAULT_255_2_778
10
17.9636552
20
1.0716349
40
7.8373123
50
179.3078701
51
180.0188163
0
ARC
8
DEFAULT_255_2_778
10
16.6357521
20
1.0577502
40
6.5094185
50
179.9004413
51
181.629023
0
ARC
8
DEFAULT_255_2_778
10
13.0513167
20
0.9509041
40
2.9233983
50
181.5328972
51
184.6681607
0
ARC
8
DEFAULT_255_2_778
10
11.2647074
20
0.7995572
40
1.1304114
50
184.3923157
51
190.9227367
0
ARC
8
DEFAULT_255_2_778
10
10.5427418
20
0.6554456
40
0.3942461
50
190.239801
51
205.9999664
0
ARC
8
DEFAULT_255_2_778
10
10.4767682
20
0.6325947
40
0.3250404
50
207.4777547
51
218.430461
0
ARC
8
DEFAULT_255_2_778
10
10.4774556
20
0.6546997
40
0.3397387
50
221.2799066
51
269.9979615
0
ARC
8
DEFAULT_255_2_778
10
10.4772884
20
0.6550159
40
0.3400548
50
270.0261357
51
318.6959528
0
ARC
8
DEFAULT_255_2_778
10
10.4892324
20
0.6241677
40
0.3110967
50
321.5130942
51
344.7134611
0
ARC
8
DEFAULT_255_2_778
10
10.0820117
20
0.7370094
40
0.7336615
50
344.5973314
51
353.6011993
0
ARC
8
DEFAULT_255_2_778
10
8.8521684
20
0.8886134
40
1.9727859
50
353.2063316
51
357.372173
0
ARC
8
DEFAULT_255_2_778
10
6.2736349
20
1.0184607
40
4.5545756
50
357.2276337
51
359.4207493
0
ARC
8
DEFAULT_255_2_778
10
3.0116738
20
1.0664995
40
7.8168703
50
359.31037
51
0.0187757
0
ARC
8
DEFAULT_255_2_778
10
4.1133518
20
1.0805048
40
6.7152014
50
359.9023595
51
1.5791442
0
ARC
8
DEFAULT_255_2_778
10
7.8335125
20
1.1880395
40
2.9934942
50
1.483932
51
4.5548954
0
ARC
8
DEFAULT_255_2_778
10
9.6706858
20
1.3399471
40
1.150073
50
4.2793851
51
10.736909
0
ARC
8
DEFAULT_255_2_778
10
10.4102473
20
1.4851721
40
0.3964339
50
10.0283277
51
25.8548609
0
ARC
8
DEFAULT_255_2_778
10
10.4882496
20
1.514001
40
0.3137713
50
27.3291997
51
38.8116625
0
ARC
8
DEFAULT_255_2_778
10
18.6800843
20
0.7917549
40
1.0500741
50
289.6587321
51
313.8951429
0
ARC
8
DEFAULT_255_2_778
10
18.6788366
20
0.7973364
40
1.0557501
50
269.984771
51
289.6205954
0
LINE
8
DEFAULT_255_2_778
10
18.678556
20
-0.2584139
11
18.6780544
21
-0.2584138
0
ARC
8
DEFAULT_255_2_778
10
18.677617
20
0.7934471
40
1.051861
50
235.3631873
51
270.0238256
0
ARC
8
DEFAULT_255_2_778
10
18.6837476
20
0.8009246
40
1.061498
50
226.1778907
51
235.320321
0
ARC
8
DEFAULT_255_2_778
10
18.611146
20
0.6653247
40
0.9143355
50
182.9093509
51
223.5757769
0
ARC
8
DEFAULT_255_2_778
10
21.2448676
20
0.9344423
40
3.5608852
50
179.1266106
51
185.0835741
0
ARC
8
DEFAULT_255_2_778
10
62.4407552
20
0.9821757
40
44.7563597
50
179.9403209
51
179.9916214
0
ARC
8
DEFAULT_255_2_778
10
-27.219017
20
1.0754677
40
44.903461
50
359.9404452
51
359.9918253
0
ARC
8
DEFAULT_255_2_778
10
-24.3916903
20
1.0619078
40
42.0761344
50
0.0097408
51
0.0684286
0
ARC
8
DEFAULT_255_2_778
10
59.61547
20
1.1623499
40
41.9310859
50
180.009996
51
180.0685814
0
ARC
8
DEFAULT_255_2_778
10
20.2780029
20
1.2321613
40
2.5947647
50
170.7371027
51
181.7033123
0
ARC
8
DEFAULT_255_2_778
10
18.5503018
20
1.5100116
40
0.8448771
50
135.3984317
51
170.4745328
0
ARC
8
DEFAULT_255_2_778
10
18.6768027
20
1.3465673
40
1.0500741
50
109.6587321
51
133.8951429
0
ARC
8
DEFAULT_255_2_778
10
18.6780504
20
1.3409858
40
1.0557501
50
89.984771
51
109.6205954
0
LINE
8
DEFAULT_255_2_778
10
18.678331
20
2.3967361
11
18.6788326
21
2.396736
0
ARC
8
DEFAULT_255_2_778
10
18.67927
20
1.3448751
40
1.051861
50
55.3631873
51
90.0238256
0
ARC
8
DEFAULT_255_2_778
10
18.6731393
20
1.3373976
40
1.061498
50
46.1778907
51
55.320321
0
ARC
8
DEFAULT_255_2_778
10
18.7452343
20
1.472788
40
0.9148469
50
2.9145322
51
43.5634117
0
ARC
8
DEFAULT_255_2_778
10
16.1112631
20
1.203742
40
3.5616417
50
359.1263721
51
5.0830889
0
ARC
8
DEFAULT_255_2_778
10
-25.1226314
20
1.155986
40
44.7951228
50
359.9403466
51
359.9916238
0
ARC
8
DEFAULT_255_2_778
10
64.6164366
20
1.0626528
40
44.9439936
50
179.9404722
51
179.9918305
0
ARC
8
DEFAULT_255_2_778
10
61.8051776
20
1.0762174
40
42.1327347
50
180.0097318
51
180.0683825
0
ARC
8
DEFAULT_255_2_778
10
-22.3122793
20
0.9757094
40
41.9847822
50
0.0099917
51
0.0685378
0
ARC
8
DEFAULT_255_2_778
10
17.0576397
20
0.9065799
40
2.6159799
50
350.8803389
51
1.6746871
0
ARC
8
DEFAULT_255_2_778
10
18.8050482
20
0.6290049
40
0.8466697
50
315.423557
51
350.6845986
0
ARC
8
DEFAULT_255_2_778
10
18.6805989
20
1.4764321
40
0.346429
50
42.5415139
51
90.0091644
0
ARC
8
DEFAULT_255_2_778
10
18.6805598
20
1.4762688
40
0.3465923
50
90.0026935
51
137.4466102
0
ARC
8
DEFAULT_255_2_778
10
18.6688552
20
1.5177976
40
0.3107137
50
141.6318969
51
164.7126678
0
ARC
8
DEFAULT_255_2_778
10
19.0807098
20
1.4030487
40
0.7382528
50
164.5497579
51
173.5721918
0
ARC
8
DEFAULT_255_2_778
10
20.3136966
20
1.2503937
40
1.9806258
50
173.1770033
51
177.3572087
0
ARC
8
DEFAULT_255_2_778
10
22.8913841
20
1.1198778
40
4.5616042
50
177.2124826
51
179.4168195
0
ARC
8
DEFAULT_255_2_778
10
26.1500954
20
1.0716202
40
7.8206524
50
179.306288
51
180.0187487
0
ARC
8
DEFAULT_255_2_778
10
24.8388521
20
1.0577502
40
6.5094185
50
179.9004413
51
181.629023
0
ARC
8
DEFAULT_255_2_778
10
21.2544167
20
0.9509041
40
2.9233983
50
181.5328972
51
184.6681607
0
ARC
8
DEFAULT_255_2_778
10
19.4678074
20
0.7995572
40
1.1304114
50
184.3923157
51
190.9227367
0
ARC
8
DEFAULT_255_2_778
10
18.7458418
20
0.6554456
40
0.3942461
50
190.239801
51
205.9999664
0
ARC
8
DEFAULT_255_2_778
10
18.6798682
20
0.6325947
40
0.3250404
50
207.4777547
51
218.430461
0
ARC
8
DEFAULT_255_2_778
10
18.6804839
20
0.6545414
40
0.3395804
50
221.2678243
51
270.0100562
0
ARC
8
DEFAULT_255_2_778
10
18.680675
20
0.6543828
40
0.3394218
50
269.9777986
51
318.7442899
0
ARC
8
DEFAULT_255_2_778
10
18.6929964
20
0.6239491
40
0.310441
50
321.4684156
51
344.7222046
0
ARC
8
DEFAULT_255_2_778
10
18.2854839
20
0.7368534
40
0.7333036
50
344.6022693
51
353.6103291
0
ARC
8
DEFAULT_255_2_778
10
17.0539893
20
0.8884812
40
1.9740697
50
353.2146361
51
357.3777256
0
ARC
8
DEFAULT_255_2_778
10
14.4697326
20
1.0183885
40
4.5615784
50
357.2328017
51
359.4225462
0
ARC
8
DEFAULT_255_2_778
10
11.192497
20
1.0665002
40
7.8391469
50
359.3123251
51
0.0187176
0
ARC
8
DEFAULT_255_2_778
10
12.5068228
20
1.0802975
40
6.5248303
50
359.9013309
51
1.627051
0
ARC
8
DEFAULT_255_2_778
10
16.0804539
20
1.1866676
40
2.9496238
50
1.5326664
51
4.6495244
0
ARC
8
DEFAULT_255_2_778
10
17.8736683
20
1.337937
40
1.1500612
50
4.3798572
51
10.8389643
0
ARC
8
DEFAULT_255_2_778
10
18.6062069
20
1.4830435
40
0.4033323
50
10.1621336
51
25.7160643
0
ARC
8
DEFAULT_255_2_778
10
18.6809471
20
1.5100138
40
0.324394
50
27.152456
51
38.208827
0
ARC
8
DEFAULT_255_2_778
10
21.1593134
20
1.331729
40
1.0446656
50
72.6456923
51
90.4590599
0
ARC
8
DEFAULT_255_2_778
10
21.2259349
20
1.54381
40
0.822367
50
43.7686591
51
72.6686436
0
ARC
8
DEFAULT_255_2_778
10
21.2101305
20
1.5426589
40
0.8346373
50
359.5608008
51
43.0752024
0
ARC
8
DEFAULT_255_2_778
10
21.2851334
20
1.5307764
40
0.7596298
50
0.0022105
51
0.4136924
0
ARC
8
DEFAULT_255_2_778
10
21.2939896
20
1.5309784
40
0.7507737
50
295.6978087
51
359.9868213
0
ARC
8
DEFAULT_255_2_778
10
21.1325349
20
1.5352904
40
0.2646785
50
267.0565206
51
270.0000462
0
ARC
8
DEFAULT_255_2_778
10
21.1323918
20
1.5350164
40
0.2644046
50
270.031051
51
328.8793452
0
ARC
8
DEFAULT_255_2_778
10
21.1325766
20
1.5351338
40
0.2643071
50
328.8368616
51
0.0051855
0
LINE
8
DEFAULT_255_2_778
10
21.3968837
20
1.5351578
11
21.3968836
21
1.5353227
0
ARC
8
DEFAULT_255_2_778
10
21.133034
20
1.535218
40
0.2638496
50
0.0227303
51
30.6839618
0
ARC
8
DEFAULT_255_2_778
10
21.1325483
20
1.5348794
40
0.2644403
50
30.6933546
51
89.9983875
0
ARC
8
DEFAULT_255_2_778
10
21.1325547
20
1.5338027
40
0.265517
50
89.9997886
51
92.5279849
0
ARC
8
DEFAULT_255_2_778
10
25.6904113
20
1.7883815
40
2.0472124
50
258.9877363
51
270.7845673
0
ARC
8
DEFAULT_255_2_778
10
25.4979033
20
0.8307154
40
1.0704247
50
224.0800237
51
259.3105355
0
ARC
8
DEFAULT_255_2_778
10
25.5517825
20
0.9421922
40
0.6072744
50
227.2216322
51
257.4202052
0
ARC
8
DEFAULT_255_2_778
10
25.6932163
20
1.4172424
40
1.1022669
50
255.6228062
51
263.9927583
0
ARC
8
DEFAULT_255_2_778
10
25.7211969
20
1.6569732
40
1.3436123
50
263.8759961
51
270.0403635
0
ARC
8
DEFAULT_255_2_778
10
25.7336555
20
1.0804233
40
0.7671486
50
269.1401709
51
282.3002566
0
ARC
8
DEFAULT_255_2_778
10
25.8397621
20
0.6251502
40
0.2997965
50
281.0231426
51
310.8875627
0
ARC
8
DEFAULT_255_2_778
10
25.9002976
20
0.5402253
40
0.1962145
50
313.7578083
51
2.3763963
0
ARC
8
DEFAULT_255_2_778
10
25.8797043
20
0.561555
40
0.2170405
50
356.5148313
51
359.999009
0
ARC
8
DEFAULT_255_2_778
10
25.8794748
20
0.5616081
40
0.21727
50
359.9850129
51
40.2740491
0
ARC
8
DEFAULT_255_2_778
10
25.8562367
20
0.4822314
40
0.2899115
50
49.3114818
51
86.6963794
0
ARC
8
DEFAULT_255_2_778
10
25.7170522
20
2.0151653
40
1.2093563
50
248.7192531
51
262.4256338
0
ARC
8
DEFAULT_255_2_778
10
25.5243443
20
1.5322067
40
0.6894014
50
224.691163
51
249.0752718
0
ARC
8
DEFAULT_255_2_778
10
25.4983114
20
1.4768102
40
0.632286
50
191.8205221
51
222.7812108
0
ARC
8
DEFAULT_255_2_778
10
25.8460372
20
1.5640853
40
0.9906176
50
179.6023091
51
192.6415035
0
ARC
8
DEFAULT_255_2_778
10
25.6494266
20
1.5839335
40
0.7940891
50
145.1825678
51
180.9360348
0
ARC
8
DEFAULT_255_2_778
10
25.646758
20
1.5662456
40
0.8021579
50
111.8903385
51
144.0364473
0
ARC
8
DEFAULT_255_2_778
10
25.7713331
20
1.2729911
40
1.1207314
50
94.6208011
51
112.210303
0
ARC
8
DEFAULT_255_2_778
10
25.8071081
20
0.9694064
40
1.4262553
50
89.9463547
51
95.0708035
0
ARC
8
DEFAULT_255_2_778
10
25.8256326
20
0.6641214
40
1.731625
50
78.8888288
51
90.5687595
0
ARC
8
DEFAULT_255_2_778
10
25.9712362
20
1.3625973
40
1.0182159
50
45.1335555
51
79.3541229
0
ARC
8
DEFAULT_255_2_778
10
25.9418625
20
1.3376862
40
0.4859639
50
44.9077937
51
60.7683007
0
ARC
8
DEFAULT_255_2_778
10
25.9333238
20
1.3212837
40
0.5044477
50
60.8317592
51
69.2275957
0
ARC
8
DEFAULT_255_2_778
10
25.8911197
20
1.1927577
40
0.6396163
50
69.7759947
51
85.8455829
0
ARC
8
DEFAULT_255_2_778
10
25.8477687
20
0.687206
40
1.1469993
50
85.515268
51
90.3406522
0
ARC
8
DEFAULT_255_2_778
10
25.8442968
20
-1.9897627
40
3.8239491
50
90.0501574
51
90.4413811
0
ARC
8
DEFAULT_255_2_778
10
25.7860495
20
5.4137796
40
3.5798224
50
270.0831313
51
270.4607892
0
ARC
8
DEFAULT_255_2_778
10
25.7833461
20
1.4056211
40
0.4284128
50
88.9437518
51
110.1645919
0
ARC
8
DEFAULT_255_2_778
10
25.7204138
20
1.5716384
40
0.2508841
50
109.7430635
51
149.021861
0
ARC
8
DEFAULT_255_2_778
10
25.6952949
20
1.5908462
40
0.21949
50
149.9457451
51
171.4756847
0
ARC
8
DEFAULT_255_2_778
10
25.6924899
20
1.5913164
40
0.2166463
50
171.4886918
51
179.9881727
0
ARC
8
DEFAULT_255_2_778
10
25.6476561
20
1.5921258
40
0.1718143
50
180.2550021
51
225.3659821
0
ARC
8
DEFAULT_255_2_778
10
25.7257737
20
1.6848616
40
0.2928458
50
227.2376753
51
266.1956525
0
ARC
8
DEFAULT_255_2_778
10
25.8526201
20
0.0692017
40
1.2897824
50
70.9620715
51
82.4698437
0
ARC
8
DEFAULT_255_2_778
10
26.0474555
20
0.6184406
40
0.707049
50
50.8358547
51
71.3688729
0
ARC
8
DEFAULT_255_2_778
10
26.1546858
20
0.7634728
40
0.5269469
50
44.2181083
51
49.9165689
0
ARC
8
DEFAULT_255_2_778
10
26.079477
20
0.6877822
40
0.6336368
50
7.0677402
51
44.3805739
0
ARC
8
DEFAULT_255_2_778
10
25.429382
20
0.5655279
40
1.2944946
50
359.5898364
51
8.8976217
0
ARC
8
DEFAULT_255_2_778
10
25.8314343
20
0.5454074
40
0.8924752
50
359.9989883
51
0.6968131
0
ARC
8
DEFAULT_255_2_778
10
25.9749372
20
0.5363736
40
0.7490266
50
333.689425
51
0.6898341
0
ARC
8
DEFAULT_255_2_778
10
25.9380908
20
0.5828469
40
0.803054
50
290.4847436
51
331.8820963
0
ARC
8
DEFAULT_255_2_778
10
25.7423006
20
1.0366678
40
1.296929
50
271.3102921
51
291.5712035
0
ARC
8
DEFAULT_255_2_778
10
25.7217482
20
1.2828544
40
1.5435934
50
269.996113
51
271.8640153
0
LINE
8
DEFAULT_255_2_778
10
1.5874435
20
-0.2364389
11
1.5874435
21
0.7978611
0
LINE
8
DEFAULT_255_2_778
10
1.5874435
20
0.7978611
11
0.9042435
21
0.7978611
0
LINE
8
DEFAULT_255_2_778
10
0.9042435
20
0.7978611
11
0.9042435
21
-0.2364389
0
LINE
8
DEFAULT_255_2_778
10
0.9042435
20
-0.2364389
11
0.2634435
21
-0.2364389
0
LINE
8
DEFAULT_255_2_778
10
0.2634435
20
-0.2364389
11
0.2634435
21
2.3763611
0
LINE
8
DEFAULT_255_2_778
10
0.2634435
20
2.3763611
11
0.9050435
21
2.3763611
0
LINE
8
DEFAULT_255_2_778
10
0.9050435
20
2.3763611
11
0.9050435
21
1.3714611
0
LINE
8
DEFAULT_255_2_778
10
0.9050435
20
1.3714611
11
1.5882435
21
1.3714611
0
LINE
8
DEFAULT_255_2_778
10
1.5882435
20
1.3714611
11
1.5882435
21
2.3763611
0
LINE
8
DEFAULT_255_2_778
10
1.5882435
20
2.3763611
11
2.2298435
21
2.3763611
0
LINE
8
DEFAULT_255_2_778
10
2.2298435
20
2.3763611
11
2.2298435
21
-0.2345389
0
LINE
8
DEFAULT_255_2_778
10
2.2298435
20
-0.2345389
11
1.5874435
21
-0.2345389
0
LINE
8
DEFAULT_255_2_778
10
1.5874435
20
-0.2345389
11
1.5874435
21
-0.2364389
0
LINE
8
DEFAULT_255_2_778
10
4.3962435
20
0.0347611
11
4.3962435
21
0.0350611
0
LINE
8
DEFAULT_255_2_778
10
3.9239435
20
1.7106611
11
3.9239435
21
1.7106611
0
LINE
8
DEFAULT_255_2_778
10
6.4237435
20
-0.2364389
11
5.9615435
21
0.7351611
0
LINE
8
DEFAULT_255_2_778
10
5.9615435
20
0.7351611
11
5.7469435
21
0.7351611
0
LINE
8
DEFAULT_255_2_778
10
5.7469435
20
0.7351611
11
5.7469435
21
-0.2364389
0
LINE
8
DEFAULT_255_2_778
10
5.7469435
20
-0.2364389
11
5.1047435
21
-0.2364389
0
LINE
8
DEFAULT_255_2_778
10
5.1047435
20
-0.2364389
11
5.1047435
21
2.3763611
0
LINE
8
DEFAULT_255_2_778
10
5.1047435
20
2.3763611
11
6.1364435
21
2.3763611
0
LINE
8
DEFAULT_255_2_778
10
6.6049435
20
0.8544611
11
7.1698435
21
-0.2345389
0
LINE
8
DEFAULT_255_2_778
10
7.1698435
20
-0.2345389
11
6.4234435
21
-0.2345389
0
LINE
8
DEFAULT_255_2_778
10
6.4234435
20
-0.2345389
11
6.4237435
21
-0.2364389
0
LINE
8
DEFAULT_255_2_778
10
6.1083435
20
1.7987611
11
5.7469435
21
1.7987611
0
LINE
8
DEFAULT_255_2_778
10
5.7469435
20
1.7987611
11
5.7469435
21
1.2709611
0
LINE
8
DEFAULT_255_2_778
10
5.7469435
20
1.2709611
11
6.1107435
21
1.2709611
0
LINE
8
DEFAULT_255_2_778
10
6.1102435
20
1.7987611
11
6.1083435
21
1.7987611
0
LINE
8
DEFAULT_255_2_778
10
8.6261435
20
1.8019611
11
8.6261435
21
-0.2369389
0
LINE
8
DEFAULT_255_2_778
10
8.6261435
20
-0.2369389
11
7.9831435
21
-0.2369389
0
LINE
8
DEFAULT_255_2_778
10
7.9831435
20
-0.2369389
11
7.9831435
21
1.8019611
0
LINE
8
DEFAULT_255_2_778
10
7.9831435
20
1.8019611
11
7.3415435
21
1.8019611
0
LINE
8
DEFAULT_255_2_778
10
7.3415435
20
1.8019611
11
7.3415435
21
2.3763611
0
LINE
8
DEFAULT_255_2_778
10
7.3415435
20
2.3763611
11
9.2643435
21
2.3763611
0
LINE
8
DEFAULT_255_2_778
10
9.2643435
20
2.3763611
11
9.2643435
21
1.8019611
0
LINE
8
DEFAULT_255_2_778
10
9.2643435
20
1.8019611
11
8.6261435
21
1.8019611
0
LINE
8
DEFAULT_255_2_778
10
11.2071435
20
0.0347611
11
11.2071435
21
0.0350611
0
LINE
8
DEFAULT_255_2_778
10
10.7327435
20
1.7106611
11
10.7327435
21
1.7106611
0
LINE
8
DEFAULT_255_2_778
10
13.3928435
20
-0.2364389
11
12.5565435
21
1.0766611
0
LINE
8
DEFAULT_255_2_778
10
12.5565435
20
1.0766611
11
12.5565435
21
-0.2364389
0
LINE
8
DEFAULT_255_2_778
10
12.5565435
20
-0.2364389
11
11.9149435
21
-0.2364389
0
LINE
8
DEFAULT_255_2_778
10
11.9149435
20
-0.2364389
11
11.9149435
21
2.3763611
0
LINE
8
DEFAULT_255_2_778
10
11.9149435
20
2.3763611
11
12.4766435
21
2.3763611
0
LINE
8
DEFAULT_255_2_778
10
12.4766435
20
2.3763611
11
13.3129435
21
1.0632611
0
LINE
8
DEFAULT_255_2_778
10
13.3129435
20
1.0632611
11
13.3129435
21
2.3763611
0
LINE
8
DEFAULT_255_2_778
10
13.3129435
20
2.3763611
11
13.9545435
21
2.3763611
0
LINE
8
DEFAULT_255_2_778
10
13.9545435
20
2.3763611
11
13.9545435
21
-0.2345389
0
LINE
8
DEFAULT_255_2_778
10
13.9545435
20
-0.2345389
11
13.3928435
21
-0.2345389
0
LINE
8
DEFAULT_255_2_778
10
13.3928435
20
-0.2345389
11
13.3928435
21
-0.2364389
0
LINE
8
DEFAULT_255_2_778
10
16.8253435
20
-0.2364389
11
16.3019435
21
-0.2364389
0
LINE
8
DEFAULT_255_2_778
10
16.3019435
20
-0.2364389
11
15.8807435
21
1.0505611
0
LINE
8
DEFAULT_255_2_778
10
15.8807435
20
1.0505611
11
15.4568435
21
-0.2364389
0
LINE
8
DEFAULT_255_2_778
10
15.4568435
20
-0.2364389
11
14.9359435
21
-0.2364389
0
LINE
8
DEFAULT_255_2_778
10
14.9359435
20
-0.2364389
11
14.2183435
21
2.3763611
0
LINE
8
DEFAULT_255_2_778
10
14.2183435
20
2.3763611
11
14.8885435
21
2.3763611
0
LINE
8
DEFAULT_255_2_778
10
14.8885435
20
2.3763611
11
15.2293435
21
0.9975611
0
LINE
8
DEFAULT_255_2_778
10
15.2293435
20
0.9975611
11
15.6505435
21
2.3763611
0
LINE
8
DEFAULT_255_2_778
10
15.6505435
20
2.3763611
11
16.1051435
21
2.3763611
0
LINE
8
DEFAULT_255_2_778
10
16.1051435
20
2.3763611
11
16.5263435
21
0.9975611
0
LINE
8
DEFAULT_255_2_778
10
16.5263435
20
0.9975611
11
16.8671435
21
2.3763611
0
LINE
8
DEFAULT_255_2_778
10
16.8671435
20
2.3763611
11
17.5372435
21
2.3763611
0
LINE
8
DEFAULT_255_2_778
10
17.5372435
20
2.3763611
11
16.8253435
21
-0.2364389
0
LINE
8
DEFAULT_255_2_778
10
19.4081435
20
0.0347611
11
19.4081435
21
0.0350611
0
LINE
8
DEFAULT_255_2_778
10
18.9358435
20
1.7106611
11
18.9358435
21
1.7106611
0
LINE
8
DEFAULT_255_2_778
10
21.4356435
20
-0.2364389
11
20.9734435
21
0.7351611
0
LINE
8
DEFAULT_255_2_778
10
20.9734435
20
0.7351611
11
20.7551435
21
0.7351611
0
LINE
8
DEFAULT_255_2_778
10
20.7551435
20
0.7351611
11
20.7551435
21
-0.2364389
0
LINE
8
DEFAULT_255_2_778
10
20.7551435
20
-0.2364389
11
20.1167435
21
-0.2364389
0
LINE
8
DEFAULT_255_2_778
10
20.1167435
20
-0.2364389
11
20.1167435
21
2.3763611
0
LINE
8
DEFAULT_255_2_778
10
20.1167435
20
2.3763611
11
21.1509435
21
2.3763611
0
LINE
8
DEFAULT_255_2_778
10
21.6195435
20
0.8544611
11
22.1844435
21
-0.2345389
0
LINE
8
DEFAULT_255_2_778
10
22.1844435
20
-0.2345389
11
21.4356435
21
-0.2345389
0
LINE
8
DEFAULT_255_2_778
10
21.4356435
20
-0.2345389
11
21.4356435
21
-0.2364389
0
LINE
8
DEFAULT_255_2_778
10
21.1202435
20
1.7987611
11
20.7551435
21
1.7987611
0
LINE
8
DEFAULT_255_2_778
10
20.7551435
20
1.7987611
11
20.7551435
21
1.2709611
0
LINE
8
DEFAULT_255_2_778
10
20.7551435
20
1.2709611
11
21.1189435
21
1.2709611
0
LINE
8
DEFAULT_255_2_778
10
21.1208435
20
1.7990611
11
21.1202435
21
1.7987611
0
LINE
8
DEFAULT_255_2_778
10
23.9629435
20
-0.2364389
11
23.3615435
21
0.8343611
0
LINE
8
DEFAULT_255_2_778
10
23.3615435
20
0.8343611
11
23.1414435
21
0.5790611
0
LINE
8
DEFAULT_255_2_778
10
23.1414435
20
0.5790611
11
23.1414435
21
-0.2380389
0
LINE
8
DEFAULT_255_2_778
10
23.1414435
20
-0.2380389
11
22.5069435
21
-0.2380389
0
LINE
8
DEFAULT_255_2_778
10
22.5069435
20
-0.2380389
11
22.5069435
21
2.3765611
0
LINE
8
DEFAULT_255_2_778
10
22.5069435
20
2.3765611
11
23.1414435
21
2.3765611
0
LINE
8
DEFAULT_255_2_778
10
23.1414435
20
2.3765611
11
23.1414435
21
1.4521611
0
LINE
8
DEFAULT_255_2_778
10
23.1414435
20
1.4521611
11
23.8965435
21
2.3765611
0
LINE
8
DEFAULT_255_2_778
10
23.8965435
20
2.3765611
11
24.6818435
21
2.3765611
0
LINE
8
DEFAULT_255_2_778
10
24.6818435
20
2.3765611
11
23.7880435
21
1.3206611
0
LINE
8
DEFAULT_255_2_778
10
23.7880435
20
1.3206611
11
24.7136435
21
-0.2369389
0
LINE
8
DEFAULT_255_2_778
10
24.7136435
20
-0.2369389
11
23.9629435
21
-0.2364389
0
LINE
8
DEFAULT_255_2_778
10
24.7289435
20
0.0860611
11
25.1393435
21
0.4964611
0
LINE
8
DEFAULT_255_2_778
10
25.8729435
20
0.7716611
11
25.5576435
21
0.8163611
0
LINE
8
DEFAULT_255_2_778
10
26.6895435
20
2.0842611
11
26.2860435
21
1.6807611
0
LINE
8
DEFAULT_255_2_778
10
25.7063435
20
1.3926611
11
26.0216435
21
1.3478611
0
LINE
8
DEFAULT_255_2_778
10
25.7216435
20
-0.2607389
11
25.7184435
21
-0.2586389
0
ENDSEC
0
EOF