0
SECTION
2
HEADER
9
$MEASUREMENT
70
1
0
ENDSEC
0
SECTION
2
TABLES
0
TABLE
2
LTYPE
0
LTYPE
72
65
70
64
2
CONTINUOUS
3
______
73
0
40
0
0
ENDTAB
0
TABLE
2
LAYER
0
LAYER
2
DEFAULT_255_2_778
70
0
62
255
6
CONTINUOUS
0
ENDTAB
0
ENDSEC
0
SECTION
2
ENTITIES
0
ARC
8
DEFAULT_255_2_778
10
0.7925449
20
7.1854309
40
0.5280127
50
89.8710178
51
180.1289822
0
ARC
8
DEFAULT_255_2_778
10
16.6698438
20
7.1854524
40
0.527991
50
359.8686781
51
90.1204832
0
ARC
8
DEFAULT_255_2_778
10
16.6698439
20
0.2769321
40
0.527991
50
269.8795076
51
0.1313257
0
ARC
8
DEFAULT_255_2_778
10
0.7925449
20
0.2769536
40
0.5280127
50
179.8710178
51
270.1289822
0
LINE
8
DEFAULT_255_2_778
10
0.7937336
20
7.7134423
11
16.6687336
21
7.7134423
0
LINE
8
DEFAULT_255_2_778
10
17.1978336
20
7.1842423
11
17.1978336
21
0.2781423
0
LINE
8
DEFAULT_255_2_778
10
16.6687336
20
-0.2510577
11
0.7937336
21
-0.2510577
0
LINE
8
DEFAULT_255_2_778
10
0.2645336
20
0.2781423
11
0.2645336
21
7.1842423
0
ARC
8
DEFAULT_255_2_778
10
8.7058553
20
4.4408619
40
3.3824919
50
262.467675
51
270.2052457
0
ARC
8
DEFAULT_255_2_778
10
8.5758478
20
3.4900063
40
2.4228028
50
251.2363379
51
262.5679981
0
ARC
8
DEFAULT_255_2_778
10
8.4343812
20
3.0458694
40
1.9567856
50
245.4632058
51
250.9752941
0
ARC
8
DEFAULT_255_2_778
10
8.8811484
20
3.9113854
40
2.9300503
50
232.3335615
51
244.5442498
0
ARC
8
DEFAULT_255_2_778
10
8.6288531
20
3.5704066
40
2.5059841
50
225.0425832
51
232.1358532
0
ARC
8
DEFAULT_255_2_778
10
9.3665634
20
4.7272825
40
2.9148536
50
227.7489261
51
240.2705375
0
ARC
8
DEFAULT_255_2_778
10
8.5296032
20
3.3548083
40
1.3087911
50
242.2925852
51
270.6115368
0
ARC
8
DEFAULT_255_2_778
10
8.5563701
20
3.2848165
40
1.2387909
50
269.4080632
51
284.0346633
0
ARC
8
DEFAULT_255_2_778
10
8.6672621
20
2.8538211
40
0.7937748
50
283.8136768
51
310.8611749
0
ARC
8
DEFAULT_255_2_778
10
8.7368638
20
2.7585708
40
0.676271
50
311.6809709
51
349.2868173
0
ARC
8
DEFAULT_255_2_778
10
8.3107429
20
2.8597737
40
1.1139612
50
348.2464435
51
0.4329784
0
ARC
8
DEFAULT_255_2_778
10
8.3858321
20
2.8809091
40
1.0389179
50
359.2986229
51
15.6297827
0
ARC
8
DEFAULT_255_2_778
10
8.7405826
20
2.9817857
40
0.6701087
50
15.4955987
51
47.6076897
0
ARC
8
DEFAULT_255_2_778
10
8.671981
20
2.902749
40
0.7747368
50
47.8015523
51
82.1938291
0
ARC
8
DEFAULT_255_2_778
10
8.5987868
20
2.5232823
40
1.1608179
50
81.1584444
51
90.2179033
0
ARC
8
DEFAULT_255_2_778
10
8.5838707
20
2.55169
40
1.1324503
50
89.4686788
51
100.0128777
0
ARC
8
DEFAULT_255_2_778
10
8.4609981
20
2.9025479
40
0.7679201
50
95.5317943
51
109.7288349
0
ARC
8
DEFAULT_255_2_778
10
9.208694
20
1.1334029
40
2.6877314
50
112.0018405
51
116.3300986
0
ARC
8
DEFAULT_255_2_778
10
9.15405
20
1.4826645
40
2.3528536
50
118.910714
51
123.8093763
0
ARC
8
DEFAULT_255_2_778
10
9.8444327
20
0.4196923
40
3.6202649
50
123.5270819
51
124.2070774
0
ARC
8
DEFAULT_255_2_778
10
8.9229546
20
3.1940321
40
1.334326
50
102.2262767
51
114.2947303
0
ARC
8
DEFAULT_255_2_778
10
8.8435099
20
3.5137864
40
1.0050488
50
100.6903548
51
101.6603239
0
ARC
8
DEFAULT_255_2_778
10
8.9540562
20
3.1871373
40
1.3473917
50
89.5740863
51
102.7333565
0
ARC
8
DEFAULT_255_2_778
10
8.9781437
20
2.5201048
40
2.014436
50
71.9122484
51
90.4002346
0
ARC
8
DEFAULT_255_2_778
10
9.1312903
20
2.9459314
40
1.5621622
50
49.6234317
51
72.4026553
0
ARC
8
DEFAULT_255_2_778
10
9.2480805
20
3.1067679
40
1.3640636
50
23.4541449
51
48.9841175
0
ARC
8
DEFAULT_255_2_778
10
8.9871547
20
2.9722391
40
1.6570913
50
23.3639232
51
24.1305239
0
ARC
8
DEFAULT_255_2_778
10
9.012525
20
3.0168712
40
1.6163972
50
7.7693608
51
22.2681518
0
ARC
8
DEFAULT_255_2_778
10
8.2857875
20
2.907983
40
2.3512033
50
359.7711461
51
8.0043761
0
ARC
8
DEFAULT_255_2_778
10
8.5829338
20
2.8854169
40
2.0540806
50
347.3399496
51
0.3674959
0
ARC
8
DEFAULT_255_2_778
10
9.0132908
20
2.7943681
40
1.6142413
50
335.2516203
51
347.1452857
0
ARC
8
DEFAULT_255_2_778
10
8.850862
20
2.8603026
40
1.7893727
50
312.3363714
51
335.5116055
0
ARC
8
DEFAULT_255_2_778
10
8.8358657
20
2.9430423
40
1.8611693
50
288.7257222
51
310.9620556
0
ARC
8
DEFAULT_255_2_778
10
8.7106604
20
3.1466066
40
2.0948302
50
269.7815122
51
290.1816596
0
ARC
8
DEFAULT_255_2_778
10
13.4627613
20
3.9541945
40
3.0244304
50
261.0839221
51
270.2445871
0
ARC
8
DEFAULT_255_2_778
10
13.3299984
20
3.133706
40
2.1932833
50
247.4465474
51
261.1882334
0
ARC
8
DEFAULT_255_2_778
10
13.1580459
20
2.7173946
40
1.742859
50
221.9470521
51
247.4178724
0
ARC
8
DEFAULT_255_2_778
10
13.1760602
20
2.7103432
40
1.7516292
50
204.8562988
51
221.3816143
0
ARC
8
DEFAULT_255_2_778
10
13.8211062
20
3.0167684
40
2.4657348
50
194.9150635
51
205.0165948
0
ARC
8
DEFAULT_255_2_778
10
14.8145015
20
3.2855402
40
3.4948417
50
187.5530187
51
194.9811265
0
ARC
8
DEFAULT_255_2_778
10
16.2088732
20
3.4749587
40
4.9020152
50
182.0215625
51
187.605543
0
ARC
8
DEFAULT_255_2_778
10
17.5092597
20
3.5339851
40
6.2036883
50
179.9740786
51
182.1427146
0
ARC
8
DEFAULT_255_2_778
10
16.8217734
20
3.3992333
40
4.2874192
50
179.8348454
51
184.4795707
0
ARC
8
DEFAULT_255_2_778
10
15.2004234
20
3.2685765
40
2.6608197
50
184.4015283
51
190.9200619
0
ARC
8
DEFAULT_255_2_778
10
14.1054772
20
3.0527582
40
1.5448224
50
190.7537325
51
200.7402835
0
ARC
8
DEFAULT_255_2_778
10
13.4629395
20
2.8056783
40
0.8564324
50
200.5044967
51
216.2723914
0
ARC
8
DEFAULT_255_2_778
10
13.3935188
20
2.7672468
40
0.7777929
50
217.0154634
51
264.3602275
0
ARC
8
DEFAULT_255_2_778
10
13.4671438
20
3.1697755
40
1.1860877
50
262.7315624
51
270.1462848
0
ARC
8
DEFAULT_255_2_778
10
13.4834033
20
3.01476
40
1.0311532
50
269.2647891
51
288.2949711
0
ARC
8
DEFAULT_255_2_778
10
13.5528298
20
2.7822996
40
0.7886809
50
288.807458
51
322.2073715
0
ARC
8
DEFAULT_255_2_778
10
13.4862755
20
2.8258127
40
0.8679629
50
322.629804
51
339.9525319
0
ARC
8
DEFAULT_255_2_778
10
12.8158656
20
3.080719
40
1.585163
50
339.603882
51
349.6965552
0
ARC
8
DEFAULT_255_2_778
10
11.6992609
20
3.291548
40
2.7214817
50
349.5341988
51
356.1649455
0
ARC
8
DEFAULT_255_2_778
10
10.1887903
20
3.4023509
40
4.2359918
50
356.0360706
51
0.1249902
0
ARC
8
DEFAULT_255_2_778
10
9.807545
20
3.5245571
40
5.79574
50
355.3233097
51
0.1209496
0
ARC
8
DEFAULT_255_2_778
10
11.417217
20
3.389463
40
4.180414
50
349.0077129
51
355.3699491
0
ARC
8
DEFAULT_255_2_778
10
12.6177089
20
3.1534274
40
2.9569423
50
340.6205849
51
349.0619465
0
ARC
8
DEFAULT_255_2_778
10
13.4492767
20
2.8564138
40
2.0739381
50
328.1315729
51
340.7380746
0
ARC
8
DEFAULT_255_2_778
10
13.8300338
20
2.6279167
40
1.6299504
50
318.711458
51
327.8864083
0
ARC
8
DEFAULT_255_2_778
10
13.7738009
20
2.6684328
40
1.6989511
50
287.5947395
51
318.9361198
0
ARC
8
DEFAULT_255_2_778
10
13.5675873
20
3.2683477
40
2.3331855
50
276.0075205
51
287.96857
0
ARC
8
DEFAULT_255_2_778
10
13.4758849
20
4.0399008
40
3.1101166
50
269.8744912
51
276.2000118
0
LINE
8
DEFAULT_255_2_778
10
1.7239721
20
1.0723917
11
1.7239721
21
6.4857917
0
LINE
8
DEFAULT_255_2_778
10
1.7239721
20
6.4857917
11
2.9444721
21
6.4857917
0
LINE
8
DEFAULT_255_2_778
10
2.9444721
20
6.4857917
11
2.9444721
21
4.4016917
0
LINE
8
DEFAULT_255_2_778
10
2.9444721
20
4.4016917
11
4.8129721
21
4.4016917
0
LINE
8
DEFAULT_255_2_778
10
4.8129721
20
4.4016917
11
4.8129721
21
6.4857917
0
LINE
8
DEFAULT_255_2_778
10
4.8129721
20
6.4857917
11
6.0416721
21
6.4857917
0
LINE
8
DEFAULT_255_2_778
10
6.0416721
20
6.4857917
11
6.0416721
21
1.0723917
0
LINE
8
DEFAULT_255_2_778
10
6.0416721
20
1.0723917
11
4.8126721
21
1.0723917
0
LINE
8
DEFAULT_255_2_778
10
4.8126721
20
1.0723917
11
4.8126721
21
3.3313917
0
LINE
8
DEFAULT_255_2_778
10
4.8126721
20
3.3313917
11
2.9447721
21
3.3313917
0
LINE
8
DEFAULT_255_2_778
10
2.9447721
20
3.3313917
11
2.9447721
21
1.0729917
0
LINE
8
DEFAULT_255_2_778
10
2.9447721
20
1.0729917
11
1.7239721
21
1.0729917
0
LINE
8
DEFAULT_255_2_778
10
1.7239721
20
1.0729917
11
1.7239721
21
1.0723917
0
LINE
8
DEFAULT_255_2_778
10
6.8581721
20
1.7970917
11
7.4066721
21
2.5696917
0
LINE
8
DEFAULT_255_2_778
10
7.8091721
20
3.4136917
11
7.2606721
21
3.7623917
0
LINE
8
DEFAULT_255_2_778
10
7.2606721
20
3.7623917
11
7.4106721
21
6.4280917
0
LINE
8
DEFAULT_255_2_778
10
7.4106721
20
6.4280917
11
10.3999721
21
6.4280917
0
LINE
8
DEFAULT_255_2_778
10
10.3999721
20
6.4280917
11
10.3999721
21
5.3983917
0
LINE
8
DEFAULT_255_2_778
10
10.3999721
20
5.3983917
11
8.4652721
21
5.3983917
0
LINE
8
DEFAULT_255_2_778
10
8.4652721
20
5.3983917
11
8.3739721
21
4.4101917
0
LINE
8
DEFAULT_255_2_778
10
8.7026721
20
1.0517917
11
8.7179721
21
1.0583917
0
LINE
8
DEFAULT_255_2_778
10
11.3055721
20
3.5367917
11
11.3055721
21
6.4423917
0
LINE
8
DEFAULT_255_2_778
10
11.3055721
20
6.4423917
11
12.5343721
21
6.4423917
0
LINE
8
DEFAULT_255_2_778
10
12.5343721
20
6.4423917
11
12.5343721
21
3.4115917
0
LINE
8
DEFAULT_255_2_778
10
14.4247721
20
3.4115917
11
14.4247721
21
6.4423917
0
LINE
8
DEFAULT_255_2_778
10
14.4247721
20
6.4423917
11
15.6032721
21
6.4423917
0
LINE
8
DEFAULT_255_2_778
10
15.6032721
20
6.4423917
11
15.6032721
21
3.5367917
0
LINE
8
DEFAULT_255_2_778
10
13.4690721
20
0.9297917
11
13.4756721
21
0.9297917
0
ENDSEC
0
EOF