0
SECTION
2
HEADER
9
$MEASUREMENT
70
1
0
ENDSEC
0
SECTION
2
TABLES
0
TABLE
2
LTYPE
0
LTYPE
72
65
70
64
2
CONTINUOUS
3
______
73
0
40
0
0
ENDTAB
0
TABLE
2
LAYER
0
LAYER
2
DEFAULT_255_2_778
70
0
62
255
6
CONTINUOUS
0
LAYER
2
DEFAULT_255_1_234
70
0
62
255
6
CONTINUOUS
0
ENDTAB
0
ENDSEC
0
SECTION
2
ENTITIES
0
ARC
8
DEFAULT_255_2_778
10
3.5700693
20
234.5552008
40
0.7914215
50
129.1312896
51
180.1450914
0
ARC
8
DEFAULT_255_2_778
10
3.5703345
20
234.5556879
40
0.7912112
50
89.854026
51
129.1684493
0
ARC
8
DEFAULT_255_2_778
10
25.7993937
20
234.5553745
40
0.7915249
50
39.4792447
51
90.147911
0
ARC
8
DEFAULT_255_2_778
10
25.7999935
20
234.5552211
40
0.7911595
50
359.8533901
51
39.5154338
0
ARC
8
DEFAULT_255_2_778
10
25.7996693
20
-1.9863514
40
0.7914836
50
309.4761667
51
0.1482649
0
ARC
8
DEFAULT_255_2_778
10
25.799398
20
-1.9867825
40
0.7913235
50
269.8517415
51
309.511178
0
ARC
8
DEFAULT_255_2_778
10
3.570342
20
-1.9867244
40
0.7913815
50
219.1282118
51
270.1454017
0
ARC
8
DEFAULT_255_2_778
10
3.5700247
20
-1.9863419
40
0.7913769
50
179.8524075
51
219.1641908
0
LINE
8
DEFAULT_255_2_778
10
3.5723503
20
235.3468967
11
25.7973503
21
235.3468967
0
LINE
8
DEFAULT_255_2_778
10
26.5911503
20
234.5531967
11
26.5911503
21
-1.9843033
0
LINE
8
DEFAULT_255_2_778
10
25.7973503
20
-2.7781033
11
3.5723503
21
-2.7781033
0
LINE
8
DEFAULT_255_2_778
10
2.7786503
20
-1.9843033
11
2.7786503
21
234.5531967
0
LINE
8
DEFAULT_255_1_234
10
11.4236154
20
-0.6513
11
11.0999364
21
-0.6513
0
LINE
8
DEFAULT_255_1_234
10
11.0999364
20
-0.6513
11
11.0999364
21
0.5181211
0
LINE
8
DEFAULT_255_1_234
10
11.0999364
20
0.5181211
11
11.4300408
21
0.5181211
0
LINE
8
DEFAULT_255_1_234
10
11.9456784
20
-0.0272339
11
11.9456784
21
-0.1019291
0
LINE
8
DEFAULT_255_1_234
10
11.4340567
20
0.3912196
11
11.2541458
21
0.3912196
0
LINE
8
DEFAULT_255_1_234
10
11.2541458
20
0.3912196
11
11.2541458
21
-0.5252017
0
LINE
8
DEFAULT_255_1_234
10
11.2541458
20
-0.5252017
11
11.4163869
21
-0.5252017
0
LINE
8
DEFAULT_255_1_234
10
11.7930754
20
-0.0987164
11
11.7930754
21
-0.0304466
0
ARC
8
DEFAULT_255_1_234
10
11.4339351
20
-0.0684106
40
0.5865446
50
75.4101064
51
90.3804066
0
ARC
8
DEFAULT_255_1_234
10
11.4568864
20
0.0272492
40
0.4881916
50
60.145586
51
75.1888407
0
ARC
8
DEFAULT_255_1_234
10
11.472764
20
0.0549199
40
0.4562893
50
26.5253612
51
60.1450928
0
ARC
8
DEFAULT_255_1_234
10
11.3607389
20
-0.0044842
40
0.5830602
50
7.4030428
51
26.8320788
0
ARC
8
DEFAULT_255_1_234
10
11.2013146
20
-0.0293196
40
0.7443669
50
0.1605367
51
7.7176192
0
ARC
8
DEFAULT_255_1_234
10
11.217705
20
-0.1057566
40
0.7279835
50
348.7289388
51
0.3012466
0
ARC
8
DEFAULT_255_1_234
10
11.3833481
20
-0.1386614
40
0.559104
50
333.0706509
51
348.7181832
0
ARC
8
DEFAULT_255_1_234
10
11.4800238
20
-0.1911681
40
0.4491417
50
299.2531685
51
333.4571258
0
ARC
8
DEFAULT_255_1_234
10
11.4439378
20
-0.1226172
40
0.5265881
50
278.107187
51
299.0339503
0
ARC
8
DEFAULT_255_1_234
10
11.4183457
20
0.0281216
40
0.679442
50
270.4443897
51
278.4511052
0
ARC
8
DEFAULT_255_1_234
10
11.4204287
20
-0.0647787
40
0.4604407
50
269.4970433
51
284.0205042
0
ARC
8
DEFAULT_255_1_234
10
11.4559588
20
-0.2013022
40
0.3193797
50
283.7700273
51
318.1555492
0
ARC
8
DEFAULT_255_1_234
10
11.4222346
20
-0.1760633
40
0.3613588
50
318.7415601
51
343.6873628
0
ARC
8
DEFAULT_255_1_234
10
11.2418369
20
-0.1197168
40
0.5503313
50
343.3325091
51
355.8548958
0
ARC
8
DEFAULT_255_1_234
10
11.0320054
20
-0.0997681
40
0.7610708
50
355.4988528
51
0.0791727
0
ARC
8
DEFAULT_255_1_234
10
11.1102676
20
-0.026222
40
0.6828208
50
359.6455037
51
9.8607896
0
ARC
8
DEFAULT_255_1_234
10
11.3463374
20
0.0164099
40
0.4429406
50
9.6571907
51
26.1932807
0
ARC
8
DEFAULT_255_1_234
10
11.4391363
20
0.0595118
40
0.3406537
50
26.5777228
51
40.1532208
0
ARC
8
DEFAULT_255_1_234
10
11.4647089
20
0.0794619
40
0.308246
50
40.3840491
51
80.1431104
0
ARC
8
DEFAULT_255_1_234
10
11.4320207
20
-0.0654667
40
0.4566909
50
79.2152159
51
89.7445637
0
LINE
8
DEFAULT_255_1_234
10
12.8733442
20
0.0402327
11
12.8733442
21
-0.1525291
0
LINE
8
DEFAULT_255_1_234
10
12.1352274
20
-0.1726084
11
12.1352274
21
0.0257755
0
LINE
8
DEFAULT_255_1_234
10
12.724757
20
-0.1926877
11
12.724757
21
0.0506739
0
LINE
8
DEFAULT_255_1_234
10
12.2838146
20
0.0619184
11
12.2838146
21
-0.1758211
0
ARC
8
DEFAULT_255_1_234
10
11.6486331
20
-0.1574195
40
1.2247208
50
353.8441951
51
0.2287902
0
ARC
8
DEFAULT_255_1_234
10
12.1125835
20
-0.2092194
40
0.7578929
50
344.4934747
51
353.9765454
0
ARC
8
DEFAULT_255_1_234
10
12.4118425
20
-0.2943019
40
0.4467846
50
329.2803592
51
344.7472793
0
ARC
8
DEFAULT_255_1_234
10
12.511125
20
-0.3487982
40
0.3336173
50
324.9352394
51
328.6160465
0
ARC
8
DEFAULT_255_1_234
10
12.5488359
20
-0.3751573
40
0.2876076
50
280.580143
51
324.9173126
0
ARC
8
DEFAULT_255_1_234
10
12.5087151
20
-0.2080901
40
0.4592847
50
269.5977311
51
281.6734359
0
ARC
8
DEFAULT_255_1_234
10
12.5015057
20
-0.2200827
40
0.4472986
50
256.6228859
51
270.51044
0
ARC
8
DEFAULT_255_1_234
10
12.4613035
20
-0.3749123
40
0.2873874
50
215.8618325
51
257.2788573
0
ARC
8
DEFAULT_255_1_234
10
12.5634067
20
-0.3064023
40
0.4102928
50
197.9693508
51
215.2623606
0
ARC
8
DEFAULT_255_1_234
10
12.8119182
20
-0.2225291
40
0.6725652
50
187.8816417
51
198.2346507
0
ARC
8
DEFAULT_255_1_234
10
13.207739
20
-0.1653921
40
1.0724845
50
180.8976217
51
188.0055519
0
ARC
8
DEFAULT_255_1_234
10
13.4877579
20
-0.1550223
40
1.3526448
50
180.7449369
51
181.1510016
0
ARC
8
DEFAULT_255_1_234
10
13.3300308
20
0.0306042
40
1.1948131
50
173.7675579
51
180.231553
0
ARC
8
DEFAULT_255_1_234
10
12.8782454
20
0.0816666
40
0.7401564
50
164.3058563
51
173.9002247
0
ARC
8
DEFAULT_255_1_234
10
12.5870523
20
0.1655656
40
0.4371288
50
148.7922025
51
164.568378
0
ARC
8
DEFAULT_255_1_234
10
12.4918975
20
0.2186929
40
0.3282386
50
144.5883898
51
148.1176286
0
ARC
8
DEFAULT_255_1_234
10
12.4575873
20
0.2426315
40
0.2864044
50
101.6440918
51
144.514236
0
ARC
8
DEFAULT_255_1_234
10
12.500094
20
0.0737069
40
0.4604934
50
89.5284041
51
102.5819763
0
ARC
8
DEFAULT_255_1_234
10
12.5080028
20
0.0698018
40
0.464401
50
77.0437873
51
90.5081339
0
ARC
8
DEFAULT_255_1_234
10
12.5482029
20
0.2340615
40
0.2953195
50
48.2778575
51
77.4994676
0
ARC
8
DEFAULT_255_1_234
10
12.5554661
20
0.2469746
40
0.2808655
50
36.3142134
51
47.6305865
0
ARC
8
DEFAULT_255_1_234
10
12.4685968
20
0.1884515
40
0.3855453
50
18.2931786
51
35.6769206
0
ARC
8
DEFAULT_255_1_234
10
12.2142726
20
0.1011593
40
0.654423
50
8.024666
51
18.5605216
0
ARC
8
DEFAULT_255_1_234
10
11.7979647
20
0.0396792
40
1.0752407
50
1.1274072
51
8.1718305
0
ARC
8
DEFAULT_255_1_234
10
11.4743837
20
0.0269885
40
1.3990231
50
0.5424119
51
1.3863029
0
ARC
8
DEFAULT_255_1_234
10
11.6565215
20
0.0542342
40
1.0682415
50
359.8090433
51
4.9407866
0
ARC
8
DEFAULT_255_1_234
10
12.0775229
20
0.0918113
40
0.6455691
50
4.8362157
51
12.2904523
0
ARC
8
DEFAULT_255_1_234
10
12.3530344
20
0.1531965
40
0.3633074
50
12.0805627
51
23.8173984
0
ARC
8
DEFAULT_255_1_234
10
12.4704049
20
0.2028919
40
0.2358723
50
24.2871213
51
31.3935614
0
ARC
8
DEFAULT_255_1_234
10
12.5228746
20
0.2372233
40
0.1732111
50
30.7407893
51
82.4657128
0
ARC
8
DEFAULT_255_1_234
10
12.5048881
20
0.1488691
40
0.263235
50
81.1060089
51
90.2184952
0
ARC
8
DEFAULT_255_1_234
10
12.5013179
20
0.1746924
40
0.2374236
50
89.3806855
51
105.6762551
0
ARC
8
DEFAULT_255_1_234
10
12.482981
20
0.2413567
40
0.1682847
50
105.7981136
51
149.7388061
0
ARC
8
DEFAULT_255_1_234
10
12.5893888
20
0.177395
40
0.2924306
50
149.4208916
51
163.6286378
0
ARC
8
DEFAULT_255_1_234
10
12.7984776
20
0.113625
40
0.5110213
50
163.3763315
51
172.1410975
0
ARC
8
DEFAULT_255_1_234
10
13.1285495
20
0.0663518
40
0.8444586
50
172.0259487
51
178.0703232
0
ARC
8
DEFAULT_255_1_234
10
13.4315585
20
0.0519906
40
1.1477868
50
177.8631668
51
179.5044149
0
ARC
8
DEFAULT_255_1_234
10
13.3242989
20
-0.1794611
40
1.0404907
50
179.7995573
51
185.2460446
0
ARC
8
DEFAULT_255_1_234
10
12.9200029
20
-0.2177487
40
0.6343885
50
185.1411642
51
193.0079639
0
ARC
8
DEFAULT_255_1_234
10
12.6556501
20
-0.2802359
40
0.3627568
50
192.7897626
51
205.2507664
0
ARC
8
DEFAULT_255_1_234
10
12.5510048
20
-0.3269585
40
0.2481908
50
205.8005384
51
211.2537509
0
ARC
8
DEFAULT_255_1_234
10
12.4986489
20
-0.362042
40
0.1852521
50
210.3789793
51
238.4008143
0
ARC
8
DEFAULT_255_1_234
10
12.4967011
20
-0.3573624
40
0.1882621
50
239.6520629
51
265.9793761
0
ARC
8
DEFAULT_255_1_234
10
12.5052211
20
-0.2901573
40
0.2559272
50
265.1315437
51
270.060332
0
ARC
8
DEFAULT_255_1_234
10
12.508099
20
-0.3225466
40
0.2235528
50
269.3314664
51
287.2178029
0
ARC
8
DEFAULT_255_1_234
10
12.5218842
20
-0.3728721
40
0.1714108
50
287.7958004
51
329.080874
0
ARC
8
DEFAULT_255_1_234
10
12.4261298
20
-0.313107
40
0.2842745
50
328.6634704
51
343.3325132
0
ARC
8
DEFAULT_255_1_234
10
12.2088318
20
-0.2454137
40
0.5118644
50
343.0499468
51
351.9393422
0
ARC
8
DEFAULT_255_1_234
10
11.8621618
20
-0.1943051
40
0.8622784
50
351.8069023
51
357.7959224
0
ARC
8
DEFAULT_255_1_234
10
11.5386174
20
-0.1775279
40
1.1862365
50
357.5871873
51
359.2677531
0
LINE
8
DEFAULT_255_1_234
10
13.3881786
20
-0.0938974
11
13.3881786
21
-0.2151766
0
LINE
8
DEFAULT_255_1_234
10
13.3881786
20
-0.2151766
11
12.9962298
21
-0.2151766
0
LINE
8
DEFAULT_255_1_234
10
12.9962298
20
-0.2151766
11
12.9962298
21
-0.0938974
0
LINE
8
DEFAULT_255_1_234
10
12.9962298
20
-0.0938974
11
13.3881786
21
-0.0938974
0
LINE
8
DEFAULT_255_1_234
10
14.2507873
20
0.0402327
11
14.2507873
21
-0.1525291
0
LINE
8
DEFAULT_255_1_234
10
13.5126706
20
-0.1726084
11
13.5126706
21
0.0257755
0
LINE
8
DEFAULT_255_1_234
10
14.1022001
20
-0.1926877
11
14.1022001
21
0.0506739
0
LINE
8
DEFAULT_255_1_234
10
13.6612577
20
0.0619184
11
13.6612577
21
-0.1758211
0
ARC
8
DEFAULT_255_1_234
10
13.0260763
20
-0.1574195
40
1.2247208
50
353.8441951
51
0.2287902
0
ARC
8
DEFAULT_255_1_234
10
13.4900266
20
-0.2092194
40
0.7578929
50
344.4934747
51
353.9765454
0
ARC
8
DEFAULT_255_1_234
10
13.7892856
20
-0.2943019
40
0.4467846
50
329.2803592
51
344.7472793
0
ARC
8
DEFAULT_255_1_234
10
13.8885681
20
-0.3487982
40
0.3336173
50
324.9352394
51
328.6160465
0
ARC
8
DEFAULT_255_1_234
10
13.926279
20
-0.3751573
40
0.2876076
50
280.580143
51
324.9173126
0
ARC
8
DEFAULT_255_1_234
10
13.8861583
20
-0.2080901
40
0.4592847
50
269.5977311
51
281.6734359
0
ARC
8
DEFAULT_255_1_234
10
13.8789488
20
-0.2200827
40
0.4472986
50
256.6228859
51
270.51044
0
ARC
8
DEFAULT_255_1_234
10
13.8387466
20
-0.3749123
40
0.2873874
50
215.8618325
51
257.2788573
0
ARC
8
DEFAULT_255_1_234
10
13.9408498
20
-0.3064023
40
0.4102928
50
197.9693508
51
215.2623606
0
ARC
8
DEFAULT_255_1_234
10
14.1893613
20
-0.2225291
40
0.6725652
50
187.8816417
51
198.2346507
0
ARC
8
DEFAULT_255_1_234
10
14.5851822
20
-0.1653921
40
1.0724845
50
180.8976217
51
188.0055519
0
ARC
8
DEFAULT_255_1_234
10
14.865201
20
-0.1550223
40
1.3526448
50
180.7449369
51
181.1510016
0
ARC
8
DEFAULT_255_1_234
10
14.7074739
20
0.0306042
40
1.1948131
50
173.7675579
51
180.231553
0
ARC
8
DEFAULT_255_1_234
10
14.2556885
20
0.0816666
40
0.7401564
50
164.3058563
51
173.9002247
0
ARC
8
DEFAULT_255_1_234
10
13.9644954
20
0.1655656
40
0.4371288
50
148.7922025
51
164.568378
0
ARC
8
DEFAULT_255_1_234
10
13.8693406
20
0.2186929
40
0.3282386
50
144.5883898
51
148.1176286
0
ARC
8
DEFAULT_255_1_234
10
13.8350304
20
0.2426315
40
0.2864044
50
101.6440918
51
144.514236
0
ARC
8
DEFAULT_255_1_234
10
13.8775371
20
0.0737069
40
0.4604934
50
89.5284041
51
102.5819763
0
ARC
8
DEFAULT_255_1_234
10
13.8854459
20
0.0698018
40
0.464401
50
77.0437873
51
90.5081339
0
ARC
8
DEFAULT_255_1_234
10
13.9256461
20
0.2340615
40
0.2953195
50
48.2778575
51
77.4994676
0
ARC
8
DEFAULT_255_1_234
10
13.9329092
20
0.2469746
40
0.2808655
50
36.3142134
51
47.6305865
0
ARC
8
DEFAULT_255_1_234
10
13.8460399
20
0.1884515
40
0.3855453
50
18.2931786
51
35.6769206
0
ARC
8
DEFAULT_255_1_234
10
13.5917158
20
0.1011593
40
0.654423
50
8.024666
51
18.5605216
0
ARC
8
DEFAULT_255_1_234
10
13.1754078
20
0.0396792
40
1.0752407
50
1.1274072
51
8.1718305
0
ARC
8
DEFAULT_255_1_234
10
12.8518268
20
0.0269885
40
1.3990231
50
0.5424119
51
1.3863029
0
ARC
8
DEFAULT_255_1_234
10
13.0339646
20
0.0542342
40
1.0682415
50
359.8090433
51
4.9407866
0
ARC
8
DEFAULT_255_1_234
10
13.454966
20
0.0918113
40
0.6455691
50
4.8362157
51
12.2904523
0
ARC
8
DEFAULT_255_1_234
10
13.7304775
20
0.1531965
40
0.3633074
50
12.0805627
51
23.8173984
0
ARC
8
DEFAULT_255_1_234
10
13.847848
20
0.2028919
40
0.2358723
50
24.2871213
51
31.3935614
0
ARC
8
DEFAULT_255_1_234
10
13.9003177
20
0.2372233
40
0.1732111
50
30.7407893
51
82.4657128
0
ARC
8
DEFAULT_255_1_234
10
13.8823312
20
0.1488691
40
0.263235
50
81.1060089
51
90.2184952
0
ARC
8
DEFAULT_255_1_234
10
13.8787611
20
0.1746924
40
0.2374236
50
89.3806855
51
105.6762551
0
ARC
8
DEFAULT_255_1_234
10
13.8604241
20
0.2413567
40
0.1682847
50
105.7981136
51
149.7388061
0
ARC
8
DEFAULT_255_1_234
10
13.966832
20
0.177395
40
0.2924306
50
149.4208916
51
163.6286378
0
ARC
8
DEFAULT_255_1_234
10
14.1759208
20
0.113625
40
0.5110213
50
163.3763315
51
172.1410975
0
ARC
8
DEFAULT_255_1_234
10
14.5059927
20
0.0663518
40
0.8444586
50
172.0259487
51
178.0703232
0
ARC
8
DEFAULT_255_1_234
10
14.8090016
20
0.0519906
40
1.1477868
50
177.8631668
51
179.5044149
0
ARC
8
DEFAULT_255_1_234
10
14.7017421
20
-0.1794611
40
1.0404907
50
179.7995573
51
185.2460446
0
ARC
8
DEFAULT_255_1_234
10
14.297446
20
-0.2177487
40
0.6343885
50
185.1411642
51
193.0079639
0
ARC
8
DEFAULT_255_1_234
10
14.0330932
20
-0.2802359
40
0.3627568
50
192.7897626
51
205.2507664
0
ARC
8
DEFAULT_255_1_234
10
13.9284479
20
-0.3269585
40
0.2481908
50
205.8005384
51
211.2537509
0
ARC
8
DEFAULT_255_1_234
10
13.876092
20
-0.362042
40
0.1852521
50
210.3789793
51
238.4008143
0
ARC
8
DEFAULT_255_1_234
10
13.8741442
20
-0.3573624
40
0.1882621
50
239.6520629
51
265.9793761
0
ARC
8
DEFAULT_255_1_234
10
13.8826642
20
-0.2901573
40
0.2559272
50
265.1315437
51
270.060332
0
ARC
8
DEFAULT_255_1_234
10
13.8855421
20
-0.3225466
40
0.2235528
50
269.3314664
51
287.2178029
0
ARC
8
DEFAULT_255_1_234
10
13.8993273
20
-0.3728721
40
0.1714108
50
287.7958004
51
329.080874
0
ARC
8
DEFAULT_255_1_234
10
13.8035729
20
-0.313107
40
0.2842745
50
328.6634704
51
343.3325132
0
ARC
8
DEFAULT_255_1_234
10
13.586275
20
-0.2454137
40
0.5118644
50
343.0499468
51
351.9393422
0
ARC
8
DEFAULT_255_1_234
10
13.2396049
20
-0.1943051
40
0.8622784
50
351.8069023
51
357.7959224
0
ARC
8
DEFAULT_255_1_234
10
12.9160605
20
-0.1775279
40
1.1862365
50
357.5871873
51
359.2677531
0
LINE
8
DEFAULT_255_1_234
10
14.997739
20
0.5189243
11
15.0242437
21
0.5189243
0
LINE
8
DEFAULT_255_1_234
10
15.0242437
20
0.5189243
11
15.0242437
21
0.392826
0
LINE
8
DEFAULT_255_1_234
10
15.0242437
20
0.392826
11
14.9969358
21
0.392826
0
LINE
8
DEFAULT_255_1_234
10
14.4499744
20
-0.2063417
11
14.4499744
21
-0.1493164
0
LINE
8
DEFAULT_255_1_234
10
14.5993647
20
-0.1685925
11
14.5993647
21
-0.2232083
0
ARC
8
DEFAULT_255_1_234
10
15.0021706
20
-0.1069545
40
0.4998079
50
90.6001036
51
104.514704
0
ARC
8
DEFAULT_255_1_234
10
14.9633221
20
0.0375131
40
0.3502176
50
104.2855254
51
133.862935
0
ARC
8
DEFAULT_255_1_234
10
14.9796979
20
0.026683
40
0.3693984
50
134.5302688
51
161.6210873
0
ARC
8
DEFAULT_255_1_234
10
15.1450167
20
-0.0316105
40
0.5446739
50
161.2849839
51
174.2076652
0
ARC
8
DEFAULT_255_1_234
10
15.2857104
20
-0.0510213
40
0.6866274
50
173.7810589
51
174.9254635
0
ARC
8
DEFAULT_255_1_234
10
14.8306936
20
-0.1893161
40
0.3033419
50
95.8330959
51
138.9954921
0
ARC
8
DEFAULT_255_1_234
10
14.8530292
20
-0.3171625
40
0.4328947
50
89.8753725
51
97.0544009
0
ARC
8
DEFAULT_255_1_234
10
14.8577758
20
-0.2336252
40
0.3493769
50
71.6407809
51
90.6240094
0
ARC
8
DEFAULT_255_1_234
10
14.8728332
20
-0.1781918
40
0.2920396
50
39.6367836
51
71.019018
0
ARC
8
DEFAULT_255_1_234
10
14.8091805
20
-0.2332002
40
0.3761538
50
10.658731
51
39.9043955
0
ARC
8
DEFAULT_255_1_234
10
14.6543888
20
-0.2668314
40
0.5345136
50
359.682601
51
11.132623
0
ARC
8
DEFAULT_255_1_234
10
14.6504019
20
-0.273899
40
0.5385081
50
347.2486944
51
0.4369317
0
ARC
8
DEFAULT_255_1_234
10
14.8171496
20
-0.3140193
40
0.3670249
50
318.1409698
51
347.6118597
0
ARC
8
DEFAULT_255_1_234
10
14.8496489
20
-0.3407298
40
0.3250007
50
275.6342139
51
317.8248465
0
ARC
8
DEFAULT_255_1_234
10
14.82756
20
-0.2107781
40
0.4565864
50
269.8874292
51
276.7917694
0
ARC
8
DEFAULT_255_1_234
10
14.8220671
20
-0.3133257
40
0.3540676
50
246.9140195
51
270.7437342
0
ARC
8
DEFAULT_255_1_234
10
14.8227061
20
-0.3275616
40
0.3412781
50
218.1665114
51
245.878116
0
ARC
8
DEFAULT_255_1_234
10
14.9106522
20
-0.2539721
40
0.455911
50
191.4115814
51
218.6077802
0
ARC
8
DEFAULT_255_1_234
10
15.1044611
20
-0.2105167
40
0.6545001
50
179.6345085
51
191.7836486
0
ARC
8
DEFAULT_255_1_234
10
15.6626948
20
-0.1426303
40
1.2127388
50
171.4525249
51
180.3158839
0
ARC
8
DEFAULT_255_1_234
10
15.2231823
20
-0.0742392
40
0.7679464
50
157.9802646
51
171.6246686
0
ARC
8
DEFAULT_255_1_234
10
15.0017844
20
0.0140421
40
0.5296008
50
141.4298019
51
157.854097
0
ARC
8
DEFAULT_255_1_234
10
14.9376165
20
0.0594381
40
0.4511509
50
102.8715806
51
140.8564722
0
ARC
8
DEFAULT_255_1_234
10
15.002378
20
-0.1845448
40
0.7034845
50
90.3778349
51
103.5869322
0
ARC
8
DEFAULT_255_1_234
10
14.8285557
20
-0.245027
40
0.2370698
50
89.8751008
51
126.2071704
0
ARC
8
DEFAULT_255_1_234
10
14.8331346
20
-0.2604697
40
0.2522934
50
124.9745049
51
144.895901
0
ARC
8
DEFAULT_255_1_234
10
14.8155537
20
-0.246144
40
0.2296779
50
145.2974905
51
160.2660252
0
ARC
8
DEFAULT_255_1_234
10
15.1228076
20
-0.2263929
40
0.5234525
50
179.6514266
51
190.2855912
0
ARC
8
DEFAULT_255_1_234
10
14.9534213
20
-0.2583214
40
0.3510893
50
190.0945431
51
207.5098196
0
ARC
8
DEFAULT_255_1_234
10
14.8968483
20
-0.2852377
40
0.288489
50
207.9583163
51
216.3251085
0
ARC
8
DEFAULT_255_1_234
10
14.8628591
20
-0.3131895
40
0.2445587
50
215.7661442
51
232.5456785
0
ARC
8
DEFAULT_255_1_234
10
14.8245573
20
-0.3618518
40
0.1826382
50
232.8005391
51
270.6605633
0
ARC
8
DEFAULT_255_1_234
10
14.8291274
20
-0.3254388
40
0.2190529
50
269.35537
51
288.4744281
0
ARC
8
DEFAULT_255_1_234
10
14.8384172
20
-0.3603882
40
0.1829749
50
289.1833337
51
322.9683818
0
ARC
8
DEFAULT_255_1_234
10
14.7772694
20
-0.3121609
40
0.2608399
50
322.6007884
51
346.5182367
0
ARC
8
DEFAULT_255_1_234
10
14.661529
20
-0.2826384
40
0.3802777
50
346.2582162
51
358.7741648
0
ARC
8
DEFAULT_255_1_234
10
14.5596959
20
-0.2771035
40
0.4822176
50
358.3755224
51
0.0098023
0
ARC
8
DEFAULT_255_1_234
10
14.6353146
20
-0.2743343
40
0.4066078
50
359.6214041
51
11.2839074
0
ARC
8
DEFAULT_255_1_234
10
14.7630293
20
-0.2476934
40
0.2761514
50
11.0482309
51
31.8146458
0
ARC
8
DEFAULT_255_1_234
10
14.7939336
20
-0.2309416
40
0.2410679
50
32.3035391
51
38.082671
0
ARC
8
DEFAULT_255_1_234
10
14.8359996
20
-0.1928338
40
0.1844966
50
36.825067
51
85.7415724
0
ARC
8
DEFAULT_255_1_234
10
14.8292829
20
-0.2428699
40
0.2349122
50
85.0140713
51
90.0513278
0
LINE
8
DEFAULT_255_1_234
10
15.7270208
20
-0.6513
11
15.4033417
21
-0.6513
0
LINE
8
DEFAULT_255_1_234
10
15.4033417
20
-0.6513
11
15.4033417
21
0.5181211
0
LINE
8
DEFAULT_255_1_234
10
15.4033417
20
0.5181211
11
15.7334462
21
0.5181211
0
LINE
8
DEFAULT_255_1_234
10
16.2490838
20
-0.0272339
11
16.2490838
21
-0.1019291
0
LINE
8
DEFAULT_255_1_234
10
15.7374621
20
0.3912196
11
15.5575511
21
0.3912196
0
LINE
8
DEFAULT_255_1_234
10
15.5575511
20
0.3912196
11
15.5575511
21
-0.5252017
0
LINE
8
DEFAULT_255_1_234
10
15.5575511
20
-0.5252017
11
15.7197922
21
-0.5252017
0
LINE
8
DEFAULT_255_1_234
10
16.0964808
20
-0.0987164
11
16.0964808
21
-0.0304466
0
ARC
8
DEFAULT_255_1_234
10
15.7373404
20
-0.0684106
40
0.5865446
50
75.4101064
51
90.3804066
0
ARC
8
DEFAULT_255_1_234
10
15.7602918
20
0.0272492
40
0.4881916
50
60.145586
51
75.1888407
0
ARC
8
DEFAULT_255_1_234
10
15.7761693
20
0.0549199
40
0.4562893
50
26.5253612
51
60.1450928
0
ARC
8
DEFAULT_255_1_234
10
15.6641443
20
-0.0044842
40
0.5830602
50
7.4030428
51
26.8320788
0
ARC
8
DEFAULT_255_1_234
10
15.5047199
20
-0.0293196
40
0.7443669
50
0.1605367
51
7.7176192
0
ARC
8
DEFAULT_255_1_234
10
15.5211104
20
-0.1057566
40
0.7279835
50
348.7289388
51
0.3012466
0
ARC
8
DEFAULT_255_1_234
10
15.6867534
20
-0.1386614
40
0.559104
50
333.0706509
51
348.7181832
0
ARC
8
DEFAULT_255_1_234
10
15.7834292
20
-0.1911681
40
0.4491417
50
299.2531685
51
333.4571258
0
ARC
8
DEFAULT_255_1_234
10
15.7473432
20
-0.1226172
40
0.5265881
50
278.107187
51
299.0339503
0
ARC
8
DEFAULT_255_1_234
10
15.7217511
20
0.0281216
40
0.679442
50
270.4443897
51
278.4511052
0
ARC
8
DEFAULT_255_1_234
10
15.723834
20
-0.0647787
40
0.4604407
50
269.4970433
51
284.0205042
0
ARC
8
DEFAULT_255_1_234
10
15.7593641
20
-0.2013022
40
0.3193797
50
283.7700273
51
318.1555492
0
ARC
8
DEFAULT_255_1_234
10
15.72564
20
-0.1760633
40
0.3613588
50
318.7415601
51
343.6873628
0
ARC
8
DEFAULT_255_1_234
10
15.5452423
20
-0.1197168
40
0.5503313
50
343.3325091
51
355.8548958
0
ARC
8
DEFAULT_255_1_234
10
15.3354107
20
-0.0997681
40
0.7610708
50
355.4988528
51
0.0791727
0
ARC
8
DEFAULT_255_1_234
10
15.413673
20
-0.026222
40
0.6828208
50
359.6455037
51
9.8607896
0
ARC
8
DEFAULT_255_1_234
10
15.6497428
20
0.0164099
40
0.4429406
50
9.6571907
51
26.1932807
0
ARC
8
DEFAULT_255_1_234
10
15.7425416
20
0.0595118
40
0.3406537
50
26.5777228
51
40.1532208
0
ARC
8
DEFAULT_255_1_234
10
15.7681143
20
0.0794619
40
0.308246
50
40.3840491
51
80.1431104
0
ARC
8
DEFAULT_255_1_234
10
15.735426
20
-0.0654667
40
0.4566909
50
79.2152159
51
89.7445637
0
LINE
8
DEFAULT_255_1_234
10
17.164702
20
-0.6513
11
16.910899
21
-0.1782306
0
LINE
8
DEFAULT_255_1_234
10
16.910899
20
-0.1782306
11
16.6362136
21
-0.1782306
0
LINE
8
DEFAULT_255_1_234
10
16.6362136
20
-0.1782306
11
16.6362136
21
-0.6513
0
LINE
8
DEFAULT_255_1_234
10
16.6362136
20
-0.6513
11
16.481201
21
-0.6513
0
LINE
8
DEFAULT_255_1_234
10
16.481201
20
-0.6513
11
16.481201
21
0.5181211
0
LINE
8
DEFAULT_255_1_234
10
16.481201
20
0.5181211
11
16.8683308
21
0.5181211
0
LINE
8
DEFAULT_255_1_234
10
17.0554703
20
-0.1453005
11
17.3301558
21
-0.6416619
0
LINE
8
DEFAULT_255_1_234
10
17.3301558
20
-0.6416619
11
17.3301558
21
-0.6513
0
LINE
8
DEFAULT_255_1_234
10
17.3301558
20
-0.6513
11
17.164702
21
-0.6513
0
LINE
8
DEFAULT_255_1_234
10
16.6362136
20
0.3912196
11
16.6362136
21
-0.0521323
0
LINE
8
DEFAULT_255_1_234
10
16.6362136
20
-0.0521323
11
16.8731499
21
-0.0521323
0
LINE
8
DEFAULT_255_1_234
10
16.8723467
20
0.3912196
11
16.6362136
21
0.3912196
0
ARC
8
DEFAULT_255_1_234
10
16.8724947
20
-0.1780239
40
0.6961575
50
80.653586
51
90.3427061
0
ARC
8
DEFAULT_255_1_234
10
16.9144422
20
0.0682348
40
0.4463577
50
65.6987447
51
80.8329603
0
ARC
8
DEFAULT_255_1_234
10
16.9622063
20
0.1777322
40
0.3269094
50
50.0017161
51
65.4305835
0
ARC
8
DEFAULT_255_1_234
10
16.9840527
20
0.2072482
40
0.2902647
50
11.628416
51
49.5603263
0
ARC
8
DEFAULT_255_1_234
10
16.8304863
20
0.1697299
40
0.4482792
50
359.5655735
51
12.3691
0
ARC
8
DEFAULT_255_1_234
10
16.9381723
20
0.1634644
40
0.3405924
50
341.9983148
51
0.4822259
0
ARC
8
DEFAULT_255_1_234
10
16.9776563
20
0.1527471
40
0.2997359
50
323.8609373
51
341.61416
0
ARC
8
DEFAULT_255_1_234
10
16.9474807
20
0.1760484
40
0.3378487
50
296.7018614
51
323.6876402
0
ARC
8
DEFAULT_255_1_234
10
16.9033703
20
0.2549235
40
0.4281516
50
290.8086567
51
297.2323311
0
ARC
8
DEFAULT_255_1_234
10
16.8757232
20
0.3072351
40
0.3593766
50
269.589728
51
281.8058135
0
ARC
8
DEFAULT_255_1_234
10
16.9008131
20
0.1924743
40
0.2419125
50
281.5501019
51
303.9357432
0
ARC
8
DEFAULT_255_1_234
10
16.9145319
20
0.1686936
40
0.2145323
50
304.4415616
51
311.2106213
0
ARC
8
DEFAULT_255_1_234
10
16.9277424
20
0.1547632
40
0.1953505
50
310.9875673
51
356.2715578
0
ARC
8
DEFAULT_255_1_234
10
16.8521073
20
0.1660422
40
0.2716331
50
354.9348262
51
0.0609027
0
ARC
8
DEFAULT_255_1_234
10
16.8333947
20
0.1687435
40
0.2903554
50
359.5239371
51
12.8808918
0
ARC
8
DEFAULT_255_1_234
10
16.9311503
20
0.1926728
40
0.1897315
50
12.4173452
51
43.1022135
0
ARC
8
DEFAULT_255_1_234
10
16.9373107
20
0.1963724
40
0.1827118
50
43.5751728
51
48.203944
0
ARC
8
DEFAULT_255_1_234
10
16.9203599
20
0.1742302
40
0.2105272
50
48.7809703
51
72.6969569
0
ARC
8
DEFAULT_255_1_234
10
16.8849224
20
0.066682
40
0.3237537
50
72.3702241
51
84.8791103
0
ARC
8
DEFAULT_255_1_234
10
16.87017
20
-0.0675231
40
0.4587478
50
84.5400526
51
89.7281406
0
LINE
8
DEFAULT_255_1_234
10
7.7980154
20
228.8747
11
7.4743364
21
228.8747
0
LINE
8
DEFAULT_255_1_234
10
7.4743364
20
228.8747
11
7.4743364
21
230.0441211
0
LINE
8
DEFAULT_255_1_234
10
7.4743364
20
230.0441211
11
7.8044408
21
230.0441211
0
LINE
8
DEFAULT_255_1_234
10
8.3200784
20
229.4987661
11
8.3200784
21
229.4240709
0
LINE
8
DEFAULT_255_1_234
10
7.8084567
20
229.9172196
11
7.6285458
21
229.9172196
0
LINE
8
DEFAULT_255_1_234
10
7.6285458
20
229.9172196
11
7.6285458
21
229.0007983
0
LINE
8
DEFAULT_255_1_234
10
7.6285458
20
229.0007983
11
7.7907869
21
229.0007983
0
LINE
8
DEFAULT_255_1_234
10
8.1674754
20
229.4272836
11
8.1674754
21
229.4955534
0
ARC
8
DEFAULT_255_1_234
10
7.8083351
20
229.4575894
40
0.5865446
50
75.4101064
51
90.3804066
0
ARC
8
DEFAULT_255_1_234
10
7.8312864
20
229.5532492
40
0.4881916
50
60.145586
51
75.1888407
0
ARC
8
DEFAULT_255_1_234
10
7.847164
20
229.5809199
40
0.4562893
50
26.5253612
51
60.1450928
0
ARC
8
DEFAULT_255_1_234
10
7.7351389
20
229.5215158
40
0.5830602
50
7.4030428
51
26.8320788
0
ARC
8
DEFAULT_255_1_234
10
7.5757146
20
229.4966804
40
0.7443669
50
0.1605367
51
7.7176192
0
ARC
8
DEFAULT_255_1_234
10
7.592105
20
229.4202434
40
0.7279835
50
348.7289388
51
0.3012466
0
ARC
8
DEFAULT_255_1_234
10
7.7577481
20
229.3873386
40
0.559104
50
333.0706509
51
348.7181832
0
ARC
8
DEFAULT_255_1_234
10
7.8544238
20
229.3348319
40
0.4491417
50
299.2531685
51
333.4571258
0
ARC
8
DEFAULT_255_1_234
10
7.8183378
20
229.4033828
40
0.5265881
50
278.107187
51
299.0339503
0
ARC
8
DEFAULT_255_1_234
10
7.7927457
20
229.5541216
40
0.679442
50
270.4443897
51
278.4511052
0
ARC
8
DEFAULT_255_1_234
10
7.7948287
20
229.4612213
40
0.4604407
50
269.4970433
51
284.0205042
0
ARC
8
DEFAULT_255_1_234
10
7.8303588
20
229.3246978
40
0.3193797
50
283.7700273
51
318.1555492
0
ARC
8
DEFAULT_255_1_234
10
7.7966346
20
229.3499367
40
0.3613588
50
318.7415601
51
343.6873628
0
ARC
8
DEFAULT_255_1_234
10
7.6162369
20
229.4062832
40
0.5503313
50
343.3325091
51
355.8548958
0
ARC
8
DEFAULT_255_1_234
10
7.4064054
20
229.4262319
40
0.7610708
50
355.4988528
51
0.0791727
0
ARC
8
DEFAULT_255_1_234
10
7.4846676
20
229.499778
40
0.6828208
50
359.6455037
51
9.8607896
0
ARC
8
DEFAULT_255_1_234
10
7.7207374
20
229.5424099
40
0.4429406
50
9.6571907
51
26.1932807
0
ARC
8
DEFAULT_255_1_234
10
7.8135363
20
229.5855118
40
0.3406537
50
26.5777228
51
40.1532208
0
ARC
8
DEFAULT_255_1_234
10
7.8391089
20
229.6054619
40
0.308246
50
40.3840491
51
80.1431104
0
ARC
8
DEFAULT_255_1_234
10
7.8064207
20
229.4605333
40
0.4566909
50
79.2152159
51
89.7445637
0
LINE
8
DEFAULT_255_1_234
10
8.6911447
20
229.7437341
11
8.6911447
21
228.8747
0
LINE
8
DEFAULT_255_1_234
10
8.6911447
20
228.8747
11
8.5425576
21
228.8747
0
LINE
8
DEFAULT_255_1_234
10
8.5425576
20
228.8747
11
8.5425576
21
229.7437341
0
LINE
8
DEFAULT_255_1_234
10
8.5425576
20
229.7437341
11
8.6911447
21
229.7437341
0
ARC
8
DEFAULT_255_1_234
10
8.6283724
20
229.9751889
40
0.097867
50
161.415052
51
180.5526306
0
ARC
8
DEFAULT_255_1_234
10
8.6159503
20
229.9786077
40
0.0850062
50
138.1827368
51
160.9307106
0
ARC
8
DEFAULT_255_1_234
10
8.6049448
20
229.9881588
40
0.0704362
50
104.6368899
51
138.0039868
0
ARC
8
DEFAULT_255_1_234
10
8.6156603
20
229.9514963
40
0.1086221
50
92.0600725
51
105.2189128
0
ARC
8
DEFAULT_255_1_234
10
8.6179951
20
229.9172117
40
0.1429728
50
89.9756393
51
92.5012496
0
ARC
8
DEFAULT_255_1_234
10
8.6189971
20
229.9397731
40
0.1204151
50
78.0235316
51
90.4478182
0
ARC
8
DEFAULT_255_1_234
10
8.6282062
20
229.9811295
40
0.0780493
50
55.051506
51
78.3369085
0
ARC
8
DEFAULT_255_1_234
10
8.6332337
20
229.9895711
40
0.0682538
50
42.0501187
51
54.4513741
0
ARC
8
DEFAULT_255_1_234
10
8.6197204
20
229.9771798
40
0.0865878
50
1.7497075
51
42.1496013
0
ARC
8
DEFAULT_255_1_234
10
8.5942537
20
229.9742738
40
0.1121515
50
359.9852656
51
2.8364544
0
ARC
8
DEFAULT_255_1_234
10
8.6108529
20
229.9733229
40
0.0955566
50
342.1070653
51
0.552888
0
ARC
8
DEFAULT_255_1_234
10
8.6251226
20
229.9693904
40
0.0807713
50
316.7107116
51
341.6516965
0
ARC
8
DEFAULT_255_1_234
10
8.6318263
20
229.9633823
40
0.0717724
50
285.4397031
51
316.5324284
0
ARC
8
DEFAULT_255_1_234
10
8.6208181
20
229.9999554
40
0.1099597
50
272.3547054
51
285.8953117
0
ARC
8
DEFAULT_255_1_234
10
8.6181338
20
230.0365048
40
0.1465932
50
269.9695369
51
272.8160237
0
ARC
8
DEFAULT_255_1_234
10
8.617152
20
230.0145863
40
0.1246779
50
258.8431134
51
270.4153935
0
ARC
8
DEFAULT_255_1_234
10
8.6081562
20
229.9710414
40
0.0802162
50
238.5431189
51
259.1288175
0
ARC
8
DEFAULT_255_1_234
10
8.6013447
20
229.9586856
40
0.0661247
50
222.5062634
51
237.9906969
0
ARC
8
DEFAULT_255_1_234
10
8.6141035
20
229.9702889
40
0.0833707
50
184.1069131
51
222.460413
0
ARC
8
DEFAULT_255_1_234
10
8.6410275
20
229.9741349
40
0.1105176
50
179.9429482
51
185.0960898
0
LINE
8
DEFAULT_255_1_234
10
9.3489441
20
229.7485531
11
9.3489441
21
229.6104072
0
LINE
8
DEFAULT_255_1_234
10
9.0774713
20
229.4915375
11
9.0774713
21
228.8747
0
LINE
8
DEFAULT_255_1_234
10
9.0774713
20
228.8747
11
8.9288842
21
228.8747
0
LINE
8
DEFAULT_255_1_234
10
8.9288842
20
228.8747
11
8.9288842
21
229.7437341
0
LINE
8
DEFAULT_255_1_234
10
8.9288842
20
229.7437341
11
9.0734555
21
229.7437341
0
LINE
8
DEFAULT_255_1_234
10
9.0734555
20
229.7437341
11
9.075865
21
229.6433374
0
ARC
8
DEFAULT_255_1_234
10
9.2822846
20
229.2044342
40
0.4114092
50
80.6754243
51
86.8932892
0
ARC
8
DEFAULT_255_1_234
10
9.2762381
20
229.10767
40
0.5083596
50
86.8038578
51
90.0431435
0
ARC
8
DEFAULT_255_1_234
10
9.2725362
20
229.3533866
40
0.2626638
50
89.2759698
51
106.6213787
0
ARC
8
DEFAULT_255_1_234
10
9.2520925
20
229.427683
40
0.1856317
50
107.1346045
51
157.6458115
0
ARC
8
DEFAULT_255_1_234
10
9.3212527
20
229.3893311
40
0.2643398
50
155.6586782
51
157.2539184
0
ARC
8
DEFAULT_255_1_234
10
9.3007729
20
229.5062157
40
0.2634121
50
127.8165941
51
148.6302098
0
ARC
8
DEFAULT_255_1_234
10
9.2754198
20
229.5322218
40
0.2273596
50
91.3329982
51
126.7875809
0
ARC
8
DEFAULT_255_1_234
10
9.2830139
20
229.4607195
40
0.299078
50
89.986594
51
92.4688449
0
ARC
8
DEFAULT_255_1_234
10
9.2838534
20
229.4882078
40
0.2715908
50
85.3589899
51
90.1623399
0
ARC
8
DEFAULT_255_1_234
10
9.2923049
20
229.5886164
40
0.1708278
50
78.401942
51
85.4594656
0
ARC
8
DEFAULT_255_1_234
10
9.3067933
20
229.6577236
40
0.1002194
50
67.7858312
51
78.5728455
0
ARC
8
DEFAULT_255_1_234
10
9.3175786
20
229.6856887
40
0.0702548
50
63.4835954
51
67.3062642
0
LINE
8
DEFAULT_255_1_234
10
9.4324742
20
229.2851218
11
9.4324742
21
229.3124297
0
LINE
8
DEFAULT_255_1_234
10
10.1697877
20
229.3284932
11
10.1697877
21
229.2666488
0
LINE
8
DEFAULT_255_1_234
10
10.1697877
20
229.2666488
11
9.5810613
21
229.2666488
0
LINE
8
DEFAULT_255_1_234
10
10.0677847
20
229.0971792
11
10.1585433
21
229.0264999
0
LINE
8
DEFAULT_255_1_234
10
9.5858804
20
229.3887313
11
10.0212006
21
229.3887313
0
LINE
8
DEFAULT_255_1_234
10
10.0212006
20
229.3887313
11
10.0212006
21
229.3999757
0
ARC
8
DEFAULT_255_1_234
10
9.8264107
20
229.2962332
40
0.4376191
50
252.3266134
51
270.5810217
0
ARC
8
DEFAULT_255_1_234
10
9.8059196
20
229.2221644
40
0.3608374
50
223.3000567
51
251.8561855
0
ARC
8
DEFAULT_255_1_234
10
9.8270556
20
229.2426937
40
0.3902993
50
190.9374509
51
223.3654032
0
ARC
8
DEFAULT_255_1_234
10
9.9995529
20
229.2816885
40
0.5670891
50
179.6531105
51
191.4989439
0
ARC
8
DEFAULT_255_1_234
10
10.0117541
20
229.3156417
40
0.5792888
50
167.4007466
51
180.3176909
0
ARC
8
DEFAULT_255_1_234
10
9.9065603
20
229.3378885
40
0.471777
50
154.1835823
51
167.250763
0
ARC
8
DEFAULT_255_1_234
10
9.843407
20
229.3711417
40
0.4004528
50
134.3149965
51
154.5315275
0
ARC
8
DEFAULT_255_1_234
10
9.8216565
20
229.3902228
40
0.371612
50
122.8616532
51
133.9707695
0
ARC
8
DEFAULT_255_1_234
10
9.8113139
20
229.4124703
40
0.3473289
50
89.8249009
51
123.4199222
0
ARC
8
DEFAULT_255_1_234
10
9.816318
20
229.3477967
40
0.4120197
50
74.7876118
51
90.5482747
0
ARC
8
DEFAULT_255_1_234
10
9.8456924
20
229.456303
40
0.2996077
50
39.8178249
51
74.7633718
0
ARC
8
DEFAULT_255_1_234
10
9.7944244
20
229.4163351
40
0.3645855
50
16.8990863
51
39.4829761
0
ARC
8
DEFAULT_255_1_234
10
9.604954
20
229.3556526
40
0.5635218
50
4.9636328
51
17.2026414
0
ARC
8
DEFAULT_255_1_234
10
9.363161
20
229.330134
40
0.8066286
50
359.8834553
51
5.2834307
0
ARC
8
DEFAULT_255_1_234
10
9.9669135
20
229.2732803
40
0.3859091
50
180.9846213
51
194.9401313
0
ARC
8
DEFAULT_255_1_234
10
9.8619413
20
229.2445849
40
0.2770883
50
194.80314
51
222.0412631
0
ARC
8
DEFAULT_255_1_234
10
9.8315294
20
229.2144116
40
0.2343055
50
221.5417084
51
268.8614402
0
ARC
8
DEFAULT_255_1_234
10
9.8388289
20
229.2820686
40
0.3021528
50
267.732405
51
270.0097136
0
ARC
8
DEFAULT_255_1_234
10
9.8406099
20
229.3022105
40
0.3222994
50
269.6924892
51
280.4117579
0
ARC
8
DEFAULT_255_1_234
10
9.8582506
20
229.2103193
40
0.2287344
50
280.2255091
51
298.6338936
0
ARC
8
DEFAULT_255_1_234
10
9.8699298
20
229.1859223
40
0.2017294
50
299.0430333
51
300.4643464
0
ARC
8
DEFAULT_255_1_234
10
9.8019303
20
229.2993038
40
0.3339357
50
300.6577328
51
322.0378878
0
ARC
8
DEFAULT_255_1_234
10
9.7668842
20
229.3297021
40
0.3802736
50
321.6750233
51
322.3046845
0
ARC
8
DEFAULT_255_1_234
10
9.8599804
20
229.213037
40
0.3520454
50
276.9728461
51
328.0035423
0
ARC
8
DEFAULT_255_1_234
10
9.8322857
20
229.3610841
40
0.5024498
50
269.8361028
51
278.0581756
0
ARC
8
DEFAULT_255_1_234
10
9.8095594
20
229.4355757
40
0.202159
50
89.2018686
51
117.2851756
0
ARC
8
DEFAULT_255_1_234
10
9.8148763
20
229.4313752
40
0.2083484
50
118.0551165
51
137.4540413
0
ARC
8
DEFAULT_255_1_234
10
9.8523503
20
229.3973304
40
0.2589774
50
137.5109581
51
158.8516286
0
ARC
8
DEFAULT_255_1_234
10
9.9661339
20
229.3514074
40
0.38167
50
158.5845963
51
170.1721436
0
ARC
8
DEFAULT_255_1_234
10
10.0830728
20
229.3281823
40
0.5008657
50
169.8376422
51
173.0566086
0
ARC
8
DEFAULT_255_1_234
10
9.6133802
20
229.3792509
40
0.4083467
50
2.9091802
51
12.8847116
0
ARC
8
DEFAULT_255_1_234
10
9.7504478
20
229.4115101
40
0.2675383
50
12.6957781
51
28.6404489
0
ARC
8
DEFAULT_255_1_234
10
9.8046149
20
229.4395458
40
0.2065654
50
29.0169854
51
41.1487595
0
ARC
8
DEFAULT_255_1_234
10
9.8248934
20
229.4572003
40
0.1796786
50
41.1646065
51
85.0013516
0
ARC
8
DEFAULT_255_1_234
10
9.8128031
20
229.3837431
40
0.2539726
50
83.7280015
51
90.0964893
0
LINE
8
DEFAULT_255_1_234
10
10.8950537
20
229.1485823
11
11.0356091
21
229.1485823
0
LINE
8
DEFAULT_255_1_234
10
10.3031146
20
229.3011853
11
10.3031146
21
229.3260837
0
LINE
8
DEFAULT_255_1_234
10
11.0356091
20
229.4449534
11
10.8950537
21
229.4449534
0
LINE
8
DEFAULT_255_1_234
10
10.4517018
20
229.3204615
11
10.4517018
21
229.2923504
0
ARC
8
DEFAULT_255_1_234
10
10.6938572
20
229.1939121
40
0.2140268
50
269.0327816
51
309.2224514
0
ARC
8
DEFAULT_255_1_234
10
10.7148327
20
229.1724108
40
0.1841255
50
308.396669
51
329.6984113
0
ARC
8
DEFAULT_255_1_234
10
10.7286182
20
229.161982
40
0.166974
50
330.401383
51
355.3970571
0
ARC
8
DEFAULT_255_1_234
10
10.7743048
20
229.1637082
40
0.2617417
50
329.2357853
51
356.6870514
0
ARC
8
DEFAULT_255_1_234
10
10.719307
20
229.1927971
40
0.3238945
50
324.8706984
51
329.7905871
0
ARC
8
DEFAULT_255_1_234
10
10.7114788
20
229.1995106
40
0.3341614
50
298.8769168
51
324.7016144
0
ARC
8
DEFAULT_255_1_234
10
10.678298
20
229.2523917
40
0.3965068
50
296.9023738
51
299.385174
0
ARC
8
DEFAULT_255_1_234
10
10.6912593
20
229.2236422
40
0.365007
50
269.8406811
51
297.1299281
0
ARC
8
DEFAULT_255_1_234
10
10.685925
20
229.2874407
40
0.4288259
50
253.315473
51
270.5771285
0
ARC
8
DEFAULT_255_1_234
10
10.6612285
20
229.1980739
40
0.3361372
50
221.1002312
51
252.9744583
0
ARC
8
DEFAULT_255_1_234
10
10.7072282
20
229.237559
40
0.3967576
50
194.5394537
51
221.0302238
0
ARC
8
DEFAULT_255_1_234
10
10.8921103
20
229.2890952
40
0.5886672
50
182.0499201
51
194.8773585
0
ARC
8
DEFAULT_255_1_234
10
11.0691302
20
229.300906
40
0.7660157
50
179.9791086
51
182.4591564
0
ARC
8
DEFAULT_255_1_234
10
10.8953346
20
229.3290498
40
0.5922274
50
168.614861
51
180.2869651
0
ARC
8
DEFAULT_255_1_234
10
10.7751491
20
229.3526269
40
0.4697532
50
154.9162259
51
168.5402336
0
ARC
8
DEFAULT_255_1_234
10
10.6829998
20
229.398163
40
0.3669966
50
133.5746694
51
155.2558665
0
ARC
8
DEFAULT_255_1_234
10
10.6667157
20
229.4120467
40
0.3457206
50
122.0165146
51
133.2055214
0
ARC
8
DEFAULT_255_1_234
10
10.6702996
20
229.4032361
40
0.355095
50
97.8731644
51
121.7531281
0
ARC
8
DEFAULT_255_1_234
10
10.6882078
20
229.2975159
40
0.4622833
50
89.8471353
51
98.2769494
0
ARC
8
DEFAULT_255_1_234
10
10.6930831
20
229.3585091
40
0.401305
50
73.3760412
51
90.5199766
0
ARC
8
DEFAULT_255_1_234
10
10.7127194
20
229.4307516
40
0.3264695
50
47.7085968
51
73.0509704
0
ARC
8
DEFAULT_255_1_234
10
10.7257065
20
229.4420128
40
0.309407
50
3.7443473
51
48.0843753
0
ARC
8
DEFAULT_255_1_234
10
10.6270014
20
229.4262614
40
0.4090351
50
2.6192045
51
5.0432185
0
ARC
8
DEFAULT_255_1_234
10
10.6726867
20
229.4302592
40
0.2228519
50
3.780656
51
23.9356886
0
ARC
8
DEFAULT_255_1_234
10
10.6955484
20
229.4383155
40
0.198697
50
24.4869552
51
46.9440088
0
ARC
8
DEFAULT_255_1_234
10
10.6956334
20
229.4406484
40
0.1969404
50
46.498716
51
89.3298174
0
ARC
8
DEFAULT_255_1_234
10
10.6894688
20
229.3811723
40
0.2565428
50
88.1083975
51
90.0061569
0
ARC
8
DEFAULT_255_1_234
10
10.6867118
20
229.3865759
40
0.251154
50
89.3773333
51
107.2071161
0
ARC
8
DEFAULT_255_1_234
10
10.6724241
20
229.438319
40
0.1975072
50
107.6883219
51
143.3583002
0
ARC
8
DEFAULT_255_1_234
10
10.7291625
20
229.3956873
40
0.2684762
50
143.2846717
51
162.935323
0
ARC
8
DEFAULT_255_1_234
10
10.8797226
20
229.3473652
40
0.4265927
50
162.6650068
51
174.0805419
0
ARC
8
DEFAULT_255_1_234
10
11.0940065
20
229.3224636
40
0.6423078
50
173.8423985
51
180.1785963
0
ARC
8
DEFAULT_255_1_234
10
11.0392165
20
229.2893039
40
0.5875227
50
179.7028978
51
188.2277152
0
ARC
8
DEFAULT_255_1_234
10
10.8290467
20
229.2578247
40
0.3750127
50
188.0629871
51
201.1160002
0
ARC
8
DEFAULT_255_1_234
10
10.7192666
20
229.2159238
40
0.2575093
50
201.2187293
51
216.9761968
0
ARC
8
DEFAULT_255_1_234
10
10.6741229
20
229.1820993
40
0.2010998
50
217.0135981
51
265.2056839
0
ARC
8
DEFAULT_255_1_234
10
10.6897088
20
229.2742695
40
0.2943543
50
263.681807
51
270.104251
0
LINE
8
DEFAULT_255_1_234
10
11.2556788
20
229.9541656
11
11.4042659
21
229.9541656
0
LINE
8
DEFAULT_255_1_234
10
11.4042659
20
229.9541656
11
11.4042659
21
229.7437341
0
LINE
8
DEFAULT_255_1_234
10
11.4042659
20
229.7437341
11
11.566507
21
229.7437341
0
LINE
8
DEFAULT_255_1_234
10
11.566507
20
229.7437341
11
11.566507
21
229.6288802
0
LINE
8
DEFAULT_255_1_234
10
11.566507
20
229.6288802
11
11.4042659
21
229.6288802
0
LINE
8
DEFAULT_255_1_234
10
11.4042659
20
229.6288802
11
11.4042659
21
229.0899506
0
LINE
8
DEFAULT_255_1_234
10
11.5705229
20
228.9951761
11
11.5705229
21
228.8747
0
LINE
8
DEFAULT_255_1_234
10
11.2556788
20
229.0899506
11
11.2556788
21
229.6288802
0
LINE
8
DEFAULT_255_1_234
10
11.2556788
20
229.6288802
11
11.0974535
21
229.6288802
0
LINE
8
DEFAULT_255_1_234
10
11.0974535
20
229.6288802
11
11.0974535
21
229.7437341
0
LINE
8
DEFAULT_255_1_234
10
11.0974535
20
229.7437341
11
11.2556788
21
229.7437341
0
LINE
8
DEFAULT_255_1_234
10
11.2556788
20
229.7437341
11
11.2556788
21
229.9541656
0
ARC
8
DEFAULT_255_1_234
10
11.6050162
20
229.0889084
40
0.200753
50
179.7025659
51
187.917967
0
ARC
8
DEFAULT_255_1_234
10
11.5304188
20
229.0781724
40
0.1253883
50
187.7545981
51
200.2447476
0
ARC
8
DEFAULT_255_1_234
10
11.4883509
20
229.0624859
40
0.0804913
50
200.130383
51
219.174133
0
ARC
8
DEFAULT_255_1_234
10
11.4747686
20
229.0532515
40
0.0641445
50
220.4434483
51
249.6172
0
ARC
8
DEFAULT_255_1_234
10
11.4902536
20
229.0921968
40
0.1060489
50
249.1032952
51
262.775154
0
ARC
8
DEFAULT_255_1_234
10
11.4990708
20
229.1550715
40
0.1695354
50
262.4913187
51
270.2611758
0
ARC
8
DEFAULT_255_1_234
10
11.4988125
20
229.1766103
40
0.191075
50
270.3091804
51
275.6625139
0
ARC
8
DEFAULT_255_1_234
10
11.484535
20
229.3267435
40
0.3418851
50
275.5610264
51
279.0879356
0
ARC
8
DEFAULT_255_1_234
10
11.4515227
20
229.5362699
40
0.5539959
50
279.0365489
51
281.5011378
0
ARC
8
DEFAULT_255_1_234
10
11.4158304
20
229.7166423
40
0.7378639
50
281.4243939
51
282.1017894
0
ARC
8
DEFAULT_255_1_234
10
11.4501551
20
229.3084858
40
0.4501761
50
275.2597045
51
285.5083879
0
ARC
8
DEFAULT_255_1_234
10
11.4562875
20
229.2528606
40
0.3942242
50
270.0268409
51
275.1132796
0
ARC
8
DEFAULT_255_1_234
10
11.454284
20
229.1201614
40
0.261534
50
257.3573315
51
270.479383
0
ARC
8
DEFAULT_255_1_234
10
11.4329731
20
229.0303406
40
0.1692304
50
230.8037497
51
257.741658
0
ARC
8
DEFAULT_255_1_234
10
11.4261635
20
229.0193777
40
0.1564393
50
219.974146
51
230.1990686
0
ARC
8
DEFAULT_255_1_234
10
11.4593581
20
229.0447579
40
0.1981916
50
196.5084186
51
219.4318458
0
ARC
8
DEFAULT_255_1_234
10
11.5609026
20
229.0766194
40
0.3046086
50
184.6404872
51
196.8269686
0
ARC
8
DEFAULT_255_1_234
10
11.6854091
20
229.0891908
40
0.4297309
50
179.8986958
51
184.9681077
0
LINE
8
DEFAULT_255_1_234
10
11.9182972
20
230.0441211
11
11.9182972
21
229.0007983
0
LINE
8
DEFAULT_255_1_234
10
11.9182972
20
229.0007983
11
12.4724871
21
229.0007983
0
LINE
8
DEFAULT_255_1_234
10
12.4724871
20
229.0007983
11
12.4724871
21
228.8747
0
LINE
8
DEFAULT_255_1_234
10
12.4724871
20
228.8747
11
11.7632846
21
228.8747
0
LINE
8
DEFAULT_255_1_234
10
11.7632846
20
228.8747
11
11.7632846
21
230.0441211
0
LINE
8
DEFAULT_255_1_234
10
11.7632846
20
230.0441211
11
11.9182972
21
230.0441211
0
LINE
8
DEFAULT_255_1_234
10
13.4957306
20
229.4955534
11
13.4957306
21
229.4216614
0
LINE
8
DEFAULT_255_1_234
10
12.555214
20
229.4112201
11
12.555214
21
229.4955534
0
LINE
8
DEFAULT_255_1_234
10
13.3423244
20
229.4104169
11
13.3423244
21
229.4971597
0
LINE
8
DEFAULT_255_1_234
10
12.7086202
20
229.507601
11
12.7086202
21
229.4216614
0
ARC
8
DEFAULT_255_1_234
10
12.6315332
20
229.4177015
40
0.8642064
50
350.487711
51
0.2625388
0
ARC
8
DEFAULT_255_1_234
10
12.8608573
20
229.3782578
40
0.631518
50
336.0277639
51
350.5787438
0
ARC
8
DEFAULT_255_1_234
10
12.9953397
20
229.3174892
40
0.4839466
50
319.8877444
51
336.1328423
0
ARC
8
DEFAULT_255_1_234
10
13.0556038
20
229.269258
40
0.4067874
50
302.4806467
51
319.6143626
0
ARC
8
DEFAULT_255_1_234
10
13.0441048
20
229.2914202
40
0.4316636
50
275.8195682
51
302.1884709
0
ARC
8
DEFAULT_255_1_234
10
13.0274681
20
229.4056665
40
0.5470306
50
269.9171439
51
276.3397983
0
ARC
8
DEFAULT_255_1_234
10
13.0229891
20
229.3370681
40
0.4784458
50
252.5219675
51
270.4416499
0
ARC
8
DEFAULT_255_1_234
10
13.008615
20
229.2831592
40
0.422716
50
237.5352116
51
252.1857531
0
ARC
8
DEFAULT_255_1_234
10
13.0175346
20
229.2945363
40
0.4371052
50
209.063312
51
237.3492538
0
ARC
8
DEFAULT_255_1_234
10
13.1045194
20
229.3491685
40
0.5397041
50
205.1183774
51
209.6470015
0
ARC
8
DEFAULT_255_1_234
10
13.1842231
20
229.382983
40
0.6262326
50
188.7215458
51
204.8240747
0
ARC
8
DEFAULT_255_1_234
10
13.3839759
20
229.4166067
40
0.8287794
50
180.3723947
51
188.9252049
0
ARC
8
DEFAULT_255_1_234
10
13.3812511
20
229.4995402
40
0.8260467
50
169.5253763
51
180.2765336
0
ARC
8
DEFAULT_255_1_234
10
13.1909959
20
229.5345309
40
0.6326007
50
155.8315255
51
169.5089989
0
ARC
8
DEFAULT_255_1_234
10
13.0629461
20
229.5939348
40
0.4914567
50
139.6258461
51
156.0379525
0
ARC
8
DEFAULT_255_1_234
10
13.0039794
20
229.6413799
40
0.4158054
50
122.6416387
51
139.3430715
0
ARC
8
DEFAULT_255_1_234
10
13.0140414
20
229.6230451
40
0.4366739
50
93.0223692
51
122.455762
0
ARC
8
DEFAULT_255_1_234
10
13.0248411
20
229.5265709
40
0.5336137
50
89.975342
51
93.6341897
0
ARC
8
DEFAULT_255_1_234
10
13.028719
20
229.5664242
40
0.4937738
50
73.746375
51
90.4233405
0
ARC
8
DEFAULT_255_1_234
10
13.0462769
20
229.6344287
40
0.4235786
50
57.662753
51
73.4518111
0
ARC
8
DEFAULT_255_1_234
10
13.0454775
20
229.6365832
40
0.4221899
50
29.1440151
51
57.414694
0
ARC
8
DEFAULT_255_1_234
10
12.9519969
20
229.5782005
40
0.5322966
50
24.0982783
51
29.7323517
0
ARC
8
DEFAULT_255_1_234
10
12.8486245
20
229.5353399
40
0.6441673
50
8.6655297
51
23.8241346
0
ARC
8
DEFAULT_255_1_234
10
12.6251983
20
229.4988854
40
0.8705386
50
359.7806941
51
8.8218784
0
ARC
8
DEFAULT_255_1_234
10
12.5104981
20
229.5014345
40
0.8318373
50
359.7055579
51
8.036044
0
ARC
8
DEFAULT_255_1_234
10
12.8104987
20
229.5451239
40
0.5286768
50
7.8928306
51
20.2962107
0
ARC
8
DEFAULT_255_1_234
10
12.9732557
20
229.6051395
40
0.3552073
50
20.3231126
51
36.4992797
0
ARC
8
DEFAULT_255_1_234
10
13.0418103
20
229.6579402
40
0.2686974
50
36.1437156
51
85.6627023
0
ARC
8
DEFAULT_255_1_234
10
13.0255649
20
229.5539221
40
0.373739
50
84.3852322
51
90.0757696
0
ARC
8
DEFAULT_255_1_234
10
13.0213322
20
229.6199839
40
0.3076997
50
89.3038458
51
109.9045693
0
ARC
8
DEFAULT_255_1_234
10
13.0120713
20
229.6582062
40
0.2686424
50
110.8228367
51
143.9179474
0
ARC
8
DEFAULT_255_1_234
10
13.1054373
20
229.5869236
40
0.3860887
50
143.5289163
51
163.2980757
0
ARC
8
DEFAULT_255_1_234
10
13.2962194
20
229.5269433
40
0.5860659
50
163.0418846
51
174.3140048
0
ARC
8
DEFAULT_255_1_234
10
13.5366306
20
229.4991854
40
0.8280531
50
174.0509143
51
179.4176892
0
ARC
8
DEFAULT_255_1_234
10
13.4862045
20
229.4174954
40
0.7775954
50
179.6930361
51
188.7906598
0
ARC
8
DEFAULT_255_1_234
10
13.2198524
20
229.3748935
40
0.5078633
50
188.6331305
51
202.5629587
0
ARC
8
DEFAULT_255_1_234
10
13.0944116
20
229.3244996
40
0.3726913
50
202.8081362
51
216.1193925
0
ARC
8
DEFAULT_255_1_234
10
13.0134686
20
229.2593676
40
0.2689577
50
215.0755913
51
264.6379694
0
ARC
8
DEFAULT_255_1_234
10
13.0261635
20
229.3424513
40
0.3528978
50
263.846392
51
270.0833719
0
ARC
8
DEFAULT_255_1_234
10
13.0303026
20
229.3166374
40
0.3271036
50
269.3649385
51
287.5152008
0
ARC
8
DEFAULT_255_1_234
10
13.0481183
20
229.2519238
40
0.2600406
50
288.0630309
51
323.8113348
0
ARC
8
DEFAULT_255_1_234
10
12.9610025
20
229.3169049
40
0.3687189
50
323.6547608
51
342.6590488
0
ARC
8
DEFAULT_255_1_234
10
12.757864
20
229.3829952
40
0.5823286
50
342.4091907
51
353.6451149
0
ARC
8
DEFAULT_255_1_234
10
12.4747151
20
229.418219
40
0.8676442
50
353.4029884
51
359.4847795
0
LINE
8
DEFAULT_255_1_234
10
14.5904565
20
229.457001
11
14.5904565
21
229.0281062
0
LINE
8
DEFAULT_255_1_234
10
13.6892955
20
229.4031884
11
13.6892955
21
229.5051915
0
LINE
8
DEFAULT_255_1_234
10
14.5904565
20
229.7011659
11
14.4362471
21
229.7011659
0
LINE
8
DEFAULT_255_1_234
10
13.844308
20
229.5092073
11
13.844308
21
229.4136296
0
LINE
8
DEFAULT_255_1_234
10
14.4370503
20
229.0690681
11
14.4370503
21
229.3317059
0
LINE
8
DEFAULT_255_1_234
10
14.4370503
20
229.3317059
11
14.1663807
21
229.3317059
0
LINE
8
DEFAULT_255_1_234
10
14.1663807
20
229.3317059
11
14.1663807
21
229.457001
0
LINE
8
DEFAULT_255_1_234
10
14.1663807
20
229.457001
11
14.5904565
21
229.457001
0
ARC
8
DEFAULT_255_1_234
10
14.3073071
20
229.2274396
40
0.3462765
50
295.8437914
51
324.8549609
0
ARC
8
DEFAULT_255_1_234
10
14.2657038
20
229.3027567
40
0.4322211
50
291.5695085
51
296.4549398
0
ARC
8
DEFAULT_255_1_234
10
14.214629
20
229.4392275
40
0.5779178
50
278.6622409
51
291.3045483
0
ARC
8
DEFAULT_255_1_234
10
14.1806781
20
229.6540408
40
0.7953952
50
270.020006
51
278.7494541
0
ARC
8
DEFAULT_255_1_234
10
14.1768705
20
229.7857036
40
0.927067
50
269.9969998
51
270.2524872
0
ARC
8
DEFAULT_255_1_234
10
14.1730418
20
229.3773589
40
0.5187361
50
253.5786322
51
270.4175299
0
ARC
8
DEFAULT_255_1_234
10
14.1557074
20
229.3102236
40
0.4494451
50
238.8203306
51
253.2788235
0
ARC
8
DEFAULT_255_1_234
10
14.1537448
20
229.3051231
40
0.4440665
50
206.7883783
51
238.6962764
0
ARC
8
DEFAULT_255_1_234
10
14.2311358
20
229.3515405
40
0.5341121
50
206.1129412
51
207.4916643
0
ARC
8
DEFAULT_255_1_234
10
14.2908273
20
229.3769488
40
0.5989041
50
188.6921119
51
205.7821245
0
ARC
8
DEFAULT_255_1_234
10
14.4764634
20
229.408523
40
0.7871862
50
180.3882829
51
188.9219216
0
ARC
8
DEFAULT_255_1_234
10
14.5992449
20
229.5108464
40
0.909967
50
170.2024264
51
180.3560651
0
ARC
8
DEFAULT_255_1_234
10
14.2828967
20
229.5674237
40
0.5886083
50
154.2857445
51
170.3893044
0
ARC
8
DEFAULT_255_1_234
10
14.154717
20
229.626095
40
0.4476743
50
139.8401567
51
153.9332699
0
ARC
8
DEFAULT_255_1_234
10
14.1187906
20
229.6548577
40
0.4016697
50
98.4190291
51
139.6707122
0
ARC
8
DEFAULT_255_1_234
10
14.1567423
20
229.4703328
40
0.5898566
50
89.7659205
51
99.4415478
0
ARC
8
DEFAULT_255_1_234
10
14.1632673
20
229.4768844
40
0.5833147
50
78.0551672
51
90.4042112
0
ARC
8
DEFAULT_255_1_234
10
14.2037183
20
229.6587644
40
0.3970055
50
54.6380464
51
78.3339173
0
ARC
8
DEFAULT_255_1_234
10
14.2227239
20
229.6907795
40
0.3599102
50
50.031736
51
54.1558201
0
ARC
8
DEFAULT_255_1_234
10
14.2120026
20
229.6811766
40
0.3741624
50
18.1092409
51
49.7180913
0
ARC
8
DEFAULT_255_1_234
10
14.0663226
20
229.6278089
40
0.5292424
50
7.9672797
51
18.6984571
0
ARC
8
DEFAULT_255_1_234
10
14.0813704
20
229.6401504
40
0.3600838
50
9.7557294
51
27.3215714
0
ARC
8
DEFAULT_255_1_234
10
14.1941176
20
229.6964912
40
0.2340608
50
27.7361077
51
84.5257964
0
ARC
8
DEFAULT_255_1_234
10
14.1613563
20
229.532164
40
0.4011215
50
82.106034
51
90.2001166
0
ARC
8
DEFAULT_255_1_234
10
14.156378
20
229.5829215
40
0.3503799
50
89.4150119
51
105.5823402
0
ARC
8
DEFAULT_255_1_234
10
14.1306778
20
229.6764867
40
0.2533503
50
105.6678618
51
144.2648758
0
ARC
8
DEFAULT_255_1_234
10
14.2200034
20
229.6129289
40
0.3629787
50
144.3561283
51
162.8564086
0
ARC
8
DEFAULT_255_1_234
10
14.4283943
20
229.5460017
40
0.5818441
50
162.6076014
51
173.6780284
0
ARC
8
DEFAULT_255_1_234
10
14.7345086
20
229.508789
40
0.8902007
50
173.4670142
51
179.9730753
0
ARC
8
DEFAULT_255_1_234
10
14.5436758
20
229.409426
40
0.6993804
50
179.6556203
51
190.0080463
0
ARC
8
DEFAULT_255_1_234
10
14.3120586
20
229.3669375
40
0.4639066
50
189.8116607
51
206.6796816
0
ARC
8
DEFAULT_255_1_234
10
14.2275739
20
229.3275503
40
0.3707421
50
207.1031645
51
217.7074368
0
ARC
8
DEFAULT_255_1_234
10
14.1641427
20
229.2723559
40
0.2868417
50
216.7345547
51
265.6812148
0
ARC
8
DEFAULT_255_1_234
10
14.1772218
20
229.3627855
40
0.3780509
50
264.7366618
51
270.0611241
0
ARC
8
DEFAULT_255_1_234
10
14.1795482
20
229.6468111
40
0.662079
50
269.8335834
51
276.0539546
0
ARC
8
DEFAULT_255_1_234
10
14.2002486
20
229.456656
40
0.4708016
50
275.9894168
51
284.4615085
0
ARC
8
DEFAULT_255_1_234
10
14.2200493
20
229.3733663
40
0.3852094
50
284.7034461
51
286.4953897
0
ARC
8
DEFAULT_255_1_234
10
14.2607507
20
229.2422965
40
0.2479842
50
286.0770838
51
304.2625829
0
ARC
8
DEFAULT_255_1_234
10
14.274092
20
229.2204594
40
0.2224291
50
304.5891602
51
317.1073298
0
LINE
8
DEFAULT_255_1_234
10
15.0129259
20
230.0441211
11
15.0129259
21
228.8747
0
LINE
8
DEFAULT_255_1_234
10
15.0129259
20
228.8747
11
14.8587166
21
228.8747
0
LINE
8
DEFAULT_255_1_234
10
14.8587166
20
228.8747
11
14.8587166
21
230.0441211
0
LINE
8
DEFAULT_255_1_234
10
14.8587166
20
230.0441211
11
15.0129259
21
230.0441211
0
LINE
8
DEFAULT_255_1_234
10
16.0000266
20
229.2457663
11
16.1550391
21
229.2457663
0
LINE
8
DEFAULT_255_1_234
10
15.2546813
20
229.4047947
11
15.2546813
21
229.5172391
0
LINE
8
DEFAULT_255_1_234
10
16.1550391
20
229.6682357
11
16.0000266
21
229.6682357
0
LINE
8
DEFAULT_255_1_234
10
15.4096938
20
229.5132232
11
15.4096938
21
229.3999757
0
ARC
8
DEFAULT_255_1_234
10
15.6069778
20
229.3054846
40
0.5513052
50
340.1774281
51
353.7814284
0
ARC
8
DEFAULT_255_1_234
10
15.764113
20
229.2469582
40
0.3836379
50
311.4558989
51
340.4421614
0
ARC
8
DEFAULT_255_1_234
10
15.7607799
20
229.2580528
40
0.3941894
50
282.4333181
51
310.7513653
0
ARC
8
DEFAULT_255_1_234
10
15.7168538
20
229.4395679
40
0.5809175
50
269.9358511
51
282.809604
0
ARC
8
DEFAULT_255_1_234
10
15.7116604
20
229.5853212
40
0.7266847
50
270.0021091
51
270.3581957
0
ARC
8
DEFAULT_255_1_234
10
15.7064021
20
229.3252585
40
0.4666519
50
250.7884749
51
270.6489167
0
ARC
8
DEFAULT_255_1_234
10
15.6895855
20
229.2615319
40
0.4009729
50
219.3627325
51
250.0611886
0
ARC
8
DEFAULT_255_1_234
10
15.7725067
20
229.3320042
40
0.5097822
50
193.5479632
51
219.5756669
0
ARC
8
DEFAULT_255_1_234
10
16.0096687
20
229.3935919
40
0.7547848
50
181.1218675
51
193.87563
0
ARC
8
DEFAULT_255_1_234
10
16.2166868
20
229.404658
40
0.9620055
50
179.9918545
51
181.5394234
0
ARC
8
DEFAULT_255_1_234
10
16.031597
20
229.5209788
40
0.7769248
50
169.5837241
51
180.2757934
0
ARC
8
DEFAULT_255_1_234
10
15.8478909
20
229.5549229
40
0.590109
50
155.0365899
51
169.6003176
0
ARC
8
DEFAULT_255_1_234
10
15.7343373
20
229.6096677
40
0.4640625
50
136.783148
51
155.2472683
0
ARC
8
DEFAULT_255_1_234
10
15.6953849
20
229.6427562
40
0.4130255
50
121.7633186
51
136.428115
0
ARC
8
DEFAULT_255_1_234
10
15.7088812
20
229.6178227
40
0.4413323
50
95.6459699
51
121.5490577
0
ARC
8
DEFAULT_255_1_234
10
15.7246093
20
229.5069949
40
0.55319
50
89.924208
51
96.1377933
0
ARC
8
DEFAULT_255_1_234
10
15.7296526
20
229.5188542
40
0.5413475
50
76.6779277
51
90.4563316
0
ARC
8
DEFAULT_255_1_234
10
15.769015
20
229.6779114
40
0.3775041
50
47.485847
51
76.9287264
0
ARC
8
DEFAULT_255_1_234
10
15.7543122
20
229.6679159
40
0.3948286
50
16.5424086
51
46.8933463
0
ARC
8
DEFAULT_255_1_234
10
15.5935279
20
229.6150861
40
0.564021
50
5.4072051
51
17.0365086
0
ARC
8
DEFAULT_255_1_234
10
15.4496297
20
229.5919679
40
0.5556559
50
7.8891745
51
15.9239216
0
ARC
8
DEFAULT_255_1_234
10
15.648331
20
229.6496631
40
0.3487515
50
15.7653144
51
27.9410532
0
ARC
8
DEFAULT_255_1_234
10
15.7587528
20
229.708779
40
0.2235026
50
27.8166557
51
46.4008329
0
ARC
8
DEFAULT_255_1_234
10
15.7637171
20
229.7082082
40
0.2205286
50
47.4371857
51
75.0698205
0
ARC
8
DEFAULT_255_1_234
10
15.7328565
20
229.6007765
40
0.3322915
50
74.7008593
51
87.8124495
0
ARC
8
DEFAULT_255_1_234
10
15.7255253
20
229.4951844
40
0.4380987
50
87.3814673
51
90.0240855
0
ARC
8
DEFAULT_255_1_234
10
15.7216796
20
229.6129291
40
0.3203749
50
89.3451631
51
108.5745436
0
ARC
8
DEFAULT_255_1_234
10
15.7079901
20
229.6642908
40
0.2673494
50
109.2998449
51
143.3037509
0
ARC
8
DEFAULT_255_1_234
10
15.7841974
20
229.6056881
40
0.3634757
50
143.0753173
51
163.1916937
0
ARC
8
DEFAULT_255_1_234
10
15.9793701
20
229.5440967
40
0.5681262
50
162.9373603
51
174.6208611
0
ARC
8
DEFAULT_255_1_234
10
16.2419744
20
229.515301
40
0.8322832
50
174.3419979
51
180.1430411
0
ARC
8
DEFAULT_255_1_234
10
16.14889
20
229.3958698
40
0.7392076
50
179.6817502
51
189.150529
0
ARC
8
DEFAULT_255_1_234
10
15.8988148
20
229.354219
40
0.4856932
50
188.9910863
51
203.5773039
0
ARC
8
DEFAULT_255_1_234
10
15.7908481
20
229.3094211
40
0.3688271
50
203.9077269
51
215.1312379
0
ARC
8
DEFAULT_255_1_234
10
15.6985574
20
229.2378941
40
0.2522457
50
213.9071664
51
263.8849284
0
ARC
8
DEFAULT_255_1_234
10
15.7110904
20
229.3163518
40
0.3316174
50
263.1758525
51
270.1031083
0
ARC
8
DEFAULT_255_1_234
10
15.7142995
20
229.4410365
40
0.4563091
50
269.6719807
51
279.0609165
0
ARC
8
DEFAULT_255_1_234
10
15.7409763
20
229.2797907
40
0.2928759
50
278.8750225
51
293.6346586
0
ARC
8
DEFAULT_255_1_234
10
15.7729972
20
229.20459
40
0.2111472
50
293.8553404
51
310.0518804
0
ARC
8
DEFAULT_255_1_234
10
15.7734825
20
229.1983516
40
0.2060917
50
311.0646779
51
332.0108348
0
ARC
8
DEFAULT_255_1_234
10
15.6542552
20
229.2640978
40
0.3422352
50
331.6588543
51
343.2878891
0
ARC
8
DEFAULT_255_1_234
10
15.4480067
20
229.3274798
40
0.5580003
50
343.1446044
51
351.010618
0
ARC
8
DEFAULT_255_1_234
10
15.2938714
20
229.3555871
40
0.7146438
50
350.7157277
51
351.1602153
0
LINE
8
DEFAULT_255_1_234
10
17.4674251
20
229.5662327
11
17.4674251
21
229.3734709
0
LINE
8
DEFAULT_255_1_234
10
16.7293084
20
229.3533916
11
16.7293084
21
229.5517755
0
LINE
8
DEFAULT_255_1_234
10
17.318838
20
229.3333123
11
17.318838
21
229.5766739
0
LINE
8
DEFAULT_255_1_234
10
16.8778956
20
229.5879184
11
16.8778956
21
229.3501789
0
ARC
8
DEFAULT_255_1_234
10
16.2427141
20
229.3685805
40
1.2247208
50
353.8441951
51
0.2287902
0
ARC
8
DEFAULT_255_1_234
10
16.7066645
20
229.3167806
40
0.7578929
50
344.4934747
51
353.9765454
0
ARC
8
DEFAULT_255_1_234
10
17.0059235
20
229.2316981
40
0.4467846
50
329.2803592
51
344.7472793
0
ARC
8
DEFAULT_255_1_234
10
17.105206
20
229.1772018
40
0.3336173
50
324.9352394
51
328.6160465
0
ARC
8
DEFAULT_255_1_234
10
17.1429169
20
229.1508427
40
0.2876076
50
280.580143
51
324.9173126
0
ARC
8
DEFAULT_255_1_234
10
17.1027961
20
229.3179099
40
0.4592847
50
269.5977311
51
281.6734359
0
ARC
8
DEFAULT_255_1_234
10
17.0955867
20
229.3059173
40
0.4472986
50
256.6228859
51
270.51044
0
ARC
8
DEFAULT_255_1_234
10
17.0553845
20
229.1510877
40
0.2873874
50
215.8618325
51
257.2788573
0
ARC
8
DEFAULT_255_1_234
10
17.1574876
20
229.2195977
40
0.4102928
50
197.9693508
51
215.2623606
0
ARC
8
DEFAULT_255_1_234
10
17.4059992
20
229.3034709
40
0.6725652
50
187.8816417
51
198.2346507
0
ARC
8
DEFAULT_255_1_234
10
17.80182
20
229.3606079
40
1.0724845
50
180.8976217
51
188.0055519
0
ARC
8
DEFAULT_255_1_234
10
18.0818388
20
229.3709777
40
1.3526448
50
180.7449369
51
181.1510016
0
ARC
8
DEFAULT_255_1_234
10
17.9241117
20
229.5566042
40
1.1948131
50
173.7675579
51
180.231553
0
ARC
8
DEFAULT_255_1_234
10
17.4723264
20
229.6076666
40
0.7401564
50
164.3058563
51
173.9002247
0
ARC
8
DEFAULT_255_1_234
10
17.1811333
20
229.6915656
40
0.4371288
50
148.7922025
51
164.568378
0
ARC
8
DEFAULT_255_1_234
10
17.0859785
20
229.7446929
40
0.3282386
50
144.5883898
51
148.1176286
0
ARC
8
DEFAULT_255_1_234
10
17.0516683
20
229.7686315
40
0.2864044
50
101.6440918
51
144.514236
0
ARC
8
DEFAULT_255_1_234
10
17.094175
20
229.5997069
40
0.4604934
50
89.5284041
51
102.5819763
0
ARC
8
DEFAULT_255_1_234
10
17.1020837
20
229.5958018
40
0.464401
50
77.0437873
51
90.5081339
0
ARC
8
DEFAULT_255_1_234
10
17.1422839
20
229.7600615
40
0.2953195
50
48.2778575
51
77.4994676
0
ARC
8
DEFAULT_255_1_234
10
17.149547
20
229.7729746
40
0.2808655
50
36.3142134
51
47.6305865
0
ARC
8
DEFAULT_255_1_234
10
17.0626777
20
229.7144515
40
0.3855453
50
18.2931786
51
35.6769206
0
ARC
8
DEFAULT_255_1_234
10
16.8083536
20
229.6271593
40
0.654423
50
8.024666
51
18.5605216
0
ARC
8
DEFAULT_255_1_234
10
16.3920456
20
229.5656792
40
1.0752407
50
1.1274072
51
8.1718305
0
ARC
8
DEFAULT_255_1_234
10
16.0684647
20
229.5529885
40
1.3990231
50
0.5424119
51
1.3863029
0
ARC
8
DEFAULT_255_1_234
10
16.2506025
20
229.5802342
40
1.0682415
50
359.8090433
51
4.9407866
0
ARC
8
DEFAULT_255_1_234
10
16.6716039
20
229.6178113
40
0.6455691
50
4.8362157
51
12.2904523
0
ARC
8
DEFAULT_255_1_234
10
16.9471153
20
229.6791965
40
0.3633074
50
12.0805627
51
23.8173984
0
ARC
8
DEFAULT_255_1_234
10
17.0644859
20
229.7288919
40
0.2358723
50
24.2871213
51
31.3935614
0
ARC
8
DEFAULT_255_1_234
10
17.1169556
20
229.7632233
40
0.1732111
50
30.7407893
51
82.4657128
0
ARC
8
DEFAULT_255_1_234
10
17.098969
20
229.6748691
40
0.263235
50
81.1060089
51
90.2184952
0
ARC
8
DEFAULT_255_1_234
10
17.0953989
20
229.7006924
40
0.2374236
50
89.3806855
51
105.6762551
0
ARC
8
DEFAULT_255_1_234
10
17.077062
20
229.7673567
40
0.1682847
50
105.7981136
51
149.7388061
0
ARC
8
DEFAULT_255_1_234
10
17.1834698
20
229.703395
40
0.2924306
50
149.4208916
51
163.6286378
0
ARC
8
DEFAULT_255_1_234
10
17.3925586
20
229.639625
40
0.5110213
50
163.3763315
51
172.1410975
0
ARC
8
DEFAULT_255_1_234
10
17.7226305
20
229.5923518
40
0.8444586
50
172.0259487
51
178.0703232
0
ARC
8
DEFAULT_255_1_234
10
18.0256395
20
229.5779906
40
1.1477868
50
177.8631668
51
179.5044149
0
ARC
8
DEFAULT_255_1_234
10
17.9183799
20
229.3465389
40
1.0404907
50
179.7995573
51
185.2460446
0
ARC
8
DEFAULT_255_1_234
10
17.5140838
20
229.3082513
40
0.6343885
50
185.1411642
51
193.0079639
0
ARC
8
DEFAULT_255_1_234
10
17.2497311
20
229.2457641
40
0.3627568
50
192.7897626
51
205.2507664
0
ARC
8
DEFAULT_255_1_234
10
17.1450858
20
229.1990415
40
0.2481908
50
205.8005384
51
211.2537509
0
ARC
8
DEFAULT_255_1_234
10
17.0927298
20
229.163958
40
0.1852521
50
210.3789793
51
238.4008143
0
ARC
8
DEFAULT_255_1_234
10
17.090782
20
229.1686376
40
0.1882621
50
239.6520629
51
265.9793761
0
ARC
8
DEFAULT_255_1_234
10
17.099302
20
229.2358427
40
0.2559272
50
265.1315437
51
270.060332
0
ARC
8
DEFAULT_255_1_234
10
17.1021799
20
229.2034534
40
0.2235528
50
269.3314664
51
287.2178029
0
ARC
8
DEFAULT_255_1_234
10
17.1159651
20
229.1531279
40
0.1714108
50
287.7958004
51
329.080874
0
ARC
8
DEFAULT_255_1_234
10
17.0202108
20
229.212893
40
0.2842745
50
328.6634704
51
343.3325132
0
ARC
8
DEFAULT_255_1_234
10
16.8029128
20
229.2805863
40
0.5118644
50
343.0499468
51
351.9393422
0
ARC
8
DEFAULT_255_1_234
10
16.4562428
20
229.3316949
40
0.8622784
50
351.8069023
51
357.7959224
0
ARC
8
DEFAULT_255_1_234
10
16.1326984
20
229.3484721
40
1.1862365
50
357.5871873
51
359.2677531
0
LINE
8
DEFAULT_255_1_234
10
17.8449168
20
229.4304963
11
17.7260471
21
229.4610169
0
LINE
8
DEFAULT_255_1_234
10
17.7260471
20
229.4610169
11
17.785482
21
230.0441211
0
LINE
8
DEFAULT_255_1_234
10
17.785482
20
230.0441211
11
18.3846497
21
230.0441211
0
LINE
8
DEFAULT_255_1_234
10
18.3846497
20
230.0441211
11
18.3846497
21
229.9067784
0
LINE
8
DEFAULT_255_1_234
10
18.3846497
20
229.9067784
11
17.9115803
21
229.9067784
0
LINE
8
DEFAULT_255_1_234
10
17.9115803
20
229.9067784
11
17.8762406
21
229.5879184
0
LINE
8
DEFAULT_255_1_234
10
17.6842821
20
229.1823156
11
17.8248375
21
229.1823156
0
LINE
8
DEFAULT_255_1_234
10
17.8842724
20
229.4626232
11
17.8449168
21
229.4304963
0
ARC
8
DEFAULT_255_1_234
10
18.061719
20
229.269923
40
0.3681349
50
93.7182161
51
120.2538958
0
ARC
8
DEFAULT_255_1_234
10
18.0711453
20
229.1891394
40
0.449379
50
89.9660152
51
94.2496022
0
ARC
8
DEFAULT_255_1_234
10
18.0752187
20
229.2480549
40
0.390482
50
73.8043271
51
90.5585896
0
ARC
8
DEFAULT_255_1_234
10
18.0987084
20
229.3338602
40
0.3015334
50
41.3071453
51
73.5430202
0
ARC
8
DEFAULT_255_1_234
10
18.0570911
20
229.2980324
40
0.3564457
50
13.5075983
51
41.2174222
0
ARC
8
DEFAULT_255_1_234
10
17.8929115
20
229.2550486
40
0.5261351
50
1.1331335
51
13.8829381
0
ARC
8
DEFAULT_255_1_234
10
17.7517484
20
229.2474665
40
0.6674378
50
359.9919444
51
1.544251
0
ARC
8
DEFAULT_255_1_234
10
17.879431
20
229.243328
40
0.5397702
50
347.8572367
51
0.4293338
0
ARC
8
DEFAULT_255_1_234
10
18.0544628
20
229.2036736
40
0.3603188
50
323.673004
51
348.1672506
0
ARC
8
DEFAULT_255_1_234
10
18.0839136
20
229.1857168
40
0.3259678
50
316.8171152
51
323.1492751
0
ARC
8
DEFAULT_255_1_234
10
18.0900325
20
229.182046
40
0.3189975
50
281.8396411
51
316.5457803
0
ARC
8
DEFAULT_255_1_234
10
18.0524589
20
229.3375762
40
0.4789527
50
269.5770101
51
282.4214771
0
ARC
8
DEFAULT_255_1_234
10
18.04534
20
229.3162125
40
0.45759
50
256.2427136
51
270.4486331
0
ARC
8
DEFAULT_255_1_234
10
18.0154303
20
229.1962229
40
0.3339303
50
228.9023911
51
256.3314342
0
ARC
8
DEFAULT_255_1_234
10
18.0080535
20
229.1845746
40
0.32031
50
193.753695
51
228.5271154
0
ARC
8
DEFAULT_255_1_234
10
18.1318489
20
229.22088
40
0.4492253
50
184.924711
51
194.497588
0
ARC
8
DEFAULT_255_1_234
10
18.1511056
20
229.2244591
40
0.3289787
50
187.3600538
51
198.6732863
0
ARC
8
DEFAULT_255_1_234
10
18.046135
20
229.1880674
40
0.217884
50
198.4451669
51
217.794479
0
ARC
8
DEFAULT_255_1_234
10
18.0165525
20
229.1671085
40
0.1816698
50
218.2887171
51
228.5612368
0
ARC
8
DEFAULT_255_1_234
10
18.0263312
20
229.1802963
40
0.1980329
50
228.9654866
51
258.1234728
0
ARC
8
DEFAULT_255_1_234
10
18.0469022
20
229.2683833
40
0.2884748
50
257.7258293
51
270.401361
0
ARC
8
DEFAULT_255_1_234
10
18.0513909
20
229.2238821
40
0.2439788
50
269.4204404
51
286.4209037
0
ARC
8
DEFAULT_255_1_234
10
18.0662396
20
229.1699657
40
0.1880666
50
286.7251356
51
320.600362
0
ARC
8
DEFAULT_255_1_234
10
18.0279221
20
229.2010595
40
0.2374121
50
320.6712579
51
344.5441685
0
ARC
8
DEFAULT_255_1_234
10
17.9122547
20
229.2350045
40
0.3579479
50
344.2412205
51
356.7357071
0
ARC
8
DEFAULT_255_1_234
10
17.7873696
20
229.2453444
40
0.4832297
50
356.3548756
51
0.0500261
0
ARC
8
DEFAULT_255_1_234
10
17.9210205
20
229.248465
40
0.3495889
50
359.5576869
51
12.953486
0
ARC
8
DEFAULT_255_1_234
10
18.0265102
20
229.2740434
40
0.2410532
50
12.6490276
51
41.6081334
0
ARC
8
DEFAULT_255_1_234
10
18.0495473
20
229.2936321
40
0.2108218
50
41.7850273
51
85.9892764
0
ARC
8
DEFAULT_255_1_234
10
18.037221
20
229.2123462
40
0.2928454
50
84.6957577
51
90.0676183
0
ARC
8
DEFAULT_255_1_234
10
18.0348694
20
229.1454716
40
0.3597255
50
89.6804936
51
99.1614436
0
ARC
8
DEFAULT_255_1_234
10
18.0143325
20
229.2682131
40
0.235281
50
98.9830931
51
113.8908934
0
ARC
8
DEFAULT_255_1_234
10
17.9913735
20
229.3223587
40
0.176479
50
114.1950727
51
127.3641004
0
LINE
8
DEFAULT_255_1_234
10
19.1139315
20
230.0441211
11
18.626405
21
228.7743033
0
LINE
8
DEFAULT_255_1_234
10
18.626405
20
228.7743033
11
18.4987003
21
228.7743033
0
LINE
8
DEFAULT_255_1_234
10
18.4987003
20
228.7743033
11
18.98703
21
230.0441211
0
LINE
8
DEFAULT_255_1_234
10
18.98703
20
230.0441211
11
19.1139315
21
230.0441211
0
LINE
8
DEFAULT_255_1_234
10
19.9926037
20
229.5662327
11
19.9926037
21
229.3734709
0
LINE
8
DEFAULT_255_1_234
10
19.2544869
20
229.3533916
11
19.2544869
21
229.5517755
0
LINE
8
DEFAULT_255_1_234
10
19.8440165
20
229.3333123
11
19.8440165
21
229.5766739
0
LINE
8
DEFAULT_255_1_234
10
19.4030741
20
229.5879184
11
19.4030741
21
229.3501789
0
ARC
8
DEFAULT_255_1_234
10
18.7678926
20
229.3685805
40
1.2247208
50
353.8441951
51
0.2287902
0
ARC
8
DEFAULT_255_1_234
10
19.231843
20
229.3167806
40
0.7578929
50
344.4934747
51
353.9765454
0
ARC
8
DEFAULT_255_1_234
10
19.531102
20
229.2316981
40
0.4467846
50
329.2803592
51
344.7472793
0
ARC
8
DEFAULT_255_1_234
10
19.6303845
20
229.1772018
40
0.3336173
50
324.9352394
51
328.6160465
0
ARC
8
DEFAULT_255_1_234
10
19.6680954
20
229.1508427
40
0.2876076
50
280.580143
51
324.9173126
0
ARC
8
DEFAULT_255_1_234
10
19.6279746
20
229.3179099
40
0.4592847
50
269.5977311
51
281.6734359
0
ARC
8
DEFAULT_255_1_234
10
19.6207652
20
229.3059173
40
0.4472986
50
256.6228859
51
270.51044
0
ARC
8
DEFAULT_255_1_234
10
19.580563
20
229.1510877
40
0.2873874
50
215.8618325
51
257.2788573
0
ARC
8
DEFAULT_255_1_234
10
19.6826661
20
229.2195977
40
0.4102928
50
197.9693508
51
215.2623606
0
ARC
8
DEFAULT_255_1_234
10
19.9311777
20
229.3034709
40
0.6725652
50
187.8816417
51
198.2346507
0
ARC
8
DEFAULT_255_1_234
10
20.3269985
20
229.3606079
40
1.0724845
50
180.8976217
51
188.0055519
0
ARC
8
DEFAULT_255_1_234
10
20.6070173
20
229.3709777
40
1.3526448
50
180.7449369
51
181.1510016
0
ARC
8
DEFAULT_255_1_234
10
20.4492902
20
229.5566042
40
1.1948131
50
173.7675579
51
180.231553
0
ARC
8
DEFAULT_255_1_234
10
19.9975049
20
229.6076666
40
0.7401564
50
164.3058563
51
173.9002247
0
ARC
8
DEFAULT_255_1_234
10
19.7063118
20
229.6915656
40
0.4371288
50
148.7922025
51
164.568378
0
ARC
8
DEFAULT_255_1_234
10
19.611157
20
229.7446929
40
0.3282386
50
144.5883898
51
148.1176286
0
ARC
8
DEFAULT_255_1_234
10
19.5768468
20
229.7686315
40
0.2864044
50
101.6440918
51
144.514236
0
ARC
8
DEFAULT_255_1_234
10
19.6193535
20
229.5997069
40
0.4604934
50
89.5284041
51
102.5819763
0
ARC
8
DEFAULT_255_1_234
10
19.6272622
20
229.5958018
40
0.464401
50
77.0437873
51
90.5081339
0
ARC
8
DEFAULT_255_1_234
10
19.6674624
20
229.7600615
40
0.2953195
50
48.2778575
51
77.4994676
0
ARC
8
DEFAULT_255_1_234
10
19.6747255
20
229.7729746
40
0.2808655
50
36.3142134
51
47.6305865
0
ARC
8
DEFAULT_255_1_234
10
19.5878562
20
229.7144515
40
0.3855453
50
18.2931786
51
35.6769206
0
ARC
8
DEFAULT_255_1_234
10
19.3335321
20
229.6271593
40
0.654423
50
8.024666
51
18.5605216
0
ARC
8
DEFAULT_255_1_234
10
18.9172241
20
229.5656792
40
1.0752407
50
1.1274072
51
8.1718305
0
ARC
8
DEFAULT_255_1_234
10
18.5936432
20
229.5529885
40
1.3990231
50
0.5424119
51
1.3863029
0
ARC
8
DEFAULT_255_1_234
10
18.775781
20
229.5802342
40
1.0682415
50
359.8090433
51
4.9407866
0
ARC
8
DEFAULT_255_1_234
10
19.1967824
20
229.6178113
40
0.6455691
50
4.8362157
51
12.2904523
0
ARC
8
DEFAULT_255_1_234
10
19.4722939
20
229.6791965
40
0.3633074
50
12.0805627
51
23.8173984
0
ARC
8
DEFAULT_255_1_234
10
19.5896644
20
229.7288919
40
0.2358723
50
24.2871213
51
31.3935614
0
ARC
8
DEFAULT_255_1_234
10
19.6421341
20
229.7632233
40
0.1732111
50
30.7407893
51
82.4657128
0
ARC
8
DEFAULT_255_1_234
10
19.6241475
20
229.6748691
40
0.263235
50
81.1060089
51
90.2184952
0
ARC
8
DEFAULT_255_1_234
10
19.6205774
20
229.7006924
40
0.2374236
50
89.3806855
51
105.6762551
0
ARC
8
DEFAULT_255_1_234
10
19.6022405
20
229.7673567
40
0.1682847
50
105.7981136
51
149.7388061
0
ARC
8
DEFAULT_255_1_234
10
19.7086483
20
229.703395
40
0.2924306
50
149.4208916
51
163.6286378
0
ARC
8
DEFAULT_255_1_234
10
19.9177371
20
229.639625
40
0.5110213
50
163.3763315
51
172.1410975
0
ARC
8
DEFAULT_255_1_234
10
20.247809
20
229.5923518
40
0.8444586
50
172.0259487
51
178.0703232
0
ARC
8
DEFAULT_255_1_234
10
20.550818
20
229.5779906
40
1.1477868
50
177.8631668
51
179.5044149
0
ARC
8
DEFAULT_255_1_234
10
20.4435584
20
229.3465389
40
1.0404907
50
179.7995573
51
185.2460446
0
ARC
8
DEFAULT_255_1_234
10
20.0392624
20
229.3082513
40
0.6343885
50
185.1411642
51
193.0079639
0
ARC
8
DEFAULT_255_1_234
10
19.7749096
20
229.2457641
40
0.3627568
50
192.7897626
51
205.2507664
0
ARC
8
DEFAULT_255_1_234
10
19.6702643
20
229.1990415
40
0.2481908
50
205.8005384
51
211.2537509
0
ARC
8
DEFAULT_255_1_234
10
19.6179084
20
229.163958
40
0.1852521
50
210.3789793
51
238.4008143
0
ARC
8
DEFAULT_255_1_234
10
19.6159605
20
229.1686376
40
0.1882621
50
239.6520629
51
265.9793761
0
ARC
8
DEFAULT_255_1_234
10
19.6244806
20
229.2358427
40
0.2559272
50
265.1315437
51
270.060332
0
ARC
8
DEFAULT_255_1_234
10
19.6273584
20
229.2034534
40
0.2235528
50
269.3314664
51
287.2178029
0
ARC
8
DEFAULT_255_1_234
10
19.6411436
20
229.1531279
40
0.1714108
50
287.7958004
51
329.080874
0
ARC
8
DEFAULT_255_1_234
10
19.5453893
20
229.212893
40
0.2842745
50
328.6634704
51
343.3325132
0
ARC
8
DEFAULT_255_1_234
10
19.3280913
20
229.2805863
40
0.5118644
50
343.0499468
51
351.9393422
0
ARC
8
DEFAULT_255_1_234
10
18.9814213
20
229.3316949
40
0.8622784
50
351.8069023
51
357.7959224
0
ARC
8
DEFAULT_255_1_234
10
18.6578769
20
229.3484721
40
1.1862365
50
357.5871873
51
359.2677531
0
LINE
8
DEFAULT_255_1_234
10
20.7395553
20
230.0449243
11
20.7660601
21
230.0449243
0
LINE
8
DEFAULT_255_1_234
10
20.7660601
20
230.0449243
11
20.7660601
21
229.918826
0
LINE
8
DEFAULT_255_1_234
10
20.7660601
20
229.918826
11
20.7387521
21
229.918826
0
LINE
8
DEFAULT_255_1_234
10
20.1917908
20
229.3196583
11
20.1917908
21
229.3766836
0
LINE
8
DEFAULT_255_1_234
10
20.3411811
20
229.3574075
11
20.3411811
21
229.3027917
0
ARC
8
DEFAULT_255_1_234
10
20.7439869
20
229.4190455
40
0.4998079
50
90.6001036
51
104.514704
0
ARC
8
DEFAULT_255_1_234
10
20.7051385
20
229.5635131
40
0.3502176
50
104.2855254
51
133.862935
0
ARC
8
DEFAULT_255_1_234
10
20.7215142
20
229.552683
40
0.3693984
50
134.5302688
51
161.6210873
0
ARC
8
DEFAULT_255_1_234
10
20.8868331
20
229.4943895
40
0.5446739
50
161.2849839
51
174.2076652
0
ARC
8
DEFAULT_255_1_234
10
21.0275268
20
229.4749787
40
0.6866274
50
173.7810589
51
174.9254635
0
ARC
8
DEFAULT_255_1_234
10
20.57251
20
229.3366839
40
0.3033419
50
95.8330959
51
138.9954921
0
ARC
8
DEFAULT_255_1_234
10
20.5948456
20
229.2088375
40
0.4328947
50
89.8753725
51
97.0544009
0
ARC
8
DEFAULT_255_1_234
10
20.5995922
20
229.2923748
40
0.3493769
50
71.6407809
51
90.6240094
0
ARC
8
DEFAULT_255_1_234
10
20.6146496
20
229.3478082
40
0.2920396
50
39.6367836
51
71.019018
0
ARC
8
DEFAULT_255_1_234
10
20.5509969
20
229.2927998
40
0.3761538
50
10.658731
51
39.9043955
0
ARC
8
DEFAULT_255_1_234
10
20.3962051
20
229.2591686
40
0.5345136
50
359.682601
51
11.132623
0
ARC
8
DEFAULT_255_1_234
10
20.3922182
20
229.252101
40
0.5385081
50
347.2486944
51
0.4369317
0
ARC
8
DEFAULT_255_1_234
10
20.5589659
20
229.2119807
40
0.3670249
50
318.1409698
51
347.6118597
0
ARC
8
DEFAULT_255_1_234
10
20.5914652
20
229.1852702
40
0.3250007
50
275.6342139
51
317.8248465
0
ARC
8
DEFAULT_255_1_234
10
20.5693764
20
229.3152219
40
0.4565864
50
269.8874292
51
276.7917694
0
ARC
8
DEFAULT_255_1_234
10
20.5638834
20
229.2126743
40
0.3540676
50
246.9140195
51
270.7437342
0
ARC
8
DEFAULT_255_1_234
10
20.5645225
20
229.1984384
40
0.3412781
50
218.1665114
51
245.878116
0
ARC
8
DEFAULT_255_1_234
10
20.6524685
20
229.2720279
40
0.455911
50
191.4115814
51
218.6077802
0
ARC
8
DEFAULT_255_1_234
10
20.8462775
20
229.3154833
40
0.6545001
50
179.6345085
51
191.7836486
0
ARC
8
DEFAULT_255_1_234
10
21.4045111
20
229.3833697
40
1.2127388
50
171.4525249
51
180.3158839
0
ARC
8
DEFAULT_255_1_234
10
20.9649987
20
229.4517608
40
0.7679464
50
157.9802646
51
171.6246686
0
ARC
8
DEFAULT_255_1_234
10
20.7436008
20
229.5400421
40
0.5296008
50
141.4298019
51
157.854097
0
ARC
8
DEFAULT_255_1_234
10
20.6794329
20
229.5854381
40
0.4511509
50
102.8715806
51
140.8564722
0
ARC
8
DEFAULT_255_1_234
10
20.7441944
20
229.3414552
40
0.7034845
50
90.3778349
51
103.5869322
0
ARC
8
DEFAULT_255_1_234
10
20.570372
20
229.280973
40
0.2370698
50
89.8751008
51
126.2071704
0
ARC
8
DEFAULT_255_1_234
10
20.574951
20
229.2655303
40
0.2522934
50
124.9745049
51
144.895901
0
ARC
8
DEFAULT_255_1_234
10
20.5573701
20
229.279856
40
0.2296779
50
145.2974905
51
160.2660252
0
ARC
8
DEFAULT_255_1_234
10
20.8646239
20
229.2996071
40
0.5234525
50
179.6514266
51
190.2855912
0
ARC
8
DEFAULT_255_1_234
10
20.6952377
20
229.2676786
40
0.3510893
50
190.0945431
51
207.5098196
0
ARC
8
DEFAULT_255_1_234
10
20.6386646
20
229.2407623
40
0.288489
50
207.9583163
51
216.3251085
0
ARC
8
DEFAULT_255_1_234
10
20.6046754
20
229.2128105
40
0.2445587
50
215.7661442
51
232.5456785
0
ARC
8
DEFAULT_255_1_234
10
20.5663737
20
229.1641482
40
0.1826382
50
232.8005391
51
270.6605633
0
ARC
8
DEFAULT_255_1_234
10
20.5709438
20
229.2005612
40
0.2190529
50
269.35537
51
288.4744281
0
ARC
8
DEFAULT_255_1_234
10
20.5802335
20
229.1656118
40
0.1829749
50
289.1833337
51
322.9683818
0
ARC
8
DEFAULT_255_1_234
10
20.5190858
20
229.2138391
40
0.2608399
50
322.6007884
51
346.5182367
0
ARC
8
DEFAULT_255_1_234
10
20.4033453
20
229.2433616
40
0.3802777
50
346.2582162
51
358.7741648
0
ARC
8
DEFAULT_255_1_234
10
20.3015122
20
229.2488965
40
0.4822176
50
358.3755224
51
0.0098023
0
ARC
8
DEFAULT_255_1_234
10
20.377131
20
229.2516657
40
0.4066078
50
359.6214041
51
11.2839074
0
ARC
8
DEFAULT_255_1_234
10
20.5048456
20
229.2783066
40
0.2761514
50
11.0482309
51
31.8146458
0
ARC
8
DEFAULT_255_1_234
10
20.5357499
20
229.2950584
40
0.2410679
50
32.3035391
51
38.082671
0
ARC
8
DEFAULT_255_1_234
10
20.5778159
20
229.3331662
40
0.1844966
50
36.825067
51
85.7415724
0
ARC
8
DEFAULT_255_1_234
10
20.5710993
20
229.2831301
40
0.2349122
50
85.0140713
51
90.0513278
0
ARC
8
DEFAULT_255_2_778
10
13.4953021
20
232.6360533
40
2.3035416
50
339.8907409
51
346.994376
0
ARC
8
DEFAULT_255_2_778
10
14.4646357
20
232.2759276
40
1.2694939
50
328.7691853
51
340.1120733
0
ARC
8
DEFAULT_255_2_778
10
14.9922733
20
231.9492249
40
0.6489533
50
308.240385
51
329.2799976
0
ARC
8
DEFAULT_255_2_778
10
15.1335254
20
231.7803956
40
0.42897
50
290.2149747
51
307.3797345
0
ARC
8
DEFAULT_255_2_778
10
14.8550836
20
232.0430832
40
0.5085768
50
279.0582472
51
335.0254579
0
ARC
8
DEFAULT_255_2_778
10
14.4035606
20
232.2913036
40
1.0232605
50
333.100566
51
347.4967948
0
ARC
8
DEFAULT_255_2_778
10
13.9267879
20
232.4152273
40
1.515659
50
346.8251736
51
349.6433145
0
ARC
8
DEFAULT_255_2_778
10
16.7325297
20
232.6877541
40
0.6340004
50
90.2418805
51
180.4975197
0
ARC
8
DEFAULT_255_2_778
10
16.7271765
20
232.687754
40
0.6340006
50
359.5024881
51
89.7581009
0
ARC
8
DEFAULT_255_2_778
10
16.7271768
20
232.6767436
40
0.6340003
50
270.2418684
51
0.4975336
0
ARC
8
DEFAULT_255_2_778
10
16.7325299
20
232.6767437
40
0.6340005
50
179.5024805
51
269.758104
0
ARC
8
DEFAULT_255_2_778
10
17.1189581
20
232.7021235
40
0.5748535
50
158.6224664
51
180.7450103
0
ARC
8
DEFAULT_255_2_778
10
16.8143054
20
232.8291995
40
0.2449488
50
125.6968143
51
160.3264119
0
ARC
8
DEFAULT_255_2_778
10
16.7310393
20
232.9359868
40
0.1097683
50
90.6191325
51
122.9231799
0
ARC
8
DEFAULT_255_2_778
10
16.7161984
20
232.8978461
40
0.1485318
50
26.6299238
51
84.7252528
0
ARC
8
DEFAULT_255_2_778
10
16.4561415
20
232.732402
40
0.4562354
50
6.9672199
51
30.5675002
0
ARC
8
DEFAULT_255_2_778
10
16.261361
20
232.6954325
40
0.6541928
50
359.9313724
51
8.1119436
0
ARC
8
DEFAULT_255_2_778
10
16.3407903
20
232.6872075
40
0.5748111
50
338.6217917
51
0.7417631
0
ARC
8
DEFAULT_255_2_778
10
16.6452775
20
232.5601776
40
0.2450776
50
305.7107467
51
340.3279893
0
ARC
8
DEFAULT_255_2_778
10
16.7286626
20
232.4532757
40
0.1097331
50
270.6216799
51
302.9378787
0
ARC
8
DEFAULT_255_2_778
10
16.7435343
20
232.4914636
40
0.148546
50
206.6181959
51
264.7155805
0
ARC
8
DEFAULT_255_2_778
10
17.0037331
20
232.6569852
40
0.456409
50
186.9714802
51
210.5628916
0
ARC
8
DEFAULT_255_2_778
10
17.1979553
20
232.6938721
40
0.6538026
50
179.9319269
51
188.1143536
0
ARC
8
DEFAULT_255_2_778
10
14.2076298
20
232.6877541
40
0.6340005
50
90.2418914
51
180.4975151
0
ARC
8
DEFAULT_255_2_778
10
14.2022765
20
232.687754
40
0.6340006
50
359.5024881
51
89.7581009
0
ARC
8
DEFAULT_255_2_778
10
14.2022768
20
232.6767436
40
0.6340003
50
270.2418684
51
0.4975336
0
ARC
8
DEFAULT_255_2_778
10
14.2076299
20
232.6767437
40
0.6340005
50
179.5024805
51
269.758104
0
ARC
8
DEFAULT_255_2_778
10
14.5935296
20
232.7021068
40
0.5744248
50
158.6039448
51
180.7439081
0
ARC
8
DEFAULT_255_2_778
10
14.2894145
20
232.829083
40
0.2450547
50
125.6846154
51
160.3063409
0
ARC
8
DEFAULT_255_2_778
10
14.2061439
20
232.935937
40
0.1098183
50
90.6212609
51
122.9155624
0
ARC
8
DEFAULT_255_2_778
10
14.1912984
20
232.8978461
40
0.1485318
50
26.6299238
51
84.7252528
0
ARC
8
DEFAULT_255_2_778
10
13.9312415
20
232.732402
40
0.4562354
50
6.9672199
51
30.5675002
0
ARC
8
DEFAULT_255_2_778
10
13.736461
20
232.6954325
40
0.6541928
50
359.9313724
51
8.1119436
0
ARC
8
DEFAULT_255_2_778
10
13.8158903
20
232.6872075
40
0.5748111
50
338.6217917
51
0.7417631
0
ARC
8
DEFAULT_255_2_778
10
14.1203775
20
232.5601776
40
0.2450776
50
305.7107467
51
340.3279893
0
ARC
8
DEFAULT_255_2_778
10
14.2037626
20
232.4532757
40
0.1097331
50
270.6216799
51
302.9378787
0
ARC
8
DEFAULT_255_2_778
10
14.2183015
20
232.4907507
40
0.1478058
50
207.0367178
51
264.8185874
0
ARC
8
DEFAULT_255_2_778
10
14.4731143
20
232.6549943
40
0.4504617
50
187.4901111
51
210.9147812
0
ARC
8
DEFAULT_255_2_778
10
14.6699142
20
232.6937625
40
0.6507616
50
179.9219565
51
188.6157011
0
LINE
8
DEFAULT_255_2_778
10
14.8857532
20
233.2966489
11
15.3807532
21
233.2966489
0
LINE
8
DEFAULT_255_2_778
10
15.3807532
20
233.2966489
11
15.5540532
21
232.6319489
0
LINE
8
DEFAULT_255_2_778
10
15.5540532
20
232.6319489
11
15.7397532
21
233.3090489
0
LINE
8
DEFAULT_255_2_778
10
15.7397532
20
233.3090489
11
16.0369532
21
233.2212489
0
LINE
8
DEFAULT_255_2_778
10
16.0369532
20
233.2212489
11
15.7397532
21
232.1176489
0
LINE
8
DEFAULT_255_2_778
10
15.2817532
20
231.3778489
11
14.9351532
21
231.5408489
0
LINE
8
DEFAULT_255_2_778
10
15.4177532
20
232.1427489
11
15.2074532
21
232.1427489
0
LINE
8
DEFAULT_255_2_778
10
15.2074532
20
232.1427489
11
14.8857532
21
233.2966489
0
LINE
8
DEFAULT_255_2_778
10
16.0985532
20
232.6822489
11
16.0985532
21
232.6822489
0
LINE
8
DEFAULT_255_2_778
10
16.5441532
20
232.6946489
11
16.5441532
21
232.6946489
0
LINE
8
DEFAULT_255_2_778
10
13.5736532
20
232.6822489
11
13.5736532
21
232.6822489
0
LINE
8
DEFAULT_255_2_778
10
14.0191532
20
232.6946489
11
14.0191532
21
232.6946489
0
LINE
8
DEFAULT_255_2_778
10
12.0390532
20
234.0239489
11
12.5835532
21
234.0239489
0
LINE
8
DEFAULT_255_2_778
10
12.5835532
20
234.0239489
11
12.5835532
21
233.2966489
0
LINE
8
DEFAULT_255_2_778
10
12.5835532
20
233.2966489
11
13.0291532
21
234.0239489
0
LINE
8
DEFAULT_255_2_778
10
13.0291532
20
234.0239489
11
13.4992532
21
234.0239489
0
LINE
8
DEFAULT_255_2_778
10
13.4992532
20
234.0239489
11
12.9793532
21
233.1711489
0
LINE
8
DEFAULT_255_2_778
10
12.9793532
20
233.1711489
11
13.5982532
21
232.1178489
0
LINE
8
DEFAULT_255_2_778
10
13.5982532
20
232.1178489
11
13.0288532
21
232.1178489
0
LINE
8
DEFAULT_255_2_778
10
13.0288532
20
232.1178489
11
12.5584532
21
232.9203489
0
LINE
8
DEFAULT_255_2_778
10
12.5584532
20
232.9203489
11
12.5584532
21
232.1178489
0
LINE
8
DEFAULT_255_2_778
10
12.5584532
20
232.1178489
11
12.0390532
21
232.1178489
0
LINE
8
DEFAULT_255_2_778
10
12.0390532
20
232.1178489
11
12.0390532
21
234.0239489
0
LINE
8
DEFAULT_255_2_778
10
9.3932417
20
211.5343974
11
10.7161417
21
211.5343974
0
LINE
8
DEFAULT_255_2_778
10
10.7161417
20
211.5343974
11
10.7161417
21
118.9301974
0
LINE
8
DEFAULT_255_2_778
10
10.7161417
20
113.6385974
11
10.7161417
21
21.0343974
0
LINE
8
DEFAULT_255_2_778
10
10.7161417
20
21.0343974
11
9.3932417
21
21.0343974
0
LINE
8
DEFAULT_255_2_778
10
9.3932834
20
118.9302333
11
12.0390834
21
118.9302333
0
LINE
8
DEFAULT_255_2_778
10
12.0390834
20
118.9302333
11
12.0390834
21
113.6385333
0
LINE
8
DEFAULT_255_2_778
10
12.0390834
20
113.6385333
11
9.3932834
21
113.6385333
0
LINE
8
DEFAULT_255_2_778
10
9.3932834
20
113.6385333
11
9.3932834
21
118.9302333
0
LINE
8
DEFAULT_255_2_778
10
10.187
20
114.1677666
11
10.187
21
118.4010666
0
LINE
8
DEFAULT_255_2_778
10
9.9224167
20
117.607375
11
10.1870167
21
118.401075
0
LINE
8
DEFAULT_255_2_778
10
10.1870167
20
118.401075
11
10.4516167
21
117.607375
0
LINE
8
DEFAULT_255_2_778
10
10.4516167
20
117.607375
11
9.9224167
21
117.607375
0
LINE
8
DEFAULT_255_2_778
10
11.2453
20
118.4010666
11
11.2453
21
114.1677666
0
LINE
8
DEFAULT_255_2_778
10
10.9807167
20
114.961475
11
11.2453167
21
114.167775
0
LINE
8
DEFAULT_255_2_778
10
11.2453167
20
114.167775
11
11.5099167
21
114.961475
0
LINE
8
DEFAULT_255_2_778
10
11.5099167
20
114.961475
11
10.9807167
21
114.961475
0
LINE
8
DEFAULT_255_2_778
10
19.9765417
20
211.5343479
11
18.6536417
21
211.5343479
0
LINE
8
DEFAULT_255_2_778
10
18.6536417
20
211.5343479
11
18.6536417
21
138.7739479
0
LINE
8
DEFAULT_255_2_778
10
18.6536417
20
133.4822479
11
18.6536417
21
60.7218479
0
LINE
8
DEFAULT_255_2_778
10
18.6536417
20
60.7218479
11
19.9765417
21
60.7218479
0
LINE
8
DEFAULT_255_2_778
10
17.3307834
20
138.7739333
11
19.9765834
21
138.7739333
0
LINE
8
DEFAULT_255_2_778
10
19.9765834
20
138.7739333
11
19.9765834
21
133.4822333
0
LINE
8
DEFAULT_255_2_778
10
19.9765834
20
133.4822333
11
17.3307834
21
133.4822333
0
LINE
8
DEFAULT_255_2_778
10
17.3307834
20
133.4822333
11
17.3307834
21
138.7739333
0
LINE
8
DEFAULT_255_2_778
10
18.1245
20
134.0114666
11
18.1245
21
138.2447666
0
LINE
8
DEFAULT_255_2_778
10
17.8599167
20
137.451075
11
18.1245167
21
138.244775
0
LINE
8
DEFAULT_255_2_778
10
18.1245167
20
138.244775
11
18.3891167
21
137.451075
0
LINE
8
DEFAULT_255_2_778
10
18.3891167
20
137.451075
11
17.8599167
21
137.451075
0
LINE
8
DEFAULT_255_2_778
10
19.1828
20
138.2447666
11
19.1828
21
134.0114666
0
LINE
8
DEFAULT_255_2_778
10
18.9182167
20
134.805175
11
19.1828167
21
134.011475
0
LINE
8
DEFAULT_255_2_778
10
19.1828167
20
134.011475
11
19.4474167
21
134.805175
0
LINE
8
DEFAULT_255_2_778
10
19.4474167
20
134.805175
11
18.9182167
21
134.805175
0
LINE
8
DEFAULT_255_1_234
10
4.2134489
20
228.0598211
11
4.2134489
21
227.0164983
0
LINE
8
DEFAULT_255_1_234
10
4.2134489
20
227.0164983
11
4.7676389
21
227.0164983
0
LINE
8
DEFAULT_255_1_234
10
4.7676389
20
227.0164983
11
4.7676389
21
226.8904
0
LINE
8
DEFAULT_255_1_234
10
4.7676389
20
226.8904
11
4.0584364
21
226.8904
0
LINE
8
DEFAULT_255_1_234
10
4.0584364
20
226.8904
11
4.0584364
21
228.0598211
0
LINE
8
DEFAULT_255_1_234
10
4.0584364
20
228.0598211
11
4.2134489
21
228.0598211
0
LINE
8
DEFAULT_255_1_234
10
4.9078482
20
5.222701
11
4.9078482
21
4.7938062
0
LINE
8
DEFAULT_255_1_234
10
4.0066872
20
5.1688884
11
4.0066872
21
5.2708915
0
LINE
8
DEFAULT_255_1_234
10
4.9078482
20
5.4668659
11
4.7536389
21
5.4668659
0
LINE
8
DEFAULT_255_1_234
10
4.1616998
20
5.2749073
11
4.1616998
21
5.1793296
0
LINE
8
DEFAULT_255_1_234
10
4.754442
20
4.8347681
11
4.754442
21
5.0974059
0
LINE
8
DEFAULT_255_1_234
10
4.754442
20
5.0974059
11
4.4837725
21
5.0974059
0
LINE
8
DEFAULT_255_1_234
10
4.4837725
20
5.0974059
11
4.4837725
21
5.222701
0
LINE
8
DEFAULT_255_1_234
10
4.4837725
20
5.222701
11
4.9078482
21
5.222701
0
ARC
8
DEFAULT_255_1_234
10
4.6246989
20
4.9931396
40
0.3462765
50
295.8437914
51
324.8549609
0
ARC
8
DEFAULT_255_1_234
10
4.5830956
20
5.0684567
40
0.4322211
50
291.5695085
51
296.4549398
0
ARC
8
DEFAULT_255_1_234
10
4.5320207
20
5.2049275
40
0.5779178
50
278.6622409
51
291.3045483
0
ARC
8
DEFAULT_255_1_234
10
4.4980699
20
5.4197408
40
0.7953952
50
270.020006
51
278.7494541
0
ARC
8
DEFAULT_255_1_234
10
4.4942623
20
5.5514036
40
0.927067
50
269.9969998
51
270.2524872
0
ARC
8
DEFAULT_255_1_234
10
4.4904336
20
5.1430589
40
0.5187361
50
253.5786322
51
270.4175299
0
ARC
8
DEFAULT_255_1_234
10
4.4730992
20
5.0759236
40
0.4494451
50
238.8203306
51
253.2788235
0
ARC
8
DEFAULT_255_1_234
10
4.4711365
20
5.0708231
40
0.4440665
50
206.7883783
51
238.6962764
0
ARC
8
DEFAULT_255_1_234
10
4.5485275
20
5.1172405
40
0.5341121
50
206.1129412
51
207.4916643
0
ARC
8
DEFAULT_255_1_234
10
4.608219
20
5.1426488
40
0.5989041
50
188.6921119
51
205.7821245
0
ARC
8
DEFAULT_255_1_234
10
4.7938552
20
5.174223
40
0.7871862
50
180.3882829
51
188.9219216
0
ARC
8
DEFAULT_255_1_234
10
4.9166366
20
5.2765464
40
0.909967
50
170.2024264
51
180.3560651
0
ARC
8
DEFAULT_255_1_234
10
4.6002884
20
5.3331237
40
0.5886083
50
154.2857445
51
170.3893044
0
ARC
8
DEFAULT_255_1_234
10
4.4721087
20
5.391795
40
0.4476743
50
139.8401567
51
153.9332699
0
ARC
8
DEFAULT_255_1_234
10
4.4361823
20
5.4205577
40
0.4016697
50
98.4190291
51
139.6707122
0
ARC
8
DEFAULT_255_1_234
10
4.4741341
20
5.2360328
40
0.5898566
50
89.7659205
51
99.4415478
0
ARC
8
DEFAULT_255_1_234
10
4.480659
20
5.2425844
40
0.5833147
50
78.0551672
51
90.4042112
0
ARC
8
DEFAULT_255_1_234
10
4.52111
20
5.4244644
40
0.3970055
50
54.6380464
51
78.3339173
0
ARC
8
DEFAULT_255_1_234
10
4.5401156
20
5.4564795
40
0.3599102
50
50.031736
51
54.1558201
0
ARC
8
DEFAULT_255_1_234
10
4.5293944
20
5.4468766
40
0.3741624
50
18.1092409
51
49.7180913
0
ARC
8
DEFAULT_255_1_234
10
4.3837144
20
5.3935089
40
0.5292424
50
7.9672797
51
18.6984571
0
ARC
8
DEFAULT_255_1_234
10
4.3987622
20
5.4058504
40
0.3600838
50
9.7557294
51
27.3215714
0
ARC
8
DEFAULT_255_1_234
10
4.5115094
20
5.4621912
40
0.2340608
50
27.7361077
51
84.5257964
0
ARC
8
DEFAULT_255_1_234
10
4.4787481
20
5.297864
40
0.4011215
50
82.106034
51
90.2001166
0
ARC
8
DEFAULT_255_1_234
10
4.4737698
20
5.3486215
40
0.3503799
50
89.4150119
51
105.5823402
0
ARC
8
DEFAULT_255_1_234
10
4.4480696
20
5.4421867
40
0.2533503
50
105.6678618
51
144.2648758
0
ARC
8
DEFAULT_255_1_234
10
4.5373951
20
5.3786289
40
0.3629787
50
144.3561283
51
162.8564086
0
ARC
8
DEFAULT_255_1_234
10
4.745786
20
5.3117017
40
0.5818441
50
162.6076014
51
173.6780284
0
ARC
8
DEFAULT_255_1_234
10
5.0519004
20
5.274489
40
0.8902007
50
173.4670142
51
179.9730753
0
ARC
8
DEFAULT_255_1_234
10
4.8610675
20
5.175126
40
0.6993804
50
179.6556203
51
190.0080463
0
ARC
8
DEFAULT_255_1_234
10
4.6294504
20
5.1326375
40
0.4639066
50
189.8116607
51
206.6796816
0
ARC
8
DEFAULT_255_1_234
10
4.5449656
20
5.0932503
40
0.3707421
50
207.1031645
51
217.7074368
0
ARC
8
DEFAULT_255_1_234
10
4.4815345
20
5.0380559
40
0.2868417
50
216.7345547
51
265.6812148
0
ARC
8
DEFAULT_255_1_234
10
4.4946136
20
5.1284855
40
0.3780509
50
264.7366618
51
270.0611241
0
ARC
8
DEFAULT_255_1_234
10
4.4969399
20
5.4125111
40
0.662079
50
269.8335834
51
276.0539546
0
ARC
8
DEFAULT_255_1_234
10
4.5176404
20
5.222356
40
0.4708016
50
275.9894168
51
284.4615085
0
ARC
8
DEFAULT_255_1_234
10
4.5374411
20
5.1390663
40
0.3852094
50
284.7034461
51
286.4953897
0
ARC
8
DEFAULT_255_1_234
10
4.5781424
20
5.0079965
40
0.2479842
50
286.0770838
51
304.2625829
0
ARC
8
DEFAULT_255_1_234
10
4.5914838
20
4.9861594
40
0.2224291
50
304.5891602
51
317.1073298
0
LINE
8
DEFAULT_255_1_234
10
4.5459265
20
13.5465276
11
4.5459265
21
13.2051788
0
LINE
8
DEFAULT_255_1_234
10
4.5459265
20
13.2051788
11
4.872015
21
13.2051788
0
LINE
8
DEFAULT_255_1_234
10
4.872015
20
13.2051788
11
4.872015
21
13.0646233
0
LINE
8
DEFAULT_255_1_234
10
4.872015
20
13.0646233
11
4.5459265
21
13.0646233
0
LINE
8
DEFAULT_255_1_234
10
4.5459265
20
13.0646233
11
4.5459265
21
12.6951634
0
LINE
8
DEFAULT_255_1_234
10
4.5459265
20
12.6951634
11
4.3965361
21
12.6951634
0
LINE
8
DEFAULT_255_1_234
10
4.3965361
20
12.6951634
11
4.3965361
21
13.0646233
0
LINE
8
DEFAULT_255_1_234
10
4.3965361
20
13.0646233
11
4.0704476
21
13.0646233
0
LINE
8
DEFAULT_255_1_234
10
4.0704476
20
13.0646233
11
4.0704476
21
13.2051788
0
LINE
8
DEFAULT_255_1_234
10
4.0704476
20
13.2051788
11
4.3965361
21
13.2051788
0
LINE
8
DEFAULT_255_1_234
10
4.3965361
20
13.2051788
11
4.3965361
21
13.5465276
0
LINE
8
DEFAULT_255_1_234
10
4.3965361
20
13.5465276
11
4.5459265
21
13.5465276
0
LINE
8
DEFAULT_255_1_234
10
5.130637
20
13.7473211
11
5.463151
21
12.7827093
0
LINE
8
DEFAULT_255_1_234
10
5.463151
20
12.7827093
11
5.7972713
21
13.7473211
0
LINE
8
DEFAULT_255_1_234
10
5.7972713
20
13.7473211
11
5.9659378
21
13.7473211
0
LINE
8
DEFAULT_255_1_234
10
5.9659378
20
13.7473211
11
5.5322239
21
12.5779
0
LINE
8
DEFAULT_255_1_234
10
5.5322239
20
12.5779
11
5.3956844
21
12.5779
0
LINE
8
DEFAULT_255_1_234
10
5.3956844
20
12.5779
11
4.9627737
21
13.7473211
0
LINE
8
DEFAULT_255_1_234
10
4.9627737
20
13.7473211
11
5.130637
21
13.7473211
0
LINE
8
DEFAULT_255_1_234
10
4.3681299
20
21.6848211
11
4.6500439
21
21.2366501
0
LINE
8
DEFAULT_255_1_234
10
4.6500439
20
21.2366501
11
4.9303516
21
21.6848211
0
LINE
8
DEFAULT_255_1_234
10
4.9303516
20
21.6848211
11
5.1118689
21
21.6848211
0
LINE
8
DEFAULT_255_1_234
10
5.1118689
20
21.6848211
11
4.7424089
21
21.1049296
0
LINE
8
DEFAULT_255_1_234
10
4.7424089
20
21.1049296
11
5.1207038
21
20.5154
0
LINE
8
DEFAULT_255_1_234
10
5.1207038
20
20.5154
11
4.9375802
21
20.5154
0
LINE
8
DEFAULT_255_1_234
10
4.9375802
20
20.5154
11
4.6500439
21
20.9716027
0
LINE
8
DEFAULT_255_1_234
10
4.6500439
20
20.9716027
11
4.3609014
21
20.5154
0
LINE
8
DEFAULT_255_1_234
10
4.3609014
20
20.5154
11
4.1785809
21
20.5154
0
LINE
8
DEFAULT_255_1_234
10
4.1785809
20
20.5154
11
4.557679
21
21.1049296
0
LINE
8
DEFAULT_255_1_234
10
4.557679
20
21.1049296
11
4.1874158
21
21.6848211
0
LINE
8
DEFAULT_255_1_234
10
4.1874158
20
21.6848211
11
4.3681299
21
21.6848211
0
LINE
8
DEFAULT_255_1_234
10
6.0274871
20
20.6366792
11
6.0274871
21
20.5154
0
LINE
8
DEFAULT_255_1_234
10
6.0274871
20
20.5154
11
5.2612592
21
20.5154
0
LINE
8
DEFAULT_255_1_234
10
5.2612592
20
20.5154
11
5.2612592
21
20.6222221
0
LINE
8
DEFAULT_255_1_234
10
5.2612592
20
20.6222221
11
5.6660588
21
21.0719995
0
LINE
8
DEFAULT_255_1_234
10
5.3873575
20
21.3402595
11
5.2387704
21
21.3402595
0
LINE
8
DEFAULT_255_1_234
10
5.7536048
20
20.9764218
11
5.440367
21
20.6366792
0
LINE
8
DEFAULT_255_1_234
10
5.440367
20
20.6366792
11
6.0274871
21
20.6366792
0
ARC
8
DEFAULT_255_1_234
10
4.3170422
20
22.2649527
40
1.8008286
50
318.5132453
51
320.7828378
0
ARC
8
DEFAULT_255_1_234
10
4.8457396
20
21.8346426
40
1.1191493
50
320.7372736
51
323.9737074
0
ARC
8
DEFAULT_255_1_234
10
5.2377252
20
21.5506361
40
0.6350923
50
323.8961724
51
328.6421089
0
ARC
8
DEFAULT_255_1_234
10
5.4423848
20
21.4244031
40
0.3946393
50
328.8299013
51
331.789948
0
ARC
8
DEFAULT_255_1_234
10
5.5421026
20
21.3729509
40
0.2824501
50
331.4255242
51
352.9364833
0
ARC
8
DEFAULT_255_1_234
10
5.5557527
20
21.3698976
40
0.2685315
50
353.2248685
51
0.0169286
0
ARC
8
DEFAULT_255_1_234
10
5.5767404
20
21.372195
40
0.2475536
50
359.4866256
51
15.9339782
0
ARC
8
DEFAULT_255_1_234
10
5.6274389
20
21.3858286
40
0.1950618
50
16.1714718
51
43.5284424
0
ARC
8
DEFAULT_255_1_234
10
5.6351698
20
21.3935573
40
0.184134
50
43.4415429
51
83.1661404
0
ARC
8
DEFAULT_255_1_234
10
5.6217616
20
21.3198771
40
0.258926
50
82.160215
51
90.1505798
0
ARC
8
DEFAULT_255_1_234
10
5.6186043
20
21.2661865
40
0.3126255
50
89.5460705
51
102.5418777
0
ARC
8
DEFAULT_255_1_234
10
5.5943129
20
21.3692665
40
0.2067346
50
102.1739365
51
129.2061916
0
ARC
8
DEFAULT_255_1_234
10
5.5864201
20
21.3817094
40
0.1921118
50
129.7279328
51
135.7542026
0
ARC
8
DEFAULT_255_1_234
10
5.5985729
20
21.3720045
40
0.2075944
50
136.175737
51
166.3674722
0
ARC
8
DEFAULT_255_1_234
10
5.6992648
20
21.3450182
40
0.3118201
50
165.9092917
51
178.8683903
0
ARC
8
DEFAULT_255_1_234
10
5.7857509
20
21.3403179
40
0.3983935
50
178.438168
51
180.0083905
0
ARC
8
DEFAULT_255_1_234
10
5.6456111
20
21.3442231
40
0.4068601
50
163.2878735
51
180.5581814
0
ARC
8
DEFAULT_255_1_234
10
5.5654373
20
21.366284
40
0.3237344
50
133.454115
51
162.9470031
0
ARC
8
DEFAULT_255_1_234
10
5.5832914
20
21.3473
40
0.349795
50
100.7869394
51
133.4384016
0
ARC
8
DEFAULT_255_1_234
10
5.6180686
20
21.1924319
40
0.5084616
50
89.6605301
51
101.3704185
0
ARC
8
DEFAULT_255_1_234
10
5.6247024
20
21.1985496
40
0.502348
50
78.2171172
51
90.4130393
0
ARC
8
DEFAULT_255_1_234
10
5.6602103
20
21.3609637
40
0.3361092
50
55.9268222
51
78.4888551
0
ARC
8
DEFAULT_255_1_234
10
5.6798543
20
21.3948324
40
0.2970617
50
47.9292255
51
55.4054003
0
ARC
8
DEFAULT_255_1_234
10
5.6900103
20
21.4051502
40
0.2825983
50
4.3347696
51
48.0560701
0
ARC
8
DEFAULT_255_1_234
10
5.5804497
20
21.3881601
40
0.393225
50
359.925209
51
5.5967654
0
ARC
8
DEFAULT_255_1_234
10
5.6233389
20
21.3937816
40
0.3503892
50
337.8914096
51
358.9967724
0
ARC
8
DEFAULT_255_1_234
10
5.3519801
20
21.4984706
40
0.6412172
50
326.9135351
51
338.3505194
0
ARC
8
DEFAULT_255_1_234
10
4.9534105
20
21.7539284
40
1.1146189
50
319.6472867
51
327.095818
0
ARC
8
DEFAULT_255_1_234
10
4.5701108
20
22.0701
40
1.6114559
50
317.2586784
51
319.9046139
0
LINE
8
DEFAULT_255_1_234
10
6.4009629
20
21.0511169
11
6.4009629
21
21.1723962
0
LINE
8
DEFAULT_255_1_234
10
6.4009629
20
21.1723962
11
6.5126041
21
21.1723962
0
LINE
8
DEFAULT_255_1_234
10
6.3222519
20
21.3780087
11
6.1736647
21
21.3780087
0
LINE
8
DEFAULT_255_1_234
10
6.1632234
20
20.8238188
11
6.3126138
21
20.8238188
0
LINE
8
DEFAULT_255_1_234
10
6.5126041
20
21.0511169
11
6.4009629
21
21.0511169
0
ARC
8
DEFAULT_255_1_234
10
6.5096907
20
21.5116713
40
0.3392876
50
270.4919872
51
281.8951556
0
ARC
8
DEFAULT_255_1_234
10
6.5338169
20
21.4014702
40
0.2264817
50
281.6691735
51
301.2943132
0
ARC
8
DEFAULT_255_1_234
10
6.5508379
20
21.3703304
40
0.1910381
50
301.7833094
51
311.7545298
0
ARC
8
DEFAULT_255_1_234
10
6.5599955
20
21.3601748
40
0.1773635
50
311.7323931
51
354.2802411
0
ARC
8
DEFAULT_255_1_234
10
6.487358
20
21.3726722
40
0.2509385
50
353.0937916
51
0.1181479
0
ARC
8
DEFAULT_255_1_234
10
6.4412365
20
21.3774386
40
0.2970898
50
359.1805295
51
15.0453146
0
ARC
8
DEFAULT_255_1_234
10
6.5758202
20
21.4166992
40
0.1569564
50
13.9577229
51
77.6713066
0
ARC
8
DEFAULT_255_1_234
10
6.5371731
20
21.2781949
40
0.3006298
50
76.1116566
51
90.7026153
0
ARC
8
DEFAULT_255_1_234
10
6.5312569
20
21.3055545
40
0.2732568
50
89.5324876
51
103.531937
0
ARC
8
DEFAULT_255_1_234
10
6.5112013
20
21.3854884
40
0.1908508
50
103.2931773
51
133.5619022
0
ARC
8
DEFAULT_255_1_234
10
6.5067502
20
21.3914375
40
0.1834746
50
133.8349307
51
173.5344437
0
ARC
8
DEFAULT_255_1_234
10
6.5790545
20
21.3786213
40
0.2568033
50
172.5096846
51
180.1366907
0
ARC
8
DEFAULT_255_1_234
10
6.4839439
20
21.3820622
40
0.3103056
50
155.3484492
51
180.7484736
0
ARC
8
DEFAULT_255_1_234
10
6.4790528
20
21.3791846
40
0.3070957
50
131.5744599
51
154.4798489
0
ARC
8
DEFAULT_255_1_234
10
6.5103675
20
21.347531
40
0.3515643
50
96.9875458
51
131.9690667
0
ARC
8
DEFAULT_255_1_234
10
6.5323155
20
21.2229636
40
0.4779224
50
89.8596053
51
97.7825159
0
ARC
8
DEFAULT_255_1_234
10
6.5371218
20
21.1967616
40
0.5041361
50
78.3655447
51
90.4131539
0
ARC
8
DEFAULT_255_1_234
10
6.5729136
20
21.3626887
40
0.3344039
50
56.6229102
51
78.638727
0
ARC
8
DEFAULT_255_1_234
10
6.594408
20
21.4002805
40
0.2912001
50
47.0253525
51
56.0854072
0
ARC
8
DEFAULT_255_1_234
10
6.596386
20
21.4042223
40
0.2869704
50
10.9208013
51
46.7778124
0
ARC
8
DEFAULT_255_1_234
10
6.4599926
20
21.3726857
40
0.426899
50
359.6364486
51
11.6087304
0
ARC
8
DEFAULT_255_1_234
10
6.643477
20
21.3711752
40
0.243409
50
332.3549906
51
359.7179418
0
ARC
8
DEFAULT_255_1_234
10
6.5784372
20
21.4020142
40
0.3153459
50
325.2333722
51
332.8745602
0
ARC
8
DEFAULT_255_1_234
10
6.5936995
20
21.3913828
40
0.2967456
50
292.9802137
51
325.2392345
0
ARC
8
DEFAULT_255_1_234
10
6.5662369
20
21.4447863
40
0.3566604
50
292.5402179
51
293.6924929
0
ARC
8
DEFAULT_255_1_234
10
6.6054965
20
20.7993091
40
0.3307468
50
57.6435486
51
72.8625112
0
ARC
8
DEFAULT_255_1_234
10
6.6409465
20
20.8567549
40
0.2632492
50
36.7248896
51
57.4697979
0
ARC
8
DEFAULT_255_1_234
10
6.6398098
20
20.858022
40
0.2634081
50
8.0545065
51
36.356114
0
ARC
8
DEFAULT_255_1_234
10
6.5535283
20
20.8425174
40
0.3510261
50
359.8320645
51
8.5869982
0
ARC
8
DEFAULT_255_1_234
10
6.5160059
20
20.8377101
40
0.3885653
50
343.9829931
51
0.5571613
0
ARC
8
DEFAULT_255_1_234
10
6.6046256
20
20.8134438
40
0.2966924
50
311.6359546
51
343.7651759
0
ARC
8
DEFAULT_255_1_234
10
6.5667825
20
20.8561102
40
0.3537231
50
279.7829875
51
311.6255694
0
ARC
8
DEFAULT_255_1_234
10
6.5366601
20
20.999828
40
0.5004971
50
269.7286406
51
280.3856417
0
ARC
8
DEFAULT_255_1_234
10
6.5304674
20
20.9956996
40
0.4963778
50
256.6828919
51
270.4412052
0
ARC
8
DEFAULT_255_1_234
10
6.496597
20
20.8572394
40
0.3538406
50
229.4223008
51
256.8556159
0
ARC
8
DEFAULT_255_1_234
10
6.4551363
20
20.8105736
40
0.2914296
50
181.818294
51
229.6455059
0
ARC
8
DEFAULT_255_1_234
10
6.5591319
20
20.8236496
40
0.3959084
50
179.9755256
51
183.2323064
0
ARC
8
DEFAULT_255_1_234
10
6.5419065
20
20.8216037
40
0.2293034
50
179.4465117
51
196.2869258
0
ARC
8
DEFAULT_255_1_234
10
6.4931473
20
20.8082651
40
0.1787621
50
196.5661473
51
227.705904
0
ARC
8
DEFAULT_255_1_234
10
6.5095568
20
20.8266155
40
0.2033784
50
227.7652068
51
257.8762805
0
ARC
8
DEFAULT_255_1_234
10
6.5320538
20
20.9209156
40
0.3003081
50
257.4584385
51
270.426602
0
ARC
8
DEFAULT_255_1_234
10
6.5366104
20
20.9498996
40
0.329292
50
269.5962073
51
280.8789248
0
ARC
8
DEFAULT_255_1_234
10
6.5595633
20
20.8352685
40
0.2123908
50
280.6346389
51
299.8595945
0
ARC
8
DEFAULT_255_1_234
10
6.578654
20
20.7990212
40
0.171457
50
300.3576302
51
314.5517981
0
ARC
8
DEFAULT_255_1_234
10
6.57036
20
20.8050919
40
0.1816095
50
315.0728369
51
345.0431014
0
ARC
8
DEFAULT_255_1_234
10
6.4780414
20
20.8319841
40
0.2777492
50
344.5986631
51
357.9269593
0
ARC
8
DEFAULT_255_1_234
10
6.388474
20
20.8381276
40
0.3674917
50
357.4748886
51
0.0231117
0
ARC
8
DEFAULT_255_1_234
10
6.490785
20
20.8405679
40
0.2651907
50
359.5047933
51
13.4239635
0
ARC
8
DEFAULT_255_1_234
10
6.5774493
20
20.8627478
40
0.1757509
50
12.9498199
51
48.7551375
0
ARC
8
DEFAULT_255_1_234
10
6.5592227
20
20.83784
40
0.2065134
50
49.5088623
51
72.1836453
0
ARC
8
DEFAULT_255_1_234
10
6.523438
20
20.7316291
40
0.3185836
50
71.9010081
51
84.3554254
0
ARC
8
DEFAULT_255_1_234
10
6.5073012
20
20.5955326
40
0.4556151
50
84.0193428
51
89.333121
0
LINE
8
DEFAULT_255_1_234
10
4.3681299
20
29.6223211
11
4.6500439
21
29.1741501
0
LINE
8
DEFAULT_255_1_234
10
4.6500439
20
29.1741501
11
4.9303516
21
29.6223211
0
LINE
8
DEFAULT_255_1_234
10
4.9303516
20
29.6223211
11
5.1118689
21
29.6223211
0
LINE
8
DEFAULT_255_1_234
10
5.1118689
20
29.6223211
11
4.7424089
21
29.0424296
0
LINE
8
DEFAULT_255_1_234
10
4.7424089
20
29.0424296
11
5.1207038
21
28.4529
0
LINE
8
DEFAULT_255_1_234
10
5.1207038
20
28.4529
11
4.9375802
21
28.4529
0
LINE
8
DEFAULT_255_1_234
10
4.9375802
20
28.4529
11
4.6500439
21
28.9091027
0
LINE
8
DEFAULT_255_1_234
10
4.6500439
20
28.9091027
11
4.3609014
21
28.4529
0
LINE
8
DEFAULT_255_1_234
10
4.3609014
20
28.4529
11
4.1785809
21
28.4529
0
LINE
8
DEFAULT_255_1_234
10
4.1785809
20
28.4529
11
4.557679
21
29.0424296
0
LINE
8
DEFAULT_255_1_234
10
4.557679
20
29.0424296
11
4.1874158
21
29.6223211
0
LINE
8
DEFAULT_255_1_234
10
4.1874158
20
29.6223211
11
4.3681299
21
29.6223211
0
LINE
8
DEFAULT_255_1_234
10
6.0274871
20
28.5741792
11
6.0274871
21
28.4529
0
LINE
8
DEFAULT_255_1_234
10
6.0274871
20
28.4529
11
5.2612592
21
28.4529
0
LINE
8
DEFAULT_255_1_234
10
5.2612592
20
28.4529
11
5.2612592
21
28.5597221
0
LINE
8
DEFAULT_255_1_234
10
5.2612592
20
28.5597221
11
5.6660588
21
29.0094995
0
LINE
8
DEFAULT_255_1_234
10
5.3873575
20
29.2777595
11
5.2387704
21
29.2777595
0
LINE
8
DEFAULT_255_1_234
10
5.7536048
20
28.9139218
11
5.440367
21
28.5741792
0
LINE
8
DEFAULT_255_1_234
10
5.440367
20
28.5741792
11
6.0274871
21
28.5741792
0
ARC
8
DEFAULT_255_1_234
10
4.3170422
20
30.2024527
40
1.8008286
50
318.5132453
51
320.7828378
0
ARC
8
DEFAULT_255_1_234
10
4.8457396
20
29.7721426
40
1.1191493
50
320.7372736
51
323.9737074
0
ARC
8
DEFAULT_255_1_234
10
5.2377252
20
29.4881361
40
0.6350923
50
323.8961724
51
328.6421089
0
ARC
8
DEFAULT_255_1_234
10
5.4423848
20
29.3619031
40
0.3946393
50
328.8299013
51
331.789948
0
ARC
8
DEFAULT_255_1_234
10
5.5421026
20
29.3104509
40
0.2824501
50
331.4255242
51
352.9364833
0
ARC
8
DEFAULT_255_1_234
10
5.5557527
20
29.3073976
40
0.2685315
50
353.2248685
51
0.0169286
0
ARC
8
DEFAULT_255_1_234
10
5.5767404
20
29.309695
40
0.2475536
50
359.4866256
51
15.9339782
0
ARC
8
DEFAULT_255_1_234
10
5.6274389
20
29.3233286
40
0.1950618
50
16.1714718
51
43.5284424
0
ARC
8
DEFAULT_255_1_234
10
5.6351698
20
29.3310573
40
0.184134
50
43.4415429
51
83.1661404
0
ARC
8
DEFAULT_255_1_234
10
5.6217616
20
29.2573771
40
0.258926
50
82.160215
51
90.1505798
0
ARC
8
DEFAULT_255_1_234
10
5.6186043
20
29.2036865
40
0.3126255
50
89.5460705
51
102.5418777
0
ARC
8
DEFAULT_255_1_234
10
5.5943129
20
29.3067665
40
0.2067346
50
102.1739365
51
129.2061916
0
ARC
8
DEFAULT_255_1_234
10
5.5864201
20
29.3192094
40
0.1921118
50
129.7279328
51
135.7542026
0
ARC
8
DEFAULT_255_1_234
10
5.5985729
20
29.3095045
40
0.2075944
50
136.175737
51
166.3674722
0
ARC
8
DEFAULT_255_1_234
10
5.6992648
20
29.2825182
40
0.3118201
50
165.9092917
51
178.8683903
0
ARC
8
DEFAULT_255_1_234
10
5.7857509
20
29.2778179
40
0.3983935
50
178.438168
51
180.0083905
0
ARC
8
DEFAULT_255_1_234
10
5.6456111
20
29.2817231
40
0.4068601
50
163.2878735
51
180.5581814
0
ARC
8
DEFAULT_255_1_234
10
5.5654373
20
29.303784
40
0.3237344
50
133.454115
51
162.9470031
0
ARC
8
DEFAULT_255_1_234
10
5.5832914
20
29.2848
40
0.349795
50
100.7869394
51
133.4384016
0
ARC
8
DEFAULT_255_1_234
10
5.6180686
20
29.1299319
40
0.5084616
50
89.6605301
51
101.3704185
0
ARC
8
DEFAULT_255_1_234
10
5.6247024
20
29.1360496
40
0.502348
50
78.2171172
51
90.4130393
0
ARC
8
DEFAULT_255_1_234
10
5.6602103
20
29.2984637
40
0.3361092
50
55.9268222
51
78.4888551
0
ARC
8
DEFAULT_255_1_234
10
5.6798543
20
29.3323324
40
0.2970617
50
47.9292255
51
55.4054003
0
ARC
8
DEFAULT_255_1_234
10
5.6900103
20
29.3426502
40
0.2825983
50
4.3347696
51
48.0560701
0
ARC
8
DEFAULT_255_1_234
10
5.5804497
20
29.3256601
40
0.393225
50
359.925209
51
5.5967654
0
ARC
8
DEFAULT_255_1_234
10
5.6233389
20
29.3312816
40
0.3503892
50
337.8914096
51
358.9967724
0
ARC
8
DEFAULT_255_1_234
10
5.3519801
20
29.4359706
40
0.6412172
50
326.9135351
51
338.3505194
0
ARC
8
DEFAULT_255_1_234
10
4.9534105
20
29.6914284
40
1.1146189
50
319.6472867
51
327.095818
0
ARC
8
DEFAULT_255_1_234
10
4.5701108
20
30.0076
40
1.6114559
50
317.2586784
51
319.9046139
0
LINE
8
DEFAULT_255_1_234
10
6.951137
20
28.5741792
11
6.951137
21
28.4529
0
LINE
8
DEFAULT_255_1_234
10
6.951137
20
28.4529
11
6.1849091
21
28.4529
0
LINE
8
DEFAULT_255_1_234
10
6.1849091
20
28.4529
11
6.1849091
21
28.5597221
0
LINE
8
DEFAULT_255_1_234
10
6.1849091
20
28.5597221
11
6.5897087
21
29.0094995
0
LINE
8
DEFAULT_255_1_234
10
6.3110074
20
29.2777595
11
6.1624203
21
29.2777595
0
LINE
8
DEFAULT_255_1_234
10
6.6772547
20
28.9139218
11
6.3640169
21
28.5741792
0
LINE
8
DEFAULT_255_1_234
10
6.3640169
20
28.5741792
11
6.951137
21
28.5741792
0
ARC
8
DEFAULT_255_1_234
10
5.2406921
20
30.2024527
40
1.8008286
50
318.5132453
51
320.7828378
0
ARC
8
DEFAULT_255_1_234
10
5.7693895
20
29.7721426
40
1.1191493
50
320.7372736
51
323.9737074
0
ARC
8
DEFAULT_255_1_234
10
6.1613751
20
29.4881361
40
0.6350923
50
323.8961724
51
328.6421089
0
ARC
8
DEFAULT_255_1_234
10
6.3660347
20
29.3619031
40
0.3946393
50
328.8299013
51
331.789948
0
ARC
8
DEFAULT_255_1_234
10
6.4657525
20
29.3104509
40
0.2824501
50
331.4255242
51
352.9364833
0
ARC
8
DEFAULT_255_1_234
10
6.4794026
20
29.3073976
40
0.2685315
50
353.2248685
51
0.0169286
0
ARC
8
DEFAULT_255_1_234
10
6.5003903
20
29.309695
40
0.2475536
50
359.4866256
51
15.9339782
0
ARC
8
DEFAULT_255_1_234
10
6.5510888
20
29.3233286
40
0.1950618
50
16.1714718
51
43.5284424
0
ARC
8
DEFAULT_255_1_234
10
6.5588197
20
29.3310573
40
0.184134
50
43.4415429
51
83.1661404
0
ARC
8
DEFAULT_255_1_234
10
6.5454115
20
29.2573771
40
0.258926
50
82.160215
51
90.1505798
0
ARC
8
DEFAULT_255_1_234
10
6.5422542
20
29.2036865
40
0.3126255
50
89.5460705
51
102.5418777
0
ARC
8
DEFAULT_255_1_234
10
6.5179628
20
29.3067665
40
0.2067346
50
102.1739365
51
129.2061916
0
ARC
8
DEFAULT_255_1_234
10
6.51007
20
29.3192094
40
0.1921118
50
129.7279328
51
135.7542026
0
ARC
8
DEFAULT_255_1_234
10
6.5222228
20
29.3095045
40
0.2075944
50
136.175737
51
166.3674722
0
ARC
8
DEFAULT_255_1_234
10
6.6229147
20
29.2825182
40
0.3118201
50
165.9092917
51
178.8683903
0
ARC
8
DEFAULT_255_1_234
10
6.7094008
20
29.2778179
40
0.3983935
50
178.438168
51
180.0083905
0
ARC
8
DEFAULT_255_1_234
10
6.569261
20
29.2817231
40
0.4068601
50
163.2878735
51
180.5581814
0
ARC
8
DEFAULT_255_1_234
10
6.4890872
20
29.303784
40
0.3237344
50
133.454115
51
162.9470031
0
ARC
8
DEFAULT_255_1_234
10
6.5069413
20
29.2848
40
0.349795
50
100.7869394
51
133.4384016
0
ARC
8
DEFAULT_255_1_234
10
6.5417185
20
29.1299319
40
0.5084616
50
89.6605301
51
101.3704185
0
ARC
8
DEFAULT_255_1_234
10
6.5483523
20
29.1360496
40
0.502348
50
78.2171172
51
90.4130393
0
ARC
8
DEFAULT_255_1_234
10
6.5838602
20
29.2984637
40
0.3361092
50
55.9268222
51
78.4888551
0
ARC
8
DEFAULT_255_1_234
10
6.6035042
20
29.3323324
40
0.2970617
50
47.9292255
51
55.4054003
0
ARC
8
DEFAULT_255_1_234
10
6.6136603
20
29.3426502
40
0.2825983
50
4.3347696
51
48.0560701
0
ARC
8
DEFAULT_255_1_234
10
6.5040996
20
29.3256601
40
0.393225
50
359.925209
51
5.5967654
0
ARC
8
DEFAULT_255_1_234
10
6.5469888
20
29.3312816
40
0.3503892
50
337.8914096
51
358.9967724
0
ARC
8
DEFAULT_255_1_234
10
6.27563
20
29.4359706
40
0.6412172
50
326.9135351
51
338.3505194
0
ARC
8
DEFAULT_255_1_234
10
5.8770604
20
29.6914284
40
1.1146189
50
319.6472867
51
327.095818
0
ARC
8
DEFAULT_255_1_234
10
5.4937607
20
30.0076
40
1.6114559
50
317.2586784
51
319.9046139
0
LINE
8
DEFAULT_255_1_234
10
4.3590299
20
37.5598211
11
4.6409439
21
37.1116501
0
LINE
8
DEFAULT_255_1_234
10
4.6409439
20
37.1116501
11
4.9212516
21
37.5598211
0
LINE
8
DEFAULT_255_1_234
10
4.9212516
20
37.5598211
11
5.1027689
21
37.5598211
0
LINE
8
DEFAULT_255_1_234
10
5.1027689
20
37.5598211
11
4.7333089
21
36.9799296
0
LINE
8
DEFAULT_255_1_234
10
4.7333089
20
36.9799296
11
5.1116038
21
36.3904
0
LINE
8
DEFAULT_255_1_234
10
5.1116038
20
36.3904
11
4.9284802
21
36.3904
0
LINE
8
DEFAULT_255_1_234
10
4.9284802
20
36.3904
11
4.6409439
21
36.8466027
0
LINE
8
DEFAULT_255_1_234
10
4.6409439
20
36.8466027
11
4.3518014
21
36.3904
0
LINE
8
DEFAULT_255_1_234
10
4.3518014
20
36.3904
11
4.1694809
21
36.3904
0
LINE
8
DEFAULT_255_1_234
10
4.1694809
20
36.3904
11
4.548579
21
36.9799296
0
LINE
8
DEFAULT_255_1_234
10
4.548579
20
36.9799296
11
4.1783158
21
37.5598211
0
LINE
8
DEFAULT_255_1_234
10
4.1783158
20
37.5598211
11
4.3590299
21
37.5598211
0
LINE
8
DEFAULT_255_1_234
10
6.0183871
20
36.5116792
11
6.0183871
21
36.3904
0
LINE
8
DEFAULT_255_1_234
10
6.0183871
20
36.3904
11
5.2521592
21
36.3904
0
LINE
8
DEFAULT_255_1_234
10
5.2521592
20
36.3904
11
5.2521592
21
36.4972221
0
LINE
8
DEFAULT_255_1_234
10
5.2521592
20
36.4972221
11
5.6569588
21
36.9469995
0
LINE
8
DEFAULT_255_1_234
10
5.3782575
20
37.2152595
11
5.2296704
21
37.2152595
0
LINE
8
DEFAULT_255_1_234
10
5.7445048
20
36.8514218
11
5.431267
21
36.5116792
0
LINE
8
DEFAULT_255_1_234
10
5.431267
20
36.5116792
11
6.0183871
21
36.5116792
0
ARC
8
DEFAULT_255_1_234
10
4.3079422
20
38.1399527
40
1.8008286
50
318.5132453
51
320.7828378
0
ARC
8
DEFAULT_255_1_234
10
4.8366396
20
37.7096426
40
1.1191493
50
320.7372736
51
323.9737074
0
ARC
8
DEFAULT_255_1_234
10
5.2286252
20
37.4256361
40
0.6350923
50
323.8961724
51
328.6421089
0
ARC
8
DEFAULT_255_1_234
10
5.4332848
20
37.2994031
40
0.3946393
50
328.8299013
51
331.789948
0
ARC
8
DEFAULT_255_1_234
10
5.5330026
20
37.2479509
40
0.2824501
50
331.4255242
51
352.9364833
0
ARC
8
DEFAULT_255_1_234
10
5.5466527
20
37.2448976
40
0.2685315
50
353.2248685
51
0.0169286
0
ARC
8
DEFAULT_255_1_234
10
5.5676404
20
37.247195
40
0.2475536
50
359.4866256
51
15.9339782
0
ARC
8
DEFAULT_255_1_234
10
5.6183389
20
37.2608286
40
0.1950618
50
16.1714718
51
43.5284424
0
ARC
8
DEFAULT_255_1_234
10
5.6260698
20
37.2685573
40
0.184134
50
43.4415429
51
83.1661404
0
ARC
8
DEFAULT_255_1_234
10
5.6126616
20
37.1948771
40
0.258926
50
82.160215
51
90.1505798
0
ARC
8
DEFAULT_255_1_234
10
5.6095043
20
37.1411865
40
0.3126255
50
89.5460705
51
102.5418777
0
ARC
8
DEFAULT_255_1_234
10
5.5852129
20
37.2442665
40
0.2067346
50
102.1739365
51
129.2061916
0
ARC
8
DEFAULT_255_1_234
10
5.5773201
20
37.2567094
40
0.1921118
50
129.7279328
51
135.7542026
0
ARC
8
DEFAULT_255_1_234
10
5.5894729
20
37.2470045
40
0.2075944
50
136.175737
51
166.3674722
0
ARC
8
DEFAULT_255_1_234
10
5.6901648
20
37.2200182
40
0.3118201
50
165.9092917
51
178.8683903
0
ARC
8
DEFAULT_255_1_234
10
5.7766509
20
37.2153179
40
0.3983935
50
178.438168
51
180.0083905
0
ARC
8
DEFAULT_255_1_234
10
5.6365111
20
37.2192231
40
0.4068601
50
163.2878735
51
180.5581814
0
ARC
8
DEFAULT_255_1_234
10
5.5563373
20
37.241284
40
0.3237344
50
133.454115
51
162.9470031
0
ARC
8
DEFAULT_255_1_234
10
5.5741914
20
37.2223
40
0.349795
50
100.7869394
51
133.4384016
0
ARC
8
DEFAULT_255_1_234
10
5.6089686
20
37.0674319
40
0.5084616
50
89.6605301
51
101.3704185
0
ARC
8
DEFAULT_255_1_234
10
5.6156024
20
37.0735496
40
0.502348
50
78.2171172
51
90.4130393
0
ARC
8
DEFAULT_255_1_234
10
5.6511103
20
37.2359637
40
0.3361092
50
55.9268222
51
78.4888551
0
ARC
8
DEFAULT_255_1_234
10
5.6707543
20
37.2698324
40
0.2970617
50
47.9292255
51
55.4054003
0
ARC
8
DEFAULT_255_1_234
10
5.6809103
20
37.2801502
40
0.2825983
50
4.3347696
51
48.0560701
0
ARC
8
DEFAULT_255_1_234
10
5.5713497
20
37.2631601
40
0.393225
50
359.925209
51
5.5967654
0
ARC
8
DEFAULT_255_1_234
10
5.6142389
20
37.2687816
40
0.3503892
50
337.8914096
51
358.9967724
0
ARC
8
DEFAULT_255_1_234
10
5.3428801
20
37.3734706
40
0.6412172
50
326.9135351
51
338.3505194
0
ARC
8
DEFAULT_255_1_234
10
4.9443105
20
37.6289284
40
1.1146189
50
319.6472867
51
327.095818
0
ARC
8
DEFAULT_255_1_234
10
4.5610108
20
37.9451
40
1.6114559
50
317.2586784
51
319.9046139
0
LINE
8
DEFAULT_255_1_234
10
6.6641388
20
37.5654433
11
6.6641388
21
36.3904
0
LINE
8
DEFAULT_255_1_234
10
6.6641388
20
36.3904
11
6.5147485
21
36.3904
0
LINE
8
DEFAULT_255_1_234
10
6.5147485
20
36.3904
11
6.5147485
21
37.3807133
0
LINE
8
DEFAULT_255_1_234
10
6.5147485
20
37.3807133
11
6.2151646
21
37.2706785
0
LINE
8
DEFAULT_255_1_234
10
6.2151646
20
37.2706785
11
6.2151646
21
37.4056117
0
LINE
8
DEFAULT_255_1_234
10
6.2151646
20
37.4056117
11
6.6408468
21
37.5654433
0
LINE
8
DEFAULT_255_1_234
10
6.6408468
20
37.5654433
11
6.6641388
21
37.5654433
0
LINE
8
DEFAULT_255_1_234
10
4.3681299
20
45.4973211
11
4.6500439
21
45.0491501
0
LINE
8
DEFAULT_255_1_234
10
4.6500439
20
45.0491501
11
4.9303516
21
45.4973211
0
LINE
8
DEFAULT_255_1_234
10
4.9303516
20
45.4973211
11
5.1118689
21
45.4973211
0
LINE
8
DEFAULT_255_1_234
10
5.1118689
20
45.4973211
11
4.7424089
21
44.9174296
0
LINE
8
DEFAULT_255_1_234
10
4.7424089
20
44.9174296
11
5.1207038
21
44.3279
0
LINE
8
DEFAULT_255_1_234
10
5.1207038
20
44.3279
11
4.9375802
21
44.3279
0
LINE
8
DEFAULT_255_1_234
10
4.9375802
20
44.3279
11
4.6500439
21
44.7841027
0
LINE
8
DEFAULT_255_1_234
10
4.6500439
20
44.7841027
11
4.3609014
21
44.3279
0
LINE
8
DEFAULT_255_1_234
10
4.3609014
20
44.3279
11
4.1785809
21
44.3279
0
LINE
8
DEFAULT_255_1_234
10
4.1785809
20
44.3279
11
4.557679
21
44.9174296
0
LINE
8
DEFAULT_255_1_234
10
4.557679
20
44.9174296
11
4.1874158
21
45.4973211
0
LINE
8
DEFAULT_255_1_234
10
4.1874158
20
45.4973211
11
4.3681299
21
45.4973211
0
LINE
8
DEFAULT_255_1_234
10
6.0274871
20
44.4491792
11
6.0274871
21
44.3279
0
LINE
8
DEFAULT_255_1_234
10
6.0274871
20
44.3279
11
5.2612592
21
44.3279
0
LINE
8
DEFAULT_255_1_234
10
5.2612592
20
44.3279
11
5.2612592
21
44.4347221
0
LINE
8
DEFAULT_255_1_234
10
5.2612592
20
44.4347221
11
5.6660588
21
44.8844995
0
LINE
8
DEFAULT_255_1_234
10
5.3873575
20
45.1527595
11
5.2387704
21
45.1527595
0
LINE
8
DEFAULT_255_1_234
10
5.7536048
20
44.7889218
11
5.440367
21
44.4491792
0
LINE
8
DEFAULT_255_1_234
10
5.440367
20
44.4491792
11
6.0274871
21
44.4491792
0
ARC
8
DEFAULT_255_1_234
10
4.3170422
20
46.0774527
40
1.8008286
50
318.5132453
51
320.7828378
0
ARC
8
DEFAULT_255_1_234
10
4.8457396
20
45.6471426
40
1.1191493
50
320.7372736
51
323.9737074
0
ARC
8
DEFAULT_255_1_234
10
5.2377252
20
45.3631361
40
0.6350923
50
323.8961724
51
328.6421089
0
ARC
8
DEFAULT_255_1_234
10
5.4423848
20
45.2369031
40
0.3946393
50
328.8299013
51
331.789948
0
ARC
8
DEFAULT_255_1_234
10
5.5421026
20
45.1854509
40
0.2824501
50
331.4255242
51
352.9364833
0
ARC
8
DEFAULT_255_1_234
10
5.5557527
20
45.1823976
40
0.2685315
50
353.2248685
51
0.0169286
0
ARC
8
DEFAULT_255_1_234
10
5.5767404
20
45.184695
40
0.2475536
50
359.4866256
51
15.9339782
0
ARC
8
DEFAULT_255_1_234
10
5.6274389
20
45.1983286
40
0.1950618
50
16.1714718
51
43.5284424
0
ARC
8
DEFAULT_255_1_234
10
5.6351698
20
45.2060573
40
0.184134
50
43.4415429
51
83.1661404
0
ARC
8
DEFAULT_255_1_234
10
5.6217616
20
45.1323771
40
0.258926
50
82.160215
51
90.1505798
0
ARC
8
DEFAULT_255_1_234
10
5.6186043
20
45.0786865
40
0.3126255
50
89.5460705
51
102.5418777
0
ARC
8
DEFAULT_255_1_234
10
5.5943129
20
45.1817665
40
0.2067346
50
102.1739365
51
129.2061916
0
ARC
8
DEFAULT_255_1_234
10
5.5864201
20
45.1942094
40
0.1921118
50
129.7279328
51
135.7542026
0
ARC
8
DEFAULT_255_1_234
10
5.5985729
20
45.1845045
40
0.2075944
50
136.175737
51
166.3674722
0
ARC
8
DEFAULT_255_1_234
10
5.6992648
20
45.1575182
40
0.3118201
50
165.9092917
51
178.8683903
0
ARC
8
DEFAULT_255_1_234
10
5.7857509
20
45.1528179
40
0.3983935
50
178.438168
51
180.0083905
0
ARC
8
DEFAULT_255_1_234
10
5.6456111
20
45.1567231
40
0.4068601
50
163.2878735
51
180.5581814
0
ARC
8
DEFAULT_255_1_234
10
5.5654373
20
45.178784
40
0.3237344
50
133.454115
51
162.9470031
0
ARC
8
DEFAULT_255_1_234
10
5.5832914
20
45.1598
40
0.349795
50
100.7869394
51
133.4384016
0
ARC
8
DEFAULT_255_1_234
10
5.6180686
20
45.0049319
40
0.5084616
50
89.6605301
51
101.3704185
0
ARC
8
DEFAULT_255_1_234
10
5.6247024
20
45.0110496
40
0.502348
50
78.2171172
51
90.4130393
0
ARC
8
DEFAULT_255_1_234
10
5.6602103
20
45.1734637
40
0.3361092
50
55.9268222
51
78.4888551
0
ARC
8
DEFAULT_255_1_234
10
5.6798543
20
45.2073324
40
0.2970617
50
47.9292255
51
55.4054003
0
ARC
8
DEFAULT_255_1_234
10
5.6900103
20
45.2176502
40
0.2825983
50
4.3347696
51
48.0560701
0
ARC
8
DEFAULT_255_1_234
10
5.5804497
20
45.2006601
40
0.393225
50
359.925209
51
5.5967654
0
ARC
8
DEFAULT_255_1_234
10
5.6233389
20
45.2062816
40
0.3503892
50
337.8914096
51
358.9967724
0
ARC
8
DEFAULT_255_1_234
10
5.3519801
20
45.3109706
40
0.6412172
50
326.9135351
51
338.3505194
0
ARC
8
DEFAULT_255_1_234
10
4.9534105
20
45.5664284
40
1.1146189
50
319.6472867
51
327.095818
0
ARC
8
DEFAULT_255_1_234
10
4.5701108
20
45.8826
40
1.6114559
50
317.2586784
51
319.9046139
0
LINE
8
DEFAULT_255_1_234
10
6.9182068
20
45.0194327
11
6.9182068
21
44.8266709
0
LINE
8
DEFAULT_255_1_234
10
6.1800901
20
44.8065916
11
6.1800901
21
45.0049755
0
LINE
8
DEFAULT_255_1_234
10
6.7696197
20
44.7865123
11
6.7696197
21
45.0298739
0
LINE
8
DEFAULT_255_1_234
10
6.3286772
20
45.0411184
11
6.3286772
21
44.8033789
0
ARC
8
DEFAULT_255_1_234
10
5.6934958
20
44.8217805
40
1.2247208
50
353.8441951
51
0.2287902
0
ARC
8
DEFAULT_255_1_234
10
6.1574462
20
44.7699806
40
0.7578929
50
344.4934747
51
353.9765454
0
ARC
8
DEFAULT_255_1_234
10
6.4567052
20
44.6848981
40
0.4467846
50
329.2803592
51
344.7472793
0
ARC
8
DEFAULT_255_1_234
10
6.5559877
20
44.6304018
40
0.3336173
50
324.9352394
51
328.6160465
0
ARC
8
DEFAULT_255_1_234
10
6.5936985
20
44.6040427
40
0.2876076
50
280.580143
51
324.9173126
0
ARC
8
DEFAULT_255_1_234
10
6.5535778
20
44.7711099
40
0.4592847
50
269.5977311
51
281.6734359
0
ARC
8
DEFAULT_255_1_234
10
6.5463684
20
44.7591173
40
0.4472986
50
256.6228859
51
270.51044
0
ARC
8
DEFAULT_255_1_234
10
6.5061661
20
44.6042877
40
0.2873874
50
215.8618325
51
257.2788573
0
ARC
8
DEFAULT_255_1_234
10
6.6082693
20
44.6727977
40
0.4102928
50
197.9693508
51
215.2623606
0
ARC
8
DEFAULT_255_1_234
10
6.8567809
20
44.7566709
40
0.6725652
50
187.8816417
51
198.2346507
0
ARC
8
DEFAULT_255_1_234
10
7.2526017
20
44.8138079
40
1.0724845
50
180.8976217
51
188.0055519
0
ARC
8
DEFAULT_255_1_234
10
7.5326205
20
44.8241777
40
1.3526448
50
180.7449369
51
181.1510016
0
ARC
8
DEFAULT_255_1_234
10
7.3748934
20
45.0098042
40
1.1948131
50
173.7675579
51
180.231553
0
ARC
8
DEFAULT_255_1_234
10
6.9231081
20
45.0608666
40
0.7401564
50
164.3058563
51
173.9002247
0
ARC
8
DEFAULT_255_1_234
10
6.631915
20
45.1447656
40
0.4371288
50
148.7922025
51
164.568378
0
ARC
8
DEFAULT_255_1_234
10
6.5367602
20
45.1978929
40
0.3282386
50
144.5883898
51
148.1176286
0
ARC
8
DEFAULT_255_1_234
10
6.50245
20
45.2218315
40
0.2864044
50
101.6440918
51
144.514236
0
ARC
8
DEFAULT_255_1_234
10
6.5449566
20
45.0529069
40
0.4604934
50
89.5284041
51
102.5819763
0
ARC
8
DEFAULT_255_1_234
10
6.5528654
20
45.0490018
40
0.464401
50
77.0437873
51
90.5081339
0
ARC
8
DEFAULT_255_1_234
10
6.5930656
20
45.2132615
40
0.2953195
50
48.2778575
51
77.4994676
0
ARC
8
DEFAULT_255_1_234
10
6.6003287
20
45.2261746
40
0.2808655
50
36.3142134
51
47.6305865
0
ARC
8
DEFAULT_255_1_234
10
6.5134594
20
45.1676515
40
0.3855453
50
18.2931786
51
35.6769206
0
ARC
8
DEFAULT_255_1_234
10
6.2591353
20
45.0803593
40
0.654423
50
8.024666
51
18.5605216
0
ARC
8
DEFAULT_255_1_234
10
5.8428273
20
45.0188792
40
1.0752407
50
1.1274072
51
8.1718305
0
ARC
8
DEFAULT_255_1_234
10
5.5192464
20
45.0061885
40
1.3990231
50
0.5424119
51
1.3863029
0
ARC
8
DEFAULT_255_1_234
10
5.7013841
20
45.0334342
40
1.0682415
50
359.8090433
51
4.9407866
0
ARC
8
DEFAULT_255_1_234
10
6.1223855
20
45.0710113
40
0.6455691
50
4.8362157
51
12.2904523
0
ARC
8
DEFAULT_255_1_234
10
6.397897
20
45.1323965
40
0.3633074
50
12.0805627
51
23.8173984
0
ARC
8
DEFAULT_255_1_234
10
6.5152676
20
45.1820919
40
0.2358723
50
24.2871213
51
31.3935614
0
ARC
8
DEFAULT_255_1_234
10
6.5677373
20
45.2164233
40
0.1732111
50
30.7407893
51
82.4657128
0
ARC
8
DEFAULT_255_1_234
10
6.5497507
20
45.1280691
40
0.263235
50
81.1060089
51
90.2184952
0
ARC
8
DEFAULT_255_1_234
10
6.5461806
20
45.1538924
40
0.2374236
50
89.3806855
51
105.6762551
0
ARC
8
DEFAULT_255_1_234
10
6.5278437
20
45.2205567
40
0.1682847
50
105.7981136
51
149.7388061
0
ARC
8
DEFAULT_255_1_234
10
6.6342515
20
45.156595
40
0.2924306
50
149.4208916
51
163.6286378
0
ARC
8
DEFAULT_255_1_234
10
6.8433403
20
45.092825
40
0.5110213
50
163.3763315
51
172.1410975
0
ARC
8
DEFAULT_255_1_234
10
7.1734122
20
45.0455518
40
0.8444586
50
172.0259487
51
178.0703232
0
ARC
8
DEFAULT_255_1_234
10
7.4764211
20
45.0311906
40
1.1477868
50
177.8631668
51
179.5044149
0
ARC
8
DEFAULT_255_1_234
10
7.3691616
20
44.7997389
40
1.0404907
50
179.7995573
51
185.2460446
0
ARC
8
DEFAULT_255_1_234
10
6.9648655
20
44.7614513
40
0.6343885
50
185.1411642
51
193.0079639
0
ARC
8
DEFAULT_255_1_234
10
6.7005128
20
44.6989641
40
0.3627568
50
192.7897626
51
205.2507664
0
ARC
8
DEFAULT_255_1_234
10
6.5958675
20
44.6522415
40
0.2481908
50
205.8005384
51
211.2537509
0
ARC
8
DEFAULT_255_1_234
10
6.5435115
20
44.617158
40
0.1852521
50
210.3789793
51
238.4008143
0
ARC
8
DEFAULT_255_1_234
10
6.5415637
20
44.6218376
40
0.1882621
50
239.6520629
51
265.9793761
0
ARC
8
DEFAULT_255_1_234
10
6.5500837
20
44.6890427
40
0.2559272
50
265.1315437
51
270.060332
0
ARC
8
DEFAULT_255_1_234
10
6.5529616
20
44.6566534
40
0.2235528
50
269.3314664
51
287.2178029
0
ARC
8
DEFAULT_255_1_234
10
6.5667468
20
44.6063279
40
0.1714108
50
287.7958004
51
329.080874
0
ARC
8
DEFAULT_255_1_234
10
6.4709925
20
44.666093
40
0.2842745
50
328.6634704
51
343.3325132
0
ARC
8
DEFAULT_255_1_234
10
6.2536945
20
44.7337863
40
0.5118644
50
343.0499468
51
351.9393422
0
ARC
8
DEFAULT_255_1_234
10
5.9070245
20
44.7848949
40
0.8622784
50
351.8069023
51
357.7959224
0
ARC
8
DEFAULT_255_1_234
10
5.5834801
20
44.8016721
40
1.1862365
50
357.5871873
51
359.2677531
0
LINE
8
DEFAULT_255_1_234
10
4.918323
20
52.6364663
11
5.0733355
21
52.6364663
0
LINE
8
DEFAULT_255_1_234
10
4.1729777
20
52.7954947
11
4.1729777
21
52.9079391
0
LINE
8
DEFAULT_255_1_234
10
5.0733355
20
53.0589357
11
4.918323
21
53.0589357
0
LINE
8
DEFAULT_255_1_234
10
4.3279902
20
52.9039232
11
4.3279902
21
52.7906757
0
ARC
8
DEFAULT_255_1_234
10
4.5252742
20
52.6961846
40
0.5513052
50
340.1774281
51
353.7814284
0
ARC
8
DEFAULT_255_1_234
10
4.6824095
20
52.6376582
40
0.3836379
50
311.4558989
51
340.4421614
0
ARC
8
DEFAULT_255_1_234
10
4.6790763
20
52.6487528
40
0.3941894
50
282.4333181
51
310.7513653
0
ARC
8
DEFAULT_255_1_234
10
4.6351502
20
52.8302679
40
0.5809175
50
269.9358511
51
282.809604
0
ARC
8
DEFAULT_255_1_234
10
4.6299568
20
52.9760212
40
0.7266847
50
270.0021091
51
270.3581957
0
ARC
8
DEFAULT_255_1_234
10
4.6246985
20
52.7159585
40
0.4666519
50
250.7884749
51
270.6489167
0
ARC
8
DEFAULT_255_1_234
10
4.607882
20
52.6522319
40
0.4009729
50
219.3627325
51
250.0611886
0
ARC
8
DEFAULT_255_1_234
10
4.6908031
20
52.7227042
40
0.5097822
50
193.5479632
51
219.5756669
0
ARC
8
DEFAULT_255_1_234
10
4.9279652
20
52.7842919
40
0.7547848
50
181.1218675
51
193.87563
0
ARC
8
DEFAULT_255_1_234
10
5.1349833
20
52.795358
40
0.9620055
50
179.9918545
51
181.5394234
0
ARC
8
DEFAULT_255_1_234
10
4.9498935
20
52.9116788
40
0.7769248
50
169.5837241
51
180.2757934
0
ARC
8
DEFAULT_255_1_234
10
4.7661873
20
52.9456229
40
0.590109
50
155.0365899
51
169.6003176
0
ARC
8
DEFAULT_255_1_234
10
4.6526337
20
53.0003677
40
0.4640625
50
136.783148
51
155.2472683
0
ARC
8
DEFAULT_255_1_234
10
4.6136814
20
53.0334562
40
0.4130255
50
121.7633186
51
136.428115
0
ARC
8
DEFAULT_255_1_234
10
4.6271776
20
53.0085227
40
0.4413323
50
95.6459699
51
121.5490577
0
ARC
8
DEFAULT_255_1_234
10
4.6429058
20
52.8976949
40
0.55319
50
89.924208
51
96.1377933
0
ARC
8
DEFAULT_255_1_234
10
4.6479491
20
52.9095542
40
0.5413475
50
76.6779277
51
90.4563316
0
ARC
8
DEFAULT_255_1_234
10
4.6873114
20
53.0686114
40
0.3775041
50
47.485847
51
76.9287264
0
ARC
8
DEFAULT_255_1_234
10
4.6726087
20
53.0586159
40
0.3948286
50
16.5424086
51
46.8933463
0
ARC
8
DEFAULT_255_1_234
10
4.5118244
20
53.0057861
40
0.564021
50
5.4072051
51
17.0365086
0
ARC
8
DEFAULT_255_1_234
10
4.3679261
20
52.9826679
40
0.5556559
50
7.8891745
51
15.9239216
0
ARC
8
DEFAULT_255_1_234
10
4.5666274
20
53.0403631
40
0.3487515
50
15.7653144
51
27.9410532
0
ARC
8
DEFAULT_255_1_234
10
4.6770492
20
53.099479
40
0.2235026
50
27.8166557
51
46.4008329
0
ARC
8
DEFAULT_255_1_234
10
4.6820135
20
53.0989082
40
0.2205286
50
47.4371857
51
75.0698205
0
ARC
8
DEFAULT_255_1_234
10
4.6511529
20
52.9914765
40
0.3322915
50
74.7008593
51
87.8124495
0
ARC
8
DEFAULT_255_1_234
10
4.6438217
20
52.8858844
40
0.4380987
50
87.3814673
51
90.0240855
0
ARC
8
DEFAULT_255_1_234
10
4.639976
20
53.0036291
40
0.3203749
50
89.3451631
51
108.5745436
0
ARC
8
DEFAULT_255_1_234
10
4.6262865
20
53.0549908
40
0.2673494
50
109.2998449
51
143.3037509
0
ARC
8
DEFAULT_255_1_234
10
4.7024938
20
52.9963881
40
0.3634757
50
143.0753173
51
163.1916937
0
ARC
8
DEFAULT_255_1_234
10
4.8976666
20
52.9347967
40
0.5681262
50
162.9373603
51
174.6208611
0
ARC
8
DEFAULT_255_1_234
10
5.1602708
20
52.906001
40
0.8322832
50
174.3419979
51
180.1430411
0
ARC
8
DEFAULT_255_1_234
10
5.0671864
20
52.7865698
40
0.7392076
50
179.6817502
51
189.150529
0
ARC
8
DEFAULT_255_1_234
10
4.8171112
20
52.744919
40
0.4856932
50
188.9910863
51
203.5773039
0
ARC
8
DEFAULT_255_1_234
10
4.7091445
20
52.7001211
40
0.3688271
50
203.9077269
51
215.1312379
0
ARC
8
DEFAULT_255_1_234
10
4.6168539
20
52.6285941
40
0.2522457
50
213.9071664
51
263.8849284
0
ARC
8
DEFAULT_255_1_234
10
4.6293868
20
52.7070518
40
0.3316174
50
263.1758525
51
270.1031083
0
ARC
8
DEFAULT_255_1_234
10
4.632596
20
52.8317365
40
0.4563091
50
269.6719807
51
279.0609165
0
ARC
8
DEFAULT_255_1_234
10
4.6592728
20
52.6704907
40
0.2928759
50
278.8750225
51
293.6346586
0
ARC
8
DEFAULT_255_1_234
10
4.6912936
20
52.59529
40
0.2111472
50
293.8553404
51
310.0518804
0
ARC
8
DEFAULT_255_1_234
10
4.691779
20
52.5890516
40
0.2060917
50
311.0646779
51
332.0108348
0
ARC
8
DEFAULT_255_1_234
10
4.5725517
20
52.6547978
40
0.3422352
50
331.6588543
51
343.2878891
0
ARC
8
DEFAULT_255_1_234
10
4.3663032
20
52.7181798
40
0.5580003
50
343.1446044
51
351.010618
0
ARC
8
DEFAULT_255_1_234
10
4.2121678
20
52.7462871
40
0.7146438
50
350.7157277
51
351.1602153
0
LINE
8
DEFAULT_255_1_234
10
5.8724935
20
53.4348211
11
5.8724935
21
52.658152
0
LINE
8
DEFAULT_255_1_234
10
5.8724935
20
52.658152
11
6.0347346
21
52.658152
0
LINE
8
DEFAULT_255_1_234
10
6.0347346
20
52.658152
11
6.0347346
21
52.5368728
0
LINE
8
DEFAULT_255_1_234
10
6.0347346
20
52.5368728
11
5.8724935
21
52.5368728
0
LINE
8
DEFAULT_255_1_234
10
5.8724935
20
52.5368728
11
5.8724935
21
52.2654
0
LINE
8
DEFAULT_255_1_234
10
5.8724935
20
52.2654
11
5.7231032
21
52.2654
0
LINE
8
DEFAULT_255_1_234
10
5.7231032
20
52.2654
11
5.7231032
21
52.5368728
0
LINE
8
DEFAULT_255_1_234
10
5.7231032
20
52.5368728
11
5.1905989
21
52.5368728
0
LINE
8
DEFAULT_255_1_234
10
5.1905989
20
52.5368728
11
5.1905989
21
52.6244187
0
LINE
8
DEFAULT_255_1_234
10
5.1905989
20
52.6244187
11
5.7142683
21
53.4348211
0
LINE
8
DEFAULT_255_1_234
10
5.7142683
20
53.4348211
11
5.8724935
21
53.4348211
0
LINE
8
DEFAULT_255_1_234
10
5.7054333
20
53.1994912
11
5.3592654
21
52.658152
0
LINE
8
DEFAULT_255_1_234
10
5.3592654
20
52.658152
11
5.7231032
21
52.658152
0
LINE
8
DEFAULT_255_1_234
10
5.7231032
20
52.658152
11
5.7231032
21
53.2316181
0
LINE
8
DEFAULT_255_1_234
10
5.7231032
20
53.2316181
11
5.7054333
21
53.1994912
0
LINE
8
DEFAULT_255_1_234
10
4.3681299
20
61.3723211
11
4.6500439
21
60.9241501
0
LINE
8
DEFAULT_255_1_234
10
4.6500439
20
60.9241501
11
4.9303516
21
61.3723211
0
LINE
8
DEFAULT_255_1_234
10
4.9303516
20
61.3723211
11
5.1118689
21
61.3723211
0
LINE
8
DEFAULT_255_1_234
10
5.1118689
20
61.3723211
11
4.7424089
21
60.7924296
0
LINE
8
DEFAULT_255_1_234
10
4.7424089
20
60.7924296
11
5.1207038
21
60.2029
0
LINE
8
DEFAULT_255_1_234
10
5.1207038
20
60.2029
11
4.9375802
21
60.2029
0
LINE
8
DEFAULT_255_1_234
10
4.9375802
20
60.2029
11
4.6500439
21
60.6591027
0
LINE
8
DEFAULT_255_1_234
10
4.6500439
20
60.6591027
11
4.3609014
21
60.2029
0
LINE
8
DEFAULT_255_1_234
10
4.3609014
20
60.2029
11
4.1785809
21
60.2029
0
LINE
8
DEFAULT_255_1_234
10
4.1785809
20
60.2029
11
4.557679
21
60.7924296
0
LINE
8
DEFAULT_255_1_234
10
4.557679
20
60.7924296
11
4.1874158
21
61.3723211
0
LINE
8
DEFAULT_255_1_234
10
4.1874158
20
61.3723211
11
4.3681299
21
61.3723211
0
LINE
8
DEFAULT_255_1_234
10
5.7495889
20
61.3779433
11
5.7495889
21
60.2029
0
LINE
8
DEFAULT_255_1_234
10
5.7495889
20
60.2029
11
5.6001986
21
60.2029
0
LINE
8
DEFAULT_255_1_234
10
5.6001986
20
60.2029
11
5.6001986
21
61.1932133
0
LINE
8
DEFAULT_255_1_234
10
5.6001986
20
61.1932133
11
5.3006147
21
61.0831785
0
LINE
8
DEFAULT_255_1_234
10
5.3006147
20
61.0831785
11
5.3006147
21
61.2181117
0
LINE
8
DEFAULT_255_1_234
10
5.3006147
20
61.2181117
11
5.7262969
21
61.3779433
0
LINE
8
DEFAULT_255_1_234
10
5.7262969
20
61.3779433
11
5.7495889
21
61.3779433
0
LINE
8
DEFAULT_255_1_234
10
6.9398925
20
61.3723211
11
6.9398925
21
61.288791
0
LINE
8
DEFAULT_255_1_234
10
6.9398925
20
61.288791
11
6.4555787
21
60.2029
0
LINE
8
DEFAULT_255_1_234
10
6.4555787
20
60.2029
11
6.299763
21
60.2029
0
LINE
8
DEFAULT_255_1_234
10
6.299763
20
60.2029
11
6.7824705
21
61.2502387
0
LINE
8
DEFAULT_255_1_234
10
6.7824705
20
61.2502387
11
6.1495695
21
61.2502387
0
LINE
8
DEFAULT_255_1_234
10
6.1495695
20
61.2502387
11
6.1495695
21
61.3723211
0
LINE
8
DEFAULT_255_1_234
10
6.1495695
20
61.3723211
11
6.9398925
21
61.3723211
0
LINE
8
DEFAULT_255_1_234
10
4.3681299
20
69.3098211
11
4.6500439
21
68.8616501
0
LINE
8
DEFAULT_255_1_234
10
4.6500439
20
68.8616501
11
4.9303516
21
69.3098211
0
LINE
8
DEFAULT_255_1_234
10
4.9303516
20
69.3098211
11
5.1118689
21
69.3098211
0
LINE
8
DEFAULT_255_1_234
10
5.1118689
20
69.3098211
11
4.7424089
21
68.7299296
0
LINE
8
DEFAULT_255_1_234
10
4.7424089
20
68.7299296
11
5.1207038
21
68.1404
0
LINE
8
DEFAULT_255_1_234
10
5.1207038
20
68.1404
11
4.9375802
21
68.1404
0
LINE
8
DEFAULT_255_1_234
10
4.9375802
20
68.1404
11
4.6500439
21
68.5966027
0
LINE
8
DEFAULT_255_1_234
10
4.6500439
20
68.5966027
11
4.3609014
21
68.1404
0
LINE
8
DEFAULT_255_1_234
10
4.3609014
20
68.1404
11
4.1785809
21
68.1404
0
LINE
8
DEFAULT_255_1_234
10
4.1785809
20
68.1404
11
4.557679
21
68.7299296
0
LINE
8
DEFAULT_255_1_234
10
4.557679
20
68.7299296
11
4.1874158
21
69.3098211
0
LINE
8
DEFAULT_255_1_234
10
4.1874158
20
69.3098211
11
4.3681299
21
69.3098211
0
LINE
8
DEFAULT_255_1_234
10
5.7495889
20
69.3154433
11
5.7495889
21
68.1404
0
LINE
8
DEFAULT_255_1_234
10
5.7495889
20
68.1404
11
5.6001986
21
68.1404
0
LINE
8
DEFAULT_255_1_234
10
5.6001986
20
68.1404
11
5.6001986
21
69.1307133
0
LINE
8
DEFAULT_255_1_234
10
5.6001986
20
69.1307133
11
5.3006147
21
69.0206785
0
LINE
8
DEFAULT_255_1_234
10
5.3006147
20
69.0206785
11
5.3006147
21
69.1556117
0
LINE
8
DEFAULT_255_1_234
10
5.3006147
20
69.1556117
11
5.7262969
21
69.3154433
0
LINE
8
DEFAULT_255_1_234
10
5.7262969
20
69.3154433
11
5.7495889
21
69.3154433
0
LINE
8
DEFAULT_255_1_234
10
6.7415086
20
69.3106243
11
6.7680133
21
69.3106243
0
LINE
8
DEFAULT_255_1_234
10
6.7680133
20
69.3106243
11
6.7680133
21
69.184526
0
LINE
8
DEFAULT_255_1_234
10
6.7680133
20
69.184526
11
6.7407054
21
69.184526
0
LINE
8
DEFAULT_255_1_234
10
6.193744
20
68.5853583
11
6.193744
21
68.6423836
0
LINE
8
DEFAULT_255_1_234
10
6.3431344
20
68.6231075
11
6.3431344
21
68.5684917
0
ARC
8
DEFAULT_255_1_234
10
6.7459402
20
68.6847455
40
0.4998079
50
90.6001036
51
104.514704
0
ARC
8
DEFAULT_255_1_234
10
6.7070918
20
68.8292131
40
0.3502176
50
104.2855254
51
133.862935
0
ARC
8
DEFAULT_255_1_234
10
6.7234675
20
68.818383
40
0.3693984
50
134.5302688
51
161.6210873
0
ARC
8
DEFAULT_255_1_234
10
6.8887864
20
68.7600895
40
0.5446739
50
161.2849839
51
174.2076652
0
ARC
8
DEFAULT_255_1_234
10
7.0294801
20
68.7406787
40
0.6866274
50
173.7810589
51
174.9254635
0
ARC
8
DEFAULT_255_1_234
10
6.5744633
20
68.6023839
40
0.3033419
50
95.8330959
51
138.9954921
0
ARC
8
DEFAULT_255_1_234
10
6.5967989
20
68.4745375
40
0.4328947
50
89.8753725
51
97.0544009
0
ARC
8
DEFAULT_255_1_234
10
6.6015455
20
68.5580748
40
0.3493769
50
71.6407809
51
90.6240094
0
ARC
8
DEFAULT_255_1_234
10
6.6166028
20
68.6135082
40
0.2920396
50
39.6367836
51
71.019018
0
ARC
8
DEFAULT_255_1_234
10
6.5529501
20
68.5584998
40
0.3761538
50
10.658731
51
39.9043955
0
ARC
8
DEFAULT_255_1_234
10
6.3981584
20
68.5248686
40
0.5345136
50
359.682601
51
11.132623
0
ARC
8
DEFAULT_255_1_234
10
6.3941715
20
68.517801
40
0.5385081
50
347.2486944
51
0.4369317
0
ARC
8
DEFAULT_255_1_234
10
6.5609192
20
68.4776807
40
0.3670249
50
318.1409698
51
347.6118597
0
ARC
8
DEFAULT_255_1_234
10
6.5934185
20
68.4509702
40
0.3250007
50
275.6342139
51
317.8248465
0
ARC
8
DEFAULT_255_1_234
10
6.5713296
20
68.5809219
40
0.4565864
50
269.8874292
51
276.7917694
0
ARC
8
DEFAULT_255_1_234
10
6.5658367
20
68.4783743
40
0.3540676
50
246.9140195
51
270.7437342
0
ARC
8
DEFAULT_255_1_234
10
6.5664757
20
68.4641384
40
0.3412781
50
218.1665114
51
245.878116
0
ARC
8
DEFAULT_255_1_234
10
6.6544218
20
68.5377279
40
0.455911
50
191.4115814
51
218.6077802
0
ARC
8
DEFAULT_255_1_234
10
6.8482307
20
68.5811833
40
0.6545001
50
179.6345085
51
191.7836486
0
ARC
8
DEFAULT_255_1_234
10
7.4064644
20
68.6490697
40
1.2127388
50
171.4525249
51
180.3158839
0
ARC
8
DEFAULT_255_1_234
10
6.966952
20
68.7174608
40
0.7679464
50
157.9802646
51
171.6246686
0
ARC
8
DEFAULT_255_1_234
10
6.7455541
20
68.8057421
40
0.5296008
50
141.4298019
51
157.854097
0
ARC
8
DEFAULT_255_1_234
10
6.6813861
20
68.8511381
40
0.4511509
50
102.8715806
51
140.8564722
0
ARC
8
DEFAULT_255_1_234
10
6.7461477
20
68.6071552
40
0.7034845
50
90.3778349
51
103.5869322
0
ARC
8
DEFAULT_255_1_234
10
6.5723253
20
68.546673
40
0.2370698
50
89.8751008
51
126.2071704
0
ARC
8
DEFAULT_255_1_234
10
6.5769043
20
68.5312303
40
0.2522934
50
124.9745049
51
144.895901
0
ARC
8
DEFAULT_255_1_234
10
6.5593233
20
68.545556
40
0.2296779
50
145.2974905
51
160.2660252
0
ARC
8
DEFAULT_255_1_234
10
6.8665772
20
68.5653071
40
0.5234525
50
179.6514266
51
190.2855912
0
ARC
8
DEFAULT_255_1_234
10
6.6971909
20
68.5333786
40
0.3510893
50
190.0945431
51
207.5098196
0
ARC
8
DEFAULT_255_1_234
10
6.6406179
20
68.5064623
40
0.288489
50
207.9583163
51
216.3251085
0
ARC
8
DEFAULT_255_1_234
10
6.6066287
20
68.4785105
40
0.2445587
50
215.7661442
51
232.5456785
0
ARC
8
DEFAULT_255_1_234
10
6.568327
20
68.4298482
40
0.1826382
50
232.8005391
51
270.6605633
0
ARC
8
DEFAULT_255_1_234
10
6.5728971
20
68.4662612
40
0.2190529
50
269.35537
51
288.4744281
0
ARC
8
DEFAULT_255_1_234
10
6.5821868
20
68.4313118
40
0.1829749
50
289.1833337
51
322.9683818
0
ARC
8
DEFAULT_255_1_234
10
6.521039
20
68.4795391
40
0.2608399
50
322.6007884
51
346.5182367
0
ARC
8
DEFAULT_255_1_234
10
6.4052986
20
68.5090616
40
0.3802777
50
346.2582162
51
358.7741648
0
ARC
8
DEFAULT_255_1_234
10
6.3034655
20
68.5145965
40
0.4822176
50
358.3755224
51
0.0098023
0
ARC
8
DEFAULT_255_1_234
10
6.3790842
20
68.5173657
40
0.4066078
50
359.6214041
51
11.2839074
0
ARC
8
DEFAULT_255_1_234
10
6.5067989
20
68.5440066
40
0.2761514
50
11.0482309
51
31.8146458
0
ARC
8
DEFAULT_255_1_234
10
6.5377032
20
68.5607584
40
0.2410679
50
32.3035391
51
38.082671
0
ARC
8
DEFAULT_255_1_234
10
6.5797692
20
68.5988662
40
0.1844966
50
36.825067
51
85.7415724
0
ARC
8
DEFAULT_255_1_234
10
6.5730525
20
68.5488301
40
0.2349122
50
85.0140713
51
90.0513278
0
LINE
8
DEFAULT_255_1_234
10
4.3681299
20
77.2473211
11
4.6500439
21
76.7991501
0
LINE
8
DEFAULT_255_1_234
10
4.6500439
20
76.7991501
11
4.9303516
21
77.2473211
0
LINE
8
DEFAULT_255_1_234
10
4.9303516
20
77.2473211
11
5.1118689
21
77.2473211
0
LINE
8
DEFAULT_255_1_234
10
5.1118689
20
77.2473211
11
4.7424089
21
76.6674296
0
LINE
8
DEFAULT_255_1_234
10
4.7424089
20
76.6674296
11
5.1207038
21
76.0779
0
LINE
8
DEFAULT_255_1_234
10
5.1207038
20
76.0779
11
4.9375802
21
76.0779
0
LINE
8
DEFAULT_255_1_234
10
4.9375802
20
76.0779
11
4.6500439
21
76.5341027
0
LINE
8
DEFAULT_255_1_234
10
4.6500439
20
76.5341027
11
4.3609014
21
76.0779
0
LINE
8
DEFAULT_255_1_234
10
4.3609014
20
76.0779
11
4.1785809
21
76.0779
0
LINE
8
DEFAULT_255_1_234
10
4.1785809
20
76.0779
11
4.557679
21
76.6674296
0
LINE
8
DEFAULT_255_1_234
10
4.557679
20
76.6674296
11
4.1874158
21
77.2473211
0
LINE
8
DEFAULT_255_1_234
10
4.1874158
20
77.2473211
11
4.3681299
21
77.2473211
0
LINE
8
DEFAULT_255_1_234
10
5.7495889
20
77.2529433
11
5.7495889
21
76.0779
0
LINE
8
DEFAULT_255_1_234
10
5.7495889
20
76.0779
11
5.6001986
21
76.0779
0
LINE
8
DEFAULT_255_1_234
10
5.6001986
20
76.0779
11
5.6001986
21
77.0682133
0
LINE
8
DEFAULT_255_1_234
10
5.6001986
20
77.0682133
11
5.3006147
21
76.9581785
0
LINE
8
DEFAULT_255_1_234
10
5.3006147
20
76.9581785
11
5.3006147
21
77.0931117
0
LINE
8
DEFAULT_255_1_234
10
5.3006147
20
77.0931117
11
5.7262969
21
77.2529433
0
LINE
8
DEFAULT_255_1_234
10
5.7262969
20
77.2529433
11
5.7495889
21
77.2529433
0
LINE
8
DEFAULT_255_1_234
10
6.3720486
20
76.6336963
11
6.2531789
21
76.6642169
0
LINE
8
DEFAULT_255_1_234
10
6.2531789
20
76.6642169
11
6.3126138
21
77.2473211
0
LINE
8
DEFAULT_255_1_234
10
6.3126138
20
77.2473211
11
6.9117814
21
77.2473211
0
LINE
8
DEFAULT_255_1_234
10
6.9117814
20
77.2473211
11
6.9117814
21
77.1099784
0
LINE
8
DEFAULT_255_1_234
10
6.9117814
20
77.1099784
11
6.4387121
21
77.1099784
0
LINE
8
DEFAULT_255_1_234
10
6.4387121
20
77.1099784
11
6.4033724
21
76.7911184
0
LINE
8
DEFAULT_255_1_234
10
6.2114139
20
76.3855156
11
6.3519693
21
76.3855156
0
LINE
8
DEFAULT_255_1_234
10
6.4114042
20
76.6658232
11
6.3720486
21
76.6336963
0
ARC
8
DEFAULT_255_1_234
10
6.5888508
20
76.473123
40
0.3681349
50
93.7182161
51
120.2538958
0
ARC
8
DEFAULT_255_1_234
10
6.5982771
20
76.3923394
40
0.449379
50
89.9660152
51
94.2496022
0
ARC
8
DEFAULT_255_1_234
10
6.6023505
20
76.4512549
40
0.390482
50
73.8043271
51
90.5585896
0
ARC
8
DEFAULT_255_1_234
10
6.6258402
20
76.5370602
40
0.3015334
50
41.3071453
51
73.5430202
0
ARC
8
DEFAULT_255_1_234
10
6.5842229
20
76.5012324
40
0.3564457
50
13.5075983
51
41.2174222
0
ARC
8
DEFAULT_255_1_234
10
6.4200433
20
76.4582486
40
0.5261351
50
1.1331335
51
13.8829381
0
ARC
8
DEFAULT_255_1_234
10
6.2788802
20
76.4506665
40
0.6674378
50
359.9919444
51
1.544251
0
ARC
8
DEFAULT_255_1_234
10
6.4065628
20
76.446528
40
0.5397702
50
347.8572367
51
0.4293338
0
ARC
8
DEFAULT_255_1_234
10
6.5815946
20
76.4068736
40
0.3603188
50
323.673004
51
348.1672506
0
ARC
8
DEFAULT_255_1_234
10
6.6110454
20
76.3889168
40
0.3259678
50
316.8171152
51
323.1492751
0
ARC
8
DEFAULT_255_1_234
10
6.6171643
20
76.385246
40
0.3189975
50
281.8396411
51
316.5457803
0
ARC
8
DEFAULT_255_1_234
10
6.5795907
20
76.5407762
40
0.4789527
50
269.5770101
51
282.4214771
0
ARC
8
DEFAULT_255_1_234
10
6.5724718
20
76.5194125
40
0.45759
50
256.2427136
51
270.4486331
0
ARC
8
DEFAULT_255_1_234
10
6.542562
20
76.3994229
40
0.3339303
50
228.9023911
51
256.3314342
0
ARC
8
DEFAULT_255_1_234
10
6.5351853
20
76.3877746
40
0.32031
50
193.753695
51
228.5271154
0
ARC
8
DEFAULT_255_1_234
10
6.6589807
20
76.42408
40
0.4492253
50
184.924711
51
194.497588
0
ARC
8
DEFAULT_255_1_234
10
6.6782374
20
76.4276591
40
0.3289787
50
187.3600538
51
198.6732863
0
ARC
8
DEFAULT_255_1_234
10
6.5732668
20
76.3912674
40
0.217884
50
198.4451669
51
217.794479
0
ARC
8
DEFAULT_255_1_234
10
6.5436843
20
76.3703085
40
0.1816698
50
218.2887171
51
228.5612368
0
ARC
8
DEFAULT_255_1_234
10
6.553463
20
76.3834963
40
0.1980329
50
228.9654866
51
258.1234728
0
ARC
8
DEFAULT_255_1_234
10
6.574034
20
76.4715833
40
0.2884748
50
257.7258293
51
270.401361
0
ARC
8
DEFAULT_255_1_234
10
6.5785226
20
76.4270821
40
0.2439788
50
269.4204404
51
286.4209037
0
ARC
8
DEFAULT_255_1_234
10
6.5933714
20
76.3731657
40
0.1880666
50
286.7251356
51
320.600362
0
ARC
8
DEFAULT_255_1_234
10
6.5550539
20
76.4042595
40
0.2374121
50
320.6712579
51
344.5441685
0
ARC
8
DEFAULT_255_1_234
10
6.4393865
20
76.4382045
40
0.3579479
50
344.2412205
51
356.7357071
0
ARC
8
DEFAULT_255_1_234
10
6.3145014
20
76.4485444
40
0.4832297
50
356.3548756
51
0.0500261
0
ARC
8
DEFAULT_255_1_234
10
6.4481523
20
76.451665
40
0.3495889
50
359.5576869
51
12.953486
0
ARC
8
DEFAULT_255_1_234
10
6.553642
20
76.4772434
40
0.2410532
50
12.6490276
51
41.6081334
0
ARC
8
DEFAULT_255_1_234
10
6.5766791
20
76.4968321
40
0.2108218
50
41.7850273
51
85.9892764
0
ARC
8
DEFAULT_255_1_234
10
6.5643528
20
76.4155462
40
0.2928454
50
84.6957577
51
90.0676183
0
ARC
8
DEFAULT_255_1_234
10
6.5620012
20
76.3486716
40
0.3597255
50
89.6804936
51
99.1614436
0
ARC
8
DEFAULT_255_1_234
10
6.5414643
20
76.4714131
40
0.235281
50
98.9830931
51
113.8908934
0
ARC
8
DEFAULT_255_1_234
10
6.5185053
20
76.5255587
40
0.176479
50
114.1950727
51
127.3641004
0
LINE
8
DEFAULT_255_1_234
10
4.4740299
20
85.1848211
11
4.7559439
21
84.7366501
0
LINE
8
DEFAULT_255_1_234
10
4.7559439
20
84.7366501
11
5.0362516
21
85.1848211
0
LINE
8
DEFAULT_255_1_234
10
5.0362516
20
85.1848211
11
5.2177689
21
85.1848211
0
LINE
8
DEFAULT_255_1_234
10
5.2177689
20
85.1848211
11
4.8483089
21
84.6049296
0
LINE
8
DEFAULT_255_1_234
10
4.8483089
20
84.6049296
11
5.2266038
21
84.0154
0
LINE
8
DEFAULT_255_1_234
10
5.2266038
20
84.0154
11
5.0434802
21
84.0154
0
LINE
8
DEFAULT_255_1_234
10
5.0434802
20
84.0154
11
4.7559439
21
84.4716027
0
LINE
8
DEFAULT_255_1_234
10
4.7559439
20
84.4716027
11
4.4668014
21
84.0154
0
LINE
8
DEFAULT_255_1_234
10
4.4668014
20
84.0154
11
4.2844809
21
84.0154
0
LINE
8
DEFAULT_255_1_234
10
4.2844809
20
84.0154
11
4.663579
21
84.6049296
0
LINE
8
DEFAULT_255_1_234
10
4.663579
20
84.6049296
11
4.2933158
21
85.1848211
0
LINE
8
DEFAULT_255_1_234
10
4.2933158
20
85.1848211
11
4.4740299
21
85.1848211
0
LINE
8
DEFAULT_255_1_234
10
5.8554889
20
85.1904433
11
5.8554889
21
84.0154
0
LINE
8
DEFAULT_255_1_234
10
5.8554889
20
84.0154
11
5.7060986
21
84.0154
0
LINE
8
DEFAULT_255_1_234
10
5.7060986
20
84.0154
11
5.7060986
21
85.0057133
0
LINE
8
DEFAULT_255_1_234
10
5.7060986
20
85.0057133
11
5.4065147
21
84.8956785
0
LINE
8
DEFAULT_255_1_234
10
5.4065147
20
84.8956785
11
5.4065147
21
85.0306117
0
LINE
8
DEFAULT_255_1_234
10
5.4065147
20
85.0306117
11
5.8321969
21
85.1904433
0
LINE
8
DEFAULT_255_1_234
10
5.8321969
20
85.1904433
11
5.8554889
21
85.1904433
0
LINE
8
DEFAULT_255_1_234
10
6.9180879
20
85.1848211
11
6.9180879
21
84.408152
0
LINE
8
DEFAULT_255_1_234
10
6.9180879
20
84.408152
11
7.080329
21
84.408152
0
LINE
8
DEFAULT_255_1_234
10
7.080329
20
84.408152
11
7.080329
21
84.2868728
0
LINE
8
DEFAULT_255_1_234
10
7.080329
20
84.2868728
11
6.9180879
21
84.2868728
0
LINE
8
DEFAULT_255_1_234
10
6.9180879
20
84.2868728
11
6.9180879
21
84.0154
0
LINE
8
DEFAULT_255_1_234
10
6.9180879
20
84.0154
11
6.7686976
21
84.0154
0
LINE
8
DEFAULT_255_1_234
10
6.7686976
20
84.0154
11
6.7686976
21
84.2868728
0
LINE
8
DEFAULT_255_1_234
10
6.7686976
20
84.2868728
11
6.2361933
21
84.2868728
0
LINE
8
DEFAULT_255_1_234
10
6.2361933
20
84.2868728
11
6.2361933
21
84.3744187
0
LINE
8
DEFAULT_255_1_234
10
6.2361933
20
84.3744187
11
6.7598626
21
85.1848211
0
LINE
8
DEFAULT_255_1_234
10
6.7598626
20
85.1848211
11
6.9180879
21
85.1848211
0
LINE
8
DEFAULT_255_1_234
10
6.7510277
20
84.9494912
11
6.4048598
21
84.408152
0
LINE
8
DEFAULT_255_1_234
10
6.4048598
20
84.408152
11
6.7686976
21
84.408152
0
LINE
8
DEFAULT_255_1_234
10
6.7686976
20
84.408152
11
6.7686976
21
84.9816181
0
LINE
8
DEFAULT_255_1_234
10
6.7686976
20
84.9816181
11
6.7510277
21
84.9494912
0
LINE
8
DEFAULT_255_1_234
10
4.812423
20
92.3239663
11
4.9674355
21
92.3239663
0
LINE
8
DEFAULT_255_1_234
10
4.0670777
20
92.4829947
11
4.0670777
21
92.5954391
0
LINE
8
DEFAULT_255_1_234
10
4.9674355
20
92.7464357
11
4.812423
21
92.7464357
0
LINE
8
DEFAULT_255_1_234
10
4.2220902
20
92.5914232
11
4.2220902
21
92.4781757
0
ARC
8
DEFAULT_255_1_234
10
4.4193742
20
92.3836846
40
0.5513052
50
340.1774281
51
353.7814284
0
ARC
8
DEFAULT_255_1_234
10
4.5765095
20
92.3251582
40
0.3836379
50
311.4558989
51
340.4421614
0
ARC
8
DEFAULT_255_1_234
10
4.5731763
20
92.3362528
40
0.3941894
50
282.4333181
51
310.7513653
0
ARC
8
DEFAULT_255_1_234
10
4.5292502
20
92.5177679
40
0.5809175
50
269.9358511
51
282.809604
0
ARC
8
DEFAULT_255_1_234
10
4.5240568
20
92.6635212
40
0.7266847
50
270.0021091
51
270.3581957
0
ARC
8
DEFAULT_255_1_234
10
4.5187985
20
92.4034585
40
0.4666519
50
250.7884749
51
270.6489167
0
ARC
8
DEFAULT_255_1_234
10
4.501982
20
92.3397319
40
0.4009729
50
219.3627325
51
250.0611886
0
ARC
8
DEFAULT_255_1_234
10
4.5849031
20
92.4102042
40
0.5097822
50
193.5479632
51
219.5756669
0
ARC
8
DEFAULT_255_1_234
10
4.8220652
20
92.4717919
40
0.7547848
50
181.1218675
51
193.87563
0
ARC
8
DEFAULT_255_1_234
10
5.0290833
20
92.482858
40
0.9620055
50
179.9918545
51
181.5394234
0
ARC
8
DEFAULT_255_1_234
10
4.8439935
20
92.5991788
40
0.7769248
50
169.5837241
51
180.2757934
0
ARC
8
DEFAULT_255_1_234
10
4.6602873
20
92.6331229
40
0.590109
50
155.0365899
51
169.6003176
0
ARC
8
DEFAULT_255_1_234
10
4.5467337
20
92.6878677
40
0.4640625
50
136.783148
51
155.2472683
0
ARC
8
DEFAULT_255_1_234
10
4.5077814
20
92.7209562
40
0.4130255
50
121.7633186
51
136.428115
0
ARC
8
DEFAULT_255_1_234
10
4.5212776
20
92.6960227
40
0.4413323
50
95.6459699
51
121.5490577
0
ARC
8
DEFAULT_255_1_234
10
4.5370058
20
92.5851949
40
0.55319
50
89.924208
51
96.1377933
0
ARC
8
DEFAULT_255_1_234
10
4.5420491
20
92.5970542
40
0.5413475
50
76.6779277
51
90.4563316
0
ARC
8
DEFAULT_255_1_234
10
4.5814114
20
92.7561114
40
0.3775041
50
47.485847
51
76.9287264
0
ARC
8
DEFAULT_255_1_234
10
4.5667087
20
92.7461159
40
0.3948286
50
16.5424086
51
46.8933463
0
ARC
8
DEFAULT_255_1_234
10
4.4059244
20
92.6932861
40
0.564021
50
5.4072051
51
17.0365086
0
ARC
8
DEFAULT_255_1_234
10
4.2620261
20
92.6701679
40
0.5556559
50
7.8891745
51
15.9239216
0
ARC
8
DEFAULT_255_1_234
10
4.4607274
20
92.7278631
40
0.3487515
50
15.7653144
51
27.9410532
0
ARC
8
DEFAULT_255_1_234
10
4.5711492
20
92.786979
40
0.2235026
50
27.8166557
51
46.4008329
0
ARC
8
DEFAULT_255_1_234
10
4.5761135
20
92.7864082
40
0.2205286
50
47.4371857
51
75.0698205
0
ARC
8
DEFAULT_255_1_234
10
4.5452529
20
92.6789765
40
0.3322915
50
74.7008593
51
87.8124495
0
ARC
8
DEFAULT_255_1_234
10
4.5379217
20
92.5733844
40
0.4380987
50
87.3814673
51
90.0240855
0
ARC
8
DEFAULT_255_1_234
10
4.534076
20
92.6911291
40
0.3203749
50
89.3451631
51
108.5745436
0
ARC
8
DEFAULT_255_1_234
10
4.5203865
20
92.7424908
40
0.2673494
50
109.2998449
51
143.3037509
0
ARC
8
DEFAULT_255_1_234
10
4.5965938
20
92.6838881
40
0.3634757
50
143.0753173
51
163.1916937
0
ARC
8
DEFAULT_255_1_234
10
4.7917666
20
92.6222967
40
0.5681262
50
162.9373603
51
174.6208611
0
ARC
8
DEFAULT_255_1_234
10
5.0543708
20
92.593501
40
0.8322832
50
174.3419979
51
180.1430411
0
ARC
8
DEFAULT_255_1_234
10
4.9612864
20
92.4740698
40
0.7392076
50
179.6817502
51
189.150529
0
ARC
8
DEFAULT_255_1_234
10
4.7112112
20
92.432419
40
0.4856932
50
188.9910863
51
203.5773039
0
ARC
8
DEFAULT_255_1_234
10
4.6032445
20
92.3876211
40
0.3688271
50
203.9077269
51
215.1312379
0
ARC
8
DEFAULT_255_1_234
10
4.5109539
20
92.3160941
40
0.2522457
50
213.9071664
51
263.8849284
0
ARC
8
DEFAULT_255_1_234
10
4.5234868
20
92.3945518
40
0.3316174
50
263.1758525
51
270.1031083
0
ARC
8
DEFAULT_255_1_234
10
4.526696
20
92.5192365
40
0.4563091
50
269.6719807
51
279.0609165
0
ARC
8
DEFAULT_255_1_234
10
4.5533728
20
92.3579907
40
0.2928759
50
278.8750225
51
293.6346586
0
ARC
8
DEFAULT_255_1_234
10
4.5853936
20
92.28279
40
0.2111472
50
293.8553404
51
310.0518804
0
ARC
8
DEFAULT_255_1_234
10
4.585879
20
92.2765516
40
0.2060917
50
311.0646779
51
332.0108348
0
ARC
8
DEFAULT_255_1_234
10
4.4666517
20
92.3422978
40
0.3422352
50
331.6588543
51
343.2878891
0
ARC
8
DEFAULT_255_1_234
10
4.2604032
20
92.4056798
40
0.5580003
50
343.1446044
51
351.010618
0
ARC
8
DEFAULT_255_1_234
10
4.1062678
20
92.4337871
40
0.7146438
50
350.7157277
51
351.1602153
0
LINE
8
DEFAULT_255_1_234
10
5.3553685
20
92.4886169
11
5.3553685
21
92.6098962
0
LINE
8
DEFAULT_255_1_234
10
5.3553685
20
92.6098962
11
5.4670097
21
92.6098962
0
LINE
8
DEFAULT_255_1_234
10
5.2766575
20
92.8155087
11
5.1280703
21
92.8155087
0
LINE
8
DEFAULT_255_1_234
10
5.1176291
20
92.2613188
11
5.2670194
21
92.2613188
0
LINE
8
DEFAULT_255_1_234
10
5.4670097
20
92.4886169
11
5.3553685
21
92.4886169
0
ARC
8
DEFAULT_255_1_234
10
5.4640963
20
92.9491713
40
0.3392876
50
270.4919872
51
281.8951556
0
ARC
8
DEFAULT_255_1_234
10
5.4882225
20
92.8389702
40
0.2264817
50
281.6691735
51
301.2943132
0
ARC
8
DEFAULT_255_1_234
10
5.5052435
20
92.8078304
40
0.1910381
50
301.7833094
51
311.7545298
0
ARC
8
DEFAULT_255_1_234
10
5.5144011
20
92.7976748
40
0.1773635
50
311.7323931
51
354.2802411
0
ARC
8
DEFAULT_255_1_234
10
5.4417636
20
92.8101722
40
0.2509385
50
353.0937916
51
0.1181479
0
ARC
8
DEFAULT_255_1_234
10
5.3956421
20
92.8149386
40
0.2970898
50
359.1805295
51
15.0453146
0
ARC
8
DEFAULT_255_1_234
10
5.5302258
20
92.8541992
40
0.1569564
50
13.9577229
51
77.6713066
0
ARC
8
DEFAULT_255_1_234
10
5.4915787
20
92.7156949
40
0.3006298
50
76.1116566
51
90.7026153
0
ARC
8
DEFAULT_255_1_234
10
5.4856625
20
92.7430545
40
0.2732568
50
89.5324876
51
103.531937
0
ARC
8
DEFAULT_255_1_234
10
5.465607
20
92.8229884
40
0.1908508
50
103.2931773
51
133.5619022
0
ARC
8
DEFAULT_255_1_234
10
5.4611558
20
92.8289375
40
0.1834746
50
133.8349307
51
173.5344437
0
ARC
8
DEFAULT_255_1_234
10
5.5334601
20
92.8161213
40
0.2568033
50
172.5096846
51
180.1366907
0
ARC
8
DEFAULT_255_1_234
10
5.4383495
20
92.8195622
40
0.3103056
50
155.3484492
51
180.7484736
0
ARC
8
DEFAULT_255_1_234
10
5.4334584
20
92.8166846
40
0.3070957
50
131.5744599
51
154.4798489
0
ARC
8
DEFAULT_255_1_234
10
5.4647731
20
92.785031
40
0.3515643
50
96.9875458
51
131.9690667
0
ARC
8
DEFAULT_255_1_234
10
5.4867211
20
92.6604636
40
0.4779224
50
89.8596053
51
97.7825159
0
ARC
8
DEFAULT_255_1_234
10
5.4915274
20
92.6342616
40
0.5041361
50
78.3655447
51
90.4131539
0
ARC
8
DEFAULT_255_1_234
10
5.5273192
20
92.8001887
40
0.3344039
50
56.6229102
51
78.638727
0
ARC
8
DEFAULT_255_1_234
10
5.5488136
20
92.8377805
40
0.2912001
50
47.0253525
51
56.0854072
0
ARC
8
DEFAULT_255_1_234
10
5.5507916
20
92.8417223
40
0.2869704
50
10.9208013
51
46.7778124
0
ARC
8
DEFAULT_255_1_234
10
5.4143982
20
92.8101857
40
0.426899
50
359.6364486
51
11.6087304
0
ARC
8
DEFAULT_255_1_234
10
5.5978827
20
92.8086752
40
0.243409
50
332.3549906
51
359.7179418
0
ARC
8
DEFAULT_255_1_234
10
5.5328428
20
92.8395142
40
0.3153459
50
325.2333722
51
332.8745602
0
ARC
8
DEFAULT_255_1_234
10
5.5481052
20
92.8288828
40
0.2967456
50
292.9802137
51
325.2392345
0
ARC
8
DEFAULT_255_1_234
10
5.5206426
20
92.8822863
40
0.3566604
50
292.5402179
51
293.6924929
0
ARC
8
DEFAULT_255_1_234
10
5.5599021
20
92.2368091
40
0.3307468
50
57.6435486
51
72.8625112
0
ARC
8
DEFAULT_255_1_234
10
5.5953521
20
92.2942549
40
0.2632492
50
36.7248896
51
57.4697979
0
ARC
8
DEFAULT_255_1_234
10
5.5942154
20
92.295522
40
0.2634081
50
8.0545065
51
36.356114
0
ARC
8
DEFAULT_255_1_234
10
5.5079339
20
92.2800174
40
0.3510261
50
359.8320645
51
8.5869982
0
ARC
8
DEFAULT_255_1_234
10
5.4704115
20
92.2752101
40
0.3885653
50
343.9829931
51
0.5571613
0
ARC
8
DEFAULT_255_1_234
10
5.5590313
20
92.2509438
40
0.2966924
50
311.6359546
51
343.7651759
0
ARC
8
DEFAULT_255_1_234
10
5.5211882
20
92.2936102
40
0.3537231
50
279.7829875
51
311.6255694
0
ARC
8
DEFAULT_255_1_234
10
5.4910658
20
92.437328
40
0.5004971
50
269.7286406
51
280.3856417
0
ARC
8
DEFAULT_255_1_234
10
5.4848731
20
92.4331996
40
0.4963778
50
256.6828919
51
270.4412052
0
ARC
8
DEFAULT_255_1_234
10
5.4510026
20
92.2947394
40
0.3538406
50
229.4223008
51
256.8556159
0
ARC
8
DEFAULT_255_1_234
10
5.4095419
20
92.2480736
40
0.2914296
50
181.818294
51
229.6455059
0
ARC
8
DEFAULT_255_1_234
10
5.5135375
20
92.2611496
40
0.3959084
50
179.9755256
51
183.2323064
0
ARC
8
DEFAULT_255_1_234
10
5.4963121
20
92.2591037
40
0.2293034
50
179.4465117
51
196.2869258
0
ARC
8
DEFAULT_255_1_234
10
5.4475529
20
92.2457651
40
0.1787621
50
196.5661473
51
227.705904
0
ARC
8
DEFAULT_255_1_234
10
5.4639624
20
92.2641155
40
0.2033784
50
227.7652068
51
257.8762805
0
ARC
8
DEFAULT_255_1_234
10
5.4864594
20
92.3584156
40
0.3003081
50
257.4584385
51
270.426602
0
ARC
8
DEFAULT_255_1_234
10
5.491016
20
92.3873996
40
0.329292
50
269.5962073
51
280.8789248
0
ARC
8
DEFAULT_255_1_234
10
5.5139689
20
92.2727685
40
0.2123908
50
280.6346389
51
299.8595945
0
ARC
8
DEFAULT_255_1_234
10
5.5330596
20
92.2365212
40
0.171457
50
300.3576302
51
314.5517981
0
ARC
8
DEFAULT_255_1_234
10
5.5247656
20
92.2425919
40
0.1816095
50
315.0728369
51
345.0431014
0
ARC
8
DEFAULT_255_1_234
10
5.432447
20
92.2694841
40
0.2777492
50
344.5986631
51
357.9269593
0
ARC
8
DEFAULT_255_1_234
10
5.3428797
20
92.2756276
40
0.3674917
50
357.4748886
51
0.0231117
0
ARC
8
DEFAULT_255_1_234
10
5.4451906
20
92.2780679
40
0.2651907
50
359.5047933
51
13.4239635
0
ARC
8
DEFAULT_255_1_234
10
5.531855
20
92.3002478
40
0.1757509
50
12.9498199
51
48.7551375
0
ARC
8
DEFAULT_255_1_234
10
5.5136284
20
92.27534
40
0.2065134
50
49.5088623
51
72.1836453
0
ARC
8
DEFAULT_255_1_234
10
5.4778436
20
92.1691291
40
0.3185836
50
71.9010081
51
84.3554254
0
ARC
8
DEFAULT_255_1_234
10
5.4617068
20
92.0330326
40
0.4556151
50
84.0193428
51
89.333121
0
LINE
8
DEFAULT_255_1_234
10
4.3681299
20
101.0598211
11
4.6500439
21
100.6116501
0
LINE
8
DEFAULT_255_1_234
10
4.6500439
20
100.6116501
11
4.9303516
21
101.0598211
0
LINE
8
DEFAULT_255_1_234
10
4.9303516
20
101.0598211
11
5.1118689
21
101.0598211
0
LINE
8
DEFAULT_255_1_234
10
5.1118689
20
101.0598211
11
4.7424089
21
100.4799296
0
LINE
8
DEFAULT_255_1_234
10
4.7424089
20
100.4799296
11
5.1207038
21
99.8904
0
LINE
8
DEFAULT_255_1_234
10
5.1207038
20
99.8904
11
4.9375802
21
99.8904
0
LINE
8
DEFAULT_255_1_234
10
4.9375802
20
99.8904
11
4.6500439
21
100.3466027
0
LINE
8
DEFAULT_255_1_234
10
4.6500439
20
100.3466027
11
4.3609014
21
99.8904
0
LINE
8
DEFAULT_255_1_234
10
4.3609014
20
99.8904
11
4.1785809
21
99.8904
0
LINE
8
DEFAULT_255_1_234
10
4.1785809
20
99.8904
11
4.557679
21
100.4799296
0
LINE
8
DEFAULT_255_1_234
10
4.557679
20
100.4799296
11
4.1874158
21
101.0598211
0
LINE
8
DEFAULT_255_1_234
10
4.1874158
20
101.0598211
11
4.3681299
21
101.0598211
0
LINE
8
DEFAULT_255_1_234
10
5.7495889
20
101.0654433
11
5.7495889
21
99.8904
0
LINE
8
DEFAULT_255_1_234
10
5.7495889
20
99.8904
11
5.6001986
21
99.8904
0
LINE
8
DEFAULT_255_1_234
10
5.6001986
20
99.8904
11
5.6001986
21
100.8807133
0
LINE
8
DEFAULT_255_1_234
10
5.6001986
20
100.8807133
11
5.3006147
21
100.7706785
0
LINE
8
DEFAULT_255_1_234
10
5.3006147
20
100.7706785
11
5.3006147
21
100.9056117
0
LINE
8
DEFAULT_255_1_234
10
5.3006147
20
100.9056117
11
5.7262969
21
101.0654433
0
LINE
8
DEFAULT_255_1_234
10
5.7262969
20
101.0654433
11
5.7495889
21
101.0654433
0
LINE
8
DEFAULT_255_1_234
10
6.4009629
20
100.4261169
11
6.4009629
21
100.5473962
0
LINE
8
DEFAULT_255_1_234
10
6.4009629
20
100.5473962
11
6.5126041
21
100.5473962
0
LINE
8
DEFAULT_255_1_234
10
6.3222519
20
100.7530087
11
6.1736647
21
100.7530087
0
LINE
8
DEFAULT_255_1_234
10
6.1632234
20
100.1988188
11
6.3126138
21
100.1988188
0
LINE
8
DEFAULT_255_1_234
10
6.5126041
20
100.4261169
11
6.4009629
21
100.4261169
0
ARC
8
DEFAULT_255_1_234
10
6.5096907
20
100.8866713
40
0.3392876
50
270.4919872
51
281.8951556
0
ARC
8
DEFAULT_255_1_234
10
6.5338169
20
100.7764702
40
0.2264817
50
281.6691735
51
301.2943132
0
ARC
8
DEFAULT_255_1_234
10
6.5508379
20
100.7453304
40
0.1910381
50
301.7833094
51
311.7545298
0
ARC
8
DEFAULT_255_1_234
10
6.5599955
20
100.7351748
40
0.1773635
50
311.7323931
51
354.2802411
0
ARC
8
DEFAULT_255_1_234
10
6.487358
20
100.7476722
40
0.2509385
50
353.0937916
51
0.1181479
0
ARC
8
DEFAULT_255_1_234
10
6.4412365
20
100.7524386
40
0.2970898
50
359.1805295
51
15.0453146
0
ARC
8
DEFAULT_255_1_234
10
6.5758202
20
100.7916992
40
0.1569564
50
13.9577229
51
77.6713066
0
ARC
8
DEFAULT_255_1_234
10
6.5371731
20
100.6531949
40
0.3006298
50
76.1116566
51
90.7026153
0
ARC
8
DEFAULT_255_1_234
10
6.5312569
20
100.6805545
40
0.2732568
50
89.5324876
51
103.531937
0
ARC
8
DEFAULT_255_1_234
10
6.5112013
20
100.7604884
40
0.1908508
50
103.2931773
51
133.5619022
0
ARC
8
DEFAULT_255_1_234
10
6.5067502
20
100.7664375
40
0.1834746
50
133.8349307
51
173.5344437
0
ARC
8
DEFAULT_255_1_234
10
6.5790545
20
100.7536213
40
0.2568033
50
172.5096846
51
180.1366907
0
ARC
8
DEFAULT_255_1_234
10
6.4839439
20
100.7570622
40
0.3103056
50
155.3484492
51
180.7484736
0
ARC
8
DEFAULT_255_1_234
10
6.4790528
20
100.7541846
40
0.3070957
50
131.5744599
51
154.4798489
0
ARC
8
DEFAULT_255_1_234
10
6.5103675
20
100.722531
40
0.3515643
50
96.9875458
51
131.9690667
0
ARC
8
DEFAULT_255_1_234
10
6.5323155
20
100.5979636
40
0.4779224
50
89.8596053
51
97.7825159
0
ARC
8
DEFAULT_255_1_234
10
6.5371218
20
100.5717616
40
0.5041361
50
78.3655447
51
90.4131539
0
ARC
8
DEFAULT_255_1_234
10
6.5729136
20
100.7376887
40
0.3344039
50
56.6229102
51
78.638727
0
ARC
8
DEFAULT_255_1_234
10
6.594408
20
100.7752805
40
0.2912001
50
47.0253525
51
56.0854072
0
ARC
8
DEFAULT_255_1_234
10
6.596386
20
100.7792223
40
0.2869704
50
10.9208013
51
46.7778124
0
ARC
8
DEFAULT_255_1_234
10
6.4599926
20
100.7476857
40
0.426899
50
359.6364486
51
11.6087304
0
ARC
8
DEFAULT_255_1_234
10
6.643477
20
100.7461752
40
0.243409
50
332.3549906
51
359.7179418
0
ARC
8
DEFAULT_255_1_234
10
6.5784372
20
100.7770142
40
0.3153459
50
325.2333722
51
332.8745602
0
ARC
8
DEFAULT_255_1_234
10
6.5936995
20
100.7663828
40
0.2967456
50
292.9802137
51
325.2392345
0
ARC
8
DEFAULT_255_1_234
10
6.5662369
20
100.8197863
40
0.3566604
50
292.5402179
51
293.6924929
0
ARC
8
DEFAULT_255_1_234
10
6.6054965
20
100.1743091
40
0.3307468
50
57.6435486
51
72.8625112
0
ARC
8
DEFAULT_255_1_234
10
6.6409465
20
100.2317549
40
0.2632492
50
36.7248896
51
57.4697979
0
ARC
8
DEFAULT_255_1_234
10
6.6398098
20
100.233022
40
0.2634081
50
8.0545065
51
36.356114
0
ARC
8
DEFAULT_255_1_234
10
6.5535283
20
100.2175174
40
0.3510261
50
359.8320645
51
8.5869982
0
ARC
8
DEFAULT_255_1_234
10
6.5160059
20
100.2127101
40
0.3885653
50
343.9829931
51
0.5571613
0
ARC
8
DEFAULT_255_1_234
10
6.6046256
20
100.1884438
40
0.2966924
50
311.6359546
51
343.7651759
0
ARC
8
DEFAULT_255_1_234
10
6.5667825
20
100.2311102
40
0.3537231
50
279.7829875
51
311.6255694
0
ARC
8
DEFAULT_255_1_234
10
6.5366601
20
100.374828
40
0.5004971
50
269.7286406
51
280.3856417
0
ARC
8
DEFAULT_255_1_234
10
6.5304674
20
100.3706996
40
0.4963778
50
256.6828919
51
270.4412052
0
ARC
8
DEFAULT_255_1_234
10
6.496597
20
100.2322394
40
0.3538406
50
229.4223008
51
256.8556159
0
ARC
8
DEFAULT_255_1_234
10
6.4551363
20
100.1855736
40
0.2914296
50
181.818294
51
229.6455059
0
ARC
8
DEFAULT_255_1_234
10
6.5591319
20
100.1986496
40
0.3959084
50
179.9755256
51
183.2323064
0
ARC
8
DEFAULT_255_1_234
10
6.5419065
20
100.1966037
40
0.2293034
50
179.4465117
51
196.2869258
0
ARC
8
DEFAULT_255_1_234
10
6.4931473
20
100.1832651
40
0.1787621
50
196.5661473
51
227.705904
0
ARC
8
DEFAULT_255_1_234
10
6.5095568
20
100.2016155
40
0.2033784
50
227.7652068
51
257.8762805
0
ARC
8
DEFAULT_255_1_234
10
6.5320538
20
100.2959156
40
0.3003081
50
257.4584385
51
270.426602
0
ARC
8
DEFAULT_255_1_234
10
6.5366104
20
100.3248996
40
0.329292
50
269.5962073
51
280.8789248
0
ARC
8
DEFAULT_255_1_234
10
6.5595633
20
100.2102685
40
0.2123908
50
280.6346389
51
299.8595945
0
ARC
8
DEFAULT_255_1_234
10
6.578654
20
100.1740212
40
0.171457
50
300.3576302
51
314.5517981
0
ARC
8
DEFAULT_255_1_234
10
6.57036
20
100.1800919
40
0.1816095
50
315.0728369
51
345.0431014
0
ARC
8
DEFAULT_255_1_234
10
6.4780414
20
100.2069841
40
0.2777492
50
344.5986631
51
357.9269593
0
ARC
8
DEFAULT_255_1_234
10
6.388474
20
100.2131276
40
0.3674917
50
357.4748886
51
0.0231117
0
ARC
8
DEFAULT_255_1_234
10
6.490785
20
100.2155679
40
0.2651907
50
359.5047933
51
13.4239635
0
ARC
8
DEFAULT_255_1_234
10
6.5774493
20
100.2377478
40
0.1757509
50
12.9498199
51
48.7551375
0
ARC
8
DEFAULT_255_1_234
10
6.5592227
20
100.21284
40
0.2065134
50
49.5088623
51
72.1836453
0
ARC
8
DEFAULT_255_1_234
10
6.523438
20
100.1066291
40
0.3185836
50
71.9010081
51
84.3554254
0
ARC
8
DEFAULT_255_1_234
10
6.5073012
20
99.9705326
40
0.4556151
50
84.0193428
51
89.333121
0
LINE
8
DEFAULT_255_1_234
10
4.3681299
20
108.9973211
11
4.6500439
21
108.5491501
0
LINE
8
DEFAULT_255_1_234
10
4.6500439
20
108.5491501
11
4.9303516
21
108.9973211
0
LINE
8
DEFAULT_255_1_234
10
4.9303516
20
108.9973211
11
5.1118689
21
108.9973211
0
LINE
8
DEFAULT_255_1_234
10
5.1118689
20
108.9973211
11
4.7424089
21
108.4174296
0
LINE
8
DEFAULT_255_1_234
10
4.7424089
20
108.4174296
11
5.1207038
21
107.8279
0
LINE
8
DEFAULT_255_1_234
10
5.1207038
20
107.8279
11
4.9375802
21
107.8279
0
LINE
8
DEFAULT_255_1_234
10
4.9375802
20
107.8279
11
4.6500439
21
108.2841027
0
LINE
8
DEFAULT_255_1_234
10
4.6500439
20
108.2841027
11
4.3609014
21
107.8279
0
LINE
8
DEFAULT_255_1_234
10
4.3609014
20
107.8279
11
4.1785809
21
107.8279
0
LINE
8
DEFAULT_255_1_234
10
4.1785809
20
107.8279
11
4.557679
21
108.4174296
0
LINE
8
DEFAULT_255_1_234
10
4.557679
20
108.4174296
11
4.1874158
21
108.9973211
0
LINE
8
DEFAULT_255_1_234
10
4.1874158
20
108.9973211
11
4.3681299
21
108.9973211
0
LINE
8
DEFAULT_255_1_234
10
5.7495889
20
109.0029433
11
5.7495889
21
107.8279
0
LINE
8
DEFAULT_255_1_234
10
5.7495889
20
107.8279
11
5.6001986
21
107.8279
0
LINE
8
DEFAULT_255_1_234
10
5.6001986
20
107.8279
11
5.6001986
21
108.8182133
0
LINE
8
DEFAULT_255_1_234
10
5.6001986
20
108.8182133
11
5.3006147
21
108.7081785
0
LINE
8
DEFAULT_255_1_234
10
5.3006147
20
108.7081785
11
5.3006147
21
108.8431117
0
LINE
8
DEFAULT_255_1_234
10
5.3006147
20
108.8431117
11
5.7262969
21
109.0029433
0
LINE
8
DEFAULT_255_1_234
10
5.7262969
20
109.0029433
11
5.7495889
21
109.0029433
0
LINE
8
DEFAULT_255_1_234
10
6.951137
20
107.9491792
11
6.951137
21
107.8279
0
LINE
8
DEFAULT_255_1_234
10
6.951137
20
107.8279
11
6.1849091
21
107.8279
0
LINE
8
DEFAULT_255_1_234
10
6.1849091
20
107.8279
11
6.1849091
21
107.9347221
0
LINE
8
DEFAULT_255_1_234
10
6.1849091
20
107.9347221
11
6.5897087
21
108.3844995
0
LINE
8
DEFAULT_255_1_234
10
6.3110074
20
108.6527595
11
6.1624203
21
108.6527595
0
LINE
8
DEFAULT_255_1_234
10
6.6772547
20
108.2889218
11
6.3640169
21
107.9491792
0
LINE
8
DEFAULT_255_1_234
10
6.3640169
20
107.9491792
11
6.951137
21
107.9491792
0
ARC
8
DEFAULT_255_1_234
10
5.2406921
20
109.5774527
40
1.8008286
50
318.5132453
51
320.7828378
0
ARC
8
DEFAULT_255_1_234
10
5.7693895
20
109.1471426
40
1.1191493
50
320.7372736
51
323.9737074
0
ARC
8
DEFAULT_255_1_234
10
6.1613751
20
108.8631361
40
0.6350923
50
323.8961724
51
328.6421089
0
ARC
8
DEFAULT_255_1_234
10
6.3660347
20
108.7369031
40
0.3946393
50
328.8299013
51
331.789948
0
ARC
8
DEFAULT_255_1_234
10
6.4657525
20
108.6854509
40
0.2824501
50
331.4255242
51
352.9364833
0
ARC
8
DEFAULT_255_1_234
10
6.4794026
20
108.6823976
40
0.2685315
50
353.2248685
51
0.0169286
0
ARC
8
DEFAULT_255_1_234
10
6.5003903
20
108.684695
40
0.2475536
50
359.4866256
51
15.9339782
0
ARC
8
DEFAULT_255_1_234
10
6.5510888
20
108.6983286
40
0.1950618
50
16.1714718
51
43.5284424
0
ARC
8
DEFAULT_255_1_234
10
6.5588197
20
108.7060573
40
0.184134
50
43.4415429
51
83.1661404
0
ARC
8
DEFAULT_255_1_234
10
6.5454115
20
108.6323771
40
0.258926
50
82.160215
51
90.1505798
0
ARC
8
DEFAULT_255_1_234
10
6.5422542
20
108.5786865
40
0.3126255
50
89.5460705
51
102.5418777
0
ARC
8
DEFAULT_255_1_234
10
6.5179628
20
108.6817665
40
0.2067346
50
102.1739365
51
129.2061916
0
ARC
8
DEFAULT_255_1_234
10
6.51007
20
108.6942094
40
0.1921118
50
129.7279328
51
135.7542026
0
ARC
8
DEFAULT_255_1_234
10
6.5222228
20
108.6845045
40
0.2075944
50
136.175737
51
166.3674722
0
ARC
8
DEFAULT_255_1_234
10
6.6229147
20
108.6575182
40
0.3118201
50
165.9092917
51
178.8683903
0
ARC
8
DEFAULT_255_1_234
10
6.7094008
20
108.6528179
40
0.3983935
50
178.438168
51
180.0083905
0
ARC
8
DEFAULT_255_1_234
10
6.569261
20
108.6567231
40
0.4068601
50
163.2878735
51
180.5581814
0
ARC
8
DEFAULT_255_1_234
10
6.4890872
20
108.678784
40
0.3237344
50
133.454115
51
162.9470031
0
ARC
8
DEFAULT_255_1_234
10
6.5069413
20
108.6598
40
0.349795
50
100.7869394
51
133.4384016
0
ARC
8
DEFAULT_255_1_234
10
6.5417185
20
108.5049319
40
0.5084616
50
89.6605301
51
101.3704185
0
ARC
8
DEFAULT_255_1_234
10
6.5483523
20
108.5110496
40
0.502348
50
78.2171172
51
90.4130393
0
ARC
8
DEFAULT_255_1_234
10
6.5838602
20
108.6734637
40
0.3361092
50
55.9268222
51
78.4888551
0
ARC
8
DEFAULT_255_1_234
10
6.6035042
20
108.7073324
40
0.2970617
50
47.9292255
51
55.4054003
0
ARC
8
DEFAULT_255_1_234
10
6.6136603
20
108.7176502
40
0.2825983
50
4.3347696
51
48.0560701
0
ARC
8
DEFAULT_255_1_234
10
6.5040996
20
108.7006601
40
0.393225
50
359.925209
51
5.5967654
0
ARC
8
DEFAULT_255_1_234
10
6.5469888
20
108.7062816
40
0.3503892
50
337.8914096
51
358.9967724
0
ARC
8
DEFAULT_255_1_234
10
6.27563
20
108.8109706
40
0.6412172
50
326.9135351
51
338.3505194
0
ARC
8
DEFAULT_255_1_234
10
5.8770604
20
109.0664284
40
1.1146189
50
319.6472867
51
327.095818
0
ARC
8
DEFAULT_255_1_234
10
5.4937607
20
109.3826
40
1.6114559
50
317.2586784
51
319.9046139
0
LINE
8
DEFAULT_255_1_234
10
4.3590299
20
116.9348211
11
4.6409439
21
116.4866501
0
LINE
8
DEFAULT_255_1_234
10
4.6409439
20
116.4866501
11
4.9212516
21
116.9348211
0
LINE
8
DEFAULT_255_1_234
10
4.9212516
20
116.9348211
11
5.1027689
21
116.9348211
0
LINE
8
DEFAULT_255_1_234
10
5.1027689
20
116.9348211
11
4.7333089
21
116.3549296
0
LINE
8
DEFAULT_255_1_234
10
4.7333089
20
116.3549296
11
5.1116038
21
115.7654
0
LINE
8
DEFAULT_255_1_234
10
5.1116038
20
115.7654
11
4.9284802
21
115.7654
0
LINE
8
DEFAULT_255_1_234
10
4.9284802
20
115.7654
11
4.6409439
21
116.2216027
0
LINE
8
DEFAULT_255_1_234
10
4.6409439
20
116.2216027
11
4.3518014
21
115.7654
0
LINE
8
DEFAULT_255_1_234
10
4.3518014
20
115.7654
11
4.1694809
21
115.7654
0
LINE
8
DEFAULT_255_1_234
10
4.1694809
20
115.7654
11
4.548579
21
116.3549296
0
LINE
8
DEFAULT_255_1_234
10
4.548579
20
116.3549296
11
4.1783158
21
116.9348211
0
LINE
8
DEFAULT_255_1_234
10
4.1783158
20
116.9348211
11
4.3590299
21
116.9348211
0
LINE
8
DEFAULT_255_1_234
10
5.7404889
20
116.9404433
11
5.7404889
21
115.7654
0
LINE
8
DEFAULT_255_1_234
10
5.7404889
20
115.7654
11
5.5910986
21
115.7654
0
LINE
8
DEFAULT_255_1_234
10
5.5910986
20
115.7654
11
5.5910986
21
116.7557133
0
LINE
8
DEFAULT_255_1_234
10
5.5910986
20
116.7557133
11
5.2915147
21
116.6456785
0
LINE
8
DEFAULT_255_1_234
10
5.2915147
20
116.6456785
11
5.2915147
21
116.7806117
0
LINE
8
DEFAULT_255_1_234
10
5.2915147
20
116.7806117
11
5.7171969
21
116.9404433
0
LINE
8
DEFAULT_255_1_234
10
5.7171969
20
116.9404433
11
5.7404889
21
116.9404433
0
LINE
8
DEFAULT_255_1_234
10
6.6641388
20
116.9404433
11
6.6641388
21
115.7654
0
LINE
8
DEFAULT_255_1_234
10
6.6641388
20
115.7654
11
6.5147485
21
115.7654
0
LINE
8
DEFAULT_255_1_234
10
6.5147485
20
115.7654
11
6.5147485
21
116.7557133
0
LINE
8
DEFAULT_255_1_234
10
6.5147485
20
116.7557133
11
6.2151646
21
116.6456785
0
LINE
8
DEFAULT_255_1_234
10
6.2151646
20
116.6456785
11
6.2151646
21
116.7806117
0
LINE
8
DEFAULT_255_1_234
10
6.2151646
20
116.7806117
11
6.6408468
21
116.9404433
0
LINE
8
DEFAULT_255_1_234
10
6.6408468
20
116.9404433
11
6.6641388
21
116.9404433
0
LINE
8
DEFAULT_255_1_234
10
4.3681299
20
124.8723211
11
4.6500439
21
124.4241501
0
LINE
8
DEFAULT_255_1_234
10
4.6500439
20
124.4241501
11
4.9303516
21
124.8723211
0
LINE
8
DEFAULT_255_1_234
10
4.9303516
20
124.8723211
11
5.1118689
21
124.8723211
0
LINE
8
DEFAULT_255_1_234
10
5.1118689
20
124.8723211
11
4.7424089
21
124.2924296
0
LINE
8
DEFAULT_255_1_234
10
4.7424089
20
124.2924296
11
5.1207038
21
123.7029
0
LINE
8
DEFAULT_255_1_234
10
5.1207038
20
123.7029
11
4.9375802
21
123.7029
0
LINE
8
DEFAULT_255_1_234
10
4.9375802
20
123.7029
11
4.6500439
21
124.1591027
0
LINE
8
DEFAULT_255_1_234
10
4.6500439
20
124.1591027
11
4.3609014
21
123.7029
0
LINE
8
DEFAULT_255_1_234
10
4.3609014
20
123.7029
11
4.1785809
21
123.7029
0
LINE
8
DEFAULT_255_1_234
10
4.1785809
20
123.7029
11
4.557679
21
124.2924296
0
LINE
8
DEFAULT_255_1_234
10
4.557679
20
124.2924296
11
4.1874158
21
124.8723211
0
LINE
8
DEFAULT_255_1_234
10
4.1874158
20
124.8723211
11
4.3681299
21
124.8723211
0
LINE
8
DEFAULT_255_1_234
10
5.7495889
20
124.8779433
11
5.7495889
21
123.7029
0
LINE
8
DEFAULT_255_1_234
10
5.7495889
20
123.7029
11
5.6001986
21
123.7029
0
LINE
8
DEFAULT_255_1_234
10
5.6001986
20
123.7029
11
5.6001986
21
124.6932133
0
LINE
8
DEFAULT_255_1_234
10
5.6001986
20
124.6932133
11
5.3006147
21
124.5831785
0
LINE
8
DEFAULT_255_1_234
10
5.3006147
20
124.5831785
11
5.3006147
21
124.7181117
0
LINE
8
DEFAULT_255_1_234
10
5.3006147
20
124.7181117
11
5.7262969
21
124.8779433
0
LINE
8
DEFAULT_255_1_234
10
5.7262969
20
124.8779433
11
5.7495889
21
124.8779433
0
LINE
8
DEFAULT_255_1_234
10
6.9182068
20
124.3944327
11
6.9182068
21
124.2016709
0
LINE
8
DEFAULT_255_1_234
10
6.1800901
20
124.1815916
11
6.1800901
21
124.3799755
0
LINE
8
DEFAULT_255_1_234
10
6.7696197
20
124.1615123
11
6.7696197
21
124.4048739
0
LINE
8
DEFAULT_255_1_234
10
6.3286772
20
124.4161184
11
6.3286772
21
124.1783789
0
ARC
8
DEFAULT_255_1_234
10
5.6934958
20
124.1967805
40
1.2247208
50
353.8441951
51
0.2287902
0
ARC
8
DEFAULT_255_1_234
10
6.1574462
20
124.1449806
40
0.7578929
50
344.4934747
51
353.9765454
0
ARC
8
DEFAULT_255_1_234
10
6.4567052
20
124.0598981
40
0.4467846
50
329.2803592
51
344.7472793
0
ARC
8
DEFAULT_255_1_234
10
6.5559877
20
124.0054018
40
0.3336173
50
324.9352394
51
328.6160465
0
ARC
8
DEFAULT_255_1_234
10
6.5936985
20
123.9790427
40
0.2876076
50
280.580143
51
324.9173126
0
ARC
8
DEFAULT_255_1_234
10
6.5535778
20
124.1461099
40
0.4592847
50
269.5977311
51
281.6734359
0
ARC
8
DEFAULT_255_1_234
10
6.5463684
20
124.1341173
40
0.4472986
50
256.6228859
51
270.51044
0
ARC
8
DEFAULT_255_1_234
10
6.5061661
20
123.9792877
40
0.2873874
50
215.8618325
51
257.2788573
0
ARC
8
DEFAULT_255_1_234
10
6.6082693
20
124.0477977
40
0.4102928
50
197.9693508
51
215.2623606
0
ARC
8
DEFAULT_255_1_234
10
6.8567809
20
124.1316709
40
0.6725652
50
187.8816417
51
198.2346507
0
ARC
8
DEFAULT_255_1_234
10
7.2526017
20
124.1888079
40
1.0724845
50
180.8976217
51
188.0055519
0
ARC
8
DEFAULT_255_1_234
10
7.5326205
20
124.1991777
40
1.3526448
50
180.7449369
51
181.1510016
0
ARC
8
DEFAULT_255_1_234
10
7.3748934
20
124.3848042
40
1.1948131
50
173.7675579
51
180.231553
0
ARC
8
DEFAULT_255_1_234
10
6.9231081
20
124.4358666
40
0.7401564
50
164.3058563
51
173.9002247
0
ARC
8
DEFAULT_255_1_234
10
6.631915
20
124.5197656
40
0.4371288
50
148.7922025
51
164.568378
0
ARC
8
DEFAULT_255_1_234
10
6.5367602
20
124.5728929
40
0.3282386
50
144.5883898
51
148.1176286
0
ARC
8
DEFAULT_255_1_234
10
6.50245
20
124.5968315
40
0.2864044
50
101.6440918
51
144.514236
0
ARC
8
DEFAULT_255_1_234
10
6.5449566
20
124.4279069
40
0.4604934
50
89.5284041
51
102.5819763
0
ARC
8
DEFAULT_255_1_234
10
6.5528654
20
124.4240018
40
0.464401
50
77.0437873
51
90.5081339
0
ARC
8
DEFAULT_255_1_234
10
6.5930656
20
124.5882615
40
0.2953195
50
48.2778575
51
77.4994676
0
ARC
8
DEFAULT_255_1_234
10
6.6003287
20
124.6011746
40
0.2808655
50
36.3142134
51
47.6305865
0
ARC
8
DEFAULT_255_1_234
10
6.5134594
20
124.5426515
40
0.3855453
50
18.2931786
51
35.6769206
0
ARC
8
DEFAULT_255_1_234
10
6.2591353
20
124.4553593
40
0.654423
50
8.024666
51
18.5605216
0
ARC
8
DEFAULT_255_1_234
10
5.8428273
20
124.3938792
40
1.0752407
50
1.1274072
51
8.1718305
0
ARC
8
DEFAULT_255_1_234
10
5.5192464
20
124.3811885
40
1.3990231
50
0.5424119
51
1.3863029
0
ARC
8
DEFAULT_255_1_234
10
5.7013841
20
124.4084342
40
1.0682415
50
359.8090433
51
4.9407866
0
ARC
8
DEFAULT_255_1_234
10
6.1223855
20
124.4460113
40
0.6455691
50
4.8362157
51
12.2904523
0
ARC
8
DEFAULT_255_1_234
10
6.397897
20
124.5073965
40
0.3633074
50
12.0805627
51
23.8173984
0
ARC
8
DEFAULT_255_1_234
10
6.5152676
20
124.5570919
40
0.2358723
50
24.2871213
51
31.3935614
0
ARC
8
DEFAULT_255_1_234
10
6.5677373
20
124.5914233
40
0.1732111
50
30.7407893
51
82.4657128
0
ARC
8
DEFAULT_255_1_234
10
6.5497507
20
124.5030691
40
0.263235
50
81.1060089
51
90.2184952
0
ARC
8
DEFAULT_255_1_234
10
6.5461806
20
124.5288924
40
0.2374236
50
89.3806855
51
105.6762551
0
ARC
8
DEFAULT_255_1_234
10
6.5278437
20
124.5955567
40
0.1682847
50
105.7981136
51
149.7388061
0
ARC
8
DEFAULT_255_1_234
10
6.6342515
20
124.531595
40
0.2924306
50
149.4208916
51
163.6286378
0
ARC
8
DEFAULT_255_1_234
10
6.8433403
20
124.467825
40
0.5110213
50
163.3763315
51
172.1410975
0
ARC
8
DEFAULT_255_1_234
10
7.1734122
20
124.4205518
40
0.8444586
50
172.0259487
51
178.0703232
0
ARC
8
DEFAULT_255_1_234
10
7.4764211
20
124.4061906
40
1.1477868
50
177.8631668
51
179.5044149
0
ARC
8
DEFAULT_255_1_234
10
7.3691616
20
124.1747389
40
1.0404907
50
179.7995573
51
185.2460446
0
ARC
8
DEFAULT_255_1_234
10
6.9648655
20
124.1364513
40
0.6343885
50
185.1411642
51
193.0079639
0
ARC
8
DEFAULT_255_1_234
10
6.7005128
20
124.0739641
40
0.3627568
50
192.7897626
51
205.2507664
0
ARC
8
DEFAULT_255_1_234
10
6.5958675
20
124.0272415
40
0.2481908
50
205.8005384
51
211.2537509
0
ARC
8
DEFAULT_255_1_234
10
6.5435115
20
123.992158
40
0.1852521
50
210.3789793
51
238.4008143
0
ARC
8
DEFAULT_255_1_234
10
6.5415637
20
123.9968376
40
0.1882621
50
239.6520629
51
265.9793761
0
ARC
8
DEFAULT_255_1_234
10
6.5500837
20
124.0640427
40
0.2559272
50
265.1315437
51
270.060332
0
ARC
8
DEFAULT_255_1_234
10
6.5529616
20
124.0316534
40
0.2235528
50
269.3314664
51
287.2178029
0
ARC
8
DEFAULT_255_1_234
10
6.5667468
20
123.9813279
40
0.1714108
50
287.7958004
51
329.080874
0
ARC
8
DEFAULT_255_1_234
10
6.4709925
20
124.041093
40
0.2842745
50
328.6634704
51
343.3325132
0
ARC
8
DEFAULT_255_1_234
10
6.2536945
20
124.1087863
40
0.5118644
50
343.0499468
51
351.9393422
0
ARC
8
DEFAULT_255_1_234
10
5.9070245
20
124.1598949
40
0.8622784
50
351.8069023
51
357.7959224
0
ARC
8
DEFAULT_255_1_234
10
5.5834801
20
124.1766721
40
1.1862365
50
357.5871873
51
359.2677531
0
LINE
8
DEFAULT_255_1_234
10
4.812423
20
132.0114663
11
4.9674355
21
132.0114663
0
LINE
8
DEFAULT_255_1_234
10
4.0670777
20
132.1704947
11
4.0670777
21
132.2829391
0
LINE
8
DEFAULT_255_1_234
10
4.9674355
20
132.4339357
11
4.812423
21
132.4339357
0
LINE
8
DEFAULT_255_1_234
10
4.2220902
20
132.2789232
11
4.2220902
21
132.1656757
0
ARC
8
DEFAULT_255_1_234
10
4.4193742
20
132.0711846
40
0.5513052
50
340.1774281
51
353.7814284
0
ARC
8
DEFAULT_255_1_234
10
4.5765095
20
132.0126582
40
0.3836379
50
311.4558989
51
340.4421614
0
ARC
8
DEFAULT_255_1_234
10
4.5731763
20
132.0237528
40
0.3941894
50
282.4333181
51
310.7513653
0
ARC
8
DEFAULT_255_1_234
10
4.5292502
20
132.2052679
40
0.5809175
50
269.9358511
51
282.809604
0
ARC
8
DEFAULT_255_1_234
10
4.5240568
20
132.3510212
40
0.7266847
50
270.0021091
51
270.3581957
0
ARC
8
DEFAULT_255_1_234
10
4.5187985
20
132.0909585
40
0.4666519
50
250.7884749
51
270.6489167
0
ARC
8
DEFAULT_255_1_234
10
4.501982
20
132.0272319
40
0.4009729
50
219.3627325
51
250.0611886
0
ARC
8
DEFAULT_255_1_234
10
4.5849031
20
132.0977042
40
0.5097822
50
193.5479632
51
219.5756669
0
ARC
8
DEFAULT_255_1_234
10
4.8220652
20
132.1592919
40
0.7547848
50
181.1218675
51
193.87563
0
ARC
8
DEFAULT_255_1_234
10
5.0290833
20
132.170358
40
0.9620055
50
179.9918545
51
181.5394234
0
ARC
8
DEFAULT_255_1_234
10
4.8439935
20
132.2866788
40
0.7769248
50
169.5837241
51
180.2757934
0
ARC
8
DEFAULT_255_1_234
10
4.6602873
20
132.3206229
40
0.590109
50
155.0365899
51
169.6003176
0
ARC
8
DEFAULT_255_1_234
10
4.5467337
20
132.3753677
40
0.4640625
50
136.783148
51
155.2472683
0
ARC
8
DEFAULT_255_1_234
10
4.5077814
20
132.4084562
40
0.4130255
50
121.7633186
51
136.428115
0
ARC
8
DEFAULT_255_1_234
10
4.5212776
20
132.3835227
40
0.4413323
50
95.6459699
51
121.5490577
0
ARC
8
DEFAULT_255_1_234
10
4.5370058
20
132.2726949
40
0.55319
50
89.924208
51
96.1377933
0
ARC
8
DEFAULT_255_1_234
10
4.5420491
20
132.2845542
40
0.5413475
50
76.6779277
51
90.4563316
0
ARC
8
DEFAULT_255_1_234
10
4.5814114
20
132.4436114
40
0.3775041
50
47.485847
51
76.9287264
0
ARC
8
DEFAULT_255_1_234
10
4.5667087
20
132.4336159
40
0.3948286
50
16.5424086
51
46.8933463
0
ARC
8
DEFAULT_255_1_234
10
4.4059244
20
132.3807861
40
0.564021
50
5.4072051
51
17.0365086
0
ARC
8
DEFAULT_255_1_234
10
4.2620261
20
132.3576679
40
0.5556559
50
7.8891745
51
15.9239216
0
ARC
8
DEFAULT_255_1_234
10
4.4607274
20
132.4153631
40
0.3487515
50
15.7653144
51
27.9410532
0
ARC
8
DEFAULT_255_1_234
10
4.5711492
20
132.474479
40
0.2235026
50
27.8166557
51
46.4008329
0
ARC
8
DEFAULT_255_1_234
10
4.5761135
20
132.4739082
40
0.2205286
50
47.4371857
51
75.0698205
0
ARC
8
DEFAULT_255_1_234
10
4.5452529
20
132.3664765
40
0.3322915
50
74.7008593
51
87.8124495
0
ARC
8
DEFAULT_255_1_234
10
4.5379217
20
132.2608844
40
0.4380987
50
87.3814673
51
90.0240855
0
ARC
8
DEFAULT_255_1_234
10
4.534076
20
132.3786291
40
0.3203749
50
89.3451631
51
108.5745436
0
ARC
8
DEFAULT_255_1_234
10
4.5203865
20
132.4299908
40
0.2673494
50
109.2998449
51
143.3037509
0
ARC
8
DEFAULT_255_1_234
10
4.5965938
20
132.3713881
40
0.3634757
50
143.0753173
51
163.1916937
0
ARC
8
DEFAULT_255_1_234
10
4.7917666
20
132.3097967
40
0.5681262
50
162.9373603
51
174.6208611
0
ARC
8
DEFAULT_255_1_234
10
5.0543708
20
132.281001
40
0.8322832
50
174.3419979
51
180.1430411
0
ARC
8
DEFAULT_255_1_234
10
4.9612864
20
132.1615698
40
0.7392076
50
179.6817502
51
189.150529
0
ARC
8
DEFAULT_255_1_234
10
4.7112112
20
132.119919
40
0.4856932
50
188.9910863
51
203.5773039
0
ARC
8
DEFAULT_255_1_234
10
4.6032445
20
132.0751211
40
0.3688271
50
203.9077269
51
215.1312379
0
ARC
8
DEFAULT_255_1_234
10
4.5109539
20
132.0035941
40
0.2522457
50
213.9071664
51
263.8849284
0
ARC
8
DEFAULT_255_1_234
10
4.5234868
20
132.0820518
40
0.3316174
50
263.1758525
51
270.1031083
0
ARC
8
DEFAULT_255_1_234
10
4.526696
20
132.2067365
40
0.4563091
50
269.6719807
51
279.0609165
0
ARC
8
DEFAULT_255_1_234
10
4.5533728
20
132.0454907
40
0.2928759
50
278.8750225
51
293.6346586
0
ARC
8
DEFAULT_255_1_234
10
4.5853936
20
131.97029
40
0.2111472
50
293.8553404
51
310.0518804
0
ARC
8
DEFAULT_255_1_234
10
4.585879
20
131.9640516
40
0.2060917
50
311.0646779
51
332.0108348
0
ARC
8
DEFAULT_255_1_234
10
4.4666517
20
132.0297978
40
0.3422352
50
331.6588543
51
343.2878891
0
ARC
8
DEFAULT_255_1_234
10
4.2604032
20
132.0931798
40
0.5580003
50
343.1446044
51
351.010618
0
ARC
8
DEFAULT_255_1_234
10
4.1062678
20
132.1212871
40
0.7146438
50
350.7157277
51
351.1602153
0
LINE
8
DEFAULT_255_1_234
10
5.9055426
20
131.7616792
11
5.9055426
21
131.6404
0
LINE
8
DEFAULT_255_1_234
10
5.9055426
20
131.6404
11
5.1393147
21
131.6404
0
LINE
8
DEFAULT_255_1_234
10
5.1393147
20
131.6404
11
5.1393147
21
131.7472221
0
LINE
8
DEFAULT_255_1_234
10
5.1393147
20
131.7472221
11
5.5441144
21
132.1969995
0
LINE
8
DEFAULT_255_1_234
10
5.265413
20
132.4652595
11
5.1168259
21
132.4652595
0
LINE
8
DEFAULT_255_1_234
10
5.6316603
20
132.1014218
11
5.3184225
21
131.7616792
0
LINE
8
DEFAULT_255_1_234
10
5.3184225
20
131.7616792
11
5.9055426
21
131.7616792
0
ARC
8
DEFAULT_255_1_234
10
4.1950977
20
133.3899527
40
1.8008286
50
318.5132453
51
320.7828378
0
ARC
8
DEFAULT_255_1_234
10
4.7237951
20
132.9596426
40
1.1191493
50
320.7372736
51
323.9737074
0
ARC
8
DEFAULT_255_1_234
10
5.1157808
20
132.6756361
40
0.6350923
50
323.8961724
51
328.6421089
0
ARC
8
DEFAULT_255_1_234
10
5.3204403
20
132.5494031
40
0.3946393
50
328.8299013
51
331.789948
0
ARC
8
DEFAULT_255_1_234
10
5.4201582
20
132.4979509
40
0.2824501
50
331.4255242
51
352.9364833
0
ARC
8
DEFAULT_255_1_234
10
5.4338082
20
132.4948976
40
0.2685315
50
353.2248685
51
0.0169286
0
ARC
8
DEFAULT_255_1_234
10
5.4547959
20
132.497195
40
0.2475536
50
359.4866256
51
15.9339782
0
ARC
8
DEFAULT_255_1_234
10
5.5054944
20
132.5108286
40
0.1950618
50
16.1714718
51
43.5284424
0
ARC
8
DEFAULT_255_1_234
10
5.5132253
20
132.5185573
40
0.184134
50
43.4415429
51
83.1661404
0
ARC
8
DEFAULT_255_1_234
10
5.4998171
20
132.4448771
40
0.258926
50
82.160215
51
90.1505798
0
ARC
8
DEFAULT_255_1_234
10
5.4966599
20
132.3911865
40
0.3126255
50
89.5460705
51
102.5418777
0
ARC
8
DEFAULT_255_1_234
10
5.4723685
20
132.4942665
40
0.2067346
50
102.1739365
51
129.2061916
0
ARC
8
DEFAULT_255_1_234
10
5.4644756
20
132.5067094
40
0.1921118
50
129.7279328
51
135.7542026
0
ARC
8
DEFAULT_255_1_234
10
5.4766284
20
132.4970045
40
0.2075944
50
136.175737
51
166.3674722
0
ARC
8
DEFAULT_255_1_234
10
5.5773203
20
132.4700182
40
0.3118201
50
165.9092917
51
178.8683903
0
ARC
8
DEFAULT_255_1_234
10
5.6638065
20
132.4653179
40
0.3983935
50
178.438168
51
180.0083905
0
ARC
8
DEFAULT_255_1_234
10
5.5236667
20
132.4692231
40
0.4068601
50
163.2878735
51
180.5581814
0
ARC
8
DEFAULT_255_1_234
10
5.4434928
20
132.491284
40
0.3237344
50
133.454115
51
162.9470031
0
ARC
8
DEFAULT_255_1_234
10
5.4613469
20
132.4723
40
0.349795
50
100.7869394
51
133.4384016
0
ARC
8
DEFAULT_255_1_234
10
5.4961241
20
132.3174319
40
0.5084616
50
89.6605301
51
101.3704185
0
ARC
8
DEFAULT_255_1_234
10
5.502758
20
132.3235496
40
0.502348
50
78.2171172
51
90.4130393
0
ARC
8
DEFAULT_255_1_234
10
5.5382658
20
132.4859637
40
0.3361092
50
55.9268222
51
78.4888551
0
ARC
8
DEFAULT_255_1_234
10
5.5579098
20
132.5198324
40
0.2970617
50
47.9292255
51
55.4054003
0
ARC
8
DEFAULT_255_1_234
10
5.5680659
20
132.5301502
40
0.2825983
50
4.3347696
51
48.0560701
0
ARC
8
DEFAULT_255_1_234
10
5.4585052
20
132.5131601
40
0.393225
50
359.925209
51
5.5967654
0
ARC
8
DEFAULT_255_1_234
10
5.5013944
20
132.5187816
40
0.3503892
50
337.8914096
51
358.9967724
0
ARC
8
DEFAULT_255_1_234
10
5.2300356
20
132.6234706
40
0.6412172
50
326.9135351
51
338.3505194
0
ARC
8
DEFAULT_255_1_234
10
4.831466
20
132.8789284
40
1.1146189
50
319.6472867
51
327.095818
0
ARC
8
DEFAULT_255_1_234
10
4.4481663
20
133.1951
40
1.6114559
50
317.2586784
51
319.9046139
0
LINE
8
DEFAULT_255_1_234
10
4.3112299
20
140.7473211
11
4.5931439
21
140.2991501
0
LINE
8
DEFAULT_255_1_234
10
4.5931439
20
140.2991501
11
4.8734516
21
140.7473211
0
LINE
8
DEFAULT_255_1_234
10
4.8734516
20
140.7473211
11
5.0549689
21
140.7473211
0
LINE
8
DEFAULT_255_1_234
10
5.0549689
20
140.7473211
11
4.6855089
21
140.1674296
0
LINE
8
DEFAULT_255_1_234
10
4.6855089
20
140.1674296
11
5.0638038
21
139.5779
0
LINE
8
DEFAULT_255_1_234
10
5.0638038
20
139.5779
11
4.8806802
21
139.5779
0
LINE
8
DEFAULT_255_1_234
10
4.8806802
20
139.5779
11
4.5931439
21
140.0341027
0
LINE
8
DEFAULT_255_1_234
10
4.5931439
20
140.0341027
11
4.3040014
21
139.5779
0
LINE
8
DEFAULT_255_1_234
10
4.3040014
20
139.5779
11
4.1216809
21
139.5779
0
LINE
8
DEFAULT_255_1_234
10
4.1216809
20
139.5779
11
4.500779
21
140.1674296
0
LINE
8
DEFAULT_255_1_234
10
4.500779
20
140.1674296
11
4.1305158
21
140.7473211
0
LINE
8
DEFAULT_255_1_234
10
4.1305158
20
140.7473211
11
4.3112299
21
140.7473211
0
LINE
8
DEFAULT_255_1_234
10
5.9593426
20
140.7473211
11
5.9593426
21
140.663791
0
LINE
8
DEFAULT_255_1_234
10
5.9593426
20
140.663791
11
5.4750288
21
139.5779
0
LINE
8
DEFAULT_255_1_234
10
5.4750288
20
139.5779
11
5.3192131
21
139.5779
0
LINE
8
DEFAULT_255_1_234
10
5.3192131
20
139.5779
11
5.8019206
21
140.6252387
0
LINE
8
DEFAULT_255_1_234
10
5.8019206
20
140.6252387
11
5.1690196
21
140.6252387
0
LINE
8
DEFAULT_255_1_234
10
5.1690196
20
140.6252387
11
5.1690196
21
140.7473211
0
LINE
8
DEFAULT_255_1_234
10
5.1690196
20
140.7473211
11
5.9593426
21
140.7473211
0
LINE
8
DEFAULT_255_1_234
10
4.3112299
20
148.6848211
11
4.5931439
21
148.2366501
0
LINE
8
DEFAULT_255_1_234
10
4.5931439
20
148.2366501
11
4.8734516
21
148.6848211
0
LINE
8
DEFAULT_255_1_234
10
4.8734516
20
148.6848211
11
5.0549689
21
148.6848211
0
LINE
8
DEFAULT_255_1_234
10
5.0549689
20
148.6848211
11
4.6855089
21
148.1049296
0
LINE
8
DEFAULT_255_1_234
10
4.6855089
20
148.1049296
11
5.0638038
21
147.5154
0
LINE
8
DEFAULT_255_1_234
10
5.0638038
20
147.5154
11
4.8806802
21
147.5154
0
LINE
8
DEFAULT_255_1_234
10
4.8806802
20
147.5154
11
4.5931439
21
147.9716027
0
LINE
8
DEFAULT_255_1_234
10
4.5931439
20
147.9716027
11
4.3040014
21
147.5154
0
LINE
8
DEFAULT_255_1_234
10
4.3040014
20
147.5154
11
4.1216809
21
147.5154
0
LINE
8
DEFAULT_255_1_234
10
4.1216809
20
147.5154
11
4.500779
21
148.1049296
0
LINE
8
DEFAULT_255_1_234
10
4.500779
20
148.1049296
11
4.1305158
21
148.6848211
0
LINE
8
DEFAULT_255_1_234
10
4.1305158
20
148.6848211
11
4.3112299
21
148.6848211
0
LINE
8
DEFAULT_255_1_234
10
5.7609587
20
148.6856243
11
5.7874634
21
148.6856243
0
LINE
8
DEFAULT_255_1_234
10
5.7874634
20
148.6856243
11
5.7874634
21
148.559526
0
LINE
8
DEFAULT_255_1_234
10
5.7874634
20
148.559526
11
5.7601555
21
148.559526
0
LINE
8
DEFAULT_255_1_234
10
5.2131941
20
147.9603583
11
5.2131941
21
148.0173836
0
LINE
8
DEFAULT_255_1_234
10
5.3625845
20
147.9981075
11
5.3625845
21
147.9434917
0
ARC
8
DEFAULT_255_1_234
10
5.7653903
20
148.0597455
40
0.4998079
50
90.6001036
51
104.514704
0
ARC
8
DEFAULT_255_1_234
10
5.7265419
20
148.2042131
40
0.3502176
50
104.2855254
51
133.862935
0
ARC
8
DEFAULT_255_1_234
10
5.7429176
20
148.193383
40
0.3693984
50
134.5302688
51
161.6210873
0
ARC
8
DEFAULT_255_1_234
10
5.9082365
20
148.1350895
40
0.5446739
50
161.2849839
51
174.2076652
0
ARC
8
DEFAULT_255_1_234
10
6.0489302
20
148.1156787
40
0.6866274
50
173.7810589
51
174.9254635
0
ARC
8
DEFAULT_255_1_234
10
5.5939134
20
147.9773839
40
0.3033419
50
95.8330959
51
138.9954921
0
ARC
8
DEFAULT_255_1_234
10
5.616249
20
147.8495375
40
0.4328947
50
89.8753725
51
97.0544009
0
ARC
8
DEFAULT_255_1_234
10
5.6209956
20
147.9330748
40
0.3493769
50
71.6407809
51
90.6240094
0
ARC
8
DEFAULT_255_1_234
10
5.6360529
20
147.9885082
40
0.2920396
50
39.6367836
51
71.019018
0
ARC
8
DEFAULT_255_1_234
10
5.5724002
20
147.9334998
40
0.3761538
50
10.658731
51
39.9043955
0
ARC
8
DEFAULT_255_1_234
10
5.4176085
20
147.8998686
40
0.5345136
50
359.682601
51
11.132623
0
ARC
8
DEFAULT_255_1_234
10
5.4136216
20
147.892801
40
0.5385081
50
347.2486944
51
0.4369317
0
ARC
8
DEFAULT_255_1_234
10
5.5803693
20
147.8526807
40
0.3670249
50
318.1409698
51
347.6118597
0
ARC
8
DEFAULT_255_1_234
10
5.6128686
20
147.8259702
40
0.3250007
50
275.6342139
51
317.8248465
0
ARC
8
DEFAULT_255_1_234
10
5.5907797
20
147.9559219
40
0.4565864
50
269.8874292
51
276.7917694
0
ARC
8
DEFAULT_255_1_234
10
5.5852868
20
147.8533743
40
0.3540676
50
246.9140195
51
270.7437342
0
ARC
8
DEFAULT_255_1_234
10
5.5859258
20
147.8391384
40
0.3412781
50
218.1665114
51
245.878116
0
ARC
8
DEFAULT_255_1_234
10
5.6738719
20
147.9127279
40
0.455911
50
191.4115814
51
218.6077802
0
ARC
8
DEFAULT_255_1_234
10
5.8676808
20
147.9561833
40
0.6545001
50
179.6345085
51
191.7836486
0
ARC
8
DEFAULT_255_1_234
10
6.4259145
20
148.0240697
40
1.2127388
50
171.4525249
51
180.3158839
0
ARC
8
DEFAULT_255_1_234
10
5.9864021
20
148.0924608
40
0.7679464
50
157.9802646
51
171.6246686
0
ARC
8
DEFAULT_255_1_234
10
5.7650042
20
148.1807421
40
0.5296008
50
141.4298019
51
157.854097
0
ARC
8
DEFAULT_255_1_234
10
5.7008362
20
148.2261381
40
0.4511509
50
102.8715806
51
140.8564722
0
ARC
8
DEFAULT_255_1_234
10
5.7655978
20
147.9821552
40
0.7034845
50
90.3778349
51
103.5869322
0
ARC
8
DEFAULT_255_1_234
10
5.5917754
20
147.921673
40
0.2370698
50
89.8751008
51
126.2071704
0
ARC
8
DEFAULT_255_1_234
10
5.5963544
20
147.9062303
40
0.2522934
50
124.9745049
51
144.895901
0
ARC
8
DEFAULT_255_1_234
10
5.5787734
20
147.920556
40
0.2296779
50
145.2974905
51
160.2660252
0
ARC
8
DEFAULT_255_1_234
10
5.8860273
20
147.9403071
40
0.5234525
50
179.6514266
51
190.2855912
0
ARC
8
DEFAULT_255_1_234
10
5.716641
20
147.9083786
40
0.3510893
50
190.0945431
51
207.5098196
0
ARC
8
DEFAULT_255_1_234
10
5.660068
20
147.8814623
40
0.288489
50
207.9583163
51
216.3251085
0
ARC
8
DEFAULT_255_1_234
10
5.6260788
20
147.8535105
40
0.2445587
50
215.7661442
51
232.5456785
0
ARC
8
DEFAULT_255_1_234
10
5.5877771
20
147.8048482
40
0.1826382
50
232.8005391
51
270.6605633
0
ARC
8
DEFAULT_255_1_234
10
5.5923472
20
147.8412612
40
0.2190529
50
269.35537
51
288.4744281
0
ARC
8
DEFAULT_255_1_234
10
5.6016369
20
147.8063118
40
0.1829749
50
289.1833337
51
322.9683818
0
ARC
8
DEFAULT_255_1_234
10
5.5404891
20
147.8545391
40
0.2608399
50
322.6007884
51
346.5182367
0
ARC
8
DEFAULT_255_1_234
10
5.4247487
20
147.8840616
40
0.3802777
50
346.2582162
51
358.7741648
0
ARC
8
DEFAULT_255_1_234
10
5.3229156
20
147.8895965
40
0.4822176
50
358.3755224
51
0.0098023
0
ARC
8
DEFAULT_255_1_234
10
5.3985343
20
147.8923657
40
0.4066078
50
359.6214041
51
11.2839074
0
ARC
8
DEFAULT_255_1_234
10
5.526249
20
147.9190066
40
0.2761514
50
11.0482309
51
31.8146458
0
ARC
8
DEFAULT_255_1_234
10
5.5571533
20
147.9357584
40
0.2410679
50
32.3035391
51
38.082671
0
ARC
8
DEFAULT_255_1_234
10
5.5992193
20
147.9738662
40
0.1844966
50
36.825067
51
85.7415724
0
ARC
8
DEFAULT_255_1_234
10
5.5925026
20
147.9238301
40
0.2349122
50
85.0140713
51
90.0513278
0
LINE
8
DEFAULT_255_1_234
10
4.3112299
20
156.6223211
11
4.5931439
21
156.1741501
0
LINE
8
DEFAULT_255_1_234
10
4.5931439
20
156.1741501
11
4.8734516
21
156.6223211
0
LINE
8
DEFAULT_255_1_234
10
4.8734516
20
156.6223211
11
5.0549689
21
156.6223211
0
LINE
8
DEFAULT_255_1_234
10
5.0549689
20
156.6223211
11
4.6855089
21
156.0424296
0
LINE
8
DEFAULT_255_1_234
10
4.6855089
20
156.0424296
11
5.0638038
21
155.4529
0
LINE
8
DEFAULT_255_1_234
10
5.0638038
20
155.4529
11
4.8806802
21
155.4529
0
LINE
8
DEFAULT_255_1_234
10
4.8806802
20
155.4529
11
4.5931439
21
155.9091027
0
LINE
8
DEFAULT_255_1_234
10
4.5931439
20
155.9091027
11
4.3040014
21
155.4529
0
LINE
8
DEFAULT_255_1_234
10
4.3040014
20
155.4529
11
4.1216809
21
155.4529
0
LINE
8
DEFAULT_255_1_234
10
4.1216809
20
155.4529
11
4.500779
21
156.0424296
0
LINE
8
DEFAULT_255_1_234
10
4.500779
20
156.0424296
11
4.1305158
21
156.6223211
0
LINE
8
DEFAULT_255_1_234
10
4.1305158
20
156.6223211
11
4.3112299
21
156.6223211
0
LINE
8
DEFAULT_255_1_234
10
5.3914987
20
156.0086963
11
5.272629
21
156.0392169
0
LINE
8
DEFAULT_255_1_234
10
5.272629
20
156.0392169
11
5.3320639
21
156.6223211
0
LINE
8
DEFAULT_255_1_234
10
5.3320639
20
156.6223211
11
5.9312315
21
156.6223211
0
LINE
8
DEFAULT_255_1_234
10
5.9312315
20
156.6223211
11
5.9312315
21
156.4849784
0
LINE
8
DEFAULT_255_1_234
10
5.9312315
20
156.4849784
11
5.4581622
21
156.4849784
0
LINE
8
DEFAULT_255_1_234
10
5.4581622
20
156.4849784
11
5.4228225
21
156.1661184
0
LINE
8
DEFAULT_255_1_234
10
5.230864
20
155.7605156
11
5.3714194
21
155.7605156
0
LINE
8
DEFAULT_255_1_234
10
5.4308542
20
156.0408232
11
5.3914987
21
156.0086963
0
ARC
8
DEFAULT_255_1_234
10
5.6083009
20
155.848123
40
0.3681349
50
93.7182161
51
120.2538958
0
ARC
8
DEFAULT_255_1_234
10
5.6177272
20
155.7673394
40
0.449379
50
89.9660152
51
94.2496022
0
ARC
8
DEFAULT_255_1_234
10
5.6218006
20
155.8262549
40
0.390482
50
73.8043271
51
90.5585896
0
ARC
8
DEFAULT_255_1_234
10
5.6452903
20
155.9120602
40
0.3015334
50
41.3071453
51
73.5430202
0
ARC
8
DEFAULT_255_1_234
10
5.603673
20
155.8762324
40
0.3564457
50
13.5075983
51
41.2174222
0
ARC
8
DEFAULT_255_1_234
10
5.4394934
20
155.8332486
40
0.5261351
50
1.1331335
51
13.8829381
0
ARC
8
DEFAULT_255_1_234
10
5.2983303
20
155.8256665
40
0.6674378
50
359.9919444
51
1.544251
0
ARC
8
DEFAULT_255_1_234
10
5.4260129
20
155.821528
40
0.5397702
50
347.8572367
51
0.4293338
0
ARC
8
DEFAULT_255_1_234
10
5.6010447
20
155.7818736
40
0.3603188
50
323.673004
51
348.1672506
0
ARC
8
DEFAULT_255_1_234
10
5.6304955
20
155.7639168
40
0.3259678
50
316.8171152
51
323.1492751
0
ARC
8
DEFAULT_255_1_234
10
5.6366144
20
155.760246
40
0.3189975
50
281.8396411
51
316.5457803
0
ARC
8
DEFAULT_255_1_234
10
5.5990408
20
155.9157762
40
0.4789527
50
269.5770101
51
282.4214771
0
ARC
8
DEFAULT_255_1_234
10
5.5919219
20
155.8944125
40
0.45759
50
256.2427136
51
270.4486331
0
ARC
8
DEFAULT_255_1_234
10
5.5620121
20
155.7744229
40
0.3339303
50
228.9023911
51
256.3314342
0
ARC
8
DEFAULT_255_1_234
10
5.5546354
20
155.7627746
40
0.32031
50
193.753695
51
228.5271154
0
ARC
8
DEFAULT_255_1_234
10
5.6784308
20
155.79908
40
0.4492253
50
184.924711
51
194.497588
0
ARC
8
DEFAULT_255_1_234
10
5.6976875
20
155.8026591
40
0.3289787
50
187.3600538
51
198.6732863
0
ARC
8
DEFAULT_255_1_234
10
5.5927169
20
155.7662674
40
0.217884
50
198.4451669
51
217.794479
0
ARC
8
DEFAULT_255_1_234
10
5.5631344
20
155.7453085
40
0.1816698
50
218.2887171
51
228.5612368
0
ARC
8
DEFAULT_255_1_234
10
5.5729131
20
155.7584963
40
0.1980329
50
228.9654866
51
258.1234728
0
ARC
8
DEFAULT_255_1_234
10
5.5934841
20
155.8465833
40
0.2884748
50
257.7258293
51
270.401361
0
ARC
8
DEFAULT_255_1_234
10
5.5979727
20
155.8020821
40
0.2439788
50
269.4204404
51
286.4209037
0
ARC
8
DEFAULT_255_1_234
10
5.6128215
20
155.7481657
40
0.1880666
50
286.7251356
51
320.600362
0
ARC
8
DEFAULT_255_1_234
10
5.574504
20
155.7792595
40
0.2374121
50
320.6712579
51
344.5441685
0
ARC
8
DEFAULT_255_1_234
10
5.4588366
20
155.8132045
40
0.3579479
50
344.2412205
51
356.7357071
0
ARC
8
DEFAULT_255_1_234
10
5.3339515
20
155.8235444
40
0.4832297
50
356.3548756
51
0.0500261
0
ARC
8
DEFAULT_255_1_234
10
5.4676024
20
155.826665
40
0.3495889
50
359.5576869
51
12.953486
0
ARC
8
DEFAULT_255_1_234
10
5.5730921
20
155.8522434
40
0.2410532
50
12.6490276
51
41.6081334
0
ARC
8
DEFAULT_255_1_234
10
5.5961292
20
155.8718321
40
0.2108218
50
41.7850273
51
85.9892764
0
ARC
8
DEFAULT_255_1_234
10
5.5838029
20
155.7905462
40
0.2928454
50
84.6957577
51
90.0676183
0
ARC
8
DEFAULT_255_1_234
10
5.5814513
20
155.7236716
40
0.3597255
50
89.6804936
51
99.1614436
0
ARC
8
DEFAULT_255_1_234
10
5.5609144
20
155.8464131
40
0.235281
50
98.9830931
51
113.8908934
0
ARC
8
DEFAULT_255_1_234
10
5.5379554
20
155.9005587
40
0.176479
50
114.1950727
51
127.3641004
0
LINE
8
DEFAULT_255_1_234
10
4.4170299
20
164.5598211
11
4.6989439
21
164.1116501
0
LINE
8
DEFAULT_255_1_234
10
4.6989439
20
164.1116501
11
4.9792516
21
164.5598211
0
LINE
8
DEFAULT_255_1_234
10
4.9792516
20
164.5598211
11
5.1607689
21
164.5598211
0
LINE
8
DEFAULT_255_1_234
10
5.1607689
20
164.5598211
11
4.7913089
21
163.9799296
0
LINE
8
DEFAULT_255_1_234
10
4.7913089
20
163.9799296
11
5.1696038
21
163.3904
0
LINE
8
DEFAULT_255_1_234
10
5.1696038
20
163.3904
11
4.9864802
21
163.3904
0
LINE
8
DEFAULT_255_1_234
10
4.9864802
20
163.3904
11
4.6989439
21
163.8466027
0
LINE
8
DEFAULT_255_1_234
10
4.6989439
20
163.8466027
11
4.4098014
21
163.3904
0
LINE
8
DEFAULT_255_1_234
10
4.4098014
20
163.3904
11
4.2274809
21
163.3904
0
LINE
8
DEFAULT_255_1_234
10
4.2274809
20
163.3904
11
4.606579
21
163.9799296
0
LINE
8
DEFAULT_255_1_234
10
4.606579
20
163.9799296
11
4.2363158
21
164.5598211
0
LINE
8
DEFAULT_255_1_234
10
4.2363158
20
164.5598211
11
4.4170299
21
164.5598211
0
LINE
8
DEFAULT_255_1_234
10
5.937438
20
164.5598211
11
5.937438
21
163.783152
0
LINE
8
DEFAULT_255_1_234
10
5.937438
20
163.783152
11
6.0996791
21
163.783152
0
LINE
8
DEFAULT_255_1_234
10
6.0996791
20
163.783152
11
6.0996791
21
163.6618728
0
LINE
8
DEFAULT_255_1_234
10
6.0996791
20
163.6618728
11
5.937438
21
163.6618728
0
LINE
8
DEFAULT_255_1_234
10
5.937438
20
163.6618728
11
5.937438
21
163.3904
0
LINE
8
DEFAULT_255_1_234
10
5.937438
20
163.3904
11
5.7880477
21
163.3904
0
LINE
8
DEFAULT_255_1_234
10
5.7880477
20
163.3904
11
5.7880477
21
163.6618728
0
LINE
8
DEFAULT_255_1_234
10
5.7880477
20
163.6618728
11
5.2555434
21
163.6618728
0
LINE
8
DEFAULT_255_1_234
10
5.2555434
20
163.6618728
11
5.2555434
21
163.7494187
0
LINE
8
DEFAULT_255_1_234
10
5.2555434
20
163.7494187
11
5.7792127
21
164.5598211
0
LINE
8
DEFAULT_255_1_234
10
5.7792127
20
164.5598211
11
5.937438
21
164.5598211
0
LINE
8
DEFAULT_255_1_234
10
5.7703778
20
164.3244912
11
5.4242099
21
163.783152
0
LINE
8
DEFAULT_255_1_234
10
5.4242099
20
163.783152
11
5.7880477
21
163.783152
0
LINE
8
DEFAULT_255_1_234
10
5.7880477
20
163.783152
11
5.7880477
21
164.3566181
0
LINE
8
DEFAULT_255_1_234
10
5.7880477
20
164.3566181
11
5.7703778
21
164.3244912
0
LINE
8
DEFAULT_255_1_234
10
4.803323
20
171.6989663
11
4.9583355
21
171.6989663
0
LINE
8
DEFAULT_255_1_234
10
4.0579777
20
171.8579947
11
4.0579777
21
171.9704391
0
LINE
8
DEFAULT_255_1_234
10
4.9583355
20
172.1214357
11
4.803323
21
172.1214357
0
LINE
8
DEFAULT_255_1_234
10
4.2129902
20
171.9664232
11
4.2129902
21
171.8531757
0
ARC
8
DEFAULT_255_1_234
10
4.4102742
20
171.7586846
40
0.5513052
50
340.1774281
51
353.7814284
0
ARC
8
DEFAULT_255_1_234
10
4.5674095
20
171.7001582
40
0.3836379
50
311.4558989
51
340.4421614
0
ARC
8
DEFAULT_255_1_234
10
4.5640763
20
171.7112528
40
0.3941894
50
282.4333181
51
310.7513653
0
ARC
8
DEFAULT_255_1_234
10
4.5201502
20
171.8927679
40
0.5809175
50
269.9358511
51
282.809604
0
ARC
8
DEFAULT_255_1_234
10
4.5149568
20
172.0385212
40
0.7266847
50
270.0021091
51
270.3581957
0
ARC
8
DEFAULT_255_1_234
10
4.5096985
20
171.7784585
40
0.4666519
50
250.7884749
51
270.6489167
0
ARC
8
DEFAULT_255_1_234
10
4.492882
20
171.7147319
40
0.4009729
50
219.3627325
51
250.0611886
0
ARC
8
DEFAULT_255_1_234
10
4.5758031
20
171.7852042
40
0.5097822
50
193.5479632
51
219.5756669
0
ARC
8
DEFAULT_255_1_234
10
4.8129652
20
171.8467919
40
0.7547848
50
181.1218675
51
193.87563
0
ARC
8
DEFAULT_255_1_234
10
5.0199833
20
171.857858
40
0.9620055
50
179.9918545
51
181.5394234
0
ARC
8
DEFAULT_255_1_234
10
4.8348935
20
171.9741788
40
0.7769248
50
169.5837241
51
180.2757934
0
ARC
8
DEFAULT_255_1_234
10
4.6511873
20
172.0081229
40
0.590109
50
155.0365899
51
169.6003176
0
ARC
8
DEFAULT_255_1_234
10
4.5376337
20
172.0628677
40
0.4640625
50
136.783148
51
155.2472683
0
ARC
8
DEFAULT_255_1_234
10
4.4986814
20
172.0959562
40
0.4130255
50
121.7633186
51
136.428115
0
ARC
8
DEFAULT_255_1_234
10
4.5121776
20
172.0710227
40
0.4413323
50
95.6459699
51
121.5490577
0
ARC
8
DEFAULT_255_1_234
10
4.5279058
20
171.9601949
40
0.55319
50
89.924208
51
96.1377933
0
ARC
8
DEFAULT_255_1_234
10
4.5329491
20
171.9720542
40
0.5413475
50
76.6779277
51
90.4563316
0
ARC
8
DEFAULT_255_1_234
10
4.5723114
20
172.1311114
40
0.3775041
50
47.485847
51
76.9287264
0
ARC
8
DEFAULT_255_1_234
10
4.5576087
20
172.1211159
40
0.3948286
50
16.5424086
51
46.8933463
0
ARC
8
DEFAULT_255_1_234
10
4.3968244
20
172.0682861
40
0.564021
50
5.4072051
51
17.0365086
0
ARC
8
DEFAULT_255_1_234
10
4.2529261
20
172.0451679
40
0.5556559
50
7.8891745
51
15.9239216
0
ARC
8
DEFAULT_255_1_234
10
4.4516274
20
172.1028631
40
0.3487515
50
15.7653144
51
27.9410532
0
ARC
8
DEFAULT_255_1_234
10
4.5620492
20
172.161979
40
0.2235026
50
27.8166557
51
46.4008329
0
ARC
8
DEFAULT_255_1_234
10
4.5670135
20
172.1614082
40
0.2205286
50
47.4371857
51
75.0698205
0
ARC
8
DEFAULT_255_1_234
10
4.5361529
20
172.0539765
40
0.3322915
50
74.7008593
51
87.8124495
0
ARC
8
DEFAULT_255_1_234
10
4.5288217
20
171.9483844
40
0.4380987
50
87.3814673
51
90.0240855
0
ARC
8
DEFAULT_255_1_234
10
4.524976
20
172.0661291
40
0.3203749
50
89.3451631
51
108.5745436
0
ARC
8
DEFAULT_255_1_234
10
4.5112865
20
172.1174908
40
0.2673494
50
109.2998449
51
143.3037509
0
ARC
8
DEFAULT_255_1_234
10
4.5874938
20
172.0588881
40
0.3634757
50
143.0753173
51
163.1916937
0
ARC
8
DEFAULT_255_1_234
10
4.7826666
20
171.9972967
40
0.5681262
50
162.9373603
51
174.6208611
0
ARC
8
DEFAULT_255_1_234
10
5.0452708
20
171.968501
40
0.8322832
50
174.3419979
51
180.1430411
0
ARC
8
DEFAULT_255_1_234
10
4.9521864
20
171.8490698
40
0.7392076
50
179.6817502
51
189.150529
0
ARC
8
DEFAULT_255_1_234
10
4.7021112
20
171.807419
40
0.4856932
50
188.9910863
51
203.5773039
0
ARC
8
DEFAULT_255_1_234
10
4.5941445
20
171.7626211
40
0.3688271
50
203.9077269
51
215.1312379
0
ARC
8
DEFAULT_255_1_234
10
4.5018539
20
171.6910941
40
0.2522457
50
213.9071664
51
263.8849284
0
ARC
8
DEFAULT_255_1_234
10
4.5143868
20
171.7695518
40
0.3316174
50
263.1758525
51
270.1031083
0
ARC
8
DEFAULT_255_1_234
10
4.517596
20
171.8942365
40
0.4563091
50
269.6719807
51
279.0609165
0
ARC
8
DEFAULT_255_1_234
10
4.5442728
20
171.7329907
40
0.2928759
50
278.8750225
51
293.6346586
0
ARC
8
DEFAULT_255_1_234
10
4.5762936
20
171.65779
40
0.2111472
50
293.8553404
51
310.0518804
0
ARC
8
DEFAULT_255_1_234
10
4.576779
20
171.6515516
40
0.2060917
50
311.0646779
51
332.0108348
0
ARC
8
DEFAULT_255_1_234
10
4.4575517
20
171.7172978
40
0.3422352
50
331.6588543
51
343.2878891
0
ARC
8
DEFAULT_255_1_234
10
4.2513032
20
171.7806798
40
0.5580003
50
343.1446044
51
351.010618
0
ARC
8
DEFAULT_255_1_234
10
4.0971678
20
171.8087871
40
0.7146438
50
350.7157277
51
351.1602153
0
LINE
8
DEFAULT_255_1_234
10
5.6185444
20
172.5029433
11
5.6185444
21
171.3279
0
LINE
8
DEFAULT_255_1_234
10
5.6185444
20
171.3279
11
5.4691541
21
171.3279
0
LINE
8
DEFAULT_255_1_234
10
5.4691541
20
171.3279
11
5.4691541
21
172.3182133
0
LINE
8
DEFAULT_255_1_234
10
5.4691541
20
172.3182133
11
5.1695703
21
172.2081785
0
LINE
8
DEFAULT_255_1_234
10
5.1695703
20
172.2081785
11
5.1695703
21
172.3431117
0
LINE
8
DEFAULT_255_1_234
10
5.1695703
20
172.3431117
11
5.5952524
21
172.5029433
0
LINE
8
DEFAULT_255_1_234
10
5.5952524
20
172.5029433
11
5.6185444
21
172.5029433
0
LINE
8
DEFAULT_255_1_234
10
4.3112299
20
180.4348211
11
4.5931439
21
179.9866501
0
LINE
8
DEFAULT_255_1_234
10
4.5931439
20
179.9866501
11
4.8734516
21
180.4348211
0
LINE
8
DEFAULT_255_1_234
10
4.8734516
20
180.4348211
11
5.0549689
21
180.4348211
0
LINE
8
DEFAULT_255_1_234
10
5.0549689
20
180.4348211
11
4.6855089
21
179.8549296
0
LINE
8
DEFAULT_255_1_234
10
4.6855089
20
179.8549296
11
5.0638038
21
179.2654
0
LINE
8
DEFAULT_255_1_234
10
5.0638038
20
179.2654
11
4.8806802
21
179.2654
0
LINE
8
DEFAULT_255_1_234
10
4.8806802
20
179.2654
11
4.5931439
21
179.7216027
0
LINE
8
DEFAULT_255_1_234
10
4.5931439
20
179.7216027
11
4.3040014
21
179.2654
0
LINE
8
DEFAULT_255_1_234
10
4.3040014
20
179.2654
11
4.1216809
21
179.2654
0
LINE
8
DEFAULT_255_1_234
10
4.1216809
20
179.2654
11
4.500779
21
179.8549296
0
LINE
8
DEFAULT_255_1_234
10
4.500779
20
179.8549296
11
4.1305158
21
180.4348211
0
LINE
8
DEFAULT_255_1_234
10
4.1305158
20
180.4348211
11
4.3112299
21
180.4348211
0
LINE
8
DEFAULT_255_1_234
10
5.420413
20
179.8011169
11
5.420413
21
179.9223962
0
LINE
8
DEFAULT_255_1_234
10
5.420413
20
179.9223962
11
5.5320542
21
179.9223962
0
LINE
8
DEFAULT_255_1_234
10
5.341702
20
180.1280087
11
5.1931148
21
180.1280087
0
LINE
8
DEFAULT_255_1_234
10
5.1826735
20
179.5738188
11
5.3320639
21
179.5738188
0
LINE
8
DEFAULT_255_1_234
10
5.5320542
20
179.8011169
11
5.420413
21
179.8011169
0
ARC
8
DEFAULT_255_1_234
10
5.5291408
20
180.2616713
40
0.3392876
50
270.4919872
51
281.8951556
0
ARC
8
DEFAULT_255_1_234
10
5.553267
20
180.1514702
40
0.2264817
50
281.6691735
51
301.2943132
0
ARC
8
DEFAULT_255_1_234
10
5.570288
20
180.1203304
40
0.1910381
50
301.7833094
51
311.7545298
0
ARC
8
DEFAULT_255_1_234
10
5.5794456
20
180.1101748
40
0.1773635
50
311.7323931
51
354.2802411
0
ARC
8
DEFAULT_255_1_234
10
5.5068081
20
180.1226722
40
0.2509385
50
353.0937916
51
0.1181479
0
ARC
8
DEFAULT_255_1_234
10
5.4606866
20
180.1274386
40
0.2970898
50
359.1805295
51
15.0453146
0
ARC
8
DEFAULT_255_1_234
10
5.5952703
20
180.1666992
40
0.1569564
50
13.9577229
51
77.6713066
0
ARC
8
DEFAULT_255_1_234
10
5.5566232
20
180.0281949
40
0.3006298
50
76.1116566
51
90.7026153
0
ARC
8
DEFAULT_255_1_234
10
5.550707
20
180.0555545
40
0.2732568
50
89.5324876
51
103.531937
0
ARC
8
DEFAULT_255_1_234
10
5.5306514
20
180.1354884
40
0.1908508
50
103.2931773
51
133.5619022
0
ARC
8
DEFAULT_255_1_234
10
5.5262003
20
180.1414375
40
0.1834746
50
133.8349307
51
173.5344437
0
ARC
8
DEFAULT_255_1_234
10
5.5985046
20
180.1286213
40
0.2568033
50
172.5096846
51
180.1366907
0
ARC
8
DEFAULT_255_1_234
10
5.503394
20
180.1320622
40
0.3103056
50
155.3484492
51
180.7484736
0
ARC
8
DEFAULT_255_1_234
10
5.4985029
20
180.1291846
40
0.3070957
50
131.5744599
51
154.4798489
0
ARC
8
DEFAULT_255_1_234
10
5.5298176
20
180.097531
40
0.3515643
50
96.9875458
51
131.9690667
0
ARC
8
DEFAULT_255_1_234
10
5.5517656
20
179.9729636
40
0.4779224
50
89.8596053
51
97.7825159
0
ARC
8
DEFAULT_255_1_234
10
5.5565719
20
179.9467616
40
0.5041361
50
78.3655447
51
90.4131539
0
ARC
8
DEFAULT_255_1_234
10
5.5923637
20
180.1126887
40
0.3344039
50
56.6229102
51
78.638727
0
ARC
8
DEFAULT_255_1_234
10
5.6138581
20
180.1502805
40
0.2912001
50
47.0253525
51
56.0854072
0
ARC
8
DEFAULT_255_1_234
10
5.6158361
20
180.1542223
40
0.2869704
50
10.9208013
51
46.7778124
0
ARC
8
DEFAULT_255_1_234
10
5.4794427
20
180.1226857
40
0.426899
50
359.6364486
51
11.6087304
0
ARC
8
DEFAULT_255_1_234
10
5.6629271
20
180.1211752
40
0.243409
50
332.3549906
51
359.7179418
0
ARC
8
DEFAULT_255_1_234
10
5.5978873
20
180.1520142
40
0.3153459
50
325.2333722
51
332.8745602
0
ARC
8
DEFAULT_255_1_234
10
5.6131496
20
180.1413828
40
0.2967456
50
292.9802137
51
325.2392345
0
ARC
8
DEFAULT_255_1_234
10
5.585687
20
180.1947863
40
0.3566604
50
292.5402179
51
293.6924929
0
ARC
8
DEFAULT_255_1_234
10
5.6249466
20
179.5493091
40
0.3307468
50
57.6435486
51
72.8625112
0
ARC
8
DEFAULT_255_1_234
10
5.6603966
20
179.6067549
40
0.2632492
50
36.7248896
51
57.4697979
0
ARC
8
DEFAULT_255_1_234
10
5.6592598
20
179.608022
40
0.2634081
50
8.0545065
51
36.356114
0
ARC
8
DEFAULT_255_1_234
10
5.5729784
20
179.5925174
40
0.3510261
50
359.8320645
51
8.5869982
0
ARC
8
DEFAULT_255_1_234
10
5.535456
20
179.5877101
40
0.3885653
50
343.9829931
51
0.5571613
0
ARC
8
DEFAULT_255_1_234
10
5.6240757
20
179.5634438
40
0.2966924
50
311.6359546
51
343.7651759
0
ARC
8
DEFAULT_255_1_234
10
5.5862326
20
179.6061102
40
0.3537231
50
279.7829875
51
311.6255694
0
ARC
8
DEFAULT_255_1_234
10
5.5561102
20
179.749828
40
0.5004971
50
269.7286406
51
280.3856417
0
ARC
8
DEFAULT_255_1_234
10
5.5499175
20
179.7456996
40
0.4963778
50
256.6828919
51
270.4412052
0
ARC
8
DEFAULT_255_1_234
10
5.5160471
20
179.6072394
40
0.3538406
50
229.4223008
51
256.8556159
0
ARC
8
DEFAULT_255_1_234
10
5.4745864
20
179.5605736
40
0.2914296
50
181.818294
51
229.6455059
0
ARC
8
DEFAULT_255_1_234
10
5.578582
20
179.5736496
40
0.3959084
50
179.9755256
51
183.2323064
0
ARC
8
DEFAULT_255_1_234
10
5.5613566
20
179.5716037
40
0.2293034
50
179.4465117
51
196.2869258
0
ARC
8
DEFAULT_255_1_234
10
5.5125974
20
179.5582651
40
0.1787621
50
196.5661473
51
227.705904
0
ARC
8
DEFAULT_255_1_234
10
5.5290069
20
179.5766155
40
0.2033784
50
227.7652068
51
257.8762805
0
ARC
8
DEFAULT_255_1_234
10
5.5515039
20
179.6709156
40
0.3003081
50
257.4584385
51
270.426602
0
ARC
8
DEFAULT_255_1_234
10
5.5560605
20
179.6998996
40
0.329292
50
269.5962073
51
280.8789248
0
ARC
8
DEFAULT_255_1_234
10
5.5790134
20
179.5852685
40
0.2123908
50
280.6346389
51
299.8595945
0
ARC
8
DEFAULT_255_1_234
10
5.598104
20
179.5490212
40
0.171457
50
300.3576302
51
314.5517981
0
ARC
8
DEFAULT_255_1_234
10
5.5898101
20
179.5550919
40
0.1816095
50
315.0728369
51
345.0431014
0
ARC
8
DEFAULT_255_1_234
10
5.4974915
20
179.5819841
40
0.2777492
50
344.5986631
51
357.9269593
0
ARC
8
DEFAULT_255_1_234
10
5.4079241
20
179.5881276
40
0.3674917
50
357.4748886
51
0.0231117
0
ARC
8
DEFAULT_255_1_234
10
5.5102351
20
179.5905679
40
0.2651907
50
359.5047933
51
13.4239635
0
ARC
8
DEFAULT_255_1_234
10
5.5968994
20
179.6127478
40
0.1757509
50
12.9498199
51
48.7551375
0
ARC
8
DEFAULT_255_1_234
10
5.5786728
20
179.58784
40
0.2065134
50
49.5088623
51
72.1836453
0
ARC
8
DEFAULT_255_1_234
10
5.5428881
20
179.4816291
40
0.3185836
50
71.9010081
51
84.3554254
0
ARC
8
DEFAULT_255_1_234
10
5.5267513
20
179.3455326
40
0.4556151
50
84.0193428
51
89.333121
0
LINE
8
DEFAULT_255_1_234
10
4.3112299
20
188.3723211
11
4.5931439
21
187.9241501
0
LINE
8
DEFAULT_255_1_234
10
4.5931439
20
187.9241501
11
4.8734516
21
188.3723211
0
LINE
8
DEFAULT_255_1_234
10
4.8734516
20
188.3723211
11
5.0549689
21
188.3723211
0
LINE
8
DEFAULT_255_1_234
10
5.0549689
20
188.3723211
11
4.6855089
21
187.7924296
0
LINE
8
DEFAULT_255_1_234
10
4.6855089
20
187.7924296
11
5.0638038
21
187.2029
0
LINE
8
DEFAULT_255_1_234
10
5.0638038
20
187.2029
11
4.8806802
21
187.2029
0
LINE
8
DEFAULT_255_1_234
10
4.8806802
20
187.2029
11
4.5931439
21
187.6591027
0
LINE
8
DEFAULT_255_1_234
10
4.5931439
20
187.6591027
11
4.3040014
21
187.2029
0
LINE
8
DEFAULT_255_1_234
10
4.3040014
20
187.2029
11
4.1216809
21
187.2029
0
LINE
8
DEFAULT_255_1_234
10
4.1216809
20
187.2029
11
4.500779
21
187.7924296
0
LINE
8
DEFAULT_255_1_234
10
4.500779
20
187.7924296
11
4.1305158
21
188.3723211
0
LINE
8
DEFAULT_255_1_234
10
4.1305158
20
188.3723211
11
4.3112299
21
188.3723211
0
LINE
8
DEFAULT_255_1_234
10
5.9705871
20
187.3241792
11
5.9705871
21
187.2029
0
LINE
8
DEFAULT_255_1_234
10
5.9705871
20
187.2029
11
5.2043592
21
187.2029
0
LINE
8
DEFAULT_255_1_234
10
5.2043592
20
187.2029
11
5.2043592
21
187.3097221
0
LINE
8
DEFAULT_255_1_234
10
5.2043592
20
187.3097221
11
5.6091588
21
187.7594995
0
LINE
8
DEFAULT_255_1_234
10
5.3304575
20
188.0277595
11
5.1818704
21
188.0277595
0
LINE
8
DEFAULT_255_1_234
10
5.6967048
20
187.6639218
11
5.383467
21
187.3241792
0
LINE
8
DEFAULT_255_1_234
10
5.383467
20
187.3241792
11
5.9705871
21
187.3241792
0
ARC
8
DEFAULT_255_1_234
10
4.2601422
20
188.9524527
40
1.8008286
50
318.5132453
51
320.7828378
0
ARC
8
DEFAULT_255_1_234
10
4.7888396
20
188.5221426
40
1.1191493
50
320.7372736
51
323.9737074
0
ARC
8
DEFAULT_255_1_234
10
5.1808252
20
188.2381361
40
0.6350923
50
323.8961724
51
328.6421089
0
ARC
8
DEFAULT_255_1_234
10
5.3854848
20
188.1119031
40
0.3946393
50
328.8299013
51
331.789948
0
ARC
8
DEFAULT_255_1_234
10
5.4852026
20
188.0604509
40
0.2824501
50
331.4255242
51
352.9364833
0
ARC
8
DEFAULT_255_1_234
10
5.4988527
20
188.0573976
40
0.2685315
50
353.2248685
51
0.0169286
0
ARC
8
DEFAULT_255_1_234
10
5.5198404
20
188.059695
40
0.2475536
50
359.4866256
51
15.9339782
0
ARC
8
DEFAULT_255_1_234
10
5.5705389
20
188.0733286
40
0.1950618
50
16.1714718
51
43.5284424
0
ARC
8
DEFAULT_255_1_234
10
5.5782698
20
188.0810573
40
0.184134
50
43.4415429
51
83.1661404
0
ARC
8
DEFAULT_255_1_234
10
5.5648616
20
188.0073771
40
0.258926
50
82.160215
51
90.1505798
0
ARC
8
DEFAULT_255_1_234
10
5.5617043
20
187.9536865
40
0.3126255
50
89.5460705
51
102.5418777
0
ARC
8
DEFAULT_255_1_234
10
5.5374129
20
188.0567665
40
0.2067346
50
102.1739365
51
129.2061916
0
ARC
8
DEFAULT_255_1_234
10
5.5295201
20
188.0692094
40
0.1921118
50
129.7279328
51
135.7542026
0
ARC
8
DEFAULT_255_1_234
10
5.5416729
20
188.0595045
40
0.2075944
50
136.175737
51
166.3674722
0
ARC
8
DEFAULT_255_1_234
10
5.6423648
20
188.0325182
40
0.3118201
50
165.9092917
51
178.8683903
0
ARC
8
DEFAULT_255_1_234
10
5.7288509
20
188.0278179
40
0.3983935
50
178.438168
51
180.0083905
0
ARC
8
DEFAULT_255_1_234
10
5.5887111
20
188.0317231
40
0.4068601
50
163.2878735
51
180.5581814
0
ARC
8
DEFAULT_255_1_234
10
5.5085373
20
188.053784
40
0.3237344
50
133.454115
51
162.9470031
0
ARC
8
DEFAULT_255_1_234
10
5.5263914
20
188.0348
40
0.349795
50
100.7869394
51
133.4384016
0
ARC
8
DEFAULT_255_1_234
10
5.5611686
20
187.8799319
40
0.5084616
50
89.6605301
51
101.3704185
0
ARC
8
DEFAULT_255_1_234
10
5.5678024
20
187.8860496
40
0.502348
50
78.2171172
51
90.4130393
0
ARC
8
DEFAULT_255_1_234
10
5.6033103
20
188.0484637
40
0.3361092
50
55.9268222
51
78.4888551
0
ARC
8
DEFAULT_255_1_234
10
5.6229543
20
188.0823324
40
0.2970617
50
47.9292255
51
55.4054003
0
ARC
8
DEFAULT_255_1_234
10
5.6331103
20
188.0926502
40
0.2825983
50
4.3347696
51
48.0560701
0
ARC
8
DEFAULT_255_1_234
10
5.5235497
20
188.0756601
40
0.393225
50
359.925209
51
5.5967654
0
ARC
8
DEFAULT_255_1_234
10
5.5664389
20
188.0812816
40
0.3503892
50
337.8914096
51
358.9967724
0
ARC
8
DEFAULT_255_1_234
10
5.2950801
20
188.1859706
40
0.6412172
50
326.9135351
51
338.3505194
0
ARC
8
DEFAULT_255_1_234
10
4.8965105
20
188.4414284
40
1.1146189
50
319.6472867
51
327.095818
0
ARC
8
DEFAULT_255_1_234
10
4.5132108
20
188.7576
40
1.6114559
50
317.2586784
51
319.9046139
0
LINE
8
DEFAULT_255_1_234
10
4.3027299
20
196.3098211
11
4.5846439
21
195.8616501
0
LINE
8
DEFAULT_255_1_234
10
4.5846439
20
195.8616501
11
4.8649516
21
196.3098211
0
LINE
8
DEFAULT_255_1_234
10
4.8649516
20
196.3098211
11
5.0464689
21
196.3098211
0
LINE
8
DEFAULT_255_1_234
10
5.0464689
20
196.3098211
11
4.6770089
21
195.7299296
0
LINE
8
DEFAULT_255_1_234
10
4.6770089
20
195.7299296
11
5.0553038
21
195.1404
0
LINE
8
DEFAULT_255_1_234
10
5.0553038
20
195.1404
11
4.8721802
21
195.1404
0
LINE
8
DEFAULT_255_1_234
10
4.8721802
20
195.1404
11
4.5846439
21
195.5966027
0
LINE
8
DEFAULT_255_1_234
10
4.5846439
20
195.5966027
11
4.2955014
21
195.1404
0
LINE
8
DEFAULT_255_1_234
10
4.2955014
20
195.1404
11
4.1131809
21
195.1404
0
LINE
8
DEFAULT_255_1_234
10
4.1131809
20
195.1404
11
4.492279
21
195.7299296
0
LINE
8
DEFAULT_255_1_234
10
4.492279
20
195.7299296
11
4.1220158
21
196.3098211
0
LINE
8
DEFAULT_255_1_234
10
4.1220158
20
196.3098211
11
4.3027299
21
196.3098211
0
LINE
8
DEFAULT_255_1_234
10
5.6841889
20
196.3154433
11
5.6841889
21
195.1404
0
LINE
8
DEFAULT_255_1_234
10
5.6841889
20
195.1404
11
5.5347986
21
195.1404
0
LINE
8
DEFAULT_255_1_234
10
5.5347986
20
195.1404
11
5.5347986
21
196.1307133
0
LINE
8
DEFAULT_255_1_234
10
5.5347986
20
196.1307133
11
5.2352147
21
196.0206785
0
LINE
8
DEFAULT_255_1_234
10
5.2352147
20
196.0206785
11
5.2352147
21
196.1556117
0
LINE
8
DEFAULT_255_1_234
10
5.2352147
20
196.1556117
11
5.6608969
21
196.3154433
0
LINE
8
DEFAULT_255_1_234
10
5.6608969
20
196.3154433
11
5.6841889
21
196.3154433
0
LINE
8
DEFAULT_255_1_234
10
4.3112299
20
204.2473211
11
4.5931439
21
203.7991501
0
LINE
8
DEFAULT_255_1_234
10
4.5931439
20
203.7991501
11
4.8734516
21
204.2473211
0
LINE
8
DEFAULT_255_1_234
10
4.8734516
20
204.2473211
11
5.0549689
21
204.2473211
0
LINE
8
DEFAULT_255_1_234
10
5.0549689
20
204.2473211
11
4.6855089
21
203.6674296
0
LINE
8
DEFAULT_255_1_234
10
4.6855089
20
203.6674296
11
5.0638038
21
203.0779
0
LINE
8
DEFAULT_255_1_234
10
5.0638038
20
203.0779
11
4.8806802
21
203.0779
0
LINE
8
DEFAULT_255_1_234
10
4.8806802
20
203.0779
11
4.5931439
21
203.5341027
0
LINE
8
DEFAULT_255_1_234
10
4.5931439
20
203.5341027
11
4.3040014
21
203.0779
0
LINE
8
DEFAULT_255_1_234
10
4.3040014
20
203.0779
11
4.1216809
21
203.0779
0
LINE
8
DEFAULT_255_1_234
10
4.1216809
20
203.0779
11
4.500779
21
203.6674296
0
LINE
8
DEFAULT_255_1_234
10
4.500779
20
203.6674296
11
4.1305158
21
204.2473211
0
LINE
8
DEFAULT_255_1_234
10
4.1305158
20
204.2473211
11
4.3112299
21
204.2473211
0
LINE
8
DEFAULT_255_1_234
10
5.9376569
20
203.7694327
11
5.9376569
21
203.5766709
0
LINE
8
DEFAULT_255_1_234
10
5.1995402
20
203.5565916
11
5.1995402
21
203.7549755
0
LINE
8
DEFAULT_255_1_234
10
5.7890698
20
203.5365123
11
5.7890698
21
203.7798739
0
LINE
8
DEFAULT_255_1_234
10
5.3481273
20
203.7911184
11
5.3481273
21
203.5533789
0
ARC
8
DEFAULT_255_1_234
10
4.7129459
20
203.5717805
40
1.2247208
50
353.8441951
51
0.2287902
0
ARC
8
DEFAULT_255_1_234
10
5.1768963
20
203.5199806
40
0.7578929
50
344.4934747
51
353.9765454
0
ARC
8
DEFAULT_255_1_234
10
5.4761553
20
203.4348981
40
0.4467846
50
329.2803592
51
344.7472793
0
ARC
8
DEFAULT_255_1_234
10
5.5754378
20
203.3804018
40
0.3336173
50
324.9352394
51
328.6160465
0
ARC
8
DEFAULT_255_1_234
10
5.6131486
20
203.3540427
40
0.2876076
50
280.580143
51
324.9173126
0
ARC
8
DEFAULT_255_1_234
10
5.5730279
20
203.5211099
40
0.4592847
50
269.5977311
51
281.6734359
0
ARC
8
DEFAULT_255_1_234
10
5.5658185
20
203.5091173
40
0.4472986
50
256.6228859
51
270.51044
0
ARC
8
DEFAULT_255_1_234
10
5.5256162
20
203.3542877
40
0.2873874
50
215.8618325
51
257.2788573
0
ARC
8
DEFAULT_255_1_234
10
5.6277194
20
203.4227977
40
0.4102928
50
197.9693508
51
215.2623606
0
ARC
8
DEFAULT_255_1_234
10
5.876231
20
203.5066709
40
0.6725652
50
187.8816417
51
198.2346507
0
ARC
8
DEFAULT_255_1_234
10
6.2720518
20
203.5638079
40
1.0724845
50
180.8976217
51
188.0055519
0
ARC
8
DEFAULT_255_1_234
10
6.5520706
20
203.5741777
40
1.3526448
50
180.7449369
51
181.1510016
0
ARC
8
DEFAULT_255_1_234
10
6.3943435
20
203.7598042
40
1.1948131
50
173.7675579
51
180.231553
0
ARC
8
DEFAULT_255_1_234
10
5.9425582
20
203.8108666
40
0.7401564
50
164.3058563
51
173.9002247
0
ARC
8
DEFAULT_255_1_234
10
5.651365
20
203.8947656
40
0.4371288
50
148.7922025
51
164.568378
0
ARC
8
DEFAULT_255_1_234
10
5.5562103
20
203.9478929
40
0.3282386
50
144.5883898
51
148.1176286
0
ARC
8
DEFAULT_255_1_234
10
5.5219001
20
203.9718315
40
0.2864044
50
101.6440918
51
144.514236
0
ARC
8
DEFAULT_255_1_234
10
5.5644067
20
203.8029069
40
0.4604934
50
89.5284041
51
102.5819763
0
ARC
8
DEFAULT_255_1_234
10
5.5723155
20
203.7990018
40
0.464401
50
77.0437873
51
90.5081339
0
ARC
8
DEFAULT_255_1_234
10
5.6125157
20
203.9632615
40
0.2953195
50
48.2778575
51
77.4994676
0
ARC
8
DEFAULT_255_1_234
10
5.6197788
20
203.9761746
40
0.2808655
50
36.3142134
51
47.6305865
0
ARC
8
DEFAULT_255_1_234
10
5.5329095
20
203.9176515
40
0.3855453
50
18.2931786
51
35.6769206
0
ARC
8
DEFAULT_255_1_234
10
5.2785854
20
203.8303593
40
0.654423
50
8.024666
51
18.5605216
0
ARC
8
DEFAULT_255_1_234
10
4.8622774
20
203.7688792
40
1.0752407
50
1.1274072
51
8.1718305
0
ARC
8
DEFAULT_255_1_234
10
4.5386964
20
203.7561885
40
1.3990231
50
0.5424119
51
1.3863029
0
ARC
8
DEFAULT_255_1_234
10
4.7208342
20
203.7834342
40
1.0682415
50
359.8090433
51
4.9407866
0
ARC
8
DEFAULT_255_1_234
10
5.1418356
20
203.8210113
40
0.6455691
50
4.8362157
51
12.2904523
0
ARC
8
DEFAULT_255_1_234
10
5.4173471
20
203.8823965
40
0.3633074
50
12.0805627
51
23.8173984
0
ARC
8
DEFAULT_255_1_234
10
5.5347176
20
203.9320919
40
0.2358723
50
24.2871213
51
31.3935614
0
ARC
8
DEFAULT_255_1_234
10
5.5871874
20
203.9664233
40
0.1732111
50
30.7407893
51
82.4657128
0
ARC
8
DEFAULT_255_1_234
10
5.5692008
20
203.8780691
40
0.263235
50
81.1060089
51
90.2184952
0
ARC
8
DEFAULT_255_1_234
10
5.5656307
20
203.9038924
40
0.2374236
50
89.3806855
51
105.6762551
0
ARC
8
DEFAULT_255_1_234
10
5.5472938
20
203.9705567
40
0.1682847
50
105.7981136
51
149.7388061
0
ARC
8
DEFAULT_255_1_234
10
5.6537016
20
203.906595
40
0.2924306
50
149.4208916
51
163.6286378
0
ARC
8
DEFAULT_255_1_234
10
5.8627904
20
203.842825
40
0.5110213
50
163.3763315
51
172.1410975
0
ARC
8
DEFAULT_255_1_234
10
6.1928623
20
203.7955518
40
0.8444586
50
172.0259487
51
178.0703232
0
ARC
8
DEFAULT_255_1_234
10
6.4958712
20
203.7811906
40
1.1477868
50
177.8631668
51
179.5044149
0
ARC
8
DEFAULT_255_1_234
10
6.3886117
20
203.5497389
40
1.0404907
50
179.7995573
51
185.2460446
0
ARC
8
DEFAULT_255_1_234
10
5.9843156
20
203.5114513
40
0.6343885
50
185.1411642
51
193.0079639
0
ARC
8
DEFAULT_255_1_234
10
5.7199629
20
203.4489641
40
0.3627568
50
192.7897626
51
205.2507664
0
ARC
8
DEFAULT_255_1_234
10
5.6153176
20
203.4022415
40
0.2481908
50
205.8005384
51
211.2537509
0
ARC
8
DEFAULT_255_1_234
10
5.5629616
20
203.367158
40
0.1852521
50
210.3789793
51
238.4008143
0
ARC
8
DEFAULT_255_1_234
10
5.5610138
20
203.3718376
40
0.1882621
50
239.6520629
51
265.9793761
0
ARC
8
DEFAULT_255_1_234
10
5.5695338
20
203.4390427
40
0.2559272
50
265.1315437
51
270.060332
0
ARC
8
DEFAULT_255_1_234
10
5.5724117
20
203.4066534
40
0.2235528
50
269.3314664
51
287.2178029
0
ARC
8
DEFAULT_255_1_234
10
5.5861969
20
203.3563279
40
0.1714108
50
287.7958004
51
329.080874
0
ARC
8
DEFAULT_255_1_234
10
5.4904426
20
203.416093
40
0.2842745
50
328.6634704
51
343.3325132
0
ARC
8
DEFAULT_255_1_234
10
5.2731446
20
203.4837863
40
0.5118644
50
343.0499468
51
351.9393422
0
ARC
8
DEFAULT_255_1_234
10
4.9264746
20
203.5348949
40
0.8622784
50
351.8069023
51
357.7959224
0
ARC
8
DEFAULT_255_1_234
10
4.6029302
20
203.5516721
40
1.1862365
50
357.5871873
51
359.2677531
0
LINE
8
DEFAULT_255_1_234
10
4.812423
20
211.3864663
11
4.9674355
21
211.3864663
0
LINE
8
DEFAULT_255_1_234
10
4.0670777
20
211.5454947
11
4.0670777
21
211.6579391
0
LINE
8
DEFAULT_255_1_234
10
4.9674355
20
211.8089357
11
4.812423
21
211.8089357
0
LINE
8
DEFAULT_255_1_234
10
4.2220902
20
211.6539232
11
4.2220902
21
211.5406757
0
ARC
8
DEFAULT_255_1_234
10
4.4193742
20
211.4461846
40
0.5513052
50
340.1774281
51
353.7814284
0
ARC
8
DEFAULT_255_1_234
10
4.5765095
20
211.3876582
40
0.3836379
50
311.4558989
51
340.4421614
0
ARC
8
DEFAULT_255_1_234
10
4.5731763
20
211.3987528
40
0.3941894
50
282.4333181
51
310.7513653
0
ARC
8
DEFAULT_255_1_234
10
4.5292502
20
211.5802679
40
0.5809175
50
269.9358511
51
282.809604
0
ARC
8
DEFAULT_255_1_234
10
4.5240568
20
211.7260212
40
0.7266847
50
270.0021091
51
270.3581957
0
ARC
8
DEFAULT_255_1_234
10
4.5187985
20
211.4659585
40
0.4666519
50
250.7884749
51
270.6489167
0
ARC
8
DEFAULT_255_1_234
10
4.501982
20
211.4022319
40
0.4009729
50
219.3627325
51
250.0611886
0
ARC
8
DEFAULT_255_1_234
10
4.5849031
20
211.4727042
40
0.5097822
50
193.5479632
51
219.5756669
0
ARC
8
DEFAULT_255_1_234
10
4.8220652
20
211.5342919
40
0.7547848
50
181.1218675
51
193.87563
0
ARC
8
DEFAULT_255_1_234
10
5.0290833
20
211.545358
40
0.9620055
50
179.9918545
51
181.5394234
0
ARC
8
DEFAULT_255_1_234
10
4.8439935
20
211.6616788
40
0.7769248
50
169.5837241
51
180.2757934
0
ARC
8
DEFAULT_255_1_234
10
4.6602873
20
211.6956229
40
0.590109
50
155.0365899
51
169.6003176
0
ARC
8
DEFAULT_255_1_234
10
4.5467337
20
211.7503677
40
0.4640625
50
136.783148
51
155.2472683
0
ARC
8
DEFAULT_255_1_234
10
4.5077814
20
211.7834562
40
0.4130255
50
121.7633186
51
136.428115
0
ARC
8
DEFAULT_255_1_234
10
4.5212776
20
211.7585227
40
0.4413323
50
95.6459699
51
121.5490577
0
ARC
8
DEFAULT_255_1_234
10
4.5370058
20
211.6476949
40
0.55319
50
89.924208
51
96.1377933
0
ARC
8
DEFAULT_255_1_234
10
4.5420491
20
211.6595542
40
0.5413475
50
76.6779277
51
90.4563316
0
ARC
8
DEFAULT_255_1_234
10
4.5814114
20
211.8186114
40
0.3775041
50
47.485847
51
76.9287264
0
ARC
8
DEFAULT_255_1_234
10
4.5667087
20
211.8086159
40
0.3948286
50
16.5424086
51
46.8933463
0
ARC
8
DEFAULT_255_1_234
10
4.4059244
20
211.7557861
40
0.564021
50
5.4072051
51
17.0365086
0
ARC
8
DEFAULT_255_1_234
10
4.2620261
20
211.7326679
40
0.5556559
50
7.8891745
51
15.9239216
0
ARC
8
DEFAULT_255_1_234
10
4.4607274
20
211.7903631
40
0.3487515
50
15.7653144
51
27.9410532
0
ARC
8
DEFAULT_255_1_234
10
4.5711492
20
211.849479
40
0.2235026
50
27.8166557
51
46.4008329
0
ARC
8
DEFAULT_255_1_234
10
4.5761135
20
211.8489082
40
0.2205286
50
47.4371857
51
75.0698205
0
ARC
8
DEFAULT_255_1_234
10
4.5452529
20
211.7414765
40
0.3322915
50
74.7008593
51
87.8124495
0
ARC
8
DEFAULT_255_1_234
10
4.5379217
20
211.6358844
40
0.4380987
50
87.3814673
51
90.0240855
0
ARC
8
DEFAULT_255_1_234
10
4.534076
20
211.7536291
40
0.3203749
50
89.3451631
51
108.5745436
0
ARC
8
DEFAULT_255_1_234
10
4.5203865
20
211.8049908
40
0.2673494
50
109.2998449
51
143.3037509
0
ARC
8
DEFAULT_255_1_234
10
4.5965938
20
211.7463881
40
0.3634757
50
143.0753173
51
163.1916937
0
ARC
8
DEFAULT_255_1_234
10
4.7917666
20
211.6847967
40
0.5681262
50
162.9373603
51
174.6208611
0
ARC
8
DEFAULT_255_1_234
10
5.0543708
20
211.656001
40
0.8322832
50
174.3419979
51
180.1430411
0
ARC
8
DEFAULT_255_1_234
10
4.9612864
20
211.5365698
40
0.7392076
50
179.6817502
51
189.150529
0
ARC
8
DEFAULT_255_1_234
10
4.7112112
20
211.494919
40
0.4856932
50
188.9910863
51
203.5773039
0
ARC
8
DEFAULT_255_1_234
10
4.6032445
20
211.4501211
40
0.3688271
50
203.9077269
51
215.1312379
0
ARC
8
DEFAULT_255_1_234
10
4.5109539
20
211.3785941
40
0.2522457
50
213.9071664
51
263.8849284
0
ARC
8
DEFAULT_255_1_234
10
4.5234868
20
211.4570518
40
0.3316174
50
263.1758525
51
270.1031083
0
ARC
8
DEFAULT_255_1_234
10
4.526696
20
211.5817365
40
0.4563091
50
269.6719807
51
279.0609165
0
ARC
8
DEFAULT_255_1_234
10
4.5533728
20
211.4204907
40
0.2928759
50
278.8750225
51
293.6346586
0
ARC
8
DEFAULT_255_1_234
10
4.5853936
20
211.34529
40
0.2111472
50
293.8553404
51
310.0518804
0
ARC
8
DEFAULT_255_1_234
10
4.585879
20
211.3390516
40
0.2060917
50
311.0646779
51
332.0108348
0
ARC
8
DEFAULT_255_1_234
10
4.4666517
20
211.4047978
40
0.3422352
50
331.6588543
51
343.2878891
0
ARC
8
DEFAULT_255_1_234
10
4.2604032
20
211.4681798
40
0.5580003
50
343.1446044
51
351.010618
0
ARC
8
DEFAULT_255_1_234
10
4.1062678
20
211.4962871
40
0.7146438
50
350.7157277
51
351.1602153
0
LINE
8
DEFAULT_255_1_234
10
5.8726125
20
211.7069327
11
5.8726125
21
211.5141709
0
LINE
8
DEFAULT_255_1_234
10
5.1344957
20
211.4940916
11
5.1344957
21
211.6924755
0
LINE
8
DEFAULT_255_1_234
10
5.7240253
20
211.4740123
11
5.7240253
21
211.7173739
0
LINE
8
DEFAULT_255_1_234
10
5.2830829
20
211.7286184
11
5.2830829
21
211.4908789
0
ARC
8
DEFAULT_255_1_234
10
4.6479014
20
211.5092805
40
1.2247208
50
353.8441951
51
0.2287902
0
ARC
8
DEFAULT_255_1_234
10
5.1118518
20
211.4574806
40
0.7578929
50
344.4934747
51
353.9765454
0
ARC
8
DEFAULT_255_1_234
10
5.4111108
20
211.3723981
40
0.4467846
50
329.2803592
51
344.7472793
0
ARC
8
DEFAULT_255_1_234
10
5.5103933
20
211.3179018
40
0.3336173
50
324.9352394
51
328.6160465
0
ARC
8
DEFAULT_255_1_234
10
5.5481042
20
211.2915427
40
0.2876076
50
280.580143
51
324.9173126
0
ARC
8
DEFAULT_255_1_234
10
5.5079834
20
211.4586099
40
0.4592847
50
269.5977311
51
281.6734359
0
ARC
8
DEFAULT_255_1_234
10
5.500774
20
211.4466173
40
0.4472986
50
256.6228859
51
270.51044
0
ARC
8
DEFAULT_255_1_234
10
5.4605718
20
211.2917877
40
0.2873874
50
215.8618325
51
257.2788573
0
ARC
8
DEFAULT_255_1_234
10
5.5626749
20
211.3602977
40
0.4102928
50
197.9693508
51
215.2623606
0
ARC
8
DEFAULT_255_1_234
10
5.8111865
20
211.4441709
40
0.6725652
50
187.8816417
51
198.2346507
0
ARC
8
DEFAULT_255_1_234
10
6.2070073
20
211.5013079
40
1.0724845
50
180.8976217
51
188.0055519
0
ARC
8
DEFAULT_255_1_234
10
6.4870261
20
211.5116777
40
1.3526448
50
180.7449369
51
181.1510016
0
ARC
8
DEFAULT_255_1_234
10
6.329299
20
211.6973042
40
1.1948131
50
173.7675579
51
180.231553
0
ARC
8
DEFAULT_255_1_234
10
5.8775137
20
211.7483666
40
0.7401564
50
164.3058563
51
173.9002247
0
ARC
8
DEFAULT_255_1_234
10
5.5863206
20
211.8322656
40
0.4371288
50
148.7922025
51
164.568378
0
ARC
8
DEFAULT_255_1_234
10
5.4911658
20
211.8853929
40
0.3282386
50
144.5883898
51
148.1176286
0
ARC
8
DEFAULT_255_1_234
10
5.4568556
20
211.9093315
40
0.2864044
50
101.6440918
51
144.514236
0
ARC
8
DEFAULT_255_1_234
10
5.4993623
20
211.7404069
40
0.4604934
50
89.5284041
51
102.5819763
0
ARC
8
DEFAULT_255_1_234
10
5.507271
20
211.7365018
40
0.464401
50
77.0437873
51
90.5081339
0
ARC
8
DEFAULT_255_1_234
10
5.5474712
20
211.9007615
40
0.2953195
50
48.2778575
51
77.4994676
0
ARC
8
DEFAULT_255_1_234
10
5.5547343
20
211.9136746
40
0.2808655
50
36.3142134
51
47.6305865
0
ARC
8
DEFAULT_255_1_234
10
5.467865
20
211.8551515
40
0.3855453
50
18.2931786
51
35.6769206
0
ARC
8
DEFAULT_255_1_234
10
5.2135409
20
211.7678593
40
0.654423
50
8.024666
51
18.5605216
0
ARC
8
DEFAULT_255_1_234
10
4.7972329
20
211.7063792
40
1.0752407
50
1.1274072
51
8.1718305
0
ARC
8
DEFAULT_255_1_234
10
4.473652
20
211.6936885
40
1.3990231
50
0.5424119
51
1.3863029
0
ARC
8
DEFAULT_255_1_234
10
4.6557898
20
211.7209342
40
1.0682415
50
359.8090433
51
4.9407866
0
ARC
8
DEFAULT_255_1_234
10
5.0767912
20
211.7585113
40
0.6455691
50
4.8362157
51
12.2904523
0
ARC
8
DEFAULT_255_1_234
10
5.3523026
20
211.8198965
40
0.3633074
50
12.0805627
51
23.8173984
0
ARC
8
DEFAULT_255_1_234
10
5.4696732
20
211.8695919
40
0.2358723
50
24.2871213
51
31.3935614
0
ARC
8
DEFAULT_255_1_234
10
5.5221429
20
211.9039233
40
0.1732111
50
30.7407893
51
82.4657128
0
ARC
8
DEFAULT_255_1_234
10
5.5041563
20
211.8155691
40
0.263235
50
81.1060089
51
90.2184952
0
ARC
8
DEFAULT_255_1_234
10
5.5005862
20
211.8413924
40
0.2374236
50
89.3806855
51
105.6762551
0
ARC
8
DEFAULT_255_1_234
10
5.4822493
20
211.9080567
40
0.1682847
50
105.7981136
51
149.7388061
0
ARC
8
DEFAULT_255_1_234
10
5.5886571
20
211.844095
40
0.2924306
50
149.4208916
51
163.6286378
0
ARC
8
DEFAULT_255_1_234
10
5.7977459
20
211.780325
40
0.5110213
50
163.3763315
51
172.1410975
0
ARC
8
DEFAULT_255_1_234
10
6.1278178
20
211.7330518
40
0.8444586
50
172.0259487
51
178.0703232
0
ARC
8
DEFAULT_255_1_234
10
6.4308268
20
211.7186906
40
1.1477868
50
177.8631668
51
179.5044149
0
ARC
8
DEFAULT_255_1_234
10
6.3235672
20
211.4872389
40
1.0404907
50
179.7995573
51
185.2460446
0
ARC
8
DEFAULT_255_1_234
10
5.9192711
20
211.4489513
40
0.6343885
50
185.1411642
51
193.0079639
0
ARC
8
DEFAULT_255_1_234
10
5.6549184
20
211.3864641
40
0.3627568
50
192.7897626
51
205.2507664
0
ARC
8
DEFAULT_255_1_234
10
5.5502731
20
211.3397415
40
0.2481908
50
205.8005384
51
211.2537509
0
ARC
8
DEFAULT_255_1_234
10
5.4979171
20
211.304658
40
0.1852521
50
210.3789793
51
238.4008143
0
ARC
8
DEFAULT_255_1_234
10
5.4959693
20
211.3093376
40
0.1882621
50
239.6520629
51
265.9793761
0
ARC
8
DEFAULT_255_1_234
10
5.5044893
20
211.3765427
40
0.2559272
50
265.1315437
51
270.060332
0
ARC
8
DEFAULT_255_1_234
10
5.5073672
20
211.3441534
40
0.2235528
50
269.3314664
51
287.2178029
0
ARC
8
DEFAULT_255_1_234
10
5.5211524
20
211.2938279
40
0.1714108
50
287.7958004
51
329.080874
0
ARC
8
DEFAULT_255_1_234
10
5.4253981
20
211.353593
40
0.2842745
50
328.6634704
51
343.3325132
0
ARC
8
DEFAULT_255_1_234
10
5.2081001
20
211.4212863
40
0.5118644
50
343.0499468
51
351.9393422
0
ARC
8
DEFAULT_255_1_234
10
4.8614301
20
211.4723949
40
0.8622784
50
351.8069023
51
357.7959224
0
ARC
8
DEFAULT_255_1_234
10
4.5378857
20
211.4891721
40
1.1862365
50
357.5871873
51
359.2677531
0
LINE
8
DEFAULT_255_1_234
10
4.9274119
20
219.0741792
11
4.9274119
21
218.9529
0
LINE
8
DEFAULT_255_1_234
10
4.9274119
20
218.9529
11
4.161184
21
218.9529
0
LINE
8
DEFAULT_255_1_234
10
4.161184
20
218.9529
11
4.161184
21
219.0597221
0
LINE
8
DEFAULT_255_1_234
10
4.161184
20
219.0597221
11
4.5659836
21
219.5094995
0
LINE
8
DEFAULT_255_1_234
10
4.2872823
20
219.7777595
11
4.1386952
21
219.7777595
0
LINE
8
DEFAULT_255_1_234
10
4.6535296
20
219.4139218
11
4.3402918
21
219.0741792
0
LINE
8
DEFAULT_255_1_234
10
4.3402918
20
219.0741792
11
4.9274119
21
219.0741792
0
ARC
8
DEFAULT_255_1_234
10
3.216967
20
220.7024527
40
1.8008286
50
318.5132453
51
320.7828378
0
ARC
8
DEFAULT_255_1_234
10
3.7456644
20
220.2721426
40
1.1191493
50
320.7372736
51
323.9737074
0
ARC
8
DEFAULT_255_1_234
10
4.1376501
20
219.9881361
40
0.6350923
50
323.8961724
51
328.6421089
0
ARC
8
DEFAULT_255_1_234
10
4.3423096
20
219.8619031
40
0.3946393
50
328.8299013
51
331.789948
0
ARC
8
DEFAULT_255_1_234
10
4.4420274
20
219.8104509
40
0.2824501
50
331.4255242
51
352.9364833
0
ARC
8
DEFAULT_255_1_234
10
4.4556775
20
219.8073976
40
0.2685315
50
353.2248685
51
0.0169286
0
ARC
8
DEFAULT_255_1_234
10
4.4766652
20
219.809695
40
0.2475536
50
359.4866256
51
15.9339782
0
ARC
8
DEFAULT_255_1_234
10
4.5273637
20
219.8233286
40
0.1950618
50
16.1714718
51
43.5284424
0
ARC
8
DEFAULT_255_1_234
10
4.5350946
20
219.8310573
40
0.184134
50
43.4415429
51
83.1661404
0
ARC
8
DEFAULT_255_1_234
10
4.5216864
20
219.7573771
40
0.258926
50
82.160215
51
90.1505798
0
ARC
8
DEFAULT_255_1_234
10
4.5185291
20
219.7036865
40
0.3126255
50
89.5460705
51
102.5418777
0
ARC
8
DEFAULT_255_1_234
10
4.4942377
20
219.8067665
40
0.2067346
50
102.1739365
51
129.2061916
0
ARC
8
DEFAULT_255_1_234
10
4.4863449
20
219.8192094
40
0.1921118
50
129.7279328
51
135.7542026
0
ARC
8
DEFAULT_255_1_234
10
4.4984977
20
219.8095045
40
0.2075944
50
136.175737
51
166.3674722
0
ARC
8
DEFAULT_255_1_234
10
4.5991896
20
219.7825182
40
0.3118201
50
165.9092917
51
178.8683903
0
ARC
8
DEFAULT_255_1_234
10
4.6856757
20
219.7778179
40
0.3983935
50
178.438168
51
180.0083905
0
ARC
8
DEFAULT_255_1_234
10
4.5455359
20
219.7817231
40
0.4068601
50
163.2878735
51
180.5581814
0
ARC
8
DEFAULT_255_1_234
10
4.4653621
20
219.803784
40
0.3237344
50
133.454115
51
162.9470031
0
ARC
8
DEFAULT_255_1_234
10
4.4832162
20
219.7848
40
0.349795
50
100.7869394
51
133.4384016
0
ARC
8
DEFAULT_255_1_234
10
4.5179934
20
219.6299319
40
0.5084616
50
89.6605301
51
101.3704185
0
ARC
8
DEFAULT_255_1_234
10
4.5246273
20
219.6360496
40
0.502348
50
78.2171172
51
90.4130393
0
ARC
8
DEFAULT_255_1_234
10
4.5601351
20
219.7984637
40
0.3361092
50
55.9268222
51
78.4888551
0
ARC
8
DEFAULT_255_1_234
10
4.5797791
20
219.8323324
40
0.2970617
50
47.9292255
51
55.4054003
0
ARC
8
DEFAULT_255_1_234
10
4.5899352
20
219.8426502
40
0.2825983
50
4.3347696
51
48.0560701
0
ARC
8
DEFAULT_255_1_234
10
4.4803745
20
219.8256601
40
0.393225
50
359.925209
51
5.5967654
0
ARC
8
DEFAULT_255_1_234
10
4.5232637
20
219.8312816
40
0.3503892
50
337.8914096
51
358.9967724
0
ARC
8
DEFAULT_255_1_234
10
4.2519049
20
219.9359706
40
0.6412172
50
326.9135351
51
338.3505194
0
ARC
8
DEFAULT_255_1_234
10
3.8533353
20
220.1914284
40
1.1146189
50
319.6472867
51
327.095818
0
ARC
8
DEFAULT_255_1_234
10
3.4700356
20
220.5076
40
1.6114559
50
317.2586784
51
319.9046139
0
LINE
8
DEFAULT_255_1_234
10
5.7121127
20
220.1223211
11
5.7121127
21
219.345652
0
LINE
8
DEFAULT_255_1_234
10
5.7121127
20
219.345652
11
5.8743538
21
219.345652
0
LINE
8
DEFAULT_255_1_234
10
5.8743538
20
219.345652
11
5.8743538
21
219.2243728
0
LINE
8
DEFAULT_255_1_234
10
5.8743538
20
219.2243728
11
5.7121127
21
219.2243728
0
LINE
8
DEFAULT_255_1_234
10
5.7121127
20
219.2243728
11
5.7121127
21
218.9529
0
LINE
8
DEFAULT_255_1_234
10
5.7121127
20
218.9529
11
5.5627224
21
218.9529
0
LINE
8
DEFAULT_255_1_234
10
5.5627224
20
218.9529
11
5.5627224
21
219.2243728
0
LINE
8
DEFAULT_255_1_234
10
5.5627224
20
219.2243728
11
5.0302181
21
219.2243728
0
LINE
8
DEFAULT_255_1_234
10
5.0302181
20
219.2243728
11
5.0302181
21
219.3119187
0
LINE
8
DEFAULT_255_1_234
10
5.0302181
20
219.3119187
11
5.5538875
21
220.1223211
0
LINE
8
DEFAULT_255_1_234
10
5.5538875
20
220.1223211
11
5.7121127
21
220.1223211
0
LINE
8
DEFAULT_255_1_234
10
5.5450525
20
219.8869912
11
5.1988846
21
219.345652
0
LINE
8
DEFAULT_255_1_234
10
5.1988846
20
219.345652
11
5.5627224
21
219.345652
0
LINE
8
DEFAULT_255_1_234
10
5.5627224
20
219.345652
11
5.5627224
21
219.9191181
0
LINE
8
DEFAULT_255_1_234
10
5.5627224
20
219.9191181
11
5.5450525
21
219.8869912
0
LINE
8
DEFAULT_255_1_234
10
6.101652
20
220.1223211
11
6.434166
21
219.1577093
0
LINE
8
DEFAULT_255_1_234
10
6.434166
20
219.1577093
11
6.7682863
21
220.1223211
0
LINE
8
DEFAULT_255_1_234
10
6.7682863
20
220.1223211
11
6.9369528
21
220.1223211
0
LINE
8
DEFAULT_255_1_234
10
6.9369528
20
220.1223211
11
6.5032389
21
218.9529
0
LINE
8
DEFAULT_255_1_234
10
6.5032389
20
218.9529
11
6.3666994
21
218.9529
0
LINE
8
DEFAULT_255_1_234
10
6.3666994
20
218.9529
11
5.9337887
21
220.1223211
0
LINE
8
DEFAULT_255_1_234
10
5.9337887
20
220.1223211
11
6.101652
21
220.1223211
0
LINE
8
DEFAULT_255_1_234
10
24.2614879
20
228.0598211
11
24.2614879
21
226.8904
0
LINE
8
DEFAULT_255_1_234
10
24.2614879
20
226.8904
11
24.1064753
21
226.8904
0
LINE
8
DEFAULT_255_1_234
10
24.1064753
20
226.8904
11
23.5177489
21
227.791561
0
LINE
8
DEFAULT_255_1_234
10
23.5177489
20
227.791561
11
23.5177489
21
226.8904
0
LINE
8
DEFAULT_255_1_234
10
23.5177489
20
226.8904
11
23.3627364
21
226.8904
0
LINE
8
DEFAULT_255_1_234
10
23.3627364
20
226.8904
11
23.3627364
21
228.0598211
0
LINE
8
DEFAULT_255_1_234
10
23.3627364
20
228.0598211
11
23.5177489
21
228.0598211
0
LINE
8
DEFAULT_255_1_234
10
23.5177489
20
228.0598211
11
24.1080817
21
227.1546442
0
LINE
8
DEFAULT_255_1_234
10
24.1080817
20
227.1546442
11
24.1080817
21
228.0598211
0
LINE
8
DEFAULT_255_1_234
10
24.1080817
20
228.0598211
11
24.2614879
21
228.0598211
0
LINE
8
DEFAULT_255_1_234
10
22.6867489
20
53.4348211
11
22.6867489
21
52.3914983
0
LINE
8
DEFAULT_255_1_234
10
22.6867489
20
52.3914983
11
23.2409389
21
52.3914983
0
LINE
8
DEFAULT_255_1_234
10
23.2409389
20
52.3914983
11
23.2409389
21
52.2654
0
LINE
8
DEFAULT_255_1_234
10
23.2409389
20
52.2654
11
22.5317364
21
52.2654
0
LINE
8
DEFAULT_255_1_234
10
22.5317364
20
52.2654
11
22.5317364
21
53.4348211
0
LINE
8
DEFAULT_255_1_234
10
22.5317364
20
53.4348211
11
22.6867489
21
53.4348211
0
LINE
8
DEFAULT_255_1_234
10
24.2280395
20
52.847701
11
24.2280395
21
52.4188062
0
LINE
8
DEFAULT_255_1_234
10
23.3268785
20
52.7938884
11
23.3268785
21
52.8958915
0
LINE
8
DEFAULT_255_1_234
10
24.2280395
20
53.0918659
11
24.0738301
21
53.0918659
0
LINE
8
DEFAULT_255_1_234
10
23.481891
20
52.8999073
11
23.481891
21
52.8043296
0
LINE
8
DEFAULT_255_1_234
10
24.0746333
20
52.4597681
11
24.0746333
21
52.7224059
0
LINE
8
DEFAULT_255_1_234
10
24.0746333
20
52.7224059
11
23.8039637
21
52.7224059
0
LINE
8
DEFAULT_255_1_234
10
23.8039637
20
52.7224059
11
23.8039637
21
52.847701
0
LINE
8
DEFAULT_255_1_234
10
23.8039637
20
52.847701
11
24.2280395
21
52.847701
0
ARC
8
DEFAULT_255_1_234
10
23.9448901
20
52.6181396
40
0.3462765
50
295.8437914
51
324.8549609
0
ARC
8
DEFAULT_255_1_234
10
23.9032868
20
52.6934567
40
0.4322211
50
291.5695085
51
296.4549398
0
ARC
8
DEFAULT_255_1_234
10
23.852212
20
52.8299275
40
0.5779178
50
278.6622409
51
291.3045483
0
ARC
8
DEFAULT_255_1_234
10
23.8182611
20
53.0447408
40
0.7953952
50
270.020006
51
278.7494541
0
ARC
8
DEFAULT_255_1_234
10
23.8144535
20
53.1764036
40
0.927067
50
269.9969998
51
270.2524872
0
ARC
8
DEFAULT_255_1_234
10
23.8106248
20
52.7680589
40
0.5187361
50
253.5786322
51
270.4175299
0
ARC
8
DEFAULT_255_1_234
10
23.7932904
20
52.7009236
40
0.4494451
50
238.8203306
51
253.2788235
0
ARC
8
DEFAULT_255_1_234
10
23.7913278
20
52.6958231
40
0.4440665
50
206.7883783
51
238.6962764
0
ARC
8
DEFAULT_255_1_234
10
23.8687188
20
52.7422405
40
0.5341121
50
206.1129412
51
207.4916643
0
ARC
8
DEFAULT_255_1_234
10
23.9284103
20
52.7676488
40
0.5989041
50
188.6921119
51
205.7821245
0
ARC
8
DEFAULT_255_1_234
10
24.1140465
20
52.799223
40
0.7871862
50
180.3882829
51
188.9219216
0
ARC
8
DEFAULT_255_1_234
10
24.2368279
20
52.9015464
40
0.909967
50
170.2024264
51
180.3560651
0
ARC
8
DEFAULT_255_1_234
10
23.9204797
20
52.9581237
40
0.5886083
50
154.2857445
51
170.3893044
0
ARC
8
DEFAULT_255_1_234
10
23.7923
20
53.016795
40
0.4476743
50
139.8401567
51
153.9332699
0
ARC
8
DEFAULT_255_1_234
10
23.7563736
20
53.0455577
40
0.4016697
50
98.4190291
51
139.6707122
0
ARC
8
DEFAULT_255_1_234
10
23.7943253
20
52.8610328
40
0.5898566
50
89.7659205
51
99.4415478
0
ARC
8
DEFAULT_255_1_234
10
23.8008503
20
52.8675844
40
0.5833147
50
78.0551672
51
90.4042112
0
ARC
8
DEFAULT_255_1_234
10
23.8413013
20
53.0494644
40
0.3970055
50
54.6380464
51
78.3339173
0
ARC
8
DEFAULT_255_1_234
10
23.8603069
20
53.0814795
40
0.3599102
50
50.031736
51
54.1558201
0
ARC
8
DEFAULT_255_1_234
10
23.8495856
20
53.0718766
40
0.3741624
50
18.1092409
51
49.7180913
0
ARC
8
DEFAULT_255_1_234
10
23.7039056
20
53.0185089
40
0.5292424
50
7.9672797
51
18.6984571
0
ARC
8
DEFAULT_255_1_234
10
23.7189534
20
53.0308504
40
0.3600838
50
9.7557294
51
27.3215714
0
ARC
8
DEFAULT_255_1_234
10
23.8317006
20
53.0871912
40
0.2340608
50
27.7361077
51
84.5257964
0
ARC
8
DEFAULT_255_1_234
10
23.7989393
20
52.922864
40
0.4011215
50
82.106034
51
90.2001166
0
ARC
8
DEFAULT_255_1_234
10
23.793961
20
52.9736215
40
0.3503799
50
89.4150119
51
105.5823402
0
ARC
8
DEFAULT_255_1_234
10
23.7682608
20
53.0671867
40
0.2533503
50
105.6678618
51
144.2648758
0
ARC
8
DEFAULT_255_1_234
10
23.8575864
20
53.0036289
40
0.3629787
50
144.3561283
51
162.8564086
0
ARC
8
DEFAULT_255_1_234
10
24.0659773
20
52.9367017
40
0.5818441
50
162.6076014
51
173.6780284
0
ARC
8
DEFAULT_255_1_234
10
24.3720916
20
52.899489
40
0.8902007
50
173.4670142
51
179.9730753
0
ARC
8
DEFAULT_255_1_234
10
24.1812588
20
52.800126
40
0.6993804
50
179.6556203
51
190.0080463
0
ARC
8
DEFAULT_255_1_234
10
23.9496417
20
52.7576375
40
0.4639066
50
189.8116607
51
206.6796816
0
ARC
8
DEFAULT_255_1_234
10
23.8651569
20
52.7182503
40
0.3707421
50
207.1031645
51
217.7074368
0
ARC
8
DEFAULT_255_1_234
10
23.8017257
20
52.6630559
40
0.2868417
50
216.7345547
51
265.6812148
0
ARC
8
DEFAULT_255_1_234
10
23.8148048
20
52.7534855
40
0.3780509
50
264.7366618
51
270.0611241
0
ARC
8
DEFAULT_255_1_234
10
23.8171312
20
53.0375111
40
0.662079
50
269.8335834
51
276.0539546
0
ARC
8
DEFAULT_255_1_234
10
23.8378316
20
52.847356
40
0.4708016
50
275.9894168
51
284.4615085
0
ARC
8
DEFAULT_255_1_234
10
23.8576323
20
52.7640663
40
0.3852094
50
284.7034461
51
286.4953897
0
ARC
8
DEFAULT_255_1_234
10
23.8983337
20
52.6329965
40
0.2479842
50
286.0770838
51
304.2625829
0
ARC
8
DEFAULT_255_1_234
10
23.911675
20
52.6111594
40
0.2224291
50
304.5891602
51
317.1073298
0
LINE
8
DEFAULT_255_1_234
10
21.5392458
20
61.3723211
11
21.8428456
21
60.785201
0
LINE
8
DEFAULT_255_1_234
10
21.8428456
20
60.785201
11
22.1480516
21
61.3723211
0
LINE
8
DEFAULT_255_1_234
10
22.1480516
20
61.3723211
11
22.3231435
21
61.3723211
0
LINE
8
DEFAULT_255_1_234
10
22.3231435
20
61.3723211
11
21.9199502
21
60.6390234
0
LINE
8
DEFAULT_255_1_234
10
21.9199502
20
60.6390234
11
21.9199502
21
60.2029
0
LINE
8
DEFAULT_255_1_234
10
21.9199502
20
60.2029
11
21.7657409
21
60.2029
0
LINE
8
DEFAULT_255_1_234
10
21.7657409
20
60.2029
11
21.7657409
21
60.6390234
0
LINE
8
DEFAULT_255_1_234
10
21.7657409
20
60.6390234
11
21.3625476
21
61.3723211
0
LINE
8
DEFAULT_255_1_234
10
21.3625476
20
61.3723211
11
21.5392458
21
61.3723211
0
LINE
8
DEFAULT_255_1_234
10
22.9239175
20
61.3779433
11
22.9239175
21
60.2029
0
LINE
8
DEFAULT_255_1_234
10
22.9239175
20
60.2029
11
22.7745272
21
60.2029
0
LINE
8
DEFAULT_255_1_234
10
22.7745272
20
60.2029
11
22.7745272
21
61.1932133
0
LINE
8
DEFAULT_255_1_234
10
22.7745272
20
61.1932133
11
22.4749434
21
61.0831785
0
LINE
8
DEFAULT_255_1_234
10
22.4749434
20
61.0831785
11
22.4749434
21
61.2181117
0
LINE
8
DEFAULT_255_1_234
10
22.4749434
20
61.2181117
11
22.9006255
21
61.3779433
0
LINE
8
DEFAULT_255_1_234
10
22.9006255
20
61.3779433
11
22.9239175
21
61.3779433
0
LINE
8
DEFAULT_255_1_234
10
24.1142211
20
61.3723211
11
24.1142211
21
61.288791
0
LINE
8
DEFAULT_255_1_234
10
24.1142211
20
61.288791
11
23.6299073
21
60.2029
0
LINE
8
DEFAULT_255_1_234
10
23.6299073
20
60.2029
11
23.4740916
21
60.2029
0
LINE
8
DEFAULT_255_1_234
10
23.4740916
20
60.2029
11
23.9567991
21
61.2502387
0
LINE
8
DEFAULT_255_1_234
10
23.9567991
20
61.2502387
11
23.3238981
21
61.2502387
0
LINE
8
DEFAULT_255_1_234
10
23.3238981
20
61.2502387
11
23.3238981
21
61.3723211
0
LINE
8
DEFAULT_255_1_234
10
23.3238981
20
61.3723211
11
24.1142211
21
61.3723211
0
LINE
8
DEFAULT_255_1_234
10
21.5392458
20
69.3098211
11
21.8428456
21
68.722701
0
LINE
8
DEFAULT_255_1_234
10
21.8428456
20
68.722701
11
22.1480516
21
69.3098211
0
LINE
8
DEFAULT_255_1_234
10
22.1480516
20
69.3098211
11
22.3231435
21
69.3098211
0
LINE
8
DEFAULT_255_1_234
10
22.3231435
20
69.3098211
11
21.9199502
21
68.5765234
0
LINE
8
DEFAULT_255_1_234
10
21.9199502
20
68.5765234
11
21.9199502
21
68.1404
0
LINE
8
DEFAULT_255_1_234
10
21.9199502
20
68.1404
11
21.7657409
21
68.1404
0
LINE
8
DEFAULT_255_1_234
10
21.7657409
20
68.1404
11
21.7657409
21
68.5765234
0
LINE
8
DEFAULT_255_1_234
10
21.7657409
20
68.5765234
11
21.3625476
21
69.3098211
0
LINE
8
DEFAULT_255_1_234
10
21.3625476
20
69.3098211
11
21.5392458
21
69.3098211
0
LINE
8
DEFAULT_255_1_234
10
22.9239175
20
69.3154433
11
22.9239175
21
68.1404
0
LINE
8
DEFAULT_255_1_234
10
22.9239175
20
68.1404
11
22.7745272
21
68.1404
0
LINE
8
DEFAULT_255_1_234
10
22.7745272
20
68.1404
11
22.7745272
21
69.1307133
0
LINE
8
DEFAULT_255_1_234
10
22.7745272
20
69.1307133
11
22.4749434
21
69.0206785
0
LINE
8
DEFAULT_255_1_234
10
22.4749434
20
69.0206785
11
22.4749434
21
69.1556117
0
LINE
8
DEFAULT_255_1_234
10
22.4749434
20
69.1556117
11
22.9006255
21
69.3154433
0
LINE
8
DEFAULT_255_1_234
10
22.9006255
20
69.3154433
11
22.9239175
21
69.3154433
0
LINE
8
DEFAULT_255_1_234
10
23.9158372
20
69.3106243
11
23.9423419
21
69.3106243
0
LINE
8
DEFAULT_255_1_234
10
23.9423419
20
69.3106243
11
23.9423419
21
69.184526
0
LINE
8
DEFAULT_255_1_234
10
23.9423419
20
69.184526
11
23.915034
21
69.184526
0
LINE
8
DEFAULT_255_1_234
10
23.3680727
20
68.5853583
11
23.3680727
21
68.6423836
0
LINE
8
DEFAULT_255_1_234
10
23.517463
20
68.6231075
11
23.517463
21
68.5684917
0
ARC
8
DEFAULT_255_1_234
10
23.9202688
20
68.6847455
40
0.4998079
50
90.6001036
51
104.514704
0
ARC
8
DEFAULT_255_1_234
10
23.8814204
20
68.8292131
40
0.3502176
50
104.2855254
51
133.862935
0
ARC
8
DEFAULT_255_1_234
10
23.8977961
20
68.818383
40
0.3693984
50
134.5302688
51
161.6210873
0
ARC
8
DEFAULT_255_1_234
10
24.063115
20
68.7600895
40
0.5446739
50
161.2849839
51
174.2076652
0
ARC
8
DEFAULT_255_1_234
10
24.2038087
20
68.7406787
40
0.6866274
50
173.7810589
51
174.9254635
0
ARC
8
DEFAULT_255_1_234
10
23.7487919
20
68.6023839
40
0.3033419
50
95.8330959
51
138.9954921
0
ARC
8
DEFAULT_255_1_234
10
23.7711275
20
68.4745375
40
0.4328947
50
89.8753725
51
97.0544009
0
ARC
8
DEFAULT_255_1_234
10
23.7758741
20
68.5580748
40
0.3493769
50
71.6407809
51
90.6240094
0
ARC
8
DEFAULT_255_1_234
10
23.7909314
20
68.6135082
40
0.2920396
50
39.6367836
51
71.019018
0
ARC
8
DEFAULT_255_1_234
10
23.7272787
20
68.5584998
40
0.3761538
50
10.658731
51
39.9043955
0
ARC
8
DEFAULT_255_1_234
10
23.572487
20
68.5248686
40
0.5345136
50
359.682601
51
11.132623
0
ARC
8
DEFAULT_255_1_234
10
23.5685001
20
68.517801
40
0.5385081
50
347.2486944
51
0.4369317
0
ARC
8
DEFAULT_255_1_234
10
23.7352478
20
68.4776807
40
0.3670249
50
318.1409698
51
347.6118597
0
ARC
8
DEFAULT_255_1_234
10
23.7677471
20
68.4509702
40
0.3250007
50
275.6342139
51
317.8248465
0
ARC
8
DEFAULT_255_1_234
10
23.7456583
20
68.5809219
40
0.4565864
50
269.8874292
51
276.7917694
0
ARC
8
DEFAULT_255_1_234
10
23.7401653
20
68.4783743
40
0.3540676
50
246.9140195
51
270.7437342
0
ARC
8
DEFAULT_255_1_234
10
23.7408043
20
68.4641384
40
0.3412781
50
218.1665114
51
245.878116
0
ARC
8
DEFAULT_255_1_234
10
23.8287504
20
68.5377279
40
0.455911
50
191.4115814
51
218.6077802
0
ARC
8
DEFAULT_255_1_234
10
24.0225593
20
68.5811833
40
0.6545001
50
179.6345085
51
191.7836486
0
ARC
8
DEFAULT_255_1_234
10
24.580793
20
68.6490697
40
1.2127388
50
171.4525249
51
180.3158839
0
ARC
8
DEFAULT_255_1_234
10
24.1412806
20
68.7174608
40
0.7679464
50
157.9802646
51
171.6246686
0
ARC
8
DEFAULT_255_1_234
10
23.9198827
20
68.8057421
40
0.5296008
50
141.4298019
51
157.854097
0
ARC
8
DEFAULT_255_1_234
10
23.8557148
20
68.8511381
40
0.4511509
50
102.8715806
51
140.8564722
0
ARC
8
DEFAULT_255_1_234
10
23.9204763
20
68.6071552
40
0.7034845
50
90.3778349
51
103.5869322
0
ARC
8
DEFAULT_255_1_234
10
23.7466539
20
68.546673
40
0.2370698
50
89.8751008
51
126.2071704
0
ARC
8
DEFAULT_255_1_234
10
23.7512329
20
68.5312303
40
0.2522934
50
124.9745049
51
144.895901
0
ARC
8
DEFAULT_255_1_234
10
23.733652
20
68.545556
40
0.2296779
50
145.2974905
51
160.2660252
0
ARC
8
DEFAULT_255_1_234
10
24.0409058
20
68.5653071
40
0.5234525
50
179.6514266
51
190.2855912
0
ARC
8
DEFAULT_255_1_234
10
23.8715196
20
68.5333786
40
0.3510893
50
190.0945431
51
207.5098196
0
ARC
8
DEFAULT_255_1_234
10
23.8149465
20
68.5064623
40
0.288489
50
207.9583163
51
216.3251085
0
ARC
8
DEFAULT_255_1_234
10
23.7809573
20
68.4785105
40
0.2445587
50
215.7661442
51
232.5456785
0
ARC
8
DEFAULT_255_1_234
10
23.7426556
20
68.4298482
40
0.1826382
50
232.8005391
51
270.6605633
0
ARC
8
DEFAULT_255_1_234
10
23.7472257
20
68.4662612
40
0.2190529
50
269.35537
51
288.4744281
0
ARC
8
DEFAULT_255_1_234
10
23.7565154
20
68.4313118
40
0.1829749
50
289.1833337
51
322.9683818
0
ARC
8
DEFAULT_255_1_234
10
23.6953676
20
68.4795391
40
0.2608399
50
322.6007884
51
346.5182367
0
ARC
8
DEFAULT_255_1_234
10
23.5796272
20
68.5090616
40
0.3802777
50
346.2582162
51
358.7741648
0
ARC
8
DEFAULT_255_1_234
10
23.4777941
20
68.5145965
40
0.4822176
50
358.3755224
51
0.0098023
0
ARC
8
DEFAULT_255_1_234
10
23.5534128
20
68.5173657
40
0.4066078
50
359.6214041
51
11.2839074
0
ARC
8
DEFAULT_255_1_234
10
23.6811275
20
68.5440066
40
0.2761514
50
11.0482309
51
31.8146458
0
ARC
8
DEFAULT_255_1_234
10
23.7120318
20
68.5607584
40
0.2410679
50
32.3035391
51
38.082671
0
ARC
8
DEFAULT_255_1_234
10
23.7540978
20
68.5988662
40
0.1844966
50
36.825067
51
85.7415724
0
ARC
8
DEFAULT_255_1_234
10
23.7473811
20
68.5488301
40
0.2349122
50
85.0140713
51
90.0513278
0
LINE
8
DEFAULT_255_1_234
10
21.5392458
20
77.2473211
11
21.8428456
21
76.660201
0
LINE
8
DEFAULT_255_1_234
10
21.8428456
20
76.660201
11
22.1480516
21
77.2473211
0
LINE
8
DEFAULT_255_1_234
10
22.1480516
20
77.2473211
11
22.3231435
21
77.2473211
0
LINE
8
DEFAULT_255_1_234
10
22.3231435
20
77.2473211
11
21.9199502
21
76.5140234
0
LINE
8
DEFAULT_255_1_234
10
21.9199502
20
76.5140234
11
21.9199502
21
76.0779
0
LINE
8
DEFAULT_255_1_234
10
21.9199502
20
76.0779
11
21.7657409
21
76.0779
0
LINE
8
DEFAULT_255_1_234
10
21.7657409
20
76.0779
11
21.7657409
21
76.5140234
0
LINE
8
DEFAULT_255_1_234
10
21.7657409
20
76.5140234
11
21.3625476
21
77.2473211
0
LINE
8
DEFAULT_255_1_234
10
21.3625476
20
77.2473211
11
21.5392458
21
77.2473211
0
LINE
8
DEFAULT_255_1_234
10
22.9239175
20
77.2529433
11
22.9239175
21
76.0779
0
LINE
8
DEFAULT_255_1_234
10
22.9239175
20
76.0779
11
22.7745272
21
76.0779
0
LINE
8
DEFAULT_255_1_234
10
22.7745272
20
76.0779
11
22.7745272
21
77.0682133
0
LINE
8
DEFAULT_255_1_234
10
22.7745272
20
77.0682133
11
22.4749434
21
76.9581785
0
LINE
8
DEFAULT_255_1_234
10
22.4749434
20
76.9581785
11
22.4749434
21
77.0931117
0
LINE
8
DEFAULT_255_1_234
10
22.4749434
20
77.0931117
11
22.9006255
21
77.2529433
0
LINE
8
DEFAULT_255_1_234
10
22.9006255
20
77.2529433
11
22.9239175
21
77.2529433
0
LINE
8
DEFAULT_255_1_234
10
23.5463772
20
76.6336963
11
23.4275075
21
76.6642169
0
LINE
8
DEFAULT_255_1_234
10
23.4275075
20
76.6642169
11
23.4869424
21
77.2473211
0
LINE
8
DEFAULT_255_1_234
10
23.4869424
20
77.2473211
11
24.0861101
21
77.2473211
0
LINE
8
DEFAULT_255_1_234
10
24.0861101
20
77.2473211
11
24.0861101
21
77.1099784
0
LINE
8
DEFAULT_255_1_234
10
24.0861101
20
77.1099784
11
23.6130407
21
77.1099784
0
LINE
8
DEFAULT_255_1_234
10
23.6130407
20
77.1099784
11
23.577701
21
76.7911184
0
LINE
8
DEFAULT_255_1_234
10
23.3857425
20
76.3855156
11
23.5262979
21
76.3855156
0
LINE
8
DEFAULT_255_1_234
10
23.5857328
20
76.6658232
11
23.5463772
21
76.6336963
0
ARC
8
DEFAULT_255_1_234
10
23.7631794
20
76.473123
40
0.3681349
50
93.7182161
51
120.2538958
0
ARC
8
DEFAULT_255_1_234
10
23.7726057
20
76.3923394
40
0.449379
50
89.9660152
51
94.2496022
0
ARC
8
DEFAULT_255_1_234
10
23.7766791
20
76.4512549
40
0.390482
50
73.8043271
51
90.5585896
0
ARC
8
DEFAULT_255_1_234
10
23.8001688
20
76.5370602
40
0.3015334
50
41.3071453
51
73.5430202
0
ARC
8
DEFAULT_255_1_234
10
23.7585515
20
76.5012324
40
0.3564457
50
13.5075983
51
41.2174222
0
ARC
8
DEFAULT_255_1_234
10
23.5943719
20
76.4582486
40
0.5261351
50
1.1331335
51
13.8829381
0
ARC
8
DEFAULT_255_1_234
10
23.4532088
20
76.4506665
40
0.6674378
50
359.9919444
51
1.544251
0
ARC
8
DEFAULT_255_1_234
10
23.5808914
20
76.446528
40
0.5397702
50
347.8572367
51
0.4293338
0
ARC
8
DEFAULT_255_1_234
10
23.7559232
20
76.4068736
40
0.3603188
50
323.673004
51
348.1672506
0
ARC
8
DEFAULT_255_1_234
10
23.785374
20
76.3889168
40
0.3259678
50
316.8171152
51
323.1492751
0
ARC
8
DEFAULT_255_1_234
10
23.7914929
20
76.385246
40
0.3189975
50
281.8396411
51
316.5457803
0
ARC
8
DEFAULT_255_1_234
10
23.7539193
20
76.5407762
40
0.4789527
50
269.5770101
51
282.4214771
0
ARC
8
DEFAULT_255_1_234
10
23.7468004
20
76.5194125
40
0.45759
50
256.2427136
51
270.4486331
0
ARC
8
DEFAULT_255_1_234
10
23.7168907
20
76.3994229
40
0.3339303
50
228.9023911
51
256.3314342
0
ARC
8
DEFAULT_255_1_234
10
23.7095139
20
76.3877746
40
0.32031
50
193.753695
51
228.5271154
0
ARC
8
DEFAULT_255_1_234
10
23.8333093
20
76.42408
40
0.4492253
50
184.924711
51
194.497588
0
ARC
8
DEFAULT_255_1_234
10
23.852566
20
76.4276591
40
0.3289787
50
187.3600538
51
198.6732863
0
ARC
8
DEFAULT_255_1_234
10
23.7475954
20
76.3912674
40
0.217884
50
198.4451669
51
217.794479
0
ARC
8
DEFAULT_255_1_234
10
23.7180129
20
76.3703085
40
0.1816698
50
218.2887171
51
228.5612368
0
ARC
8
DEFAULT_255_1_234
10
23.7277916
20
76.3834963
40
0.1980329
50
228.9654866
51
258.1234728
0
ARC
8
DEFAULT_255_1_234
10
23.7483626
20
76.4715833
40
0.2884748
50
257.7258293
51
270.401361
0
ARC
8
DEFAULT_255_1_234
10
23.7528513
20
76.4270821
40
0.2439788
50
269.4204404
51
286.4209037
0
ARC
8
DEFAULT_255_1_234
10
23.7677
20
76.3731657
40
0.1880666
50
286.7251356
51
320.600362
0
ARC
8
DEFAULT_255_1_234
10
23.7293825
20
76.4042595
40
0.2374121
50
320.6712579
51
344.5441685
0
ARC
8
DEFAULT_255_1_234
10
23.6137151
20
76.4382045
40
0.3579479
50
344.2412205
51
356.7357071
0
ARC
8
DEFAULT_255_1_234
10
23.48883
20
76.4485444
40
0.4832297
50
356.3548756
51
0.0500261
0
ARC
8
DEFAULT_255_1_234
10
23.6224809
20
76.451665
40
0.3495889
50
359.5576869
51
12.953486
0
ARC
8
DEFAULT_255_1_234
10
23.7279706
20
76.4772434
40
0.2410532
50
12.6490276
51
41.6081334
0
ARC
8
DEFAULT_255_1_234
10
23.7510077
20
76.4968321
40
0.2108218
50
41.7850273
51
85.9892764
0
ARC
8
DEFAULT_255_1_234
10
23.7386814
20
76.4155462
40
0.2928454
50
84.6957577
51
90.0676183
0
ARC
8
DEFAULT_255_1_234
10
23.7363298
20
76.3486716
40
0.3597255
50
89.6804936
51
99.1614436
0
ARC
8
DEFAULT_255_1_234
10
23.7157929
20
76.4714131
40
0.235281
50
98.9830931
51
113.8908934
0
ARC
8
DEFAULT_255_1_234
10
23.6928339
20
76.5255587
40
0.176479
50
114.1950727
51
127.3641004
0
LINE
8
DEFAULT_255_1_234
10
21.4334458
20
85.1848211
11
21.7370456
21
84.597701
0
LINE
8
DEFAULT_255_1_234
10
21.7370456
20
84.597701
11
22.0422516
21
85.1848211
0
LINE
8
DEFAULT_255_1_234
10
22.0422516
20
85.1848211
11
22.2173435
21
85.1848211
0
LINE
8
DEFAULT_255_1_234
10
22.2173435
20
85.1848211
11
21.8141502
21
84.4515234
0
LINE
8
DEFAULT_255_1_234
10
21.8141502
20
84.4515234
11
21.8141502
21
84.0154
0
LINE
8
DEFAULT_255_1_234
10
21.8141502
20
84.0154
11
21.6599409
21
84.0154
0
LINE
8
DEFAULT_255_1_234
10
21.6599409
20
84.0154
11
21.6599409
21
84.4515234
0
LINE
8
DEFAULT_255_1_234
10
21.6599409
20
84.4515234
11
21.2567476
21
85.1848211
0
LINE
8
DEFAULT_255_1_234
10
21.2567476
20
85.1848211
11
21.4334458
21
85.1848211
0
LINE
8
DEFAULT_255_1_234
10
22.8181175
20
85.1904433
11
22.8181175
21
84.0154
0
LINE
8
DEFAULT_255_1_234
10
22.8181175
20
84.0154
11
22.6687272
21
84.0154
0
LINE
8
DEFAULT_255_1_234
10
22.6687272
20
84.0154
11
22.6687272
21
85.0057133
0
LINE
8
DEFAULT_255_1_234
10
22.6687272
20
85.0057133
11
22.3691434
21
84.8956785
0
LINE
8
DEFAULT_255_1_234
10
22.3691434
20
84.8956785
11
22.3691434
21
85.0306117
0
LINE
8
DEFAULT_255_1_234
10
22.3691434
20
85.0306117
11
22.7948255
21
85.1904433
0
LINE
8
DEFAULT_255_1_234
10
22.7948255
20
85.1904433
11
22.8181175
21
85.1904433
0
LINE
8
DEFAULT_255_1_234
10
23.8807165
20
85.1848211
11
23.8807165
21
84.408152
0
LINE
8
DEFAULT_255_1_234
10
23.8807165
20
84.408152
11
24.0429576
21
84.408152
0
LINE
8
DEFAULT_255_1_234
10
24.0429576
20
84.408152
11
24.0429576
21
84.2868728
0
LINE
8
DEFAULT_255_1_234
10
24.0429576
20
84.2868728
11
23.8807165
21
84.2868728
0
LINE
8
DEFAULT_255_1_234
10
23.8807165
20
84.2868728
11
23.8807165
21
84.0154
0
LINE
8
DEFAULT_255_1_234
10
23.8807165
20
84.0154
11
23.7313262
21
84.0154
0
LINE
8
DEFAULT_255_1_234
10
23.7313262
20
84.0154
11
23.7313262
21
84.2868728
0
LINE
8
DEFAULT_255_1_234
10
23.7313262
20
84.2868728
11
23.1988219
21
84.2868728
0
LINE
8
DEFAULT_255_1_234
10
23.1988219
20
84.2868728
11
23.1988219
21
84.3744187
0
LINE
8
DEFAULT_255_1_234
10
23.1988219
20
84.3744187
11
23.7224913
21
85.1848211
0
LINE
8
DEFAULT_255_1_234
10
23.7224913
20
85.1848211
11
23.8807165
21
85.1848211
0
LINE
8
DEFAULT_255_1_234
10
23.7136563
20
84.9494912
11
23.3674884
21
84.408152
0
LINE
8
DEFAULT_255_1_234
10
23.3674884
20
84.408152
11
23.7313262
21
84.408152
0
LINE
8
DEFAULT_255_1_234
10
23.7313262
20
84.408152
11
23.7313262
21
84.9816181
0
LINE
8
DEFAULT_255_1_234
10
23.7313262
20
84.9816181
11
23.7136563
21
84.9494912
0
LINE
8
DEFAULT_255_1_234
10
23.188223
20
92.3239663
11
23.3432355
21
92.3239663
0
LINE
8
DEFAULT_255_1_234
10
22.4428777
20
92.4829947
11
22.4428777
21
92.5954391
0
LINE
8
DEFAULT_255_1_234
10
23.3432355
20
92.7464357
11
23.188223
21
92.7464357
0
LINE
8
DEFAULT_255_1_234
10
22.5978902
20
92.5914232
11
22.5978902
21
92.4781757
0
ARC
8
DEFAULT_255_1_234
10
22.7951742
20
92.3836846
40
0.5513052
50
340.1774281
51
353.7814284
0
ARC
8
DEFAULT_255_1_234
10
22.9523095
20
92.3251582
40
0.3836379
50
311.4558989
51
340.4421614
0
ARC
8
DEFAULT_255_1_234
10
22.9489763
20
92.3362528
40
0.3941894
50
282.4333181
51
310.7513653
0
ARC
8
DEFAULT_255_1_234
10
22.9050502
20
92.5177679
40
0.5809175
50
269.9358511
51
282.809604
0
ARC
8
DEFAULT_255_1_234
10
22.8998568
20
92.6635212
40
0.7266847
50
270.0021091
51
270.3581957
0
ARC
8
DEFAULT_255_1_234
10
22.8945985
20
92.4034585
40
0.4666519
50
250.7884749
51
270.6489167
0
ARC
8
DEFAULT_255_1_234
10
22.877782
20
92.3397319
40
0.4009729
50
219.3627325
51
250.0611886
0
ARC
8
DEFAULT_255_1_234
10
22.9607031
20
92.4102042
40
0.5097822
50
193.5479632
51
219.5756669
0
ARC
8
DEFAULT_255_1_234
10
23.1978652
20
92.4717919
40
0.7547848
50
181.1218675
51
193.87563
0
ARC
8
DEFAULT_255_1_234
10
23.4048833
20
92.482858
40
0.9620055
50
179.9918545
51
181.5394234
0
ARC
8
DEFAULT_255_1_234
10
23.2197935
20
92.5991788
40
0.7769248
50
169.5837241
51
180.2757934
0
ARC
8
DEFAULT_255_1_234
10
23.0360873
20
92.6331229
40
0.590109
50
155.0365899
51
169.6003176
0
ARC
8
DEFAULT_255_1_234
10
22.9225337
20
92.6878677
40
0.4640625
50
136.783148
51
155.2472683
0
ARC
8
DEFAULT_255_1_234
10
22.8835814
20
92.7209562
40
0.4130255
50
121.7633186
51
136.428115
0
ARC
8
DEFAULT_255_1_234
10
22.8970776
20
92.6960227
40
0.4413323
50
95.6459699
51
121.5490577
0
ARC
8
DEFAULT_255_1_234
10
22.9128058
20
92.5851949
40
0.55319
50
89.924208
51
96.1377933
0
ARC
8
DEFAULT_255_1_234
10
22.9178491
20
92.5970542
40
0.5413475
50
76.6779277
51
90.4563316
0
ARC
8
DEFAULT_255_1_234
10
22.9572114
20
92.7561114
40
0.3775041
50
47.485847
51
76.9287264
0
ARC
8
DEFAULT_255_1_234
10
22.9425087
20
92.7461159
40
0.3948286
50
16.5424086
51
46.8933463
0
ARC
8
DEFAULT_255_1_234
10
22.7817244
20
92.6932861
40
0.564021
50
5.4072051
51
17.0365086
0
ARC
8
DEFAULT_255_1_234
10
22.6378261
20
92.6701679
40
0.5556559
50
7.8891745
51
15.9239216
0
ARC
8
DEFAULT_255_1_234
10
22.8365274
20
92.7278631
40
0.3487515
50
15.7653144
51
27.9410532
0
ARC
8
DEFAULT_255_1_234
10
22.9469492
20
92.786979
40
0.2235026
50
27.8166557
51
46.4008329
0
ARC
8
DEFAULT_255_1_234
10
22.9519135
20
92.7864082
40
0.2205286
50
47.4371857
51
75.0698205
0
ARC
8
DEFAULT_255_1_234
10
22.9210529
20
92.6789765
40
0.3322915
50
74.7008593
51
87.8124495
0
ARC
8
DEFAULT_255_1_234
10
22.9137217
20
92.5733844
40
0.4380987
50
87.3814673
51
90.0240855
0
ARC
8
DEFAULT_255_1_234
10
22.909876
20
92.6911291
40
0.3203749
50
89.3451631
51
108.5745436
0
ARC
8
DEFAULT_255_1_234
10
22.8961865
20
92.7424908
40
0.2673494
50
109.2998449
51
143.3037509
0
ARC
8
DEFAULT_255_1_234
10
22.9723938
20
92.6838881
40
0.3634757
50
143.0753173
51
163.1916937
0
ARC
8
DEFAULT_255_1_234
10
23.1675666
20
92.6222967
40
0.5681262
50
162.9373603
51
174.6208611
0
ARC
8
DEFAULT_255_1_234
10
23.4301708
20
92.593501
40
0.8322832
50
174.3419979
51
180.1430411
0
ARC
8
DEFAULT_255_1_234
10
23.3370864
20
92.4740698
40
0.7392076
50
179.6817502
51
189.150529
0
ARC
8
DEFAULT_255_1_234
10
23.0870112
20
92.432419
40
0.4856932
50
188.9910863
51
203.5773039
0
ARC
8
DEFAULT_255_1_234
10
22.9790445
20
92.3876211
40
0.3688271
50
203.9077269
51
215.1312379
0
ARC
8
DEFAULT_255_1_234
10
22.8867539
20
92.3160941
40
0.2522457
50
213.9071664
51
263.8849284
0
ARC
8
DEFAULT_255_1_234
10
22.8992868
20
92.3945518
40
0.3316174
50
263.1758525
51
270.1031083
0
ARC
8
DEFAULT_255_1_234
10
22.902496
20
92.5192365
40
0.4563091
50
269.6719807
51
279.0609165
0
ARC
8
DEFAULT_255_1_234
10
22.9291728
20
92.3579907
40
0.2928759
50
278.8750225
51
293.6346586
0
ARC
8
DEFAULT_255_1_234
10
22.9611936
20
92.28279
40
0.2111472
50
293.8553404
51
310.0518804
0
ARC
8
DEFAULT_255_1_234
10
22.961679
20
92.2765516
40
0.2060917
50
311.0646779
51
332.0108348
0
ARC
8
DEFAULT_255_1_234
10
22.8424517
20
92.3422978
40
0.3422352
50
331.6588543
51
343.2878891
0
ARC
8
DEFAULT_255_1_234
10
22.6362032
20
92.4056798
40
0.5580003
50
343.1446044
51
351.010618
0
ARC
8
DEFAULT_255_1_234
10
22.4820678
20
92.4337871
40
0.7146438
50
350.7157277
51
351.1602153
0
LINE
8
DEFAULT_255_1_234
10
23.7311685
20
92.4886169
11
23.7311685
21
92.6098962
0
LINE
8
DEFAULT_255_1_234
10
23.7311685
20
92.6098962
11
23.8428097
21
92.6098962
0
LINE
8
DEFAULT_255_1_234
10
23.6524575
20
92.8155087
11
23.5038703
21
92.8155087
0
LINE
8
DEFAULT_255_1_234
10
23.4934291
20
92.2613188
11
23.6428194
21
92.2613188
0
LINE
8
DEFAULT_255_1_234
10
23.8428097
20
92.4886169
11
23.7311685
21
92.4886169
0
ARC
8
DEFAULT_255_1_234
10
23.8398963
20
92.9491713
40
0.3392876
50
270.4919872
51
281.8951556
0
ARC
8
DEFAULT_255_1_234
10
23.8640225
20
92.8389702
40
0.2264817
50
281.6691735
51
301.2943132
0
ARC
8
DEFAULT_255_1_234
10
23.8810435
20
92.8078304
40
0.1910381
50
301.7833094
51
311.7545298
0
ARC
8
DEFAULT_255_1_234
10
23.8902011
20
92.7976748
40
0.1773635
50
311.7323931
51
354.2802411
0
ARC
8
DEFAULT_255_1_234
10
23.8175636
20
92.8101722
40
0.2509385
50
353.0937916
51
0.1181479
0
ARC
8
DEFAULT_255_1_234
10
23.7714421
20
92.8149386
40
0.2970898
50
359.1805295
51
15.0453146
0
ARC
8
DEFAULT_255_1_234
10
23.9060258
20
92.8541992
40
0.1569564
50
13.9577229
51
77.6713066
0
ARC
8
DEFAULT_255_1_234
10
23.8673787
20
92.7156949
40
0.3006298
50
76.1116566
51
90.7026153
0
ARC
8
DEFAULT_255_1_234
10
23.8614625
20
92.7430545
40
0.2732568
50
89.5324876
51
103.531937
0
ARC
8
DEFAULT_255_1_234
10
23.841407
20
92.8229884
40
0.1908508
50
103.2931773
51
133.5619022
0
ARC
8
DEFAULT_255_1_234
10
23.8369558
20
92.8289375
40
0.1834746
50
133.8349307
51
173.5344437
0
ARC
8
DEFAULT_255_1_234
10
23.9092601
20
92.8161213
40
0.2568033
50
172.5096846
51
180.1366907
0
ARC
8
DEFAULT_255_1_234
10
23.8141495
20
92.8195622
40
0.3103056
50
155.3484492
51
180.7484736
0
ARC
8
DEFAULT_255_1_234
10
23.8092584
20
92.8166846
40
0.3070957
50
131.5744599
51
154.4798489
0
ARC
8
DEFAULT_255_1_234
10
23.8405731
20
92.785031
40
0.3515643
50
96.9875458
51
131.9690667
0
ARC
8
DEFAULT_255_1_234
10
23.8625211
20
92.6604636
40
0.4779224
50
89.8596053
51
97.7825159
0
ARC
8
DEFAULT_255_1_234
10
23.8673274
20
92.6342616
40
0.5041361
50
78.3655447
51
90.4131539
0
ARC
8
DEFAULT_255_1_234
10
23.9031192
20
92.8001887
40
0.3344039
50
56.6229102
51
78.638727
0
ARC
8
DEFAULT_255_1_234
10
23.9246136
20
92.8377805
40
0.2912001
50
47.0253525
51
56.0854072
0
ARC
8
DEFAULT_255_1_234
10
23.9265916
20
92.8417223
40
0.2869704
50
10.9208013
51
46.7778124
0
ARC
8
DEFAULT_255_1_234
10
23.7901982
20
92.8101857
40
0.426899
50
359.6364486
51
11.6087304
0
ARC
8
DEFAULT_255_1_234
10
23.9736827
20
92.8086752
40
0.243409
50
332.3549906
51
359.7179418
0
ARC
8
DEFAULT_255_1_234
10
23.9086428
20
92.8395142
40
0.3153459
50
325.2333722
51
332.8745602
0
ARC
8
DEFAULT_255_1_234
10
23.9239052
20
92.8288828
40
0.2967456
50
292.9802137
51
325.2392345
0
ARC
8
DEFAULT_255_1_234
10
23.8964426
20
92.8822863
40
0.3566604
50
292.5402179
51
293.6924929
0
ARC
8
DEFAULT_255_1_234
10
23.9357021
20
92.2368091
40
0.3307468
50
57.6435486
51
72.8625112
0
ARC
8
DEFAULT_255_1_234
10
23.9711521
20
92.2942549
40
0.2632492
50
36.7248896
51
57.4697979
0
ARC
8
DEFAULT_255_1_234
10
23.9700154
20
92.295522
40
0.2634081
50
8.0545065
51
36.356114
0
ARC
8
DEFAULT_255_1_234
10
23.8837339
20
92.2800174
40
0.3510261
50
359.8320645
51
8.5869982
0
ARC
8
DEFAULT_255_1_234
10
23.8462115
20
92.2752101
40
0.3885653
50
343.9829931
51
0.5571613
0
ARC
8
DEFAULT_255_1_234
10
23.9348313
20
92.2509438
40
0.2966924
50
311.6359546
51
343.7651759
0
ARC
8
DEFAULT_255_1_234
10
23.8969882
20
92.2936102
40
0.3537231
50
279.7829875
51
311.6255694
0
ARC
8
DEFAULT_255_1_234
10
23.8668658
20
92.437328
40
0.5004971
50
269.7286406
51
280.3856417
0
ARC
8
DEFAULT_255_1_234
10
23.8606731
20
92.4331996
40
0.4963778
50
256.6828919
51
270.4412052
0
ARC
8
DEFAULT_255_1_234
10
23.8268026
20
92.2947394
40
0.3538406
50
229.4223008
51
256.8556159
0
ARC
8
DEFAULT_255_1_234
10
23.7853419
20
92.2480736
40
0.2914296
50
181.818294
51
229.6455059
0
ARC
8
DEFAULT_255_1_234
10
23.8893375
20
92.2611496
40
0.3959084
50
179.9755256
51
183.2323064
0
ARC
8
DEFAULT_255_1_234
10
23.8721121
20
92.2591037
40
0.2293034
50
179.4465117
51
196.2869258
0
ARC
8
DEFAULT_255_1_234
10
23.8233529
20
92.2457651
40
0.1787621
50
196.5661473
51
227.705904
0
ARC
8
DEFAULT_255_1_234
10
23.8397624
20
92.2641155
40
0.2033784
50
227.7652068
51
257.8762805
0
ARC
8
DEFAULT_255_1_234
10
23.8622594
20
92.3584156
40
0.3003081
50
257.4584385
51
270.426602
0
ARC
8
DEFAULT_255_1_234
10
23.866816
20
92.3873996
40
0.329292
50
269.5962073
51
280.8789248
0
ARC
8
DEFAULT_255_1_234
10
23.8897689
20
92.2727685
40
0.2123908
50
280.6346389
51
299.8595945
0
ARC
8
DEFAULT_255_1_234
10
23.9088596
20
92.2365212
40
0.171457
50
300.3576302
51
314.5517981
0
ARC
8
DEFAULT_255_1_234
10
23.9005656
20
92.2425919
40
0.1816095
50
315.0728369
51
345.0431014
0
ARC
8
DEFAULT_255_1_234
10
23.808247
20
92.2694841
40
0.2777492
50
344.5986631
51
357.9269593
0
ARC
8
DEFAULT_255_1_234
10
23.7186797
20
92.2756276
40
0.3674917
50
357.4748886
51
0.0231117
0
ARC
8
DEFAULT_255_1_234
10
23.8209906
20
92.2780679
40
0.2651907
50
359.5047933
51
13.4239635
0
ARC
8
DEFAULT_255_1_234
10
23.907655
20
92.3002478
40
0.1757509
50
12.9498199
51
48.7551375
0
ARC
8
DEFAULT_255_1_234
10
23.8894284
20
92.27534
40
0.2065134
50
49.5088623
51
72.1836453
0
ARC
8
DEFAULT_255_1_234
10
23.8536436
20
92.1691291
40
0.3185836
50
71.9010081
51
84.3554254
0
ARC
8
DEFAULT_255_1_234
10
23.8375068
20
92.0330326
40
0.4556151
50
84.0193428
51
89.333121
0
LINE
8
DEFAULT_255_1_234
10
21.5392458
20
101.0598211
11
21.8428456
21
100.472701
0
LINE
8
DEFAULT_255_1_234
10
21.8428456
20
100.472701
11
22.1480516
21
101.0598211
0
LINE
8
DEFAULT_255_1_234
10
22.1480516
20
101.0598211
11
22.3231435
21
101.0598211
0
LINE
8
DEFAULT_255_1_234
10
22.3231435
20
101.0598211
11
21.9199502
21
100.3265234
0
LINE
8
DEFAULT_255_1_234
10
21.9199502
20
100.3265234
11
21.9199502
21
99.8904
0
LINE
8
DEFAULT_255_1_234
10
21.9199502
20
99.8904
11
21.7657409
21
99.8904
0
LINE
8
DEFAULT_255_1_234
10
21.7657409
20
99.8904
11
21.7657409
21
100.3265234
0
LINE
8
DEFAULT_255_1_234
10
21.7657409
20
100.3265234
11
21.3625476
21
101.0598211
0
LINE
8
DEFAULT_255_1_234
10
21.3625476
20
101.0598211
11
21.5392458
21
101.0598211
0
LINE
8
DEFAULT_255_1_234
10
22.9239175
20
101.0654433
11
22.9239175
21
99.8904
0
LINE
8
DEFAULT_255_1_234
10
22.9239175
20
99.8904
11
22.7745272
21
99.8904
0
LINE
8
DEFAULT_255_1_234
10
22.7745272
20
99.8904
11
22.7745272
21
100.8807133
0
LINE
8
DEFAULT_255_1_234
10
22.7745272
20
100.8807133
11
22.4749434
21
100.7706785
0
LINE
8
DEFAULT_255_1_234
10
22.4749434
20
100.7706785
11
22.4749434
21
100.9056117
0
LINE
8
DEFAULT_255_1_234
10
22.4749434
20
100.9056117
11
22.9006255
21
101.0654433
0
LINE
8
DEFAULT_255_1_234
10
22.9006255
20
101.0654433
11
22.9239175
21
101.0654433
0
LINE
8
DEFAULT_255_1_234
10
23.5752915
20
100.4261169
11
23.5752915
21
100.5473962
0
LINE
8
DEFAULT_255_1_234
10
23.5752915
20
100.5473962
11
23.6869327
21
100.5473962
0
LINE
8
DEFAULT_255_1_234
10
23.4965805
20
100.7530087
11
23.3479933
21
100.7530087
0
LINE
8
DEFAULT_255_1_234
10
23.3375521
20
100.1988188
11
23.4869424
21
100.1988188
0
LINE
8
DEFAULT_255_1_234
10
23.6869327
20
100.4261169
11
23.5752915
21
100.4261169
0
ARC
8
DEFAULT_255_1_234
10
23.6840193
20
100.8866713
40
0.3392876
50
270.4919872
51
281.8951556
0
ARC
8
DEFAULT_255_1_234
10
23.7081455
20
100.7764702
40
0.2264817
50
281.6691735
51
301.2943132
0
ARC
8
DEFAULT_255_1_234
10
23.7251665
20
100.7453304
40
0.1910381
50
301.7833094
51
311.7545298
0
ARC
8
DEFAULT_255_1_234
10
23.7343241
20
100.7351748
40
0.1773635
50
311.7323931
51
354.2802411
0
ARC
8
DEFAULT_255_1_234
10
23.6616866
20
100.7476722
40
0.2509385
50
353.0937916
51
0.1181479
0
ARC
8
DEFAULT_255_1_234
10
23.6155651
20
100.7524386
40
0.2970898
50
359.1805295
51
15.0453146
0
ARC
8
DEFAULT_255_1_234
10
23.7501488
20
100.7916992
40
0.1569564
50
13.9577229
51
77.6713066
0
ARC
8
DEFAULT_255_1_234
10
23.7115017
20
100.6531949
40
0.3006298
50
76.1116566
51
90.7026153
0
ARC
8
DEFAULT_255_1_234
10
23.7055855
20
100.6805545
40
0.2732568
50
89.5324876
51
103.531937
0
ARC
8
DEFAULT_255_1_234
10
23.68553
20
100.7604884
40
0.1908508
50
103.2931773
51
133.5619022
0
ARC
8
DEFAULT_255_1_234
10
23.6810788
20
100.7664375
40
0.1834746
50
133.8349307
51
173.5344437
0
ARC
8
DEFAULT_255_1_234
10
23.7533831
20
100.7536213
40
0.2568033
50
172.5096846
51
180.1366907
0
ARC
8
DEFAULT_255_1_234
10
23.6582725
20
100.7570622
40
0.3103056
50
155.3484492
51
180.7484736
0
ARC
8
DEFAULT_255_1_234
10
23.6533814
20
100.7541846
40
0.3070957
50
131.5744599
51
154.4798489
0
ARC
8
DEFAULT_255_1_234
10
23.6846961
20
100.722531
40
0.3515643
50
96.9875458
51
131.9690667
0
ARC
8
DEFAULT_255_1_234
10
23.7066441
20
100.5979636
40
0.4779224
50
89.8596053
51
97.7825159
0
ARC
8
DEFAULT_255_1_234
10
23.7114504
20
100.5717616
40
0.5041361
50
78.3655447
51
90.4131539
0
ARC
8
DEFAULT_255_1_234
10
23.7472422
20
100.7376887
40
0.3344039
50
56.6229102
51
78.638727
0
ARC
8
DEFAULT_255_1_234
10
23.7687366
20
100.7752805
40
0.2912001
50
47.0253525
51
56.0854072
0
ARC
8
DEFAULT_255_1_234
10
23.7707146
20
100.7792223
40
0.2869704
50
10.9208013
51
46.7778124
0
ARC
8
DEFAULT_255_1_234
10
23.6343212
20
100.7476857
40
0.426899
50
359.6364486
51
11.6087304
0
ARC
8
DEFAULT_255_1_234
10
23.8178057
20
100.7461752
40
0.243409
50
332.3549906
51
359.7179418
0
ARC
8
DEFAULT_255_1_234
10
23.7527658
20
100.7770142
40
0.3153459
50
325.2333722
51
332.8745602
0
ARC
8
DEFAULT_255_1_234
10
23.7680282
20
100.7663828
40
0.2967456
50
292.9802137
51
325.2392345
0
ARC
8
DEFAULT_255_1_234
10
23.7405656
20
100.8197863
40
0.3566604
50
292.5402179
51
293.6924929
0
ARC
8
DEFAULT_255_1_234
10
23.7798251
20
100.1743091
40
0.3307468
50
57.6435486
51
72.8625112
0
ARC
8
DEFAULT_255_1_234
10
23.8152751
20
100.2317549
40
0.2632492
50
36.7248896
51
57.4697979
0
ARC
8
DEFAULT_255_1_234
10
23.8141384
20
100.233022
40
0.2634081
50
8.0545065
51
36.356114
0
ARC
8
DEFAULT_255_1_234
10
23.7278569
20
100.2175174
40
0.3510261
50
359.8320645
51
8.5869982
0
ARC
8
DEFAULT_255_1_234
10
23.6903345
20
100.2127101
40
0.3885653
50
343.9829931
51
0.5571613
0
ARC
8
DEFAULT_255_1_234
10
23.7789542
20
100.1884438
40
0.2966924
50
311.6359546
51
343.7651759
0
ARC
8
DEFAULT_255_1_234
10
23.7411112
20
100.2311102
40
0.3537231
50
279.7829875
51
311.6255694
0
ARC
8
DEFAULT_255_1_234
10
23.7109888
20
100.374828
40
0.5004971
50
269.7286406
51
280.3856417
0
ARC
8
DEFAULT_255_1_234
10
23.704796
20
100.3706996
40
0.4963778
50
256.6828919
51
270.4412052
0
ARC
8
DEFAULT_255_1_234
10
23.6709256
20
100.2322394
40
0.3538406
50
229.4223008
51
256.8556159
0
ARC
8
DEFAULT_255_1_234
10
23.6294649
20
100.1855736
40
0.2914296
50
181.818294
51
229.6455059
0
ARC
8
DEFAULT_255_1_234
10
23.7334605
20
100.1986496
40
0.3959084
50
179.9755256
51
183.2323064
0
ARC
8
DEFAULT_255_1_234
10
23.7162351
20
100.1966037
40
0.2293034
50
179.4465117
51
196.2869258
0
ARC
8
DEFAULT_255_1_234
10
23.6674759
20
100.1832651
40
0.1787621
50
196.5661473
51
227.705904
0
ARC
8
DEFAULT_255_1_234
10
23.6838854
20
100.2016155
40
0.2033784
50
227.7652068
51
257.8762805
0
ARC
8
DEFAULT_255_1_234
10
23.7063824
20
100.2959156
40
0.3003081
50
257.4584385
51
270.426602
0
ARC
8
DEFAULT_255_1_234
10
23.710939
20
100.3248996
40
0.329292
50
269.5962073
51
280.8789248
0
ARC
8
DEFAULT_255_1_234
10
23.7338919
20
100.2102685
40
0.2123908
50
280.6346389
51
299.8595945
0
ARC
8
DEFAULT_255_1_234
10
23.7529826
20
100.1740212
40
0.171457
50
300.3576302
51
314.5517981
0
ARC
8
DEFAULT_255_1_234
10
23.7446886
20
100.1800919
40
0.1816095
50
315.0728369
51
345.0431014
0
ARC
8
DEFAULT_255_1_234
10
23.65237
20
100.2069841
40
0.2777492
50
344.5986631
51
357.9269593
0
ARC
8
DEFAULT_255_1_234
10
23.5628027
20
100.2131276
40
0.3674917
50
357.4748886
51
0.0231117
0
ARC
8
DEFAULT_255_1_234
10
23.6651136
20
100.2155679
40
0.2651907
50
359.5047933
51
13.4239635
0
ARC
8
DEFAULT_255_1_234
10
23.751778
20
100.2377478
40
0.1757509
50
12.9498199
51
48.7551375
0
ARC
8
DEFAULT_255_1_234
10
23.7335513
20
100.21284
40
0.2065134
50
49.5088623
51
72.1836453
0
ARC
8
DEFAULT_255_1_234
10
23.6977666
20
100.1066291
40
0.3185836
50
71.9010081
51
84.3554254
0
ARC
8
DEFAULT_255_1_234
10
23.6816298
20
99.9705326
40
0.4556151
50
84.0193428
51
89.333121
0
LINE
8
DEFAULT_255_1_234
10
21.5392458
20
108.9973211
11
21.8428456
21
108.410201
0
LINE
8
DEFAULT_255_1_234
10
21.8428456
20
108.410201
11
22.1480516
21
108.9973211
0
LINE
8
DEFAULT_255_1_234
10
22.1480516
20
108.9973211
11
22.3231435
21
108.9973211
0
LINE
8
DEFAULT_255_1_234
10
22.3231435
20
108.9973211
11
21.9199502
21
108.2640234
0
LINE
8
DEFAULT_255_1_234
10
21.9199502
20
108.2640234
11
21.9199502
21
107.8279
0
LINE
8
DEFAULT_255_1_234
10
21.9199502
20
107.8279
11
21.7657409
21
107.8279
0
LINE
8
DEFAULT_255_1_234
10
21.7657409
20
107.8279
11
21.7657409
21
108.2640234
0
LINE
8
DEFAULT_255_1_234
10
21.7657409
20
108.2640234
11
21.3625476
21
108.9973211
0
LINE
8
DEFAULT_255_1_234
10
21.3625476
20
108.9973211
11
21.5392458
21
108.9973211
0
LINE
8
DEFAULT_255_1_234
10
22.9239175
20
109.0029433
11
22.9239175
21
107.8279
0
LINE
8
DEFAULT_255_1_234
10
22.9239175
20
107.8279
11
22.7745272
21
107.8279
0
LINE
8
DEFAULT_255_1_234
10
22.7745272
20
107.8279
11
22.7745272
21
108.8182133
0
LINE
8
DEFAULT_255_1_234
10
22.7745272
20
108.8182133
11
22.4749434
21
108.7081785
0
LINE
8
DEFAULT_255_1_234
10
22.4749434
20
108.7081785
11
22.4749434
21
108.8431117
0
LINE
8
DEFAULT_255_1_234
10
22.4749434
20
108.8431117
11
22.9006255
21
109.0029433
0
LINE
8
DEFAULT_255_1_234
10
22.9006255
20
109.0029433
11
22.9239175
21
109.0029433
0
LINE
8
DEFAULT_255_1_234
10
24.1254656
20
107.9491792
11
24.1254656
21
107.8279
0
LINE
8
DEFAULT_255_1_234
10
24.1254656
20
107.8279
11
23.3592377
21
107.8279
0
LINE
8
DEFAULT_255_1_234
10
23.3592377
20
107.8279
11
23.3592377
21
107.9347221
0
LINE
8
DEFAULT_255_1_234
10
23.3592377
20
107.9347221
11
23.7640374
21
108.3844995
0
LINE
8
DEFAULT_255_1_234
10
23.485336
20
108.6527595
11
23.3367489
21
108.6527595
0
LINE
8
DEFAULT_255_1_234
10
23.8515833
20
108.2889218
11
23.5383455
21
107.9491792
0
LINE
8
DEFAULT_255_1_234
10
23.5383455
20
107.9491792
11
24.1254656
21
107.9491792
0
ARC
8
DEFAULT_255_1_234
10
22.4150207
20
109.5774527
40
1.8008286
50
318.5132453
51
320.7828378
0
ARC
8
DEFAULT_255_1_234
10
22.9437181
20
109.1471426
40
1.1191493
50
320.7372736
51
323.9737074
0
ARC
8
DEFAULT_255_1_234
10
23.3357038
20
108.8631361
40
0.6350923
50
323.8961724
51
328.6421089
0
ARC
8
DEFAULT_255_1_234
10
23.5403633
20
108.7369031
40
0.3946393
50
328.8299013
51
331.789948
0
ARC
8
DEFAULT_255_1_234
10
23.6400812
20
108.6854509
40
0.2824501
50
331.4255242
51
352.9364833
0
ARC
8
DEFAULT_255_1_234
10
23.6537312
20
108.6823976
40
0.2685315
50
353.2248685
51
0.0169286
0
ARC
8
DEFAULT_255_1_234
10
23.6747189
20
108.684695
40
0.2475536
50
359.4866256
51
15.9339782
0
ARC
8
DEFAULT_255_1_234
10
23.7254174
20
108.6983286
40
0.1950618
50
16.1714718
51
43.5284424
0
ARC
8
DEFAULT_255_1_234
10
23.7331483
20
108.7060573
40
0.184134
50
43.4415429
51
83.1661404
0
ARC
8
DEFAULT_255_1_234
10
23.7197401
20
108.6323771
40
0.258926
50
82.160215
51
90.1505798
0
ARC
8
DEFAULT_255_1_234
10
23.7165828
20
108.5786865
40
0.3126255
50
89.5460705
51
102.5418777
0
ARC
8
DEFAULT_255_1_234
10
23.6922915
20
108.6817665
40
0.2067346
50
102.1739365
51
129.2061916
0
ARC
8
DEFAULT_255_1_234
10
23.6843986
20
108.6942094
40
0.1921118
50
129.7279328
51
135.7542026
0
ARC
8
DEFAULT_255_1_234
10
23.6965514
20
108.6845045
40
0.2075944
50
136.175737
51
166.3674722
0
ARC
8
DEFAULT_255_1_234
10
23.7972433
20
108.6575182
40
0.3118201
50
165.9092917
51
178.8683903
0
ARC
8
DEFAULT_255_1_234
10
23.8837295
20
108.6528179
40
0.3983935
50
178.438168
51
180.0083905
0
ARC
8
DEFAULT_255_1_234
10
23.7435897
20
108.6567231
40
0.4068601
50
163.2878735
51
180.5581814
0
ARC
8
DEFAULT_255_1_234
10
23.6634158
20
108.678784
40
0.3237344
50
133.454115
51
162.9470031
0
ARC
8
DEFAULT_255_1_234
10
23.6812699
20
108.6598
40
0.349795
50
100.7869394
51
133.4384016
0
ARC
8
DEFAULT_255_1_234
10
23.7160471
20
108.5049319
40
0.5084616
50
89.6605301
51
101.3704185
0
ARC
8
DEFAULT_255_1_234
10
23.722681
20
108.5110496
40
0.502348
50
78.2171172
51
90.4130393
0
ARC
8
DEFAULT_255_1_234
10
23.7581888
20
108.6734637
40
0.3361092
50
55.9268222
51
78.4888551
0
ARC
8
DEFAULT_255_1_234
10
23.7778328
20
108.7073324
40
0.2970617
50
47.9292255
51
55.4054003
0
ARC
8
DEFAULT_255_1_234
10
23.7879889
20
108.7176502
40
0.2825983
50
4.3347696
51
48.0560701
0
ARC
8
DEFAULT_255_1_234
10
23.6784282
20
108.7006601
40
0.393225
50
359.925209
51
5.5967654
0
ARC
8
DEFAULT_255_1_234
10
23.7213174
20
108.7062816
40
0.3503892
50
337.8914096
51
358.9967724
0
ARC
8
DEFAULT_255_1_234
10
23.4499586
20
108.8109706
40
0.6412172
50
326.9135351
51
338.3505194
0
ARC
8
DEFAULT_255_1_234
10
23.051389
20
109.0664284
40
1.1146189
50
319.6472867
51
327.095818
0
ARC
8
DEFAULT_255_1_234
10
22.6680893
20
109.3826
40
1.6114559
50
317.2586784
51
319.9046139
0
LINE
8
DEFAULT_255_1_234
10
21.5471458
20
116.9348211
11
21.8507456
21
116.347701
0
LINE
8
DEFAULT_255_1_234
10
21.8507456
20
116.347701
11
22.1559516
21
116.9348211
0
LINE
8
DEFAULT_255_1_234
10
22.1559516
20
116.9348211
11
22.3310435
21
116.9348211
0
LINE
8
DEFAULT_255_1_234
10
22.3310435
20
116.9348211
11
21.9278502
21
116.2015234
0
LINE
8
DEFAULT_255_1_234
10
21.9278502
20
116.2015234
11
21.9278502
21
115.7654
0
LINE
8
DEFAULT_255_1_234
10
21.9278502
20
115.7654
11
21.7736409
21
115.7654
0
LINE
8
DEFAULT_255_1_234
10
21.7736409
20
115.7654
11
21.7736409
21
116.2015234
0
LINE
8
DEFAULT_255_1_234
10
21.7736409
20
116.2015234
11
21.3704476
21
116.9348211
0
LINE
8
DEFAULT_255_1_234
10
21.3704476
20
116.9348211
11
21.5471458
21
116.9348211
0
LINE
8
DEFAULT_255_1_234
10
22.9318175
20
116.9404433
11
22.9318175
21
115.7654
0
LINE
8
DEFAULT_255_1_234
10
22.9318175
20
115.7654
11
22.7824272
21
115.7654
0
LINE
8
DEFAULT_255_1_234
10
22.7824272
20
115.7654
11
22.7824272
21
116.7557133
0
LINE
8
DEFAULT_255_1_234
10
22.7824272
20
116.7557133
11
22.4828434
21
116.6456785
0
LINE
8
DEFAULT_255_1_234
10
22.4828434
20
116.6456785
11
22.4828434
21
116.7806117
0
LINE
8
DEFAULT_255_1_234
10
22.4828434
20
116.7806117
11
22.9085255
21
116.9404433
0
LINE
8
DEFAULT_255_1_234
10
22.9085255
20
116.9404433
11
22.9318175
21
116.9404433
0
LINE
8
DEFAULT_255_1_234
10
23.8554674
20
116.9404433
11
23.8554674
21
115.7654
0
LINE
8
DEFAULT_255_1_234
10
23.8554674
20
115.7654
11
23.7060771
21
115.7654
0
LINE
8
DEFAULT_255_1_234
10
23.7060771
20
115.7654
11
23.7060771
21
116.7557133
0
LINE
8
DEFAULT_255_1_234
10
23.7060771
20
116.7557133
11
23.4064933
21
116.6456785
0
LINE
8
DEFAULT_255_1_234
10
23.4064933
20
116.6456785
11
23.4064933
21
116.7806117
0
LINE
8
DEFAULT_255_1_234
10
23.4064933
20
116.7806117
11
23.8321754
21
116.9404433
0
LINE
8
DEFAULT_255_1_234
10
23.8321754
20
116.9404433
11
23.8554674
21
116.9404433
0
LINE
8
DEFAULT_255_1_234
10
21.5392458
20
124.8723211
11
21.8428456
21
124.285201
0
LINE
8
DEFAULT_255_1_234
10
21.8428456
20
124.285201
11
22.1480516
21
124.8723211
0
LINE
8
DEFAULT_255_1_234
10
22.1480516
20
124.8723211
11
22.3231435
21
124.8723211
0
LINE
8
DEFAULT_255_1_234
10
22.3231435
20
124.8723211
11
21.9199502
21
124.1390234
0
LINE
8
DEFAULT_255_1_234
10
21.9199502
20
124.1390234
11
21.9199502
21
123.7029
0
LINE
8
DEFAULT_255_1_234
10
21.9199502
20
123.7029
11
21.7657409
21
123.7029
0
LINE
8
DEFAULT_255_1_234
10
21.7657409
20
123.7029
11
21.7657409
21
124.1390234
0
LINE
8
DEFAULT_255_1_234
10
21.7657409
20
124.1390234
11
21.3625476
21
124.8723211
0
LINE
8
DEFAULT_255_1_234
10
21.3625476
20
124.8723211
11
21.5392458
21
124.8723211
0
LINE
8
DEFAULT_255_1_234
10
22.9239175
20
124.8779433
11
22.9239175
21
123.7029
0
LINE
8
DEFAULT_255_1_234
10
22.9239175
20
123.7029
11
22.7745272
21
123.7029
0
LINE
8
DEFAULT_255_1_234
10
22.7745272
20
123.7029
11
22.7745272
21
124.6932133
0
LINE
8
DEFAULT_255_1_234
10
22.7745272
20
124.6932133
11
22.4749434
21
124.5831785
0
LINE
8
DEFAULT_255_1_234
10
22.4749434
20
124.5831785
11
22.4749434
21
124.7181117
0
LINE
8
DEFAULT_255_1_234
10
22.4749434
20
124.7181117
11
22.9006255
21
124.8779433
0
LINE
8
DEFAULT_255_1_234
10
22.9006255
20
124.8779433
11
22.9239175
21
124.8779433
0
LINE
8
DEFAULT_255_1_234
10
24.0925354
20
124.3944327
11
24.0925354
21
124.2016709
0
LINE
8
DEFAULT_255_1_234
10
23.3544187
20
124.1815916
11
23.3544187
21
124.3799755
0
LINE
8
DEFAULT_255_1_234
10
23.9439483
20
124.1615123
11
23.9439483
21
124.4048739
0
LINE
8
DEFAULT_255_1_234
10
23.5030059
20
124.4161184
11
23.5030059
21
124.1783789
0
ARC
8
DEFAULT_255_1_234
10
22.8678244
20
124.1967805
40
1.2247208
50
353.8441951
51
0.2287902
0
ARC
8
DEFAULT_255_1_234
10
23.3317748
20
124.1449806
40
0.7578929
50
344.4934747
51
353.9765454
0
ARC
8
DEFAULT_255_1_234
10
23.6310338
20
124.0598981
40
0.4467846
50
329.2803592
51
344.7472793
0
ARC
8
DEFAULT_255_1_234
10
23.7303163
20
124.0054018
40
0.3336173
50
324.9352394
51
328.6160465
0
ARC
8
DEFAULT_255_1_234
10
23.7680272
20
123.9790427
40
0.2876076
50
280.580143
51
324.9173126
0
ARC
8
DEFAULT_255_1_234
10
23.7279064
20
124.1461099
40
0.4592847
50
269.5977311
51
281.6734359
0
ARC
8
DEFAULT_255_1_234
10
23.720697
20
124.1341173
40
0.4472986
50
256.6228859
51
270.51044
0
ARC
8
DEFAULT_255_1_234
10
23.6804948
20
123.9792877
40
0.2873874
50
215.8618325
51
257.2788573
0
ARC
8
DEFAULT_255_1_234
10
23.7825979
20
124.0477977
40
0.4102928
50
197.9693508
51
215.2623606
0
ARC
8
DEFAULT_255_1_234
10
24.0311095
20
124.1316709
40
0.6725652
50
187.8816417
51
198.2346507
0
ARC
8
DEFAULT_255_1_234
10
24.4269303
20
124.1888079
40
1.0724845
50
180.8976217
51
188.0055519
0
ARC
8
DEFAULT_255_1_234
10
24.7069491
20
124.1991777
40
1.3526448
50
180.7449369
51
181.1510016
0
ARC
8
DEFAULT_255_1_234
10
24.549222
20
124.3848042
40
1.1948131
50
173.7675579
51
180.231553
0
ARC
8
DEFAULT_255_1_234
10
24.0974367
20
124.4358666
40
0.7401564
50
164.3058563
51
173.9002247
0
ARC
8
DEFAULT_255_1_234
10
23.8062436
20
124.5197656
40
0.4371288
50
148.7922025
51
164.568378
0
ARC
8
DEFAULT_255_1_234
10
23.7110888
20
124.5728929
40
0.3282386
50
144.5883898
51
148.1176286
0
ARC
8
DEFAULT_255_1_234
10
23.6767786
20
124.5968315
40
0.2864044
50
101.6440918
51
144.514236
0
ARC
8
DEFAULT_255_1_234
10
23.7192853
20
124.4279069
40
0.4604934
50
89.5284041
51
102.5819763
0
ARC
8
DEFAULT_255_1_234
10
23.727194
20
124.4240018
40
0.464401
50
77.0437873
51
90.5081339
0
ARC
8
DEFAULT_255_1_234
10
23.7673942
20
124.5882615
40
0.2953195
50
48.2778575
51
77.4994676
0
ARC
8
DEFAULT_255_1_234
10
23.7746573
20
124.6011746
40
0.2808655
50
36.3142134
51
47.6305865
0
ARC
8
DEFAULT_255_1_234
10
23.687788
20
124.5426515
40
0.3855453
50
18.2931786
51
35.6769206
0
ARC
8
DEFAULT_255_1_234
10
23.4334639
20
124.4553593
40
0.654423
50
8.024666
51
18.5605216
0
ARC
8
DEFAULT_255_1_234
10
23.0171559
20
124.3938792
40
1.0752407
50
1.1274072
51
8.1718305
0
ARC
8
DEFAULT_255_1_234
10
22.693575
20
124.3811885
40
1.3990231
50
0.5424119
51
1.3863029
0
ARC
8
DEFAULT_255_1_234
10
22.8757128
20
124.4084342
40
1.0682415
50
359.8090433
51
4.9407866
0
ARC
8
DEFAULT_255_1_234
10
23.2967142
20
124.4460113
40
0.6455691
50
4.8362157
51
12.2904523
0
ARC
8
DEFAULT_255_1_234
10
23.5722256
20
124.5073965
40
0.3633074
50
12.0805627
51
23.8173984
0
ARC
8
DEFAULT_255_1_234
10
23.6895962
20
124.5570919
40
0.2358723
50
24.2871213
51
31.3935614
0
ARC
8
DEFAULT_255_1_234
10
23.7420659
20
124.5914233
40
0.1732111
50
30.7407893
51
82.4657128
0
ARC
8
DEFAULT_255_1_234
10
23.7240793
20
124.5030691
40
0.263235
50
81.1060089
51
90.2184952
0
ARC
8
DEFAULT_255_1_234
10
23.7205092
20
124.5288924
40
0.2374236
50
89.3806855
51
105.6762551
0
ARC
8
DEFAULT_255_1_234
10
23.7021723
20
124.5955567
40
0.1682847
50
105.7981136
51
149.7388061
0
ARC
8
DEFAULT_255_1_234
10
23.8085801
20
124.531595
40
0.2924306
50
149.4208916
51
163.6286378
0
ARC
8
DEFAULT_255_1_234
10
24.0176689
20
124.467825
40
0.5110213
50
163.3763315
51
172.1410975
0
ARC
8
DEFAULT_255_1_234
10
24.3477408
20
124.4205518
40
0.8444586
50
172.0259487
51
178.0703232
0
ARC
8
DEFAULT_255_1_234
10
24.6507498
20
124.4061906
40
1.1477868
50
177.8631668
51
179.5044149
0
ARC
8
DEFAULT_255_1_234
10
24.5434902
20
124.1747389
40
1.0404907
50
179.7995573
51
185.2460446
0
ARC
8
DEFAULT_255_1_234
10
24.1391941
20
124.1364513
40
0.6343885
50
185.1411642
51
193.0079639
0
ARC
8
DEFAULT_255_1_234
10
23.8748414
20
124.0739641
40
0.3627568
50
192.7897626
51
205.2507664
0
ARC
8
DEFAULT_255_1_234
10
23.7701961
20
124.0272415
40
0.2481908
50
205.8005384
51
211.2537509
0
ARC
8
DEFAULT_255_1_234
10
23.7178401
20
123.992158
40
0.1852521
50
210.3789793
51
238.4008143
0
ARC
8
DEFAULT_255_1_234
10
23.7158923
20
123.9968376
40
0.1882621
50
239.6520629
51
265.9793761
0
ARC
8
DEFAULT_255_1_234
10
23.7244123
20
124.0640427
40
0.2559272
50
265.1315437
51
270.060332
0
ARC
8
DEFAULT_255_1_234
10
23.7272902
20
124.0316534
40
0.2235528
50
269.3314664
51
287.2178029
0
ARC
8
DEFAULT_255_1_234
10
23.7410754
20
123.9813279
40
0.1714108
50
287.7958004
51
329.080874
0
ARC
8
DEFAULT_255_1_234
10
23.6453211
20
124.041093
40
0.2842745
50
328.6634704
51
343.3325132
0
ARC
8
DEFAULT_255_1_234
10
23.4280231
20
124.1087863
40
0.5118644
50
343.0499468
51
351.9393422
0
ARC
8
DEFAULT_255_1_234
10
23.0813531
20
124.1598949
40
0.8622784
50
351.8069023
51
357.7959224
0
ARC
8
DEFAULT_255_1_234
10
22.7578087
20
124.1766721
40
1.1862365
50
357.5871873
51
359.2677531
0
LINE
8
DEFAULT_255_1_234
10
23.188223
20
132.0114663
11
23.3432355
21
132.0114663
0
LINE
8
DEFAULT_255_1_234
10
22.4428777
20
132.1704947
11
22.4428777
21
132.2829391
0
LINE
8
DEFAULT_255_1_234
10
23.3432355
20
132.4339357
11
23.188223
21
132.4339357
0
LINE
8
DEFAULT_255_1_234
10
22.5978902
20
132.2789232
11
22.5978902
21
132.1656757
0
ARC
8
DEFAULT_255_1_234
10
22.7951742
20
132.0711846
40
0.5513052
50
340.1774281
51
353.7814284
0
ARC
8
DEFAULT_255_1_234
10
22.9523095
20
132.0126582
40
0.3836379
50
311.4558989
51
340.4421614
0
ARC
8
DEFAULT_255_1_234
10
22.9489763
20
132.0237528
40
0.3941894
50
282.4333181
51
310.7513653
0
ARC
8
DEFAULT_255_1_234
10
22.9050502
20
132.2052679
40
0.5809175
50
269.9358511
51
282.809604
0
ARC
8
DEFAULT_255_1_234
10
22.8998568
20
132.3510212
40
0.7266847
50
270.0021091
51
270.3581957
0
ARC
8
DEFAULT_255_1_234
10
22.8945985
20
132.0909585
40
0.4666519
50
250.7884749
51
270.6489167
0
ARC
8
DEFAULT_255_1_234
10
22.877782
20
132.0272319
40
0.4009729
50
219.3627325
51
250.0611886
0
ARC
8
DEFAULT_255_1_234
10
22.9607031
20
132.0977042
40
0.5097822
50
193.5479632
51
219.5756669
0
ARC
8
DEFAULT_255_1_234
10
23.1978652
20
132.1592919
40
0.7547848
50
181.1218675
51
193.87563
0
ARC
8
DEFAULT_255_1_234
10
23.4048833
20
132.170358
40
0.9620055
50
179.9918545
51
181.5394234
0
ARC
8
DEFAULT_255_1_234
10
23.2197935
20
132.2866788
40
0.7769248
50
169.5837241
51
180.2757934
0
ARC
8
DEFAULT_255_1_234
10
23.0360873
20
132.3206229
40
0.590109
50
155.0365899
51
169.6003176
0
ARC
8
DEFAULT_255_1_234
10
22.9225337
20
132.3753677
40
0.4640625
50
136.783148
51
155.2472683
0
ARC
8
DEFAULT_255_1_234
10
22.8835814
20
132.4084562
40
0.4130255
50
121.7633186
51
136.428115
0
ARC
8
DEFAULT_255_1_234
10
22.8970776
20
132.3835227
40
0.4413323
50
95.6459699
51
121.5490577
0
ARC
8
DEFAULT_255_1_234
10
22.9128058
20
132.2726949
40
0.55319
50
89.924208
51
96.1377933
0
ARC
8
DEFAULT_255_1_234
10
22.9178491
20
132.2845542
40
0.5413475
50
76.6779277
51
90.4563316
0
ARC
8
DEFAULT_255_1_234
10
22.9572114
20
132.4436114
40
0.3775041
50
47.485847
51
76.9287264
0
ARC
8
DEFAULT_255_1_234
10
22.9425087
20
132.4336159
40
0.3948286
50
16.5424086
51
46.8933463
0
ARC
8
DEFAULT_255_1_234
10
22.7817244
20
132.3807861
40
0.564021
50
5.4072051
51
17.0365086
0
ARC
8
DEFAULT_255_1_234
10
22.6378261
20
132.3576679
40
0.5556559
50
7.8891745
51
15.9239216
0
ARC
8
DEFAULT_255_1_234
10
22.8365274
20
132.4153631
40
0.3487515
50
15.7653144
51
27.9410532
0
ARC
8
DEFAULT_255_1_234
10
22.9469492
20
132.474479
40
0.2235026
50
27.8166557
51
46.4008329
0
ARC
8
DEFAULT_255_1_234
10
22.9519135
20
132.4739082
40
0.2205286
50
47.4371857
51
75.0698205
0
ARC
8
DEFAULT_255_1_234
10
22.9210529
20
132.3664765
40
0.3322915
50
74.7008593
51
87.8124495
0
ARC
8
DEFAULT_255_1_234
10
22.9137217
20
132.2608844
40
0.4380987
50
87.3814673
51
90.0240855
0
ARC
8
DEFAULT_255_1_234
10
22.909876
20
132.3786291
40
0.3203749
50
89.3451631
51
108.5745436
0
ARC
8
DEFAULT_255_1_234
10
22.8961865
20
132.4299908
40
0.2673494
50
109.2998449
51
143.3037509
0
ARC
8
DEFAULT_255_1_234
10
22.9723938
20
132.3713881
40
0.3634757
50
143.0753173
51
163.1916937
0
ARC
8
DEFAULT_255_1_234
10
23.1675666
20
132.3097967
40
0.5681262
50
162.9373603
51
174.6208611
0
ARC
8
DEFAULT_255_1_234
10
23.4301708
20
132.281001
40
0.8322832
50
174.3419979
51
180.1430411
0
ARC
8
DEFAULT_255_1_234
10
23.3370864
20
132.1615698
40
0.7392076
50
179.6817502
51
189.150529
0
ARC
8
DEFAULT_255_1_234
10
23.0870112
20
132.119919
40
0.4856932
50
188.9910863
51
203.5773039
0
ARC
8
DEFAULT_255_1_234
10
22.9790445
20
132.0751211
40
0.3688271
50
203.9077269
51
215.1312379
0
ARC
8
DEFAULT_255_1_234
10
22.8867539
20
132.0035941
40
0.2522457
50
213.9071664
51
263.8849284
0
ARC
8
DEFAULT_255_1_234
10
22.8992868
20
132.0820518
40
0.3316174
50
263.1758525
51
270.1031083
0
ARC
8
DEFAULT_255_1_234
10
22.902496
20
132.2067365
40
0.4563091
50
269.6719807
51
279.0609165
0
ARC
8
DEFAULT_255_1_234
10
22.9291728
20
132.0454907
40
0.2928759
50
278.8750225
51
293.6346586
0
ARC
8
DEFAULT_255_1_234
10
22.9611936
20
131.97029
40
0.2111472
50
293.8553404
51
310.0518804
0
ARC
8
DEFAULT_255_1_234
10
22.961679
20
131.9640516
40
0.2060917
50
311.0646779
51
332.0108348
0
ARC
8
DEFAULT_255_1_234
10
22.8424517
20
132.0297978
40
0.3422352
50
331.6588543
51
343.2878891
0
ARC
8
DEFAULT_255_1_234
10
22.6362032
20
132.0931798
40
0.5580003
50
343.1446044
51
351.010618
0
ARC
8
DEFAULT_255_1_234
10
22.4820678
20
132.1212871
40
0.7146438
50
350.7157277
51
351.1602153
0
LINE
8
DEFAULT_255_1_234
10
24.2813426
20
131.7616792
11
24.2813426
21
131.6404
0
LINE
8
DEFAULT_255_1_234
10
24.2813426
20
131.6404
11
23.5151147
21
131.6404
0
LINE
8
DEFAULT_255_1_234
10
23.5151147
20
131.6404
11
23.5151147
21
131.7472221
0
LINE
8
DEFAULT_255_1_234
10
23.5151147
20
131.7472221
11
23.9199144
21
132.1969995
0
LINE
8
DEFAULT_255_1_234
10
23.641213
20
132.4652595
11
23.4926259
21
132.4652595
0
LINE
8
DEFAULT_255_1_234
10
24.0074603
20
132.1014218
11
23.6942225
21
131.7616792
0
LINE
8
DEFAULT_255_1_234
10
23.6942225
20
131.7616792
11
24.2813426
21
131.7616792
0
ARC
8
DEFAULT_255_1_234
10
22.5708977
20
133.3899527
40
1.8008286
50
318.5132453
51
320.7828378
0
ARC
8
DEFAULT_255_1_234
10
23.0995951
20
132.9596426
40
1.1191493
50
320.7372736
51
323.9737074
0
ARC
8
DEFAULT_255_1_234
10
23.4915808
20
132.6756361
40
0.6350923
50
323.8961724
51
328.6421089
0
ARC
8
DEFAULT_255_1_234
10
23.6962403
20
132.5494031
40
0.3946393
50
328.8299013
51
331.789948
0
ARC
8
DEFAULT_255_1_234
10
23.7959582
20
132.4979509
40
0.2824501
50
331.4255242
51
352.9364833
0
ARC
8
DEFAULT_255_1_234
10
23.8096082
20
132.4948976
40
0.2685315
50
353.2248685
51
0.0169286
0
ARC
8
DEFAULT_255_1_234
10
23.8305959
20
132.497195
40
0.2475536
50
359.4866256
51
15.9339782
0
ARC
8
DEFAULT_255_1_234
10
23.8812944
20
132.5108286
40
0.1950618
50
16.1714718
51
43.5284424
0
ARC
8
DEFAULT_255_1_234
10
23.8890253
20
132.5185573
40
0.184134
50
43.4415429
51
83.1661404
0
ARC
8
DEFAULT_255_1_234
10
23.8756171
20
132.4448771
40
0.258926
50
82.160215
51
90.1505798
0
ARC
8
DEFAULT_255_1_234
10
23.8724599
20
132.3911865
40
0.3126255
50
89.5460705
51
102.5418777
0
ARC
8
DEFAULT_255_1_234
10
23.8481685
20
132.4942665
40
0.2067346
50
102.1739365
51
129.2061916
0
ARC
8
DEFAULT_255_1_234
10
23.8402756
20
132.5067094
40
0.1921118
50
129.7279328
51
135.7542026
0
ARC
8
DEFAULT_255_1_234
10
23.8524284
20
132.4970045
40
0.2075944
50
136.175737
51
166.3674722
0
ARC
8
DEFAULT_255_1_234
10
23.9531203
20
132.4700182
40
0.3118201
50
165.9092917
51
178.8683903
0
ARC
8
DEFAULT_255_1_234
10
24.0396065
20
132.4653179
40
0.3983935
50
178.438168
51
180.0083905
0
ARC
8
DEFAULT_255_1_234
10
23.8994667
20
132.4692231
40
0.4068601
50
163.2878735
51
180.5581814
0
ARC
8
DEFAULT_255_1_234
10
23.8192928
20
132.491284
40
0.3237344
50
133.454115
51
162.9470031
0
ARC
8
DEFAULT_255_1_234
10
23.8371469
20
132.4723
40
0.349795
50
100.7869394
51
133.4384016
0
ARC
8
DEFAULT_255_1_234
10
23.8719241
20
132.3174319
40
0.5084616
50
89.6605301
51
101.3704185
0
ARC
8
DEFAULT_255_1_234
10
23.878558
20
132.3235496
40
0.502348
50
78.2171172
51
90.4130393
0
ARC
8
DEFAULT_255_1_234
10
23.9140658
20
132.4859637
40
0.3361092
50
55.9268222
51
78.4888551
0
ARC
8
DEFAULT_255_1_234
10
23.9337098
20
132.5198324
40
0.2970617
50
47.9292255
51
55.4054003
0
ARC
8
DEFAULT_255_1_234
10
23.9438659
20
132.5301502
40
0.2825983
50
4.3347696
51
48.0560701
0
ARC
8
DEFAULT_255_1_234
10
23.8343052
20
132.5131601
40
0.393225
50
359.925209
51
5.5967654
0
ARC
8
DEFAULT_255_1_234
10
23.8771944
20
132.5187816
40
0.3503892
50
337.8914096
51
358.9967724
0
ARC
8
DEFAULT_255_1_234
10
23.6058356
20
132.6234706
40
0.6412172
50
326.9135351
51
338.3505194
0
ARC
8
DEFAULT_255_1_234
10
23.207266
20
132.8789284
40
1.1146189
50
319.6472867
51
327.095818
0
ARC
8
DEFAULT_255_1_234
10
22.8239663
20
133.1951
40
1.6114559
50
317.2586784
51
319.9046139
0
LINE
8
DEFAULT_255_1_234
10
22.5181458
20
140.7473211
11
22.8217456
21
140.160201
0
LINE
8
DEFAULT_255_1_234
10
22.8217456
20
140.160201
11
23.1269516
21
140.7473211
0
LINE
8
DEFAULT_255_1_234
10
23.1269516
20
140.7473211
11
23.3020435
21
140.7473211
0
LINE
8
DEFAULT_255_1_234
10
23.3020435
20
140.7473211
11
22.8988502
21
140.0140234
0
LINE
8
DEFAULT_255_1_234
10
22.8988502
20
140.0140234
11
22.8988502
21
139.5779
0
LINE
8
DEFAULT_255_1_234
10
22.8988502
20
139.5779
11
22.7446409
21
139.5779
0
LINE
8
DEFAULT_255_1_234
10
22.7446409
20
139.5779
11
22.7446409
21
140.0140234
0
LINE
8
DEFAULT_255_1_234
10
22.7446409
20
140.0140234
11
22.3414476
21
140.7473211
0
LINE
8
DEFAULT_255_1_234
10
22.3414476
20
140.7473211
11
22.5181458
21
140.7473211
0
LINE
8
DEFAULT_255_1_234
10
24.1694712
20
140.7473211
11
24.1694712
21
140.663791
0
LINE
8
DEFAULT_255_1_234
10
24.1694712
20
140.663791
11
23.6851574
21
139.5779
0
LINE
8
DEFAULT_255_1_234
10
23.6851574
20
139.5779
11
23.5293417
21
139.5779
0
LINE
8
DEFAULT_255_1_234
10
23.5293417
20
139.5779
11
24.0120492
21
140.6252387
0
LINE
8
DEFAULT_255_1_234
10
24.0120492
20
140.6252387
11
23.3791482
21
140.6252387
0
LINE
8
DEFAULT_255_1_234
10
23.3791482
20
140.6252387
11
23.3791482
21
140.7473211
0
LINE
8
DEFAULT_255_1_234
10
23.3791482
20
140.7473211
11
24.1694712
21
140.7473211
0
LINE
8
DEFAULT_255_1_234
10
22.5181458
20
148.6848211
11
22.8217456
21
148.097701
0
LINE
8
DEFAULT_255_1_234
10
22.8217456
20
148.097701
11
23.1269516
21
148.6848211
0
LINE
8
DEFAULT_255_1_234
10
23.1269516
20
148.6848211
11
23.3020435
21
148.6848211
0
LINE
8
DEFAULT_255_1_234
10
23.3020435
20
148.6848211
11
22.8988502
21
147.9515234
0
LINE
8
DEFAULT_255_1_234
10
22.8988502
20
147.9515234
11
22.8988502
21
147.5154
0
LINE
8
DEFAULT_255_1_234
10
22.8988502
20
147.5154
11
22.7446409
21
147.5154
0
LINE
8
DEFAULT_255_1_234
10
22.7446409
20
147.5154
11
22.7446409
21
147.9515234
0
LINE
8
DEFAULT_255_1_234
10
22.7446409
20
147.9515234
11
22.3414476
21
148.6848211
0
LINE
8
DEFAULT_255_1_234
10
22.3414476
20
148.6848211
11
22.5181458
21
148.6848211
0
LINE
8
DEFAULT_255_1_234
10
23.9710873
20
148.6856243
11
23.997592
21
148.6856243
0
LINE
8
DEFAULT_255_1_234
10
23.997592
20
148.6856243
11
23.997592
21
148.559526
0
LINE
8
DEFAULT_255_1_234
10
23.997592
20
148.559526
11
23.9702841
21
148.559526
0
LINE
8
DEFAULT_255_1_234
10
23.4233228
20
147.9603583
11
23.4233228
21
148.0173836
0
LINE
8
DEFAULT_255_1_234
10
23.5727131
20
147.9981075
11
23.5727131
21
147.9434917
0
ARC
8
DEFAULT_255_1_234
10
23.9755189
20
148.0597455
40
0.4998079
50
90.6001036
51
104.514704
0
ARC
8
DEFAULT_255_1_234
10
23.9366705
20
148.2042131
40
0.3502176
50
104.2855254
51
133.862935
0
ARC
8
DEFAULT_255_1_234
10
23.9530462
20
148.193383
40
0.3693984
50
134.5302688
51
161.6210873
0
ARC
8
DEFAULT_255_1_234
10
24.1183651
20
148.1350895
40
0.5446739
50
161.2849839
51
174.2076652
0
ARC
8
DEFAULT_255_1_234
10
24.2590588
20
148.1156787
40
0.6866274
50
173.7810589
51
174.9254635
0
ARC
8
DEFAULT_255_1_234
10
23.804042
20
147.9773839
40
0.3033419
50
95.8330959
51
138.9954921
0
ARC
8
DEFAULT_255_1_234
10
23.8263776
20
147.8495375
40
0.4328947
50
89.8753725
51
97.0544009
0
ARC
8
DEFAULT_255_1_234
10
23.8311242
20
147.9330748
40
0.3493769
50
71.6407809
51
90.6240094
0
ARC
8
DEFAULT_255_1_234
10
23.8461815
20
147.9885082
40
0.2920396
50
39.6367836
51
71.019018
0
ARC
8
DEFAULT_255_1_234
10
23.7825288
20
147.9334998
40
0.3761538
50
10.658731
51
39.9043955
0
ARC
8
DEFAULT_255_1_234
10
23.6277371
20
147.8998686
40
0.5345136
50
359.682601
51
11.132623
0
ARC
8
DEFAULT_255_1_234
10
23.6237502
20
147.892801
40
0.5385081
50
347.2486944
51
0.4369317
0
ARC
8
DEFAULT_255_1_234
10
23.7904979
20
147.8526807
40
0.3670249
50
318.1409698
51
347.6118597
0
ARC
8
DEFAULT_255_1_234
10
23.8229972
20
147.8259702
40
0.3250007
50
275.6342139
51
317.8248465
0
ARC
8
DEFAULT_255_1_234
10
23.8009083
20
147.9559219
40
0.4565864
50
269.8874292
51
276.7917694
0
ARC
8
DEFAULT_255_1_234
10
23.7954154
20
147.8533743
40
0.3540676
50
246.9140195
51
270.7437342
0
ARC
8
DEFAULT_255_1_234
10
23.7960544
20
147.8391384
40
0.3412781
50
218.1665114
51
245.878116
0
ARC
8
DEFAULT_255_1_234
10
23.8840005
20
147.9127279
40
0.455911
50
191.4115814
51
218.6077802
0
ARC
8
DEFAULT_255_1_234
10
24.0778094
20
147.9561833
40
0.6545001
50
179.6345085
51
191.7836486
0
ARC
8
DEFAULT_255_1_234
10
24.6360431
20
148.0240697
40
1.2127388
50
171.4525249
51
180.3158839
0
ARC
8
DEFAULT_255_1_234
10
24.1965307
20
148.0924608
40
0.7679464
50
157.9802646
51
171.6246686
0
ARC
8
DEFAULT_255_1_234
10
23.9751328
20
148.1807421
40
0.5296008
50
141.4298019
51
157.854097
0
ARC
8
DEFAULT_255_1_234
10
23.9109649
20
148.2261381
40
0.4511509
50
102.8715806
51
140.8564722
0
ARC
8
DEFAULT_255_1_234
10
23.9757264
20
147.9821552
40
0.7034845
50
90.3778349
51
103.5869322
0
ARC
8
DEFAULT_255_1_234
10
23.801904
20
147.921673
40
0.2370698
50
89.8751008
51
126.2071704
0
ARC
8
DEFAULT_255_1_234
10
23.806483
20
147.9062303
40
0.2522934
50
124.9745049
51
144.895901
0
ARC
8
DEFAULT_255_1_234
10
23.7889021
20
147.920556
40
0.2296779
50
145.2974905
51
160.2660252
0
ARC
8
DEFAULT_255_1_234
10
24.0961559
20
147.9403071
40
0.5234525
50
179.6514266
51
190.2855912
0
ARC
8
DEFAULT_255_1_234
10
23.9267697
20
147.9083786
40
0.3510893
50
190.0945431
51
207.5098196
0
ARC
8
DEFAULT_255_1_234
10
23.8701966
20
147.8814623
40
0.288489
50
207.9583163
51
216.3251085
0
ARC
8
DEFAULT_255_1_234
10
23.8362074
20
147.8535105
40
0.2445587
50
215.7661442
51
232.5456785
0
ARC
8
DEFAULT_255_1_234
10
23.7979057
20
147.8048482
40
0.1826382
50
232.8005391
51
270.6605633
0
ARC
8
DEFAULT_255_1_234
10
23.8024758
20
147.8412612
40
0.2190529
50
269.35537
51
288.4744281
0
ARC
8
DEFAULT_255_1_234
10
23.8117655
20
147.8063118
40
0.1829749
50
289.1833337
51
322.9683818
0
ARC
8
DEFAULT_255_1_234
10
23.7506177
20
147.8545391
40
0.2608399
50
322.6007884
51
346.5182367
0
ARC
8
DEFAULT_255_1_234
10
23.6348773
20
147.8840616
40
0.3802777
50
346.2582162
51
358.7741648
0
ARC
8
DEFAULT_255_1_234
10
23.5330442
20
147.8895965
40
0.4822176
50
358.3755224
51
0.0098023
0
ARC
8
DEFAULT_255_1_234
10
23.6086629
20
147.8923657
40
0.4066078
50
359.6214041
51
11.2839074
0
ARC
8
DEFAULT_255_1_234
10
23.7363776
20
147.9190066
40
0.2761514
50
11.0482309
51
31.8146458
0
ARC
8
DEFAULT_255_1_234
10
23.7672819
20
147.9357584
40
0.2410679
50
32.3035391
51
38.082671
0
ARC
8
DEFAULT_255_1_234
10
23.8093479
20
147.9738662
40
0.1844966
50
36.825067
51
85.7415724
0
ARC
8
DEFAULT_255_1_234
10
23.8026312
20
147.9238301
40
0.2349122
50
85.0140713
51
90.0513278
0
LINE
8
DEFAULT_255_1_234
10
22.5181458
20
156.6223211
11
22.8217456
21
156.035201
0
LINE
8
DEFAULT_255_1_234
10
22.8217456
20
156.035201
11
23.1269516
21
156.6223211
0
LINE
8
DEFAULT_255_1_234
10
23.1269516
20
156.6223211
11
23.3020435
21
156.6223211
0
LINE
8
DEFAULT_255_1_234
10
23.3020435
20
156.6223211
11
22.8988502
21
155.8890234
0
LINE
8
DEFAULT_255_1_234
10
22.8988502
20
155.8890234
11
22.8988502
21
155.4529
0
LINE
8
DEFAULT_255_1_234
10
22.8988502
20
155.4529
11
22.7446409
21
155.4529
0
LINE
8
DEFAULT_255_1_234
10
22.7446409
20
155.4529
11
22.7446409
21
155.8890234
0
LINE
8
DEFAULT_255_1_234
10
22.7446409
20
155.8890234
11
22.3414476
21
156.6223211
0
LINE
8
DEFAULT_255_1_234
10
22.3414476
20
156.6223211
11
22.5181458
21
156.6223211
0
LINE
8
DEFAULT_255_1_234
10
23.6016273
20
156.0086963
11
23.4827576
21
156.0392169
0
LINE
8
DEFAULT_255_1_234
10
23.4827576
20
156.0392169
11
23.5421925
21
156.6223211
0
LINE
8
DEFAULT_255_1_234
10
23.5421925
20
156.6223211
11
24.1413602
21
156.6223211
0
LINE
8
DEFAULT_255_1_234
10
24.1413602
20
156.6223211
11
24.1413602
21
156.4849784
0
LINE
8
DEFAULT_255_1_234
10
24.1413602
20
156.4849784
11
23.6682908
21
156.4849784
0
LINE
8
DEFAULT_255_1_234
10
23.6682908
20
156.4849784
11
23.6329511
21
156.1661184
0
LINE
8
DEFAULT_255_1_234
10
23.4409926
20
155.7605156
11
23.581548
21
155.7605156
0
LINE
8
DEFAULT_255_1_234
10
23.6409829
20
156.0408232
11
23.6016273
21
156.0086963
0
ARC
8
DEFAULT_255_1_234
10
23.8184295
20
155.848123
40
0.3681349
50
93.7182161
51
120.2538958
0
ARC
8
DEFAULT_255_1_234
10
23.8278558
20
155.7673394
40
0.449379
50
89.9660152
51
94.2496022
0
ARC
8
DEFAULT_255_1_234
10
23.8319292
20
155.8262549
40
0.390482
50
73.8043271
51
90.5585896
0
ARC
8
DEFAULT_255_1_234
10
23.8554189
20
155.9120602
40
0.3015334
50
41.3071453
51
73.5430202
0
ARC
8
DEFAULT_255_1_234
10
23.8138016
20
155.8762324
40
0.3564457
50
13.5075983
51
41.2174222
0
ARC
8
DEFAULT_255_1_234
10
23.649622
20
155.8332486
40
0.5261351
50
1.1331335
51
13.8829381
0
ARC
8
DEFAULT_255_1_234
10
23.5084589
20
155.8256665
40
0.6674378
50
359.9919444
51
1.544251
0
ARC
8
DEFAULT_255_1_234
10
23.6361415
20
155.821528
40
0.5397702
50
347.8572367
51
0.4293338
0
ARC
8
DEFAULT_255_1_234
10
23.8111733
20
155.7818736
40
0.3603188
50
323.673004
51
348.1672506
0
ARC
8
DEFAULT_255_1_234
10
23.8406241
20
155.7639168
40
0.3259678
50
316.8171152
51
323.1492751
0
ARC
8
DEFAULT_255_1_234
10
23.846743
20
155.760246
40
0.3189975
50
281.8396411
51
316.5457803
0
ARC
8
DEFAULT_255_1_234
10
23.8091694
20
155.9157762
40
0.4789527
50
269.5770101
51
282.4214771
0
ARC
8
DEFAULT_255_1_234
10
23.8020505
20
155.8944125
40
0.45759
50
256.2427136
51
270.4486331
0
ARC
8
DEFAULT_255_1_234
10
23.7721408
20
155.7744229
40
0.3339303
50
228.9023911
51
256.3314342
0
ARC
8
DEFAULT_255_1_234
10
23.764764
20
155.7627746
40
0.32031
50
193.753695
51
228.5271154
0
ARC
8
DEFAULT_255_1_234
10
23.8885594
20
155.79908
40
0.4492253
50
184.924711
51
194.497588
0
ARC
8
DEFAULT_255_1_234
10
23.9078161
20
155.8026591
40
0.3289787
50
187.3600538
51
198.6732863
0
ARC
8
DEFAULT_255_1_234
10
23.8028455
20
155.7662674
40
0.217884
50
198.4451669
51
217.794479
0
ARC
8
DEFAULT_255_1_234
10
23.773263
20
155.7453085
40
0.1816698
50
218.2887171
51
228.5612368
0
ARC
8
DEFAULT_255_1_234
10
23.7830417
20
155.7584963
40
0.1980329
50
228.9654866
51
258.1234728
0
ARC
8
DEFAULT_255_1_234
10
23.8036127
20
155.8465833
40
0.2884748
50
257.7258293
51
270.401361
0
ARC
8
DEFAULT_255_1_234
10
23.8081014
20
155.8020821
40
0.2439788
50
269.4204404
51
286.4209037
0
ARC
8
DEFAULT_255_1_234
10
23.8229501
20
155.7481657
40
0.1880666
50
286.7251356
51
320.600362
0
ARC
8
DEFAULT_255_1_234
10
23.7846326
20
155.7792595
40
0.2374121
50
320.6712579
51
344.5441685
0
ARC
8
DEFAULT_255_1_234
10
23.6689652
20
155.8132045
40
0.3579479
50
344.2412205
51
356.7357071
0
ARC
8
DEFAULT_255_1_234
10
23.5440801
20
155.8235444
40
0.4832297
50
356.3548756
51
0.0500261
0
ARC
8
DEFAULT_255_1_234
10
23.677731
20
155.826665
40
0.3495889
50
359.5576869
51
12.953486
0
ARC
8
DEFAULT_255_1_234
10
23.7832207
20
155.8522434
40
0.2410532
50
12.6490276
51
41.6081334
0
ARC
8
DEFAULT_255_1_234
10
23.8062578
20
155.8718321
40
0.2108218
50
41.7850273
51
85.9892764
0
ARC
8
DEFAULT_255_1_234
10
23.7939315
20
155.7905462
40
0.2928454
50
84.6957577
51
90.0676183
0
ARC
8
DEFAULT_255_1_234
10
23.7915799
20
155.7236716
40
0.3597255
50
89.6804936
51
99.1614436
0
ARC
8
DEFAULT_255_1_234
10
23.771043
20
155.8464131
40
0.235281
50
98.9830931
51
113.8908934
0
ARC
8
DEFAULT_255_1_234
10
23.748084
20
155.9005587
40
0.176479
50
114.1950727
51
127.3641004
0
LINE
8
DEFAULT_255_1_234
10
22.4123458
20
164.5598211
11
22.7159456
21
163.972701
0
LINE
8
DEFAULT_255_1_234
10
22.7159456
20
163.972701
11
23.0211516
21
164.5598211
0
LINE
8
DEFAULT_255_1_234
10
23.0211516
20
164.5598211
11
23.1962435
21
164.5598211
0
LINE
8
DEFAULT_255_1_234
10
23.1962435
20
164.5598211
11
22.7930502
21
163.8265234
0
LINE
8
DEFAULT_255_1_234
10
22.7930502
20
163.8265234
11
22.7930502
21
163.3904
0
LINE
8
DEFAULT_255_1_234
10
22.7930502
20
163.3904
11
22.6388409
21
163.3904
0
LINE
8
DEFAULT_255_1_234
10
22.6388409
20
163.3904
11
22.6388409
21
163.8265234
0
LINE
8
DEFAULT_255_1_234
10
22.6388409
20
163.8265234
11
22.2356476
21
164.5598211
0
LINE
8
DEFAULT_255_1_234
10
22.2356476
20
164.5598211
11
22.4123458
21
164.5598211
0
LINE
8
DEFAULT_255_1_234
10
23.9359666
20
164.5598211
11
23.9359666
21
163.783152
0
LINE
8
DEFAULT_255_1_234
10
23.9359666
20
163.783152
11
24.0982077
21
163.783152
0
LINE
8
DEFAULT_255_1_234
10
24.0982077
20
163.783152
11
24.0982077
21
163.6618728
0
LINE
8
DEFAULT_255_1_234
10
24.0982077
20
163.6618728
11
23.9359666
21
163.6618728
0
LINE
8
DEFAULT_255_1_234
10
23.9359666
20
163.6618728
11
23.9359666
21
163.3904
0
LINE
8
DEFAULT_255_1_234
10
23.9359666
20
163.3904
11
23.7865763
21
163.3904
0
LINE
8
DEFAULT_255_1_234
10
23.7865763
20
163.3904
11
23.7865763
21
163.6618728
0
LINE
8
DEFAULT_255_1_234
10
23.7865763
20
163.6618728
11
23.254072
21
163.6618728
0
LINE
8
DEFAULT_255_1_234
10
23.254072
20
163.6618728
11
23.254072
21
163.7494187
0
LINE
8
DEFAULT_255_1_234
10
23.254072
20
163.7494187
11
23.7777414
21
164.5598211
0
LINE
8
DEFAULT_255_1_234
10
23.7777414
20
164.5598211
11
23.9359666
21
164.5598211
0
LINE
8
DEFAULT_255_1_234
10
23.7689064
20
164.3244912
11
23.4227385
21
163.783152
0
LINE
8
DEFAULT_255_1_234
10
23.4227385
20
163.783152
11
23.7865763
21
163.783152
0
LINE
8
DEFAULT_255_1_234
10
23.7865763
20
163.783152
11
23.7865763
21
164.3566181
0
LINE
8
DEFAULT_255_1_234
10
23.7865763
20
164.3566181
11
23.7689064
21
164.3244912
0
LINE
8
DEFAULT_255_1_234
10
23.197323
20
171.6989663
11
23.3523355
21
171.6989663
0
LINE
8
DEFAULT_255_1_234
10
22.4519777
20
171.8579947
11
22.4519777
21
171.9704391
0
LINE
8
DEFAULT_255_1_234
10
23.3523355
20
172.1214357
11
23.197323
21
172.1214357
0
LINE
8
DEFAULT_255_1_234
10
22.6069902
20
171.9664232
11
22.6069902
21
171.8531757
0
ARC
8
DEFAULT_255_1_234
10
22.8042742
20
171.7586846
40
0.5513052
50
340.1774281
51
353.7814284
0
ARC
8
DEFAULT_255_1_234
10
22.9614095
20
171.7001582
40
0.3836379
50
311.4558989
51
340.4421614
0
ARC
8
DEFAULT_255_1_234
10
22.9580763
20
171.7112528
40
0.3941894
50
282.4333181
51
310.7513653
0
ARC
8
DEFAULT_255_1_234
10
22.9141502
20
171.8927679
40
0.5809175
50
269.9358511
51
282.809604
0
ARC
8
DEFAULT_255_1_234
10
22.9089568
20
172.0385212
40
0.7266847
50
270.0021091
51
270.3581957
0
ARC
8
DEFAULT_255_1_234
10
22.9036985
20
171.7784585
40
0.4666519
50
250.7884749
51
270.6489167
0
ARC
8
DEFAULT_255_1_234
10
22.886882
20
171.7147319
40
0.4009729
50
219.3627325
51
250.0611886
0
ARC
8
DEFAULT_255_1_234
10
22.9698031
20
171.7852042
40
0.5097822
50
193.5479632
51
219.5756669
0
ARC
8
DEFAULT_255_1_234
10
23.2069652
20
171.8467919
40
0.7547848
50
181.1218675
51
193.87563
0
ARC
8
DEFAULT_255_1_234
10
23.4139833
20
171.857858
40
0.9620055
50
179.9918545
51
181.5394234
0
ARC
8
DEFAULT_255_1_234
10
23.2288935
20
171.9741788
40
0.7769248
50
169.5837241
51
180.2757934
0
ARC
8
DEFAULT_255_1_234
10
23.0451873
20
172.0081229
40
0.590109
50
155.0365899
51
169.6003176
0
ARC
8
DEFAULT_255_1_234
10
22.9316337
20
172.0628677
40
0.4640625
50
136.783148
51
155.2472683
0
ARC
8
DEFAULT_255_1_234
10
22.8926814
20
172.0959562
40
0.4130255
50
121.7633186
51
136.428115
0
ARC
8
DEFAULT_255_1_234
10
22.9061776
20
172.0710227
40
0.4413323
50
95.6459699
51
121.5490577
0
ARC
8
DEFAULT_255_1_234
10
22.9219058
20
171.9601949
40
0.55319
50
89.924208
51
96.1377933
0
ARC
8
DEFAULT_255_1_234
10
22.9269491
20
171.9720542
40
0.5413475
50
76.6779277
51
90.4563316
0
ARC
8
DEFAULT_255_1_234
10
22.9663114
20
172.1311114
40
0.3775041
50
47.485847
51
76.9287264
0
ARC
8
DEFAULT_255_1_234
10
22.9516087
20
172.1211159
40
0.3948286
50
16.5424086
51
46.8933463
0
ARC
8
DEFAULT_255_1_234
10
22.7908244
20
172.0682861
40
0.564021
50
5.4072051
51
17.0365086
0
ARC
8
DEFAULT_255_1_234
10
22.6469261
20
172.0451679
40
0.5556559
50
7.8891745
51
15.9239216
0
ARC
8
DEFAULT_255_1_234
10
22.8456274
20
172.1028631
40
0.3487515
50
15.7653144
51
27.9410532
0
ARC
8
DEFAULT_255_1_234
10
22.9560492
20
172.161979
40
0.2235026
50
27.8166557
51
46.4008329
0
ARC
8
DEFAULT_255_1_234
10
22.9610135
20
172.1614082
40
0.2205286
50
47.4371857
51
75.0698205
0
ARC
8
DEFAULT_255_1_234
10
22.9301529
20
172.0539765
40
0.3322915
50
74.7008593
51
87.8124495
0
ARC
8
DEFAULT_255_1_234
10
22.9228217
20
171.9483844
40
0.4380987
50
87.3814673
51
90.0240855
0
ARC
8
DEFAULT_255_1_234
10
22.918976
20
172.0661291
40
0.3203749
50
89.3451631
51
108.5745436
0
ARC
8
DEFAULT_255_1_234
10
22.9052865
20
172.1174908
40
0.2673494
50
109.2998449
51
143.3037509
0
ARC
8
DEFAULT_255_1_234
10
22.9814938
20
172.0588881
40
0.3634757
50
143.0753173
51
163.1916937
0
ARC
8
DEFAULT_255_1_234
10
23.1766666
20
171.9972967
40
0.5681262
50
162.9373603
51
174.6208611
0
ARC
8
DEFAULT_255_1_234
10
23.4392708
20
171.968501
40
0.8322832
50
174.3419979
51
180.1430411
0
ARC
8
DEFAULT_255_1_234
10
23.3461864
20
171.8490698
40
0.7392076
50
179.6817502
51
189.150529
0
ARC
8
DEFAULT_255_1_234
10
23.0961112
20
171.807419
40
0.4856932
50
188.9910863
51
203.5773039
0
ARC
8
DEFAULT_255_1_234
10
22.9881445
20
171.7626211
40
0.3688271
50
203.9077269
51
215.1312379
0
ARC
8
DEFAULT_255_1_234
10
22.8958539
20
171.6910941
40
0.2522457
50
213.9071664
51
263.8849284
0
ARC
8
DEFAULT_255_1_234
10
22.9083868
20
171.7695518
40
0.3316174
50
263.1758525
51
270.1031083
0
ARC
8
DEFAULT_255_1_234
10
22.911596
20
171.8942365
40
0.4563091
50
269.6719807
51
279.0609165
0
ARC
8
DEFAULT_255_1_234
10
22.9382728
20
171.7329907
40
0.2928759
50
278.8750225
51
293.6346586
0
ARC
8
DEFAULT_255_1_234
10
22.9702936
20
171.65779
40
0.2111472
50
293.8553404
51
310.0518804
0
ARC
8
DEFAULT_255_1_234
10
22.970779
20
171.6515516
40
0.2060917
50
311.0646779
51
332.0108348
0
ARC
8
DEFAULT_255_1_234
10
22.8515517
20
171.7172978
40
0.3422352
50
331.6588543
51
343.2878891
0
ARC
8
DEFAULT_255_1_234
10
22.6453032
20
171.7806798
40
0.5580003
50
343.1446044
51
351.010618
0
ARC
8
DEFAULT_255_1_234
10
22.4911678
20
171.8087871
40
0.7146438
50
350.7157277
51
351.1602153
0
LINE
8
DEFAULT_255_1_234
10
24.0125444
20
172.5029433
11
24.0125444
21
171.3279
0
LINE
8
DEFAULT_255_1_234
10
24.0125444
20
171.3279
11
23.8631541
21
171.3279
0
LINE
8
DEFAULT_255_1_234
10
23.8631541
20
171.3279
11
23.8631541
21
172.3182133
0
LINE
8
DEFAULT_255_1_234
10
23.8631541
20
172.3182133
11
23.5635703
21
172.2081785
0
LINE
8
DEFAULT_255_1_234
10
23.5635703
20
172.2081785
11
23.5635703
21
172.3431117
0
LINE
8
DEFAULT_255_1_234
10
23.5635703
20
172.3431117
11
23.9892524
21
172.5029433
0
LINE
8
DEFAULT_255_1_234
10
23.9892524
20
172.5029433
11
24.0125444
21
172.5029433
0
LINE
8
DEFAULT_255_1_234
10
22.5181458
20
180.4348211
11
22.8217456
21
179.847701
0
LINE
8
DEFAULT_255_1_234
10
22.8217456
20
179.847701
11
23.1269516
21
180.4348211
0
LINE
8
DEFAULT_255_1_234
10
23.1269516
20
180.4348211
11
23.3020435
21
180.4348211
0
LINE
8
DEFAULT_255_1_234
10
23.3020435
20
180.4348211
11
22.8988502
21
179.7015234
0
LINE
8
DEFAULT_255_1_234
10
22.8988502
20
179.7015234
11
22.8988502
21
179.2654
0
LINE
8
DEFAULT_255_1_234
10
22.8988502
20
179.2654
11
22.7446409
21
179.2654
0
LINE
8
DEFAULT_255_1_234
10
22.7446409
20
179.2654
11
22.7446409
21
179.7015234
0
LINE
8
DEFAULT_255_1_234
10
22.7446409
20
179.7015234
11
22.3414476
21
180.4348211
0
LINE
8
DEFAULT_255_1_234
10
22.3414476
20
180.4348211
11
22.5181458
21
180.4348211
0
LINE
8
DEFAULT_255_1_234
10
23.6305416
20
179.8011169
11
23.6305416
21
179.9223962
0
LINE
8
DEFAULT_255_1_234
10
23.6305416
20
179.9223962
11
23.7421828
21
179.9223962
0
LINE
8
DEFAULT_255_1_234
10
23.5518306
20
180.1280087
11
23.4032434
21
180.1280087
0
LINE
8
DEFAULT_255_1_234
10
23.3928021
20
179.5738188
11
23.5421925
21
179.5738188
0
LINE
8
DEFAULT_255_1_234
10
23.7421828
20
179.8011169
11
23.6305416
21
179.8011169
0
ARC
8
DEFAULT_255_1_234
10
23.7392694
20
180.2616713
40
0.3392876
50
270.4919872
51
281.8951556
0
ARC
8
DEFAULT_255_1_234
10
23.7633956
20
180.1514702
40
0.2264817
50
281.6691735
51
301.2943132
0
ARC
8
DEFAULT_255_1_234
10
23.7804166
20
180.1203304
40
0.1910381
50
301.7833094
51
311.7545298
0
ARC
8
DEFAULT_255_1_234
10
23.7895742
20
180.1101748
40
0.1773635
50
311.7323931
51
354.2802411
0
ARC
8
DEFAULT_255_1_234
10
23.7169367
20
180.1226722
40
0.2509385
50
353.0937916
51
0.1181479
0
ARC
8
DEFAULT_255_1_234
10
23.6708152
20
180.1274386
40
0.2970898
50
359.1805295
51
15.0453146
0
ARC
8
DEFAULT_255_1_234
10
23.8053989
20
180.1666992
40
0.1569564
50
13.9577229
51
77.6713066
0
ARC
8
DEFAULT_255_1_234
10
23.7667518
20
180.0281949
40
0.3006298
50
76.1116566
51
90.7026153
0
ARC
8
DEFAULT_255_1_234
10
23.7608356
20
180.0555545
40
0.2732568
50
89.5324876
51
103.531937
0
ARC
8
DEFAULT_255_1_234
10
23.7407801
20
180.1354884
40
0.1908508
50
103.2931773
51
133.5619022
0
ARC
8
DEFAULT_255_1_234
10
23.7363289
20
180.1414375
40
0.1834746
50
133.8349307
51
173.5344437
0
ARC
8
DEFAULT_255_1_234
10
23.8086332
20
180.1286213
40
0.2568033
50
172.5096846
51
180.1366907
0
ARC
8
DEFAULT_255_1_234
10
23.7135226
20
180.1320622
40
0.3103056
50
155.3484492
51
180.7484736
0
ARC
8
DEFAULT_255_1_234
10
23.7086315
20
180.1291846
40
0.3070957
50
131.5744599
51
154.4798489
0
ARC
8
DEFAULT_255_1_234
10
23.7399462
20
180.097531
40
0.3515643
50
96.9875458
51
131.9690667
0
ARC
8
DEFAULT_255_1_234
10
23.7618942
20
179.9729636
40
0.4779224
50
89.8596053
51
97.7825159
0
ARC
8
DEFAULT_255_1_234
10
23.7667005
20
179.9467616
40
0.5041361
50
78.3655447
51
90.4131539
0
ARC
8
DEFAULT_255_1_234
10
23.8024923
20
180.1126887
40
0.3344039
50
56.6229102
51
78.638727
0
ARC
8
DEFAULT_255_1_234
10
23.8239867
20
180.1502805
40
0.2912001
50
47.0253525
51
56.0854072
0
ARC
8
DEFAULT_255_1_234
10
23.8259647
20
180.1542223
40
0.2869704
50
10.9208013
51
46.7778124
0
ARC
8
DEFAULT_255_1_234
10
23.6895713
20
180.1226857
40
0.426899
50
359.6364486
51
11.6087304
0
ARC
8
DEFAULT_255_1_234
10
23.8730557
20
180.1211752
40
0.243409
50
332.3549906
51
359.7179418
0
ARC
8
DEFAULT_255_1_234
10
23.8080159
20
180.1520142
40
0.3153459
50
325.2333722
51
332.8745602
0
ARC
8
DEFAULT_255_1_234
10
23.8232783
20
180.1413828
40
0.2967456
50
292.9802137
51
325.2392345
0
ARC
8
DEFAULT_255_1_234
10
23.7958157
20
180.1947863
40
0.3566604
50
292.5402179
51
293.6924929
0
ARC
8
DEFAULT_255_1_234
10
23.8350752
20
179.5493091
40
0.3307468
50
57.6435486
51
72.8625112
0
ARC
8
DEFAULT_255_1_234
10
23.8705252
20
179.6067549
40
0.2632492
50
36.7248896
51
57.4697979
0
ARC
8
DEFAULT_255_1_234
10
23.8693885
20
179.608022
40
0.2634081
50
8.0545065
51
36.356114
0
ARC
8
DEFAULT_255_1_234
10
23.783107
20
179.5925174
40
0.3510261
50
359.8320645
51
8.5869982
0
ARC
8
DEFAULT_255_1_234
10
23.7455846
20
179.5877101
40
0.3885653
50
343.9829931
51
0.5571613
0
ARC
8
DEFAULT_255_1_234
10
23.8342043
20
179.5634438
40
0.2966924
50
311.6359546
51
343.7651759
0
ARC
8
DEFAULT_255_1_234
10
23.7963613
20
179.6061102
40
0.3537231
50
279.7829875
51
311.6255694
0
ARC
8
DEFAULT_255_1_234
10
23.7662389
20
179.749828
40
0.5004971
50
269.7286406
51
280.3856417
0
ARC
8
DEFAULT_255_1_234
10
23.7600461
20
179.7456996
40
0.4963778
50
256.6828919
51
270.4412052
0
ARC
8
DEFAULT_255_1_234
10
23.7261757
20
179.6072394
40
0.3538406
50
229.4223008
51
256.8556159
0
ARC
8
DEFAULT_255_1_234
10
23.684715
20
179.5605736
40
0.2914296
50
181.818294
51
229.6455059
0
ARC
8
DEFAULT_255_1_234
10
23.7887106
20
179.5736496
40
0.3959084
50
179.9755256
51
183.2323064
0
ARC
8
DEFAULT_255_1_234
10
23.7714852
20
179.5716037
40
0.2293034
50
179.4465117
51
196.2869258
0
ARC
8
DEFAULT_255_1_234
10
23.722726
20
179.5582651
40
0.1787621
50
196.5661473
51
227.705904
0
ARC
8
DEFAULT_255_1_234
10
23.7391355
20
179.5766155
40
0.2033784
50
227.7652068
51
257.8762805
0
ARC
8
DEFAULT_255_1_234
10
23.7616325
20
179.6709156
40
0.3003081
50
257.4584385
51
270.426602
0
ARC
8
DEFAULT_255_1_234
10
23.7661891
20
179.6998996
40
0.329292
50
269.5962073
51
280.8789248
0
ARC
8
DEFAULT_255_1_234
10
23.789142
20
179.5852685
40
0.2123908
50
280.6346389
51
299.8595945
0
ARC
8
DEFAULT_255_1_234
10
23.8082327
20
179.5490212
40
0.171457
50
300.3576302
51
314.5517981
0
ARC
8
DEFAULT_255_1_234
10
23.7999387
20
179.5550919
40
0.1816095
50
315.0728369
51
345.0431014
0
ARC
8
DEFAULT_255_1_234
10
23.7076201
20
179.5819841
40
0.2777492
50
344.5986631
51
357.9269593
0
ARC
8
DEFAULT_255_1_234
10
23.6180528
20
179.5881276
40
0.3674917
50
357.4748886
51
0.0231117
0
ARC
8
DEFAULT_255_1_234
10
23.7203637
20
179.5905679
40
0.2651907
50
359.5047933
51
13.4239635
0
ARC
8
DEFAULT_255_1_234
10
23.8070281
20
179.6127478
40
0.1757509
50
12.9498199
51
48.7551375
0
ARC
8
DEFAULT_255_1_234
10
23.7888014
20
179.58784
40
0.2065134
50
49.5088623
51
72.1836453
0
ARC
8
DEFAULT_255_1_234
10
23.7530167
20
179.4816291
40
0.3185836
50
71.9010081
51
84.3554254
0
ARC
8
DEFAULT_255_1_234
10
23.7368799
20
179.3455326
40
0.4556151
50
84.0193428
51
89.333121
0
LINE
8
DEFAULT_255_1_234
10
22.5181458
20
188.3723211
11
22.8217456
21
187.785201
0
LINE
8
DEFAULT_255_1_234
10
22.8217456
20
187.785201
11
23.1269516
21
188.3723211
0
LINE
8
DEFAULT_255_1_234
10
23.1269516
20
188.3723211
11
23.3020435
21
188.3723211
0
LINE
8
DEFAULT_255_1_234
10
23.3020435
20
188.3723211
11
22.8988502
21
187.6390234
0
LINE
8
DEFAULT_255_1_234
10
22.8988502
20
187.6390234
11
22.8988502
21
187.2029
0
LINE
8
DEFAULT_255_1_234
10
22.8988502
20
187.2029
11
22.7446409
21
187.2029
0
LINE
8
DEFAULT_255_1_234
10
22.7446409
20
187.2029
11
22.7446409
21
187.6390234
0
LINE
8
DEFAULT_255_1_234
10
22.7446409
20
187.6390234
11
22.3414476
21
188.3723211
0
LINE
8
DEFAULT_255_1_234
10
22.3414476
20
188.3723211
11
22.5181458
21
188.3723211
0
LINE
8
DEFAULT_255_1_234
10
24.1807157
20
187.3241792
11
24.1807157
21
187.2029
0
LINE
8
DEFAULT_255_1_234
10
24.1807157
20
187.2029
11
23.4144878
21
187.2029
0
LINE
8
DEFAULT_255_1_234
10
23.4144878
20
187.2029
11
23.4144878
21
187.3097221
0
LINE
8
DEFAULT_255_1_234
10
23.4144878
20
187.3097221
11
23.8192875
21
187.7594995
0
LINE
8
DEFAULT_255_1_234
10
23.5405861
20
188.0277595
11
23.391999
21
188.0277595
0
LINE
8
DEFAULT_255_1_234
10
23.9068334
20
187.6639218
11
23.5935956
21
187.3241792
0
LINE
8
DEFAULT_255_1_234
10
23.5935956
20
187.3241792
11
24.1807157
21
187.3241792
0
ARC
8
DEFAULT_255_1_234
10
22.4702708
20
188.9524527
40
1.8008286
50
318.5132453
51
320.7828378
0
ARC
8
DEFAULT_255_1_234
10
22.9989682
20
188.5221426
40
1.1191493
50
320.7372736
51
323.9737074
0
ARC
8
DEFAULT_255_1_234
10
23.3909539
20
188.2381361
40
0.6350923
50
323.8961724
51
328.6421089
0
ARC
8
DEFAULT_255_1_234
10
23.5956134
20
188.1119031
40
0.3946393
50
328.8299013
51
331.789948
0
ARC
8
DEFAULT_255_1_234
10
23.6953313
20
188.0604509
40
0.2824501
50
331.4255242
51
352.9364833
0
ARC
8
DEFAULT_255_1_234
10
23.7089813
20
188.0573976
40
0.2685315
50
353.2248685
51
0.0169286
0
ARC
8
DEFAULT_255_1_234
10
23.729969
20
188.059695
40
0.2475536
50
359.4866256
51
15.9339782
0
ARC
8
DEFAULT_255_1_234
10
23.7806675
20
188.0733286
40
0.1950618
50
16.1714718
51
43.5284424
0
ARC
8
DEFAULT_255_1_234
10
23.7883984
20
188.0810573
40
0.184134
50
43.4415429
51
83.1661404
0
ARC
8
DEFAULT_255_1_234
10
23.7749902
20
188.0073771
40
0.258926
50
82.160215
51
90.1505798
0
ARC
8
DEFAULT_255_1_234
10
23.7718329
20
187.9536865
40
0.3126255
50
89.5460705
51
102.5418777
0
ARC
8
DEFAULT_255_1_234
10
23.7475416
20
188.0567665
40
0.2067346
50
102.1739365
51
129.2061916
0
ARC
8
DEFAULT_255_1_234
10
23.7396487
20
188.0692094
40
0.1921118
50
129.7279328
51
135.7542026
0
ARC
8
DEFAULT_255_1_234
10
23.7518015
20
188.0595045
40
0.2075944
50
136.175737
51
166.3674722
0
ARC
8
DEFAULT_255_1_234
10
23.8524934
20
188.0325182
40
0.3118201
50
165.9092917
51
178.8683903
0
ARC
8
DEFAULT_255_1_234
10
23.9389795
20
188.0278179
40
0.3983935
50
178.438168
51
180.0083905
0
ARC
8
DEFAULT_255_1_234
10
23.7988398
20
188.0317231
40
0.4068601
50
163.2878735
51
180.5581814
0
ARC
8
DEFAULT_255_1_234
10
23.7186659
20
188.053784
40
0.3237344
50
133.454115
51
162.9470031
0
ARC
8
DEFAULT_255_1_234
10
23.73652
20
188.0348
40
0.349795
50
100.7869394
51
133.4384016
0
ARC
8
DEFAULT_255_1_234
10
23.7712972
20
187.8799319
40
0.5084616
50
89.6605301
51
101.3704185
0
ARC
8
DEFAULT_255_1_234
10
23.7779311
20
187.8860496
40
0.502348
50
78.2171172
51
90.4130393
0
ARC
8
DEFAULT_255_1_234
10
23.8134389
20
188.0484637
40
0.3361092
50
55.9268222
51
78.4888551
0
ARC
8
DEFAULT_255_1_234
10
23.8330829
20
188.0823324
40
0.2970617
50
47.9292255
51
55.4054003
0
ARC
8
DEFAULT_255_1_234
10
23.843239
20
188.0926502
40
0.2825983
50
4.3347696
51
48.0560701
0
ARC
8
DEFAULT_255_1_234
10
23.7336783
20
188.0756601
40
0.393225
50
359.925209
51
5.5967654
0
ARC
8
DEFAULT_255_1_234
10
23.7765675
20
188.0812816
40
0.3503892
50
337.8914096
51
358.9967724
0
ARC
8
DEFAULT_255_1_234
10
23.5052087
20
188.1859706
40
0.6412172
50
326.9135351
51
338.3505194
0
ARC
8
DEFAULT_255_1_234
10
23.1066391
20
188.4414284
40
1.1146189
50
319.6472867
51
327.095818
0
ARC
8
DEFAULT_255_1_234
10
22.7233394
20
188.7576
40
1.6114559
50
317.2586784
51
319.9046139
0
LINE
8
DEFAULT_255_1_234
10
22.5269458
20
196.3098211
11
22.8305456
21
195.722701
0
LINE
8
DEFAULT_255_1_234
10
22.8305456
20
195.722701
11
23.1357516
21
196.3098211
0
LINE
8
DEFAULT_255_1_234
10
23.1357516
20
196.3098211
11
23.3108435
21
196.3098211
0
LINE
8
DEFAULT_255_1_234
10
23.3108435
20
196.3098211
11
22.9076502
21
195.5765234
0
LINE
8
DEFAULT_255_1_234
10
22.9076502
20
195.5765234
11
22.9076502
21
195.1404
0
LINE
8
DEFAULT_255_1_234
10
22.9076502
20
195.1404
11
22.7534409
21
195.1404
0
LINE
8
DEFAULT_255_1_234
10
22.7534409
20
195.1404
11
22.7534409
21
195.5765234
0
LINE
8
DEFAULT_255_1_234
10
22.7534409
20
195.5765234
11
22.3502476
21
196.3098211
0
LINE
8
DEFAULT_255_1_234
10
22.3502476
20
196.3098211
11
22.5269458
21
196.3098211
0
LINE
8
DEFAULT_255_1_234
10
23.9116175
20
196.3154433
11
23.9116175
21
195.1404
0
LINE
8
DEFAULT_255_1_234
10
23.9116175
20
195.1404
11
23.7622272
21
195.1404
0
LINE
8
DEFAULT_255_1_234
10
23.7622272
20
195.1404
11
23.7622272
21
196.1307133
0
LINE
8
DEFAULT_255_1_234
10
23.7622272
20
196.1307133
11
23.4626434
21
196.0206785
0
LINE
8
DEFAULT_255_1_234
10
23.4626434
20
196.0206785
11
23.4626434
21
196.1556117
0
LINE
8
DEFAULT_255_1_234
10
23.4626434
20
196.1556117
11
23.8883255
21
196.3154433
0
LINE
8
DEFAULT_255_1_234
10
23.8883255
20
196.3154433
11
23.9116175
21
196.3154433
0
LINE
8
DEFAULT_255_1_234
10
22.5181458
20
204.2473211
11
22.8217456
21
203.660201
0
LINE
8
DEFAULT_255_1_234
10
22.8217456
20
203.660201
11
23.1269516
21
204.2473211
0
LINE
8
DEFAULT_255_1_234
10
23.1269516
20
204.2473211
11
23.3020435
21
204.2473211
0
LINE
8
DEFAULT_255_1_234
10
23.3020435
20
204.2473211
11
22.8988502
21
203.5140234
0
LINE
8
DEFAULT_255_1_234
10
22.8988502
20
203.5140234
11
22.8988502
21
203.0779
0
LINE
8
DEFAULT_255_1_234
10
22.8988502
20
203.0779
11
22.7446409
21
203.0779
0
LINE
8
DEFAULT_255_1_234
10
22.7446409
20
203.0779
11
22.7446409
21
203.5140234
0
LINE
8
DEFAULT_255_1_234
10
22.7446409
20
203.5140234
11
22.3414476
21
204.2473211
0
LINE
8
DEFAULT_255_1_234
10
22.3414476
20
204.2473211
11
22.5181458
21
204.2473211
0
LINE
8
DEFAULT_255_1_234
10
24.1477855
20
203.7694327
11
24.1477855
21
203.5766709
0
LINE
8
DEFAULT_255_1_234
10
23.4096688
20
203.5565916
11
23.4096688
21
203.7549755
0
LINE
8
DEFAULT_255_1_234
10
23.9991984
20
203.5365123
11
23.9991984
21
203.7798739
0
LINE
8
DEFAULT_255_1_234
10
23.558256
20
203.7911184
11
23.558256
21
203.5533789
0
ARC
8
DEFAULT_255_1_234
10
22.9230745
20
203.5717805
40
1.2247208
50
353.8441951
51
0.2287902
0
ARC
8
DEFAULT_255_1_234
10
23.3870249
20
203.5199806
40
0.7578929
50
344.4934747
51
353.9765454
0
ARC
8
DEFAULT_255_1_234
10
23.6862839
20
203.4348981
40
0.4467846
50
329.2803592
51
344.7472793
0
ARC
8
DEFAULT_255_1_234
10
23.7855664
20
203.3804018
40
0.3336173
50
324.9352394
51
328.6160465
0
ARC
8
DEFAULT_255_1_234
10
23.8232773
20
203.3540427
40
0.2876076
50
280.580143
51
324.9173126
0
ARC
8
DEFAULT_255_1_234
10
23.7831565
20
203.5211099
40
0.4592847
50
269.5977311
51
281.6734359
0
ARC
8
DEFAULT_255_1_234
10
23.7759471
20
203.5091173
40
0.4472986
50
256.6228859
51
270.51044
0
ARC
8
DEFAULT_255_1_234
10
23.7357449
20
203.3542877
40
0.2873874
50
215.8618325
51
257.2788573
0
ARC
8
DEFAULT_255_1_234
10
23.837848
20
203.4227977
40
0.4102928
50
197.9693508
51
215.2623606
0
ARC
8
DEFAULT_255_1_234
10
24.0863596
20
203.5066709
40
0.6725652
50
187.8816417
51
198.2346507
0
ARC
8
DEFAULT_255_1_234
10
24.4821804
20
203.5638079
40
1.0724845
50
180.8976217
51
188.0055519
0
ARC
8
DEFAULT_255_1_234
10
24.7621992
20
203.5741777
40
1.3526448
50
180.7449369
51
181.1510016
0
ARC
8
DEFAULT_255_1_234
10
24.6044721
20
203.7598042
40
1.1948131
50
173.7675579
51
180.231553
0
ARC
8
DEFAULT_255_1_234
10
24.1526868
20
203.8108666
40
0.7401564
50
164.3058563
51
173.9002247
0
ARC
8
DEFAULT_255_1_234
10
23.8614937
20
203.8947656
40
0.4371288
50
148.7922025
51
164.568378
0
ARC
8
DEFAULT_255_1_234
10
23.7663389
20
203.9478929
40
0.3282386
50
144.5883898
51
148.1176286
0
ARC
8
DEFAULT_255_1_234
10
23.7320287
20
203.9718315
40
0.2864044
50
101.6440918
51
144.514236
0
ARC
8
DEFAULT_255_1_234
10
23.7745354
20
203.8029069
40
0.4604934
50
89.5284041
51
102.5819763
0
ARC
8
DEFAULT_255_1_234
10
23.7824441
20
203.7990018
40
0.464401
50
77.0437873
51
90.5081339
0
ARC
8
DEFAULT_255_1_234
10
23.8226443
20
203.9632615
40
0.2953195
50
48.2778575
51
77.4994676
0
ARC
8
DEFAULT_255_1_234
10
23.8299074
20
203.9761746
40
0.2808655
50
36.3142134
51
47.6305865
0
ARC
8
DEFAULT_255_1_234
10
23.7430381
20
203.9176515
40
0.3855453
50
18.2931786
51
35.6769206
0
ARC
8
DEFAULT_255_1_234
10
23.488714
20
203.8303593
40
0.654423
50
8.024666
51
18.5605216
0
ARC
8
DEFAULT_255_1_234
10
23.072406
20
203.7688792
40
1.0752407
50
1.1274072
51
8.1718305
0
ARC
8
DEFAULT_255_1_234
10
22.7488251
20
203.7561885
40
1.3990231
50
0.5424119
51
1.3863029
0
ARC
8
DEFAULT_255_1_234
10
22.9309629
20
203.7834342
40
1.0682415
50
359.8090433
51
4.9407866
0
ARC
8
DEFAULT_255_1_234
10
23.3519643
20
203.8210113
40
0.6455691
50
4.8362157
51
12.2904523
0
ARC
8
DEFAULT_255_1_234
10
23.6274757
20
203.8823965
40
0.3633074
50
12.0805627
51
23.8173984
0
ARC
8
DEFAULT_255_1_234
10
23.7448463
20
203.9320919
40
0.2358723
50
24.2871213
51
31.3935614
0
ARC
8
DEFAULT_255_1_234
10
23.797316
20
203.9664233
40
0.1732111
50
30.7407893
51
82.4657128
0
ARC
8
DEFAULT_255_1_234
10
23.7793294
20
203.8780691
40
0.263235
50
81.1060089
51
90.2184952
0
ARC
8
DEFAULT_255_1_234
10
23.7757593
20
203.9038924
40
0.2374236
50
89.3806855
51
105.6762551
0
ARC
8
DEFAULT_255_1_234
10
23.7574224
20
203.9705567
40
0.1682847
50
105.7981136
51
149.7388061
0
ARC
8
DEFAULT_255_1_234
10
23.8638302
20
203.906595
40
0.2924306
50
149.4208916
51
163.6286378
0
ARC
8
DEFAULT_255_1_234
10
24.072919
20
203.842825
40
0.5110213
50
163.3763315
51
172.1410975
0
ARC
8
DEFAULT_255_1_234
10
24.4029909
20
203.7955518
40
0.8444586
50
172.0259487
51
178.0703232
0
ARC
8
DEFAULT_255_1_234
10
24.7059999
20
203.7811906
40
1.1477868
50
177.8631668
51
179.5044149
0
ARC
8
DEFAULT_255_1_234
10
24.5987403
20
203.5497389
40
1.0404907
50
179.7995573
51
185.2460446
0
ARC
8
DEFAULT_255_1_234
10
24.1944442
20
203.5114513
40
0.6343885
50
185.1411642
51
193.0079639
0
ARC
8
DEFAULT_255_1_234
10
23.9300915
20
203.4489641
40
0.3627568
50
192.7897626
51
205.2507664
0
ARC
8
DEFAULT_255_1_234
10
23.8254462
20
203.4022415
40
0.2481908
50
205.8005384
51
211.2537509
0
ARC
8
DEFAULT_255_1_234
10
23.7730902
20
203.367158
40
0.1852521
50
210.3789793
51
238.4008143
0
ARC
8
DEFAULT_255_1_234
10
23.7711424
20
203.3718376
40
0.1882621
50
239.6520629
51
265.9793761
0
ARC
8
DEFAULT_255_1_234
10
23.7796624
20
203.4390427
40
0.2559272
50
265.1315437
51
270.060332
0
ARC
8
DEFAULT_255_1_234
10
23.7825403
20
203.4066534
40
0.2235528
50
269.3314664
51
287.2178029
0
ARC
8
DEFAULT_255_1_234
10
23.7963255
20
203.3563279
40
0.1714108
50
287.7958004
51
329.080874
0
ARC
8
DEFAULT_255_1_234
10
23.7005712
20
203.416093
40
0.2842745
50
328.6634704
51
343.3325132
0
ARC
8
DEFAULT_255_1_234
10
23.4832732
20
203.4837863
40
0.5118644
50
343.0499468
51
351.9393422
0
ARC
8
DEFAULT_255_1_234
10
23.1366032
20
203.5348949
40
0.8622784
50
351.8069023
51
357.7959224
0
ARC
8
DEFAULT_255_1_234
10
22.8130588
20
203.5516721
40
1.1862365
50
357.5871873
51
359.2677531
0
LINE
8
DEFAULT_255_1_234
10
23.188223
20
211.3864663
11
23.3432355
21
211.3864663
0
LINE
8
DEFAULT_255_1_234
10
22.4428777
20
211.5454947
11
22.4428777
21
211.6579391
0
LINE
8
DEFAULT_255_1_234
10
23.3432355
20
211.8089357
11
23.188223
21
211.8089357
0
LINE
8
DEFAULT_255_1_234
10
22.5978902
20
211.6539232
11
22.5978902
21
211.5406757
0
ARC
8
DEFAULT_255_1_234
10
22.7951742
20
211.4461846
40
0.5513052
50
340.1774281
51
353.7814284
0
ARC
8
DEFAULT_255_1_234
10
22.9523095
20
211.3876582
40
0.3836379
50
311.4558989
51
340.4421614
0
ARC
8
DEFAULT_255_1_234
10
22.9489763
20
211.3987528
40
0.3941894
50
282.4333181
51
310.7513653
0
ARC
8
DEFAULT_255_1_234
10
22.9050502
20
211.5802679
40
0.5809175
50
269.9358511
51
282.809604
0
ARC
8
DEFAULT_255_1_234
10
22.8998568
20
211.7260212
40
0.7266847
50
270.0021091
51
270.3581957
0
ARC
8
DEFAULT_255_1_234
10
22.8945985
20
211.4659585
40
0.4666519
50
250.7884749
51
270.6489167
0
ARC
8
DEFAULT_255_1_234
10
22.877782
20
211.4022319
40
0.4009729
50
219.3627325
51
250.0611886
0
ARC
8
DEFAULT_255_1_234
10
22.9607031
20
211.4727042
40
0.5097822
50
193.5479632
51
219.5756669
0
ARC
8
DEFAULT_255_1_234
10
23.1978652
20
211.5342919
40
0.7547848
50
181.1218675
51
193.87563
0
ARC
8
DEFAULT_255_1_234
10
23.4048833
20
211.545358
40
0.9620055
50
179.9918545
51
181.5394234
0
ARC
8
DEFAULT_255_1_234
10
23.2197935
20
211.6616788
40
0.7769248
50
169.5837241
51
180.2757934
0
ARC
8
DEFAULT_255_1_234
10
23.0360873
20
211.6956229
40
0.590109
50
155.0365899
51
169.6003176
0
ARC
8
DEFAULT_255_1_234
10
22.9225337
20
211.7503677
40
0.4640625
50
136.783148
51
155.2472683
0
ARC
8
DEFAULT_255_1_234
10
22.8835814
20
211.7834562
40
0.4130255
50
121.7633186
51
136.428115
0
ARC
8
DEFAULT_255_1_234
10
22.8970776
20
211.7585227
40
0.4413323
50
95.6459699
51
121.5490577
0
ARC
8
DEFAULT_255_1_234
10
22.9128058
20
211.6476949
40
0.55319
50
89.924208
51
96.1377933
0
ARC
8
DEFAULT_255_1_234
10
22.9178491
20
211.6595542
40
0.5413475
50
76.6779277
51
90.4563316
0
ARC
8
DEFAULT_255_1_234
10
22.9572114
20
211.8186114
40
0.3775041
50
47.485847
51
76.9287264
0
ARC
8
DEFAULT_255_1_234
10
22.9425087
20
211.8086159
40
0.3948286
50
16.5424086
51
46.8933463
0
ARC
8
DEFAULT_255_1_234
10
22.7817244
20
211.7557861
40
0.564021
50
5.4072051
51
17.0365086
0
ARC
8
DEFAULT_255_1_234
10
22.6378261
20
211.7326679
40
0.5556559
50
7.8891745
51
15.9239216
0
ARC
8
DEFAULT_255_1_234
10
22.8365274
20
211.7903631
40
0.3487515
50
15.7653144
51
27.9410532
0
ARC
8
DEFAULT_255_1_234
10
22.9469492
20
211.849479
40
0.2235026
50
27.8166557
51
46.4008329
0
ARC
8
DEFAULT_255_1_234
10
22.9519135
20
211.8489082
40
0.2205286
50
47.4371857
51
75.0698205
0
ARC
8
DEFAULT_255_1_234
10
22.9210529
20
211.7414765
40
0.3322915
50
74.7008593
51
87.8124495
0
ARC
8
DEFAULT_255_1_234
10
22.9137217
20
211.6358844
40
0.4380987
50
87.3814673
51
90.0240855
0
ARC
8
DEFAULT_255_1_234
10
22.909876
20
211.7536291
40
0.3203749
50
89.3451631
51
108.5745436
0
ARC
8
DEFAULT_255_1_234
10
22.8961865
20
211.8049908
40
0.2673494
50
109.2998449
51
143.3037509
0
ARC
8
DEFAULT_255_1_234
10
22.9723938
20
211.7463881
40
0.3634757
50
143.0753173
51
163.1916937
0
ARC
8
DEFAULT_255_1_234
10
23.1675666
20
211.6847967
40
0.5681262
50
162.9373603
51
174.6208611
0
ARC
8
DEFAULT_255_1_234
10
23.4301708
20
211.656001
40
0.8322832
50
174.3419979
51
180.1430411
0
ARC
8
DEFAULT_255_1_234
10
23.3370864
20
211.5365698
40
0.7392076
50
179.6817502
51
189.150529
0
ARC
8
DEFAULT_255_1_234
10
23.0870112
20
211.494919
40
0.4856932
50
188.9910863
51
203.5773039
0
ARC
8
DEFAULT_255_1_234
10
22.9790445
20
211.4501211
40
0.3688271
50
203.9077269
51
215.1312379
0
ARC
8
DEFAULT_255_1_234
10
22.8867539
20
211.3785941
40
0.2522457
50
213.9071664
51
263.8849284
0
ARC
8
DEFAULT_255_1_234
10
22.8992868
20
211.4570518
40
0.3316174
50
263.1758525
51
270.1031083
0
ARC
8
DEFAULT_255_1_234
10
22.902496
20
211.5817365
40
0.4563091
50
269.6719807
51
279.0609165
0
ARC
8
DEFAULT_255_1_234
10
22.9291728
20
211.4204907
40
0.2928759
50
278.8750225
51
293.6346586
0
ARC
8
DEFAULT_255_1_234
10
22.9611936
20
211.34529
40
0.2111472
50
293.8553404
51
310.0518804
0
ARC
8
DEFAULT_255_1_234
10
22.961679
20
211.3390516
40
0.2060917
50
311.0646779
51
332.0108348
0
ARC
8
DEFAULT_255_1_234
10
22.8424517
20
211.4047978
40
0.3422352
50
331.6588543
51
343.2878891
0
ARC
8
DEFAULT_255_1_234
10
22.6362032
20
211.4681798
40
0.5580003
50
343.1446044
51
351.010618
0
ARC
8
DEFAULT_255_1_234
10
22.4820678
20
211.4962871
40
0.7146438
50
350.7157277
51
351.1602153
0
LINE
8
DEFAULT_255_1_234
10
24.2484125
20
211.7069327
11
24.2484125
21
211.5141709
0
LINE
8
DEFAULT_255_1_234
10
23.5102957
20
211.4940916
11
23.5102957
21
211.6924755
0
LINE
8
DEFAULT_255_1_234
10
24.0998253
20
211.4740123
11
24.0998253
21
211.7173739
0
LINE
8
DEFAULT_255_1_234
10
23.6588829
20
211.7286184
11
23.6588829
21
211.4908789
0
ARC
8
DEFAULT_255_1_234
10
23.0237014
20
211.5092805
40
1.2247208
50
353.8441951
51
0.2287902
0
ARC
8
DEFAULT_255_1_234
10
23.4876518
20
211.4574806
40
0.7578929
50
344.4934747
51
353.9765454
0
ARC
8
DEFAULT_255_1_234
10
23.7869108
20
211.3723981
40
0.4467846
50
329.2803592
51
344.7472793
0
ARC
8
DEFAULT_255_1_234
10
23.8861933
20
211.3179018
40
0.3336173
50
324.9352394
51
328.6160465
0
ARC
8
DEFAULT_255_1_234
10
23.9239042
20
211.2915427
40
0.2876076
50
280.580143
51
324.9173126
0
ARC
8
DEFAULT_255_1_234
10
23.8837834
20
211.4586099
40
0.4592847
50
269.5977311
51
281.6734359
0
ARC
8
DEFAULT_255_1_234
10
23.876574
20
211.4466173
40
0.4472986
50
256.6228859
51
270.51044
0
ARC
8
DEFAULT_255_1_234
10
23.8363718
20
211.2917877
40
0.2873874
50
215.8618325
51
257.2788573
0
ARC
8
DEFAULT_255_1_234
10
23.9384749
20
211.3602977
40
0.4102928
50
197.9693508
51
215.2623606
0
ARC
8
DEFAULT_255_1_234
10
24.1869865
20
211.4441709
40
0.6725652
50
187.8816417
51
198.2346507
0
ARC
8
DEFAULT_255_1_234
10
24.5828073
20
211.5013079
40
1.0724845
50
180.8976217
51
188.0055519
0
ARC
8
DEFAULT_255_1_234
10
24.8628261
20
211.5116777
40
1.3526448
50
180.7449369
51
181.1510016
0
ARC
8
DEFAULT_255_1_234
10
24.705099
20
211.6973042
40
1.1948131
50
173.7675579
51
180.231553
0
ARC
8
DEFAULT_255_1_234
10
24.2533137
20
211.7483666
40
0.7401564
50
164.3058563
51
173.9002247
0
ARC
8
DEFAULT_255_1_234
10
23.9621206
20
211.8322656
40
0.4371288
50
148.7922025
51
164.568378
0
ARC
8
DEFAULT_255_1_234
10
23.8669658
20
211.8853929
40
0.3282386
50
144.5883898
51
148.1176286
0
ARC
8
DEFAULT_255_1_234
10
23.8326556
20
211.9093315
40
0.2864044
50
101.6440918
51
144.514236
0
ARC
8
DEFAULT_255_1_234
10
23.8751623
20
211.7404069
40
0.4604934
50
89.5284041
51
102.5819763
0
ARC
8
DEFAULT_255_1_234
10
23.883071
20
211.7365018
40
0.464401
50
77.0437873
51
90.5081339
0
ARC
8
DEFAULT_255_1_234
10
23.9232712
20
211.9007615
40
0.2953195
50
48.2778575
51
77.4994676
0
ARC
8
DEFAULT_255_1_234
10
23.9305343
20
211.9136746
40
0.2808655
50
36.3142134
51
47.6305865
0
ARC
8
DEFAULT_255_1_234
10
23.843665
20
211.8551515
40
0.3855453
50
18.2931786
51
35.6769206
0
ARC
8
DEFAULT_255_1_234
10
23.5893409
20
211.7678593
40
0.654423
50
8.024666
51
18.5605216
0
ARC
8
DEFAULT_255_1_234
10
23.1730329
20
211.7063792
40
1.0752407
50
1.1274072
51
8.1718305
0
ARC
8
DEFAULT_255_1_234
10
22.849452
20
211.6936885
40
1.3990231
50
0.5424119
51
1.3863029
0
ARC
8
DEFAULT_255_1_234
10
23.0315898
20
211.7209342
40
1.0682415
50
359.8090433
51
4.9407866
0
ARC
8
DEFAULT_255_1_234
10
23.4525912
20
211.7585113
40
0.6455691
50
4.8362157
51
12.2904523
0
ARC
8
DEFAULT_255_1_234
10
23.7281026
20
211.8198965
40
0.3633074
50
12.0805627
51
23.8173984
0
ARC
8
DEFAULT_255_1_234
10
23.8454732
20
211.8695919
40
0.2358723
50
24.2871213
51
31.3935614
0
ARC
8
DEFAULT_255_1_234
10
23.8979429
20
211.9039233
40
0.1732111
50
30.7407893
51
82.4657128
0
ARC
8
DEFAULT_255_1_234
10
23.8799563
20
211.8155691
40
0.263235
50
81.1060089
51
90.2184952
0
ARC
8
DEFAULT_255_1_234
10
23.8763862
20
211.8413924
40
0.2374236
50
89.3806855
51
105.6762551
0
ARC
8
DEFAULT_255_1_234
10
23.8580493
20
211.9080567
40
0.1682847
50
105.7981136
51
149.7388061
0
ARC
8
DEFAULT_255_1_234
10
23.9644571
20
211.844095
40
0.2924306
50
149.4208916
51
163.6286378
0
ARC
8
DEFAULT_255_1_234
10
24.1735459
20
211.780325
40
0.5110213
50
163.3763315
51
172.1410975
0
ARC
8
DEFAULT_255_1_234
10
24.5036178
20
211.7330518
40
0.8444586
50
172.0259487
51
178.0703232
0
ARC
8
DEFAULT_255_1_234
10
24.8066268
20
211.7186906
40
1.1477868
50
177.8631668
51
179.5044149
0
ARC
8
DEFAULT_255_1_234
10
24.6993672
20
211.4872389
40
1.0404907
50
179.7995573
51
185.2460446
0
ARC
8
DEFAULT_255_1_234
10
24.2950711
20
211.4489513
40
0.6343885
50
185.1411642
51
193.0079639
0
ARC
8
DEFAULT_255_1_234
10
24.0307184
20
211.3864641
40
0.3627568
50
192.7897626
51
205.2507664
0
ARC
8
DEFAULT_255_1_234
10
23.9260731
20
211.3397415
40
0.2481908
50
205.8005384
51
211.2537509
0
ARC
8
DEFAULT_255_1_234
10
23.8737171
20
211.304658
40
0.1852521
50
210.3789793
51
238.4008143
0
ARC
8
DEFAULT_255_1_234
10
23.8717693
20
211.3093376
40
0.1882621
50
239.6520629
51
265.9793761
0
ARC
8
DEFAULT_255_1_234
10
23.8802893
20
211.3765427
40
0.2559272
50
265.1315437
51
270.060332
0
ARC
8
DEFAULT_255_1_234
10
23.8831672
20
211.3441534
40
0.2235528
50
269.3314664
51
287.2178029
0
ARC
8
DEFAULT_255_1_234
10
23.8969524
20
211.2938279
40
0.1714108
50
287.7958004
51
329.080874
0
ARC
8
DEFAULT_255_1_234
10
23.8011981
20
211.353593
40
0.2842745
50
328.6634704
51
343.3325132
0
ARC
8
DEFAULT_255_1_234
10
23.5839001
20
211.4212863
40
0.5118644
50
343.0499468
51
351.9393422
0
ARC
8
DEFAULT_255_1_234
10
23.2372301
20
211.4723949
40
0.8622784
50
351.8069023
51
357.7959224
0
ARC
8
DEFAULT_255_1_234
10
22.9136857
20
211.4891721
40
1.1862365
50
357.5871873
51
359.2677531
0
LINE
8
DEFAULT_255_1_234
10
23.1670817
20
219.6444327
11
23.1670817
21
219.4516709
0
LINE
8
DEFAULT_255_1_234
10
22.428965
20
219.4315916
11
22.428965
21
219.6299755
0
LINE
8
DEFAULT_255_1_234
10
23.0184946
20
219.4115123
11
23.0184946
21
219.6548739
0
LINE
8
DEFAULT_255_1_234
10
22.5775521
20
219.6661184
11
22.5775521
21
219.4283789
0
ARC
8
DEFAULT_255_1_234
10
21.9423707
20
219.4467805
40
1.2247208
50
353.8441951
51
0.2287902
0
ARC
8
DEFAULT_255_1_234
10
22.4063211
20
219.3949806
40
0.7578929
50
344.4934747
51
353.9765454
0
ARC
8
DEFAULT_255_1_234
10
22.7055801
20
219.3098981
40
0.4467846
50
329.2803592
51
344.7472793
0
ARC
8
DEFAULT_255_1_234
10
22.8048626
20
219.2554018
40
0.3336173
50
324.9352394
51
328.6160465
0
ARC
8
DEFAULT_255_1_234
10
22.8425734
20
219.2290427
40
0.2876076
50
280.580143
51
324.9173126
0
ARC
8
DEFAULT_255_1_234
10
22.8024527
20
219.3961099
40
0.4592847
50
269.5977311
51
281.6734359
0
ARC
8
DEFAULT_255_1_234
10
22.7952433
20
219.3841173
40
0.4472986
50
256.6228859
51
270.51044
0
ARC
8
DEFAULT_255_1_234
10
22.755041
20
219.2292877
40
0.2873874
50
215.8618325
51
257.2788573
0
ARC
8
DEFAULT_255_1_234
10
22.8571442
20
219.2977977
40
0.4102928
50
197.9693508
51
215.2623606
0
ARC
8
DEFAULT_255_1_234
10
23.1056558
20
219.3816709
40
0.6725652
50
187.8816417
51
198.2346507
0
ARC
8
DEFAULT_255_1_234
10
23.5014766
20
219.4388079
40
1.0724845
50
180.8976217
51
188.0055519
0
ARC
8
DEFAULT_255_1_234
10
23.7814954
20
219.4491777
40
1.3526448
50
180.7449369
51
181.1510016
0
ARC
8
DEFAULT_255_1_234
10
23.6237683
20
219.6348042
40
1.1948131
50
173.7675579
51
180.231553
0
ARC
8
DEFAULT_255_1_234
10
23.171983
20
219.6858666
40
0.7401564
50
164.3058563
51
173.9002247
0
ARC
8
DEFAULT_255_1_234
10
22.8807899
20
219.7697656
40
0.4371288
50
148.7922025
51
164.568378
0
ARC
8
DEFAULT_255_1_234
10
22.7856351
20
219.8228929
40
0.3282386
50
144.5883898
51
148.1176286
0
ARC
8
DEFAULT_255_1_234
10
22.7513249
20
219.8468315
40
0.2864044
50
101.6440918
51
144.514236
0
ARC
8
DEFAULT_255_1_234
10
22.7938315
20
219.6779069
40
0.4604934
50
89.5284041
51
102.5819763
0
ARC
8
DEFAULT_255_1_234
10
22.8017403
20
219.6740018
40
0.464401
50
77.0437873
51
90.5081339
0
ARC
8
DEFAULT_255_1_234
10
22.8419405
20
219.8382615
40
0.2953195
50
48.2778575
51
77.4994676
0
ARC
8
DEFAULT_255_1_234
10
22.8492036
20
219.8511746
40
0.2808655
50
36.3142134
51
47.6305865
0
ARC
8
DEFAULT_255_1_234
10
22.7623343
20
219.7926515
40
0.3855453
50
18.2931786
51
35.6769206
0
ARC
8
DEFAULT_255_1_234
10
22.5080102
20
219.7053593
40
0.654423
50
8.024666
51
18.5605216
0
ARC
8
DEFAULT_255_1_234
10
22.0917022
20
219.6438792
40
1.0752407
50
1.1274072
51
8.1718305
0
ARC
8
DEFAULT_255_1_234
10
21.7681213
20
219.6311885
40
1.3990231
50
0.5424119
51
1.3863029
0
ARC
8
DEFAULT_255_1_234
10
21.950259
20
219.6584342
40
1.0682415
50
359.8090433
51
4.9407866
0
ARC
8
DEFAULT_255_1_234
10
22.3712604
20
219.6960113
40
0.6455691
50
4.8362157
51
12.2904523
0
ARC
8
DEFAULT_255_1_234
10
22.6467719
20
219.7573965
40
0.3633074
50
12.0805627
51
23.8173984
0
ARC
8
DEFAULT_255_1_234
10
22.7641425
20
219.8070919
40
0.2358723
50
24.2871213
51
31.3935614
0
ARC
8
DEFAULT_255_1_234
10
22.8166122
20
219.8414233
40
0.1732111
50
30.7407893
51
82.4657128
0
ARC
8
DEFAULT_255_1_234
10
22.7986256
20
219.7530691
40
0.263235
50
81.1060089
51
90.2184952
0
ARC
8
DEFAULT_255_1_234
10
22.7950555
20
219.7788924
40
0.2374236
50
89.3806855
51
105.6762551
0
ARC
8
DEFAULT_255_1_234
10
22.7767186
20
219.8455567
40
0.1682847
50
105.7981136
51
149.7388061
0
ARC
8
DEFAULT_255_1_234
10
22.8831264
20
219.781595
40
0.2924306
50
149.4208916
51
163.6286378
0
ARC
8
DEFAULT_255_1_234
10
23.0922152
20
219.717825
40
0.5110213
50
163.3763315
51
172.1410975
0
ARC
8
DEFAULT_255_1_234
10
23.4222871
20
219.6705518
40
0.8444586
50
172.0259487
51
178.0703232
0
ARC
8
DEFAULT_255_1_234
10
23.725296
20
219.6561906
40
1.1477868
50
177.8631668
51
179.5044149
0
ARC
8
DEFAULT_255_1_234
10
23.6180365
20
219.4247389
40
1.0404907
50
179.7995573
51
185.2460446
0
ARC
8
DEFAULT_255_1_234
10
23.2137404
20
219.3864513
40
0.6343885
50
185.1411642
51
193.0079639
0
ARC
8
DEFAULT_255_1_234
10
22.9493877
20
219.3239641
40
0.3627568
50
192.7897626
51
205.2507664
0
ARC
8
DEFAULT_255_1_234
10
22.8447424
20
219.2772415
40
0.2481908
50
205.8005384
51
211.2537509
0
ARC
8
DEFAULT_255_1_234
10
22.7923864
20
219.242158
40
0.1852521
50
210.3789793
51
238.4008143
0
ARC
8
DEFAULT_255_1_234
10
22.7904386
20
219.2468376
40
0.1882621
50
239.6520629
51
265.9793761
0
ARC
8
DEFAULT_255_1_234
10
22.7989586
20
219.3140427
40
0.2559272
50
265.1315437
51
270.060332
0
ARC
8
DEFAULT_255_1_234
10
22.8018365
20
219.2816534
40
0.2235528
50
269.3314664
51
287.2178029
0
ARC
8
DEFAULT_255_1_234
10
22.8156217
20
219.2313279
40
0.1714108
50
287.7958004
51
329.080874
0
ARC
8
DEFAULT_255_1_234
10
22.7198674
20
219.291093
40
0.2842745
50
328.6634704
51
343.3325132
0
ARC
8
DEFAULT_255_1_234
10
22.5025694
20
219.3587863
40
0.5118644
50
343.0499468
51
351.9393422
0
ARC
8
DEFAULT_255_1_234
10
22.1558994
20
219.4098949
40
0.8622784
50
351.8069023
51
357.7959224
0
ARC
8
DEFAULT_255_1_234
10
21.832355
20
219.4266721
40
1.1862365
50
357.5871873
51
359.2677531
0
LINE
8
DEFAULT_255_1_234
10
23.4506021
20
220.1223211
11
23.7831161
21
219.1577093
0
LINE
8
DEFAULT_255_1_234
10
23.7831161
20
219.1577093
11
24.1172364
21
220.1223211
0
LINE
8
DEFAULT_255_1_234
10
24.1172364
20
220.1223211
11
24.2859029
21
220.1223211
0
LINE
8
DEFAULT_255_1_234
10
24.2859029
20
220.1223211
11
23.852189
21
218.9529
0
LINE
8
DEFAULT_255_1_234
10
23.852189
20
218.9529
11
23.7156495
21
218.9529
0
LINE
8
DEFAULT_255_1_234
10
23.7156495
20
218.9529
11
23.2827388
21
220.1223211
0
LINE
8
DEFAULT_255_1_234
10
23.2827388
20
220.1223211
11
23.4506021
21
220.1223211
0
ENDSEC
0
EOF