0
SECTION
2
HEADER
9
$MEASUREMENT
70
1
0
ENDSEC
0
SECTION
2
TABLES
0
TABLE
2
LTYPE
0
LTYPE
72
65
70
64
2
CONTINUOUS
3
______
73
0
40
0
0
ENDTAB
0
TABLE
2
LAYER
0
LAYER
2
DEFAULT_255_2_778
70
0
62
255
6
CONTINUOUS
0
LAYER
2
DEFAULT_255_1_388
70
0
62
255
6
CONTINUOUS
0
ENDTAB
0
ENDSEC
0
SECTION
2
ENTITIES
0
ARC
8
DEFAULT_255_2_778
10
3.5700693
20
99.6176527
40
0.7914215
50
129.1312896
51
180.1450914
0
ARC
8
DEFAULT_255_2_778
10
3.5703345
20
99.6181398
40
0.7912112
50
89.854026
51
129.1684493
0
ARC
8
DEFAULT_255_2_778
10
25.7993937
20
99.6178263
40
0.7915249
50
39.4792447
51
90.147911
0
ARC
8
DEFAULT_255_2_778
10
25.7999935
20
99.617673
40
0.7911595
50
359.8533901
51
39.5154338
0
ARC
8
DEFAULT_255_2_778
10
25.7996693
20
-1.9863996
40
0.7914836
50
309.4761667
51
0.1482649
0
ARC
8
DEFAULT_255_2_778
10
25.799398
20
-1.9868307
40
0.7913235
50
269.8517415
51
309.511178
0
ARC
8
DEFAULT_255_2_778
10
3.570342
20
-1.9867725
40
0.7913815
50
219.1282118
51
270.1454017
0
ARC
8
DEFAULT_255_2_778
10
3.5700247
20
-1.98639
40
0.7913769
50
179.8524075
51
219.1641908
0
LINE
8
DEFAULT_255_2_778
10
3.5723503
20
100.4093486
11
25.7973503
21
100.4093486
0
LINE
8
DEFAULT_255_2_778
10
26.5911503
20
99.6156486
11
26.5911503
21
-1.9843514
0
LINE
8
DEFAULT_255_2_778
10
25.7973503
20
-2.7781514
11
3.5723503
21
-2.7781514
0
LINE
8
DEFAULT_255_2_778
10
2.7786503
20
-1.9843514
11
2.7786503
21
99.6156486
0
LINE
8
DEFAULT_255_1_388
10
11.0428389
20
-0.6398
11
10.6787024
21
-0.6398
0
LINE
8
DEFAULT_255_1_388
10
10.6787024
20
-0.6398
11
10.6787024
21
0.6757898
0
LINE
8
DEFAULT_255_1_388
10
10.6787024
20
0.6757898
11
11.0500674
21
0.6757898
0
LINE
8
DEFAULT_255_1_388
10
11.6301558
20
0.0622696
11
11.6301558
21
-0.0217619
0
LINE
8
DEFAULT_255_1_388
10
11.0545852
20
0.5330267
11
10.8521868
21
0.5330267
0
LINE
8
DEFAULT_255_1_388
10
10.8521868
20
0.5330267
11
10.8521868
21
-0.4979404
0
LINE
8
DEFAULT_255_1_388
10
10.8521868
20
-0.4979404
11
11.0347068
21
-0.4979404
0
LINE
8
DEFAULT_255_1_388
10
11.4584785
20
-0.0181477
11
11.4584785
21
0.0586553
0
ARC
8
DEFAULT_255_1_388
10
11.0544469
20
0.0159436
40
0.6598608
50
75.4100343
51
90.3802731
0
ARC
8
DEFAULT_255_1_388
10
11.0802714
20
0.1235691
40
0.5492049
50
60.1455157
51
75.1889627
0
ARC
8
DEFAULT_255_1_388
10
11.0981306
20
0.1546914
40
0.5133226
50
26.525419
51
60.1451222
0
ARC
8
DEFAULT_255_1_388
10
10.9721092
20
0.0878642
40
0.6559324
50
7.4029944
51
26.832209
0
ARC
8
DEFAULT_255_1_388
10
10.7927489
20
0.0599229
40
0.8374103
50
0.1605597
51
7.7176135
0
ARC
8
DEFAULT_255_1_388
10
10.8111889
20
-0.0260679
40
0.8189782
50
348.7289744
51
0.30125
0
ARC
8
DEFAULT_255_1_388
10
10.9975353
20
-0.0630844
40
0.628991
50
333.0706936
51
348.7181455
0
ARC
8
DEFAULT_255_1_388
10
11.1062981
20
-0.1221551
40
0.5052808
50
299.2531435
51
333.4571133
0
ARC
8
DEFAULT_255_1_388
10
11.0657012
20
-0.0450371
40
0.5924066
50
278.1072193
51
299.0340218
0
ARC
8
DEFAULT_255_1_388
10
11.0369061
20
0.1245979
40
0.7644209
50
270.4446841
51
278.4508355
0
ARC
8
DEFAULT_255_1_388
10
11.0392545
20
0.02003
40
0.5179903
50
269.4969684
51
284.0204874
0
ARC
8
DEFAULT_255_1_388
10
11.0792263
20
-0.1335585
40
0.3592968
50
283.7699076
51
318.1557121
0
ARC
8
DEFAULT_255_1_388
10
11.0412808
20
-0.1051601
40
0.4065308
50
318.7417595
51
343.687252
0
ARC
8
DEFAULT_255_1_388
10
10.8383387
20
-0.0417725
40
0.6191194
50
343.3324891
51
355.8548594
0
ARC
8
DEFAULT_255_1_388
10
10.6022424
20
-0.0193281
40
0.856237
50
355.4988754
51
0.0789913
0
ARC
8
DEFAULT_255_1_388
10
10.6903224
20
0.063408
40
0.7681709
50
359.6455047
51
9.8607559
0
ARC
8
DEFAULT_255_1_388
10
10.9558947
20
0.1113664
40
0.498312
50
9.6573037
51
26.1931522
0
ARC
8
DEFAULT_255_1_388
10
11.0603022
20
0.1598587
40
0.3832303
50
26.5777895
51
40.1533752
0
ARC
8
DEFAULT_255_1_388
10
11.0890687
20
0.182302
40
0.3467742
50
40.3839958
51
80.1430923
0
ARC
8
DEFAULT_255_1_388
10
11.0522942
20
0.0192486
40
0.5137832
50
79.2153636
51
89.7445174
0
LINE
8
DEFAULT_255_1_388
10
12.6737727
20
0.138169
11
12.6737727
21
-0.0786865
0
LINE
8
DEFAULT_255_1_388
10
11.843397
20
-0.1012756
11
11.843397
21
0.1219048
0
LINE
8
DEFAULT_255_1_388
10
12.5066133
20
-0.1238647
11
12.5066133
21
0.1499153
0
LINE
8
DEFAULT_255_1_388
10
12.0105564
20
0.1625652
11
12.0105564
21
-0.1048898
0
ARC
8
DEFAULT_255_1_388
10
11.2960061
20
-0.0841882
40
1.3777776
50
353.8440855
51
0.2287917
0
ARC
8
DEFAULT_255_1_388
10
11.8179078
20
-0.1424586
40
0.852639
50
344.4934746
51
353.9763743
0
ARC
8
DEFAULT_255_1_388
10
12.1545886
20
-0.2381809
40
0.5026273
50
329.2803599
51
344.7473406
0
ARC
8
DEFAULT_255_1_388
10
12.2661381
20
-0.2993962
40
0.3754848
50
324.9361395
51
328.6153007
0
ARC
8
DEFAULT_255_1_388
10
12.3087031
20
-0.3291414
40
0.3235566
50
280.5801797
51
324.9173226
0
ARC
8
DEFAULT_255_1_388
10
12.263566
20
-0.1411764
40
0.5167077
50
269.5979457
51
281.6732777
0
ARC
8
DEFAULT_255_1_388
10
12.2554563
20
-0.1546887
40
0.5032026
50
256.6228565
51
270.5105488
0
ARC
8
DEFAULT_255_1_388
10
12.2102306
20
-0.3288655
40
0.3233092
50
215.8618351
51
257.2787793
0
ARC
8
DEFAULT_255_1_388
10
12.3251013
20
-0.2517894
40
0.4615831
50
197.9695203
51
215.2622745
0
ARC
8
DEFAULT_255_1_388
10
12.6046689
20
-0.1574359
40
0.7566307
50
187.8816486
51
198.2346584
0
ARC
8
DEFAULT_255_1_388
10
13.0499927
20
-0.0931547
40
1.2065653
50
180.8977266
51
188.0054894
0
ARC
8
DEFAULT_255_1_388
10
13.3550141
20
-0.08166
40
1.5117443
50
180.7434591
51
181.152202
0
ARC
8
DEFAULT_255_1_388
10
13.1875137
20
0.1273371
40
1.3441277
50
173.7674302
51
180.2315596
0
ARC
8
DEFAULT_255_1_388
10
12.6793005
20
0.1847779
40
0.8326847
50
164.3058537
51
173.9000553
0
ARC
8
DEFAULT_255_1_388
10
12.3517005
20
0.2791652
40
0.4917711
50
148.7922028
51
164.5682288
0
ARC
8
DEFAULT_255_1_388
10
12.2447743
20
0.3388457
40
0.3694204
50
144.5883979
51
148.1161588
0
ARC
8
DEFAULT_255_1_388
10
12.2060488
20
0.3658667
40
0.322202
50
101.6440149
51
144.5142619
0
ARC
8
DEFAULT_255_1_388
10
12.253868
20
0.1758337
40
0.5180451
50
89.528284
51
102.5820197
0
ARC
8
DEFAULT_255_1_388
10
12.2627672
20
0.1714376
40
0.5224441
50
77.0437914
51
90.508231
0
ARC
8
DEFAULT_255_1_388
10
12.3079926
20
0.3562272
40
0.3322297
50
48.2777708
51
77.4996087
0
ARC
8
DEFAULT_255_1_388
10
12.3161666
20
0.3707557
40
0.315966
50
36.3141586
51
47.6307332
0
ARC
8
DEFAULT_255_1_388
10
12.2184388
20
0.3049159
40
0.4337313
50
18.2931065
51
35.6770203
0
ARC
8
DEFAULT_255_1_388
10
11.9323229
20
0.2067107
40
0.7362203
50
8.0246996
51
18.5605636
0
ARC
8
DEFAULT_255_1_388
10
11.4639585
20
0.1375432
40
1.2096583
50
1.127539
51
8.1718423
0
ARC
8
DEFAULT_255_1_388
10
11.0990718
20
0.1232374
40
1.5747719
50
0.5432713
51
1.38669
0
ARC
8
DEFAULT_255_1_388
10
11.3048097
20
0.1539163
40
1.2018103
50
359.8092569
51
4.9408001
0
ARC
8
DEFAULT_255_1_388
10
11.7784678
20
0.19619
40
0.7262727
50
4.8364937
51
12.2906017
0
ARC
8
DEFAULT_255_1_388
10
12.0884143
20
0.2652485
40
0.4087324
50
12.0806994
51
23.8171225
0
ARC
8
DEFAULT_255_1_388
10
12.2204539
20
0.3211508
40
0.2653719
50
24.2874621
51
31.3934353
0
ARC
8
DEFAULT_255_1_388
10
12.2794975
20
0.3597822
40
0.1948607
50
30.7407708
51
82.4658033
0
ARC
8
DEFAULT_255_1_388
10
12.2592635
20
0.2604017
40
0.2961198
50
81.1057101
51
90.2187368
0
ARC
8
DEFAULT_255_1_388
10
12.2552447
20
0.2894421
40
0.2670929
50
89.380395
51
105.6763916
0
ARC
8
DEFAULT_255_1_388
10
12.2346169
20
0.364432
40
0.1893189
50
105.7980655
51
149.7387869
0
ARC
8
DEFAULT_255_1_388
10
12.3543309
20
0.2924719
40
0.3289892
50
149.4208441
51
163.628295
0
ARC
8
DEFAULT_255_1_388
10
12.5895539
20
0.2207345
40
0.5749004
50
163.3764549
51
172.141138
0
ARC
8
DEFAULT_255_1_388
10
12.960826
20
0.1675582
40
0.9499585
50
172.0258462
51
178.0705453
0
ARC
8
DEFAULT_255_1_388
10
13.3029813
20
0.1513682
40
1.2924734
50
177.8639301
51
179.5036263
0
ARC
8
DEFAULT_255_1_388
10
13.1810832
20
-0.1089849
40
1.170534
50
179.7995545
51
185.246089
0
ARC
8
DEFAULT_255_1_388
10
12.7262425
20
-0.1520596
40
0.7136613
50
185.1411911
51
193.0082205
0
ARC
8
DEFAULT_255_1_388
10
12.4288686
20
-0.2223559
40
0.4080987
50
192.7897338
51
205.2507384
0
ARC
8
DEFAULT_255_1_388
10
12.3110896
20
-0.2749462
40
0.2791522
50
205.8001921
51
211.2545876
0
ARC
8
DEFAULT_255_1_388
10
12.2522435
20
-0.3143868
40
0.2084074
50
210.3789935
51
238.4007996
0
ARC
8
DEFAULT_255_1_388
10
12.2500521
20
-0.3091214
40
0.2117943
50
239.6521916
51
265.9793852
0
ARC
8
DEFAULT_255_1_388
10
12.259637
20
-0.2334642
40
0.2879689
50
265.1324455
51
270.0603288
0
ARC
8
DEFAULT_255_1_388
10
12.2628747
20
-0.2699582
40
0.2514919
50
269.3314378
51
287.2180039
0
ARC
8
DEFAULT_255_1_388
10
12.2783829
20
-0.3265709
40
0.1928357
50
287.7957942
51
329.0808983
0
ARC
8
DEFAULT_255_1_388
10
12.1706586
20
-0.2593349
40
0.319808
50
328.6635261
51
343.3325043
0
ARC
8
DEFAULT_255_1_388
10
11.9262045
20
-0.1831805
40
0.5758408
50
343.0498092
51
351.9392499
0
ARC
8
DEFAULT_255_1_388
10
11.5361366
20
-0.1256795
40
0.9701202
50
351.8071632
51
357.7957897
0
ARC
8
DEFAULT_255_1_388
10
11.1726843
20
-0.1068276
40
1.3340376
50
357.5870923
51
359.2682493
0
LINE
8
DEFAULT_255_1_388
10
13.2529575
20
-0.0127263
11
13.2529575
21
-0.1491645
0
LINE
8
DEFAULT_255_1_388
10
13.2529575
20
-0.1491645
11
12.8120181
21
-0.1491645
0
LINE
8
DEFAULT_255_1_388
10
12.8120181
20
-0.1491645
11
12.8120181
21
-0.0127263
0
LINE
8
DEFAULT_255_1_388
10
12.8120181
20
-0.0127263
11
13.2529575
21
-0.0127263
0
LINE
8
DEFAULT_255_1_388
10
14.2233857
20
0.138169
11
14.2233857
21
-0.0786865
0
LINE
8
DEFAULT_255_1_388
10
13.39301
20
-0.1012756
11
13.39301
21
0.1219048
0
LINE
8
DEFAULT_255_1_388
10
14.0562263
20
-0.1238647
11
14.0562263
21
0.1499153
0
LINE
8
DEFAULT_255_1_388
10
13.5601694
20
0.1625652
11
13.5601694
21
-0.1048898
0
ARC
8
DEFAULT_255_1_388
10
12.8456191
20
-0.0841882
40
1.3777776
50
353.8440855
51
0.2287917
0
ARC
8
DEFAULT_255_1_388
10
13.3675209
20
-0.1424586
40
0.852639
50
344.4934746
51
353.9763743
0
ARC
8
DEFAULT_255_1_388
10
13.7042016
20
-0.2381809
40
0.5026273
50
329.2803599
51
344.7473406
0
ARC
8
DEFAULT_255_1_388
10
13.8157512
20
-0.2993962
40
0.3754848
50
324.9361395
51
328.6153007
0
ARC
8
DEFAULT_255_1_388
10
13.8583161
20
-0.3291414
40
0.3235566
50
280.5801797
51
324.9173226
0
ARC
8
DEFAULT_255_1_388
10
13.813179
20
-0.1411764
40
0.5167077
50
269.5979457
51
281.6732777
0
ARC
8
DEFAULT_255_1_388
10
13.8050694
20
-0.1546887
40
0.5032026
50
256.6228565
51
270.5105488
0
ARC
8
DEFAULT_255_1_388
10
13.7598436
20
-0.3288655
40
0.3233092
50
215.8618351
51
257.2787793
0
ARC
8
DEFAULT_255_1_388
10
13.8747143
20
-0.2517894
40
0.4615831
50
197.9695203
51
215.2622745
0
ARC
8
DEFAULT_255_1_388
10
14.1542819
20
-0.1574359
40
0.7566307
50
187.8816486
51
198.2346584
0
ARC
8
DEFAULT_255_1_388
10
14.5996057
20
-0.0931547
40
1.2065653
50
180.8977266
51
188.0054894
0
ARC
8
DEFAULT_255_1_388
10
14.9046271
20
-0.08166
40
1.5117443
50
180.7434591
51
181.152202
0
ARC
8
DEFAULT_255_1_388
10
14.7371267
20
0.1273371
40
1.3441277
50
173.7674302
51
180.2315596
0
ARC
8
DEFAULT_255_1_388
10
14.2289136
20
0.1847779
40
0.8326847
50
164.3058537
51
173.9000553
0
ARC
8
DEFAULT_255_1_388
10
13.9013136
20
0.2791652
40
0.4917711
50
148.7922028
51
164.5682288
0
ARC
8
DEFAULT_255_1_388
10
13.7943873
20
0.3388457
40
0.3694204
50
144.5883979
51
148.1161588
0
ARC
8
DEFAULT_255_1_388
10
13.7556619
20
0.3658667
40
0.322202
50
101.6440149
51
144.5142619
0
ARC
8
DEFAULT_255_1_388
10
13.8034811
20
0.1758337
40
0.5180451
50
89.528284
51
102.5820197
0
ARC
8
DEFAULT_255_1_388
10
13.8123803
20
0.1714376
40
0.5224441
50
77.0437914
51
90.508231
0
ARC
8
DEFAULT_255_1_388
10
13.8576056
20
0.3562272
40
0.3322297
50
48.2777708
51
77.4996087
0
ARC
8
DEFAULT_255_1_388
10
13.8657796
20
0.3707557
40
0.315966
50
36.3141586
51
47.6307332
0
ARC
8
DEFAULT_255_1_388
10
13.7680519
20
0.3049159
40
0.4337313
50
18.2931065
51
35.6770203
0
ARC
8
DEFAULT_255_1_388
10
13.4819359
20
0.2067107
40
0.7362203
50
8.0246996
51
18.5605636
0
ARC
8
DEFAULT_255_1_388
10
13.0135715
20
0.1375432
40
1.2096583
50
1.127539
51
8.1718423
0
ARC
8
DEFAULT_255_1_388
10
12.6486848
20
0.1232374
40
1.5747719
50
0.5432713
51
1.38669
0
ARC
8
DEFAULT_255_1_388
10
12.8544227
20
0.1539163
40
1.2018103
50
359.8092569
51
4.9408001
0
ARC
8
DEFAULT_255_1_388
10
13.3280808
20
0.19619
40
0.7262727
50
4.8364937
51
12.2906017
0
ARC
8
DEFAULT_255_1_388
10
13.6380273
20
0.2652485
40
0.4087324
50
12.0806994
51
23.8171225
0
ARC
8
DEFAULT_255_1_388
10
13.7700669
20
0.3211508
40
0.2653719
50
24.2874621
51
31.3934353
0
ARC
8
DEFAULT_255_1_388
10
13.8291105
20
0.3597822
40
0.1948607
50
30.7407708
51
82.4658033
0
ARC
8
DEFAULT_255_1_388
10
13.8088766
20
0.2604017
40
0.2961198
50
81.1057101
51
90.2187368
0
ARC
8
DEFAULT_255_1_388
10
13.8048578
20
0.2894421
40
0.2670929
50
89.380395
51
105.6763916
0
ARC
8
DEFAULT_255_1_388
10
13.78423
20
0.364432
40
0.1893189
50
105.7980655
51
149.7387869
0
ARC
8
DEFAULT_255_1_388
10
13.903944
20
0.2924719
40
0.3289892
50
149.4208441
51
163.628295
0
ARC
8
DEFAULT_255_1_388
10
14.1391669
20
0.2207345
40
0.5749004
50
163.3764549
51
172.141138
0
ARC
8
DEFAULT_255_1_388
10
14.5104391
20
0.1675582
40
0.9499585
50
172.0258462
51
178.0705453
0
ARC
8
DEFAULT_255_1_388
10
14.8525944
20
0.1513682
40
1.2924734
50
177.8639301
51
179.5036263
0
ARC
8
DEFAULT_255_1_388
10
14.7306962
20
-0.1089849
40
1.170534
50
179.7995545
51
185.246089
0
ARC
8
DEFAULT_255_1_388
10
14.2758555
20
-0.1520596
40
0.7136613
50
185.1411911
51
193.0082205
0
ARC
8
DEFAULT_255_1_388
10
13.9784816
20
-0.2223559
40
0.4080987
50
192.7897338
51
205.2507384
0
ARC
8
DEFAULT_255_1_388
10
13.8607026
20
-0.2749462
40
0.2791522
50
205.8001921
51
211.2545876
0
ARC
8
DEFAULT_255_1_388
10
13.8018565
20
-0.3143868
40
0.2084074
50
210.3789935
51
238.4007996
0
ARC
8
DEFAULT_255_1_388
10
13.7996651
20
-0.3091214
40
0.2117943
50
239.6521916
51
265.9793852
0
ARC
8
DEFAULT_255_1_388
10
13.80925
20
-0.2334642
40
0.2879689
50
265.1324455
51
270.0603288
0
ARC
8
DEFAULT_255_1_388
10
13.8124877
20
-0.2699582
40
0.2514919
50
269.3314378
51
287.2180039
0
ARC
8
DEFAULT_255_1_388
10
13.8279959
20
-0.3265709
40
0.1928357
50
287.7957942
51
329.0808983
0
ARC
8
DEFAULT_255_1_388
10
13.7202716
20
-0.2593349
40
0.319808
50
328.6635261
51
343.3325043
0
ARC
8
DEFAULT_255_1_388
10
13.4758175
20
-0.1831805
40
0.5758408
50
343.0498092
51
351.9392499
0
ARC
8
DEFAULT_255_1_388
10
13.0857497
20
-0.1256795
40
0.9701202
50
351.8071632
51
357.7957897
0
ARC
8
DEFAULT_255_1_388
10
12.7222974
20
-0.1068276
40
1.3340376
50
357.5870923
51
359.2682493
0
LINE
8
DEFAULT_255_1_388
10
14.648061
20
-0.0145334
11
14.5143335
21
0.0198021
0
LINE
8
DEFAULT_255_1_388
10
14.5143335
20
0.0198021
11
14.5811973
21
0.6757898
0
LINE
8
DEFAULT_255_1_388
10
14.5811973
20
0.6757898
11
15.2552563
21
0.6757898
0
LINE
8
DEFAULT_255_1_388
10
15.2552563
20
0.6757898
11
15.2552563
21
0.5212803
0
LINE
8
DEFAULT_255_1_388
10
15.2552563
20
0.5212803
11
14.7230569
21
0.5212803
0
LINE
8
DEFAULT_255_1_388
10
14.7230569
20
0.5212803
11
14.6833
21
0.1625652
0
LINE
8
DEFAULT_255_1_388
10
14.4673481
20
-0.2937348
11
14.6254719
21
-0.2937348
0
LINE
8
DEFAULT_255_1_388
10
14.6923357
20
0.0216092
11
14.648061
21
-0.0145334
0
ARC
8
DEFAULT_255_1_388
10
14.8919614
20
-0.1951759
40
0.4141476
50
93.7181681
51
120.253934
0
ARC
8
DEFAULT_255_1_388
10
14.9025666
20
-0.2860716
40
0.5055616
50
89.9660471
51
94.2495185
0
ARC
8
DEFAULT_255_1_388
10
14.9071488
20
-0.2197846
40
0.4392953
50
73.8045384
51
90.5585736
0
ARC
8
DEFAULT_255_1_388
10
14.9335746
20
-0.123248
40
0.3392225
50
41.3071072
51
73.543002
0
ARC
8
DEFAULT_255_1_388
10
14.8867566
20
-0.1635539
40
0.4009977
50
13.5075837
51
41.2174839
0
ARC
8
DEFAULT_255_1_388
10
14.7020663
20
-0.2119093
40
0.5918864
50
1.1330171
51
13.8830737
0
ARC
8
DEFAULT_255_1_388
10
14.5424309
20
-0.2204478
40
0.7516787
50
359.9925091
51
1.5431298
0
ARC
8
DEFAULT_255_1_388
10
14.6868924
20
-0.2250973
40
0.6072343
50
347.8572712
51
0.4294349
0
ARC
8
DEFAULT_255_1_388
10
14.8838059
20
-0.2697102
40
0.4053482
50
323.6727442
51
348.1674594
0
ARC
8
DEFAULT_255_1_388
10
14.9169023
20
-0.2898825
40
0.3667495
50
316.8171818
51
323.1486802
0
ARC
8
DEFAULT_255_1_388
10
14.9238147
20
-0.2940388
40
0.358869
50
281.839603
51
316.5458142
0
ARC
8
DEFAULT_255_1_388
10
14.8815434
20
-0.1190637
40
0.5388223
50
269.5770964
51
282.4214641
0
ARC
8
DEFAULT_255_1_388
10
14.8735355
20
-0.143107
40
0.5147801
50
256.2425863
51
270.4486481
0
ARC
8
DEFAULT_255_1_388
10
14.8398883
20
-0.2780876
40
0.3756708
50
228.9024379
51
256.33135
0
ARC
8
DEFAULT_255_1_388
10
14.8315863
20
-0.2911946
40
0.360344
50
193.7536029
51
228.5272638
0
ARC
8
DEFAULT_255_1_388
10
14.9708428
20
-0.2503537
40
0.5053599
50
184.9244437
51
194.4976052
0
ARC
8
DEFAULT_255_1_388
10
14.9925069
20
-0.2463278
40
0.3700839
50
187.3596909
51
198.6733728
0
ARC
8
DEFAULT_255_1_388
10
14.8744313
20
-0.2872627
40
0.2451195
50
198.4453795
51
217.7945479
0
ARC
8
DEFAULT_255_1_388
10
14.8411485
20
-0.3108437
40
0.2043754
50
218.2887146
51
228.5613203
0
ARC
8
DEFAULT_255_1_388
10
14.8521492
20
-0.2960098
40
0.2227819
50
228.9652423
51
258.1237049
0
ARC
8
DEFAULT_255_1_388
10
14.875293
20
-0.1969036
40
0.3245374
50
257.7260585
51
270.4013717
0
ARC
8
DEFAULT_255_1_388
10
14.8803428
20
-0.2469745
40
0.2744726
50
269.4204315
51
286.420998
0
ARC
8
DEFAULT_255_1_388
10
14.8970483
20
-0.3076295
40
0.2115721
50
286.7250065
51
320.6004665
0
ARC
8
DEFAULT_255_1_388
10
14.8539399
20
-0.2726473
40
0.2670878
50
320.6712228
51
344.5440474
0
ARC
8
DEFAULT_255_1_388
10
14.7238113
20
-0.2344606
40
0.4026927
50
344.241448
51
356.735803
0
ARC
8
DEFAULT_255_1_388
10
14.583442
20
-0.2228344
40
0.5435085
50
356.3547471
51
0.0507222
0
ARC
8
DEFAULT_255_1_388
10
14.7336685
20
-0.2193188
40
0.3932934
50
359.5579289
51
12.9534322
0
ARC
8
DEFAULT_255_1_388
10
14.8523525
20
-0.1905414
40
0.2711827
50
12.6489751
51
41.608121
0
ARC
8
DEFAULT_255_1_388
10
14.8782685
20
-0.1685054
40
0.2371737
50
41.7851122
51
85.9892156
0
ARC
8
DEFAULT_255_1_388
10
14.8643995
20
-0.2600262
40
0.3295244
50
84.6965848
51
90.0672125
0
ARC
8
DEFAULT_255_1_388
10
14.8617562
20
-0.3351882
40
0.4046926
50
89.6804991
51
99.161352
0
ARC
8
DEFAULT_255_1_388
10
14.8386572
20
-0.1971152
40
0.2647044
50
98.9836248
51
113.8905702
0
ARC
8
DEFAULT_255_1_388
10
14.8128247
20
-0.1361882
40
0.1985386
50
114.195234
51
127.3641866
0
LINE
8
DEFAULT_255_1_388
10
16.372062
20
-0.6398
11
16.2464666
21
-0.2964455
0
LINE
8
DEFAULT_255_1_388
10
16.2464666
20
-0.2964455
11
15.6952922
21
-0.2964455
0
LINE
8
DEFAULT_255_1_388
10
15.6952922
20
-0.2964455
11
15.5715039
21
-0.6398
0
LINE
8
DEFAULT_255_1_388
10
15.5715039
20
-0.6398
11
15.3925981
21
-0.6398
0
LINE
8
DEFAULT_255_1_388
10
15.3925981
20
-0.6398
11
15.89498
21
0.6757898
0
LINE
8
DEFAULT_255_1_388
10
15.89498
20
0.6757898
11
16.0467788
21
0.6757898
0
LINE
8
DEFAULT_255_1_388
10
16.0467788
20
0.6757898
11
16.5500642
21
-0.6398
0
LINE
8
DEFAULT_255_1_388
10
16.5500642
20
-0.6398
11
16.372062
21
-0.6398
0
LINE
8
DEFAULT_255_1_388
10
15.9708794
20
0.4616451
11
15.747699
21
-0.1536823
0
LINE
8
DEFAULT_255_1_388
10
15.747699
20
-0.1536823
11
16.1949634
21
-0.1536823
0
LINE
8
DEFAULT_255_1_388
10
16.1949634
20
-0.1536823
11
15.9708794
21
0.4616451
0
LINE
8
DEFAULT_255_1_388
10
17.0912993
20
-0.6398
11
16.7271628
21
-0.6398
0
LINE
8
DEFAULT_255_1_388
10
16.7271628
20
-0.6398
11
16.7271628
21
0.6757898
0
LINE
8
DEFAULT_255_1_388
10
16.7271628
20
0.6757898
11
17.0985278
21
0.6757898
0
LINE
8
DEFAULT_255_1_388
10
17.6786162
20
0.0622696
11
17.6786162
21
-0.0217619
0
LINE
8
DEFAULT_255_1_388
10
17.1030457
20
0.5330267
11
16.9006472
21
0.5330267
0
LINE
8
DEFAULT_255_1_388
10
16.9006472
20
0.5330267
11
16.9006472
21
-0.4979404
0
LINE
8
DEFAULT_255_1_388
10
16.9006472
20
-0.4979404
11
17.0831672
21
-0.4979404
0
LINE
8
DEFAULT_255_1_388
10
17.506939
20
-0.0181477
11
17.506939
21
0.0586553
0
ARC
8
DEFAULT_255_1_388
10
17.1029073
20
0.0159436
40
0.6598608
50
75.4100343
51
90.3802731
0
ARC
8
DEFAULT_255_1_388
10
17.1287319
20
0.1235691
40
0.5492049
50
60.1455157
51
75.1889627
0
ARC
8
DEFAULT_255_1_388
10
17.146591
20
0.1546914
40
0.5133226
50
26.525419
51
60.1451222
0
ARC
8
DEFAULT_255_1_388
10
17.0205696
20
0.0878642
40
0.6559324
50
7.4029944
51
26.832209
0
ARC
8
DEFAULT_255_1_388
10
16.8412094
20
0.0599229
40
0.8374103
50
0.1605597
51
7.7176135
0
ARC
8
DEFAULT_255_1_388
10
16.8596494
20
-0.0260679
40
0.8189782
50
348.7289744
51
0.30125
0
ARC
8
DEFAULT_255_1_388
10
17.0459958
20
-0.0630844
40
0.628991
50
333.0706936
51
348.7181455
0
ARC
8
DEFAULT_255_1_388
10
17.1547586
20
-0.1221551
40
0.5052808
50
299.2531435
51
333.4571133
0
ARC
8
DEFAULT_255_1_388
10
17.1141617
20
-0.0450371
40
0.5924066
50
278.1072193
51
299.0340218
0
ARC
8
DEFAULT_255_1_388
10
17.0853666
20
0.1245979
40
0.7644209
50
270.4446841
51
278.4508355
0
ARC
8
DEFAULT_255_1_388
10
17.0877149
20
0.02003
40
0.5179903
50
269.4969684
51
284.0204874
0
ARC
8
DEFAULT_255_1_388
10
17.1276868
20
-0.1335585
40
0.3592968
50
283.7699076
51
318.1557121
0
ARC
8
DEFAULT_255_1_388
10
17.0897413
20
-0.1051601
40
0.4065308
50
318.7417595
51
343.687252
0
ARC
8
DEFAULT_255_1_388
10
16.8867992
20
-0.0417725
40
0.6191194
50
343.3324891
51
355.8548594
0
ARC
8
DEFAULT_255_1_388
10
16.6507029
20
-0.0193281
40
0.856237
50
355.4988754
51
0.0789913
0
ARC
8
DEFAULT_255_1_388
10
16.7387828
20
0.063408
40
0.7681709
50
359.6455047
51
9.8607559
0
ARC
8
DEFAULT_255_1_388
10
17.0043552
20
0.1113664
40
0.498312
50
9.6573037
51
26.1931522
0
ARC
8
DEFAULT_255_1_388
10
17.1087626
20
0.1598587
40
0.3832303
50
26.5777895
51
40.1533752
0
ARC
8
DEFAULT_255_1_388
10
17.1375291
20
0.182302
40
0.3467742
50
40.3839958
51
80.1430923
0
ARC
8
DEFAULT_255_1_388
10
17.1007547
20
0.0192486
40
0.5137832
50
79.2153636
51
89.7445174
0
LINE
8
DEFAULT_255_1_388
10
6.9852389
20
93.9488
11
6.6211024
21
93.9488
0
LINE
8
DEFAULT_255_1_388
10
6.6211024
20
93.9488
11
6.6211024
21
95.2643898
0
LINE
8
DEFAULT_255_1_388
10
6.6211024
20
95.2643898
11
6.9924674
21
95.2643898
0
LINE
8
DEFAULT_255_1_388
10
7.5725558
20
94.6508696
11
7.5725558
21
94.5668381
0
LINE
8
DEFAULT_255_1_388
10
6.9969852
20
95.1216267
11
6.7945868
21
95.1216267
0
LINE
8
DEFAULT_255_1_388
10
6.7945868
20
95.1216267
11
6.7945868
21
94.0906596
0
LINE
8
DEFAULT_255_1_388
10
6.7945868
20
94.0906596
11
6.9771068
21
94.0906596
0
LINE
8
DEFAULT_255_1_388
10
7.4008785
20
94.5704523
11
7.4008785
21
94.6472553
0
ARC
8
DEFAULT_255_1_388
10
6.9968469
20
94.6045436
40
0.6598608
50
75.4100343
51
90.3802731
0
ARC
8
DEFAULT_255_1_388
10
7.0226714
20
94.7121691
40
0.5492049
50
60.1455157
51
75.1889627
0
ARC
8
DEFAULT_255_1_388
10
7.0405306
20
94.7432914
40
0.5133226
50
26.525419
51
60.1451222
0
ARC
8
DEFAULT_255_1_388
10
6.9145092
20
94.6764642
40
0.6559324
50
7.4029944
51
26.832209
0
ARC
8
DEFAULT_255_1_388
10
6.7351489
20
94.6485229
40
0.8374103
50
0.1605597
51
7.7176135
0
ARC
8
DEFAULT_255_1_388
10
6.7535889
20
94.5625321
40
0.8189782
50
348.7289744
51
0.30125
0
ARC
8
DEFAULT_255_1_388
10
6.9399353
20
94.5255156
40
0.628991
50
333.0706936
51
348.7181455
0
ARC
8
DEFAULT_255_1_388
10
7.0486981
20
94.4664449
40
0.5052808
50
299.2531435
51
333.4571133
0
ARC
8
DEFAULT_255_1_388
10
7.0081012
20
94.5435629
40
0.5924066
50
278.1072193
51
299.0340218
0
ARC
8
DEFAULT_255_1_388
10
6.9793061
20
94.7131979
40
0.7644209
50
270.4446841
51
278.4508355
0
ARC
8
DEFAULT_255_1_388
10
6.9816545
20
94.60863
40
0.5179903
50
269.4969684
51
284.0204874
0
ARC
8
DEFAULT_255_1_388
10
7.0216263
20
94.4550415
40
0.3592968
50
283.7699076
51
318.1557121
0
ARC
8
DEFAULT_255_1_388
10
6.9836808
20
94.4834399
40
0.4065308
50
318.7417595
51
343.687252
0
ARC
8
DEFAULT_255_1_388
10
6.7807387
20
94.5468275
40
0.6191194
50
343.3324891
51
355.8548594
0
ARC
8
DEFAULT_255_1_388
10
6.5446424
20
94.5692719
40
0.856237
50
355.4988754
51
0.0789913
0
ARC
8
DEFAULT_255_1_388
10
6.6327224
20
94.652008
40
0.7681709
50
359.6455047
51
9.8607559
0
ARC
8
DEFAULT_255_1_388
10
6.8982947
20
94.6999664
40
0.498312
50
9.6573037
51
26.1931522
0
ARC
8
DEFAULT_255_1_388
10
7.0027022
20
94.7484587
40
0.3832303
50
26.5777895
51
40.1533752
0
ARC
8
DEFAULT_255_1_388
10
7.0314687
20
94.770902
40
0.3467742
50
40.3839958
51
80.1430923
0
ARC
8
DEFAULT_255_1_388
10
6.9946942
20
94.6078486
40
0.5137832
50
79.2153636
51
89.7445174
0
LINE
8
DEFAULT_255_1_388
10
7.9900025
20
94.9264567
11
7.9900025
21
93.9488
0
LINE
8
DEFAULT_255_1_388
10
7.9900025
20
93.9488
11
7.8228431
21
93.9488
0
LINE
8
DEFAULT_255_1_388
10
7.8228431
20
93.9488
11
7.8228431
21
94.9264567
0
LINE
8
DEFAULT_255_1_388
10
7.8228431
20
94.9264567
11
7.9900025
21
94.9264567
0
ARC
8
DEFAULT_255_1_388
10
7.9193793
20
95.1868428
40
0.1100948
50
161.4148232
51
180.5532607
0
ARC
8
DEFAULT_255_1_388
10
7.9054103
20
95.1906875
40
0.0956324
50
138.1830164
51
160.9307633
0
ARC
8
DEFAULT_255_1_388
10
7.893029
20
95.2014313
40
0.0792417
50
104.6371663
51
138.0036136
0
ARC
8
DEFAULT_255_1_388
10
7.9050829
20
95.1601963
40
0.1221906
50
92.0601206
51
105.2198859
0
ARC
8
DEFAULT_255_1_388
10
7.9077193
20
95.1213583
40
0.161103
50
89.9790681
51
92.5006086
0
ARC
8
DEFAULT_255_1_388
10
7.9088369
20
95.1469998
40
0.1354654
50
78.0234649
51
90.4478111
0
ARC
8
DEFAULT_255_1_388
10
7.9191954
20
95.1935203
40
0.0878096
50
55.0521508
51
78.336297
0
ARC
8
DEFAULT_255_1_388
10
7.9248488
20
95.2030168
40
0.0767913
50
42.0506198
51
54.4508489
0
ARC
8
DEFAULT_255_1_388
10
7.9096521
20
95.1890821
40
0.0974091
50
1.7493657
51
42.1498724
0
ARC
8
DEFAULT_255_1_388
10
7.8810427
20
95.1858166
40
0.1261276
50
359.9832635
51
2.8353994
0
ARC
8
DEFAULT_255_1_388
10
7.8996837
20
95.1847412
40
0.1074916
50
342.1062453
51
0.5535864
0
ARC
8
DEFAULT_255_1_388
10
7.9157261
20
95.1803197
40
0.0908695
50
316.7110111
51
341.6513114
0
ARC
8
DEFAULT_255_1_388
10
7.9232693
20
95.1735607
40
0.0807447
50
285.4398289
51
316.5320129
0
ARC
8
DEFAULT_255_1_388
10
7.9108863
20
95.2147023
40
0.1237022
50
272.3543902
51
285.8951677
0
ARC
8
DEFAULT_255_1_388
10
7.9078573
20
95.2562742
40
0.1653687
50
269.9725761
51
272.8112722
0
ARC
8
DEFAULT_255_1_388
10
7.9067625
20
95.2311727
40
0.1402709
50
258.8433431
51
270.4148607
0
ARC
8
DEFAULT_255_1_388
10
7.8966405
20
95.1821739
40
0.0902407
50
238.54281
51
259.1289544
0
ARC
8
DEFAULT_255_1_388
10
7.8889727
20
95.1682694
40
0.0743817
50
222.5056676
51
237.9918132
0
ARC
8
DEFAULT_255_1_388
10
7.903332
20
95.1813295
40
0.0937918
50
184.1070774
51
222.4604165
0
ARC
8
DEFAULT_255_1_388
10
7.9335734
20
95.1856538
40
0.1242838
50
179.9419581
51
185.0970785
0
LINE
8
DEFAULT_255_1_388
10
8.7300218
20
94.9318781
11
8.7300218
21
94.776465
0
LINE
8
DEFAULT_255_1_388
10
8.424617
20
94.6427375
11
8.424617
21
93.9488
0
LINE
8
DEFAULT_255_1_388
10
8.424617
20
93.9488
11
8.2574576
21
93.9488
0
LINE
8
DEFAULT_255_1_388
10
8.2574576
20
93.9488
11
8.2574576
21
94.9264567
0
LINE
8
DEFAULT_255_1_388
10
8.2574576
20
94.9264567
11
8.4200992
21
94.9264567
0
LINE
8
DEFAULT_255_1_388
10
8.4200992
20
94.9264567
11
8.4228099
21
94.8135112
0
ARC
8
DEFAULT_255_1_388
10
8.6550378
20
94.3198068
40
0.4627735
50
80.6751522
51
86.893806
0
ARC
8
DEFAULT_255_1_388
10
8.6482208
20
94.2106103
40
0.5721798
50
86.8046851
51
90.0423898
0
ARC
8
DEFAULT_255_1_388
10
8.6440628
20
94.4873197
40
0.2954939
50
89.2758283
51
106.6212906
0
ARC
8
DEFAULT_255_1_388
10
8.6210652
20
94.5709009
40
0.2088351
50
107.1347109
51
157.6456887
0
ARC
8
DEFAULT_255_1_388
10
8.6978714
20
94.5281908
40
0.296292
50
155.6557383
51
157.256838
0
ARC
8
DEFAULT_255_1_388
10
8.6758329
20
94.6592472
40
0.296341
50
127.8167201
51
148.6300223
0
ARC
8
DEFAULT_255_1_388
10
8.6473076
20
94.6885066
40
0.2557782
50
91.3329934
51
126.7875218
0
ARC
8
DEFAULT_255_1_388
10
8.6558463
20
94.6081718
40
0.3363561
50
89.9858247
51
92.4688453
0
ARC
8
DEFAULT_255_1_388
10
8.6567956
20
94.6390114
40
0.3055179
50
85.3587643
51
90.1624243
0
ARC
8
DEFAULT_255_1_388
10
8.6663021
20
94.7519458
40
0.1921848
50
78.4019195
51
85.4592653
0
ARC
8
DEFAULT_255_1_388
10
8.6826082
20
94.8297142
40
0.1127267
50
67.7849217
51
78.573798
0
ARC
8
DEFAULT_255_1_388
10
8.6947717
20
94.8612374
40
0.0789473
50
63.4805074
51
67.3074739
0
LINE
8
DEFAULT_255_1_388
10
8.8239925
20
94.4105214
11
8.8239925
21
94.4412426
0
LINE
8
DEFAULT_255_1_388
10
9.6534647
20
94.4593139
11
9.6534647
21
94.3897395
0
LINE
8
DEFAULT_255_1_388
10
9.6534647
20
94.3897395
11
8.991152
21
94.3897395
0
LINE
8
DEFAULT_255_1_388
10
9.538712
20
94.1990874
11
9.6408148
21
94.1195737
0
LINE
8
DEFAULT_255_1_388
10
8.9965733
20
94.5270813
11
9.4863053
21
94.5270813
0
LINE
8
DEFAULT_255_1_388
10
9.4863053
20
94.5270813
11
9.4863053
21
94.5397312
0
ARC
8
DEFAULT_255_1_388
10
9.2671686
20
94.423021
40
0.4923176
50
252.326534
51
270.5809615
0
ARC
8
DEFAULT_255_1_388
10
9.2441151
20
94.339694
40
0.4059384
50
223.3000488
51
251.8562489
0
ARC
8
DEFAULT_255_1_388
10
9.2678931
20
94.3627898
40
0.4390832
50
190.9374369
51
223.3654369
0
ARC
8
DEFAULT_255_1_388
10
9.4619609
20
94.4066598
40
0.63798
50
179.6531919
51
191.4988561
0
ARC
8
DEFAULT_255_1_388
10
9.4756636
20
94.4448571
40
0.6516811
50
167.4005523
51
180.3177836
0
ARC
8
DEFAULT_255_1_388
10
9.3573307
20
94.4698853
40
0.5307402
50
154.1835149
51
167.2508278
0
ARC
8
DEFAULT_255_1_388
10
9.2862898
20
94.5072925
40
0.4505076
50
134.3150225
51
154.5315008
0
ARC
8
DEFAULT_255_1_388
10
9.2618233
20
94.528755
40
0.4180662
50
122.8617482
51
133.9707159
0
ARC
8
DEFAULT_255_1_388
10
9.250184
20
94.5537882
40
0.3907416
50
89.8248474
51
123.4199325
0
ARC
8
DEFAULT_255_1_388
10
9.2558138
20
94.4810352
40
0.4635141
50
74.7874349
51
90.5482648
0
ARC
8
DEFAULT_255_1_388
10
9.2888602
20
94.6030987
40
0.3370565
50
39.8178888
51
74.7634383
0
ARC
8
DEFAULT_255_1_388
10
9.2311844
20
94.5581356
40
0.4101553
50
16.8990848
51
39.4830125
0
ARC
8
DEFAULT_255_1_388
10
9.0180459
20
94.4898711
40
0.6339427
50
4.9634768
51
17.2027767
0
ARC
8
DEFAULT_255_1_388
10
8.7459863
20
94.46116
40
0.9074803
50
359.8834402
51
5.2832409
0
ARC
8
DEFAULT_255_1_388
10
9.4252221
20
94.3971981
40
0.4341343
50
180.9844233
51
194.9402766
0
ARC
8
DEFAULT_255_1_388
10
9.3071387
20
94.364917
40
0.3117211
50
194.8030557
51
222.0412897
0
ARC
8
DEFAULT_255_1_388
10
9.2729259
20
94.3309715
40
0.2635903
50
221.541578
51
268.8616004
0
ARC
8
DEFAULT_255_1_388
10
9.281138
20
94.407028
40
0.3398611
50
267.7321071
51
270.009808
0
ARC
8
DEFAULT_255_1_388
10
9.2831443
20
94.4297178
40
0.3625561
50
269.6921218
51
280.4122297
0
ARC
8
DEFAULT_255_1_388
10
9.3029855
20
94.3263767
40
0.2573323
50
280.2257165
51
298.633539
0
ARC
8
DEFAULT_255_1_388
10
9.3155268
20
94.2999578
40
0.2281403
50
299.0485543
51
300.4624141
0
ARC
8
DEFAULT_255_1_388
10
9.2396249
20
94.4264796
40
0.3756797
50
300.6578578
51
322.037749
0
ARC
8
DEFAULT_255_1_388
10
9.202577
20
94.4588266
40
0.4247956
50
321.671786
51
322.3059078
0
ARC
8
DEFAULT_255_1_388
10
9.3049333
20
94.3294267
40
0.3960488
50
276.9729088
51
328.0035579
0
ARC
8
DEFAULT_255_1_388
10
9.2737804
20
94.4959609
40
0.5652345
50
269.8358003
51
278.0581296
0
ARC
8
DEFAULT_255_1_388
10
9.2482103
20
94.579782
40
0.2274263
50
89.2017936
51
117.2852353
0
ARC
8
DEFAULT_255_1_388
10
9.2541853
20
94.5750637
40
0.2343798
50
118.0546404
51
137.4544511
0
ARC
8
DEFAULT_255_1_388
10
9.2963497
20
94.5367556
40
0.2913471
50
137.5109688
51
158.8516701
0
ARC
8
DEFAULT_255_1_388
10
9.4243597
20
94.4850902
40
0.4293804
50
158.5845496
51
170.1719753
0
ARC
8
DEFAULT_255_1_388
10
9.5559933
20
94.4589519
40
0.5635533
50
169.8378964
51
173.0563877
0
ARC
8
DEFAULT_255_1_388
10
9.0275217
20
94.5164187
40
0.4593755
50
2.9089079
51
12.88469
0
ARC
8
DEFAULT_255_1_388
10
9.1817136
20
94.5527082
40
0.3009753
50
12.6957404
51
28.6405841
0
ARC
8
DEFAULT_255_1_388
10
9.2426633
20
94.5842577
40
0.232366
50
29.016559
51
41.1492981
0
ARC
8
DEFAULT_255_1_388
10
9.2654612
20
94.604108
40
0.2021373
50
41.1646967
51
85.001362
0
ARC
8
DEFAULT_255_1_388
10
9.2518616
20
94.5214775
40
0.2857091
50
83.728216
51
90.0968824
0
LINE
8
DEFAULT_255_1_388
10
10.4693834
20
94.2569155
11
10.6275072
21
94.2569155
0
LINE
8
DEFAULT_255_1_388
10
9.8034564
20
94.4285927
11
9.8034564
21
94.4566032
0
LINE
8
DEFAULT_255_1_388
10
10.6275072
20
94.5903308
11
10.4693834
21
94.5903308
0
LINE
8
DEFAULT_255_1_388
10
9.9706158
20
94.4502783
11
9.9706158
21
94.4186535
0
ARC
8
DEFAULT_255_1_388
10
10.2430391
20
94.3079109
40
0.2407783
50
269.0327343
51
309.2224588
0
ARC
8
DEFAULT_255_1_388
10
10.2666395
20
94.283719
40
0.207135
50
308.3965377
51
329.6987678
0
ARC
8
DEFAULT_255_1_388
10
10.2821453
20
94.2719899
40
0.1878439
50
330.4013397
51
355.3970937
0
ARC
8
DEFAULT_255_1_388
10
10.3335437
20
94.2739312
40
0.2944555
50
329.2357424
51
356.6872018
0
ARC
8
DEFAULT_255_1_388
10
10.2717332
20
94.3066153
40
0.3643032
50
324.8702872
51
329.7911998
0
ARC
8
DEFAULT_255_1_388
10
10.2628614
20
94.3142113
40
0.3759315
50
298.8769973
51
324.7015261
0
ARC
8
DEFAULT_255_1_388
10
10.2255158
20
94.373729
40
0.4461015
50
296.902888
51
299.3854973
0
ARC
8
DEFAULT_255_1_388
10
10.2401155
20
94.3413595
40
0.4106323
50
269.8407861
51
297.1298875
0
ARC
8
DEFAULT_255_1_388
10
10.2341151
20
94.4131354
40
0.4824312
50
253.3156606
51
270.5771301
0
ARC
8
DEFAULT_255_1_388
10
10.2063329
20
94.3125943
40
0.3781531
50
221.1002518
51
252.9743523
0
ARC
8
DEFAULT_255_1_388
10
10.2580799
20
94.3570131
40
0.4463481
50
194.5394284
51
221.0302764
0
ARC
8
DEFAULT_255_1_388
10
10.466062
20
94.4149897
40
0.6622359
50
182.0498004
51
194.8774376
0
ARC
8
DEFAULT_255_1_388
10
10.665371
20
94.4282778
40
0.8619146
50
179.9790673
51
182.4586753
0
ARC
8
DEFAULT_255_1_388
10
10.4697024
20
94.4599412
40
0.6662543
50
168.615001
51
180.2870547
0
ARC
8
DEFAULT_255_1_388
10
10.3344932
20
94.4864636
40
0.5284705
50
154.9162417
51
168.5402053
0
ARC
8
DEFAULT_255_1_388
10
10.2308208
20
94.5376942
40
0.4128641
50
133.5745308
51
155.2559538
0
ARC
8
DEFAULT_255_1_388
10
10.2125051
20
94.5533116
40
0.3889328
50
122.0165845
51
133.2056002
0
ARC
8
DEFAULT_255_1_388
10
10.2165375
20
94.5433977
40
0.3994808
50
97.8732516
51
121.753124
0
ARC
8
DEFAULT_255_1_388
10
10.2366833
20
94.424459
40
0.5200708
50
89.8471322
51
98.2768545
0
ARC
8
DEFAULT_255_1_388
10
10.2421681
20
94.4930809
40
0.4514657
50
73.3760755
51
90.5199878
0
ARC
8
DEFAULT_255_1_388
10
10.2642597
20
94.574355
40
0.3672743
50
47.7085939
51
73.0510707
0
ARC
8
DEFAULT_255_1_388
10
10.27887
20
94.5870231
40
0.3480795
50
3.7442743
51
48.0844373
0
ARC
8
DEFAULT_255_1_388
10
10.1676694
20
94.5692946
40
0.4603187
50
2.6192831
51
5.0424684
0
ARC
8
DEFAULT_255_1_388
10
10.2192165
20
94.5737986
40
0.2507126
50
3.78087
51
23.9354314
0
ARC
8
DEFAULT_255_1_388
10
10.2449424
20
94.5828644
40
0.2235311
50
24.4867863
51
46.9439952
0
ARC
8
DEFAULT_255_1_388
10
10.245037
20
94.5854874
40
0.2215567
50
46.4987715
51
89.3298168
0
ARC
8
DEFAULT_255_1_388
10
10.2381029
20
94.5188742
40
0.2883121
50
88.1066411
51
90.0063536
0
ARC
8
DEFAULT_255_1_388
10
10.2350005
20
94.5246548
40
0.2825481
50
89.3773571
51
107.2070287
0
ARC
8
DEFAULT_255_1_388
10
10.2189273
20
94.5828667
40
0.2221946
50
107.688418
51
143.3582986
0
ARC
8
DEFAULT_255_1_388
10
10.2827567
20
94.5349064
40
0.3020337
50
143.2845866
51
162.9352432
0
ARC
8
DEFAULT_255_1_388
10
10.4521583
20
94.4805401
40
0.4799362
50
162.6652705
51
174.0802646
0
ARC
8
DEFAULT_255_1_388
10
10.6932064
20
94.4525287
40
0.7225942
50
173.8422673
51
180.1784414
0
ARC
8
DEFAULT_255_1_388
10
10.6315735
20
94.4152276
40
0.6609665
50
179.7030218
51
188.2277356
0
ARC
8
DEFAULT_255_1_388
10
10.3951342
20
94.3798143
40
0.4218948
50
188.0630838
51
201.115837
0
ARC
8
DEFAULT_255_1_388
10
10.2716227
20
94.332673
40
0.2896941
50
201.2186162
51
216.9761863
0
ARC
8
DEFAULT_255_1_388
10
10.2208384
20
94.2946225
40
0.2262366
50
217.0136373
51
265.2055518
0
ARC
8
DEFAULT_255_1_388
10
10.2383721
20
94.3983503
40
0.3311837
50
263.6824874
51
270.1042034
0
LINE
8
DEFAULT_255_1_388
10
10.8750838
20
95.1631906
11
11.0422433
21
95.1631906
0
LINE
8
DEFAULT_255_1_388
10
11.0422433
20
95.1631906
11
11.0422433
21
94.9264567
0
LINE
8
DEFAULT_255_1_388
10
11.0422433
20
94.9264567
11
11.2247633
21
94.9264567
0
LINE
8
DEFAULT_255_1_388
10
11.2247633
20
94.9264567
11
11.2247633
21
94.797247
0
LINE
8
DEFAULT_255_1_388
10
11.2247633
20
94.797247
11
11.0422433
21
94.797247
0
LINE
8
DEFAULT_255_1_388
10
11.0422433
20
94.797247
11
11.0422433
21
94.1909553
0
LINE
8
DEFAULT_255_1_388
10
11.2292811
20
94.0843347
11
11.2292811
21
93.9488
0
LINE
8
DEFAULT_255_1_388
10
10.8750838
20
94.1909553
11
10.8750838
21
94.797247
0
LINE
8
DEFAULT_255_1_388
10
10.8750838
20
94.797247
11
10.6970816
21
94.797247
0
LINE
8
DEFAULT_255_1_388
10
10.6970816
20
94.797247
11
10.6970816
21
94.9264567
0
LINE
8
DEFAULT_255_1_388
10
10.6970816
20
94.9264567
11
10.8750838
21
94.9264567
0
LINE
8
DEFAULT_255_1_388
10
10.8750838
20
94.9264567
11
10.8750838
21
95.1631906
0
ARC
8
DEFAULT_255_1_388
10
11.268094
20
94.1897842
40
0.2258538
50
179.7029045
51
187.9180047
0
ARC
8
DEFAULT_255_1_388
10
11.1841514
20
94.1777019
40
0.1410477
50
187.7540838
51
200.2454047
0
ARC
8
DEFAULT_255_1_388
10
11.136842
20
94.1600591
40
0.0905561
50
200.1304287
51
219.1733455
0
ARC
8
DEFAULT_255_1_388
10
11.1215586
20
94.1496695
40
0.0721626
50
220.4434631
51
249.6169985
0
ARC
8
DEFAULT_255_1_388
10
11.1389813
20
94.1934919
40
0.1193141
50
249.1038184
51
262.7745376
0
ARC
8
DEFAULT_255_1_388
10
11.1488995
20
94.2642481
40
0.1907583
50
262.4921618
51
270.2607019
0
ARC
8
DEFAULT_255_1_388
10
11.1486077
20
94.2884817
40
0.2149929
50
270.309081
51
275.6615459
0
ARC
8
DEFAULT_255_1_388
10
11.1325484
20
94.4573342
40
0.3846066
50
275.5607354
51
279.087751
0
ARC
8
DEFAULT_255_1_388
10
11.0953416
20
94.6934428
40
0.6236283
50
279.0369545
51
281.5000133
0
ARC
8
DEFAULT_255_1_388
10
11.0562684
20
94.8911499
40
0.825157
50
281.4217093
51
282.1031556
0
ARC
8
DEFAULT_255_1_388
10
11.093866
20
94.4368229
40
0.5064619
50
275.2597791
51
285.5081125
0
ARC
8
DEFAULT_255_1_388
10
11.1007674
20
94.3742452
40
0.4435166
50
270.0268175
51
275.1130565
0
ARC
8
DEFAULT_255_1_388
10
11.0985125
20
94.2249367
40
0.2942182
50
257.3572424
51
270.4795428
0
ARC
8
DEFAULT_255_1_388
10
11.0745395
20
94.1238952
40
0.1903838
50
230.8036715
51
257.7414447
0
ARC
8
DEFAULT_255_1_388
10
11.0668891
20
94.1115723
40
0.1760087
50
219.9745381
51
230.1985446
0
ARC
8
DEFAULT_255_1_388
10
11.1042179
20
94.1401116
40
0.2229598
50
196.5081334
51
219.4319996
0
ARC
8
DEFAULT_255_1_388
10
11.218479
20
94.1759617
40
0.3427033
50
184.6408645
51
196.8266009
0
ARC
8
DEFAULT_255_1_388
10
11.3585696
20
94.190101
40
0.4834863
50
179.8987586
51
184.9677262
0
LINE
8
DEFAULT_255_1_388
10
11.6205245
20
95.2643898
11
11.6205245
21
94.0906596
0
LINE
8
DEFAULT_255_1_388
10
11.6205245
20
94.0906596
11
12.243984
21
94.0906596
0
LINE
8
DEFAULT_255_1_388
10
12.243984
20
94.0906596
11
12.243984
21
93.9488
0
LINE
8
DEFAULT_255_1_388
10
12.243984
20
93.9488
11
11.4461366
21
93.9488
0
LINE
8
DEFAULT_255_1_388
10
11.4461366
20
93.9488
11
11.4461366
21
95.2643898
0
LINE
8
DEFAULT_255_1_388
10
11.4461366
20
95.2643898
11
11.6205245
21
95.2643898
0
LINE
8
DEFAULT_255_1_388
10
13.3951251
20
94.6472553
11
13.3951251
21
94.5641274
0
LINE
8
DEFAULT_255_1_388
10
12.3370511
20
94.5523811
11
12.3370511
21
94.6472553
0
LINE
8
DEFAULT_255_1_388
10
13.2225443
20
94.5514775
11
13.2225443
21
94.6490625
0
LINE
8
DEFAULT_255_1_388
10
12.5096319
20
94.6608088
11
12.5096319
21
94.5641274
0
ARC
8
DEFAULT_255_1_388
10
12.4228989
20
94.5596726
40
0.9722364
50
350.4878118
51
0.2625322
0
ARC
8
DEFAULT_255_1_388
10
12.6808949
20
94.5152994
40
0.7104556
50
336.0277991
51
350.5787241
0
ARC
8
DEFAULT_255_1_388
10
12.8322056
20
94.4469243
40
0.544417
50
319.887443
51
336.1331163
0
ARC
8
DEFAULT_255_1_388
10
12.8999868
20
94.3926733
40
0.4576311
50
302.4806296
51
319.6144102
0
ARC
8
DEFAULT_255_1_388
10
12.887049
20
94.4176067
40
0.4856183
50
275.8196423
51
302.1885521
0
ARC
8
DEFAULT_255_1_388
10
12.8683351
20
94.5461466
40
0.6154183
50
269.9169897
51
276.339506
0
ARC
8
DEFAULT_255_1_388
10
12.8632952
20
94.468968
40
0.5382553
50
252.5221437
51
270.441579
0
ARC
8
DEFAULT_255_1_388
10
12.8471202
20
94.4083046
40
0.4755426
50
237.5349961
51
252.1858334
0
ARC
8
DEFAULT_255_1_388
10
12.8571578
20
94.421112
40
0.4917393
50
209.0632754
51
237.3492577
0
ARC
8
DEFAULT_255_1_388
10
12.9550904
20
94.4826104
40
0.6072464
50
205.118533
51
209.6465345
0
ARC
8
DEFAULT_255_1_388
10
13.0446906
20
94.5206174
40
0.7045164
50
188.7216633
51
204.8239753
0
ARC
8
DEFAULT_255_1_388
10
13.2693682
20
94.5584387
40
0.9323368
50
180.3722704
51
188.9253909
0
ARC
8
DEFAULT_255_1_388
10
13.2663243
20
94.6517416
40
0.929284
50
169.5253055
51
180.2766048
0
ARC
8
DEFAULT_255_1_388
10
13.0523042
20
94.6911024
40
0.7116745
50
155.8314601
51
169.5088611
0
ARC
8
DEFAULT_255_1_388
10
12.9082505
20
94.7579312
40
0.5528904
50
139.6259579
51
156.0379072
0
ARC
8
DEFAULT_255_1_388
10
12.8419039
20
94.8113143
40
0.4677708
50
122.6414784
51
139.3431662
0
ARC
8
DEFAULT_255_1_388
10
12.8532294
20
94.7906787
40
0.4912586
50
93.0224537
51
122.4556091
0
ARC
8
DEFAULT_255_1_388
10
12.8653815
20
94.6820776
40
0.6003837
50
89.9756766
51
93.6340839
0
ARC
8
DEFAULT_255_1_388
10
12.8697412
20
94.7269879
40
0.5554884
50
73.7463329
51
90.4234008
0
ARC
8
DEFAULT_255_1_388
10
12.8894885
20
94.8034772
40
0.4765353
50
57.663051
51
73.4516911
0
ARC
8
DEFAULT_255_1_388
10
12.8885923
20
94.8059108
40
0.4749629
50
29.1441355
51
57.4146687
0
ARC
8
DEFAULT_255_1_388
10
12.7833734
20
94.7402046
40
0.5988917
50
24.0985653
51
29.732054
0
ARC
8
DEFAULT_255_1_388
10
12.6671366
20
94.6920154
40
0.7246823
50
8.6654943
51
23.8241215
0
ARC
8
DEFAULT_255_1_388
10
12.4157785
20
94.6510037
40
0.9793537
50
359.7807044
51
8.8218476
0
ARC
8
DEFAULT_255_1_388
10
12.2867489
20
94.6538731
40
0.9358078
50
359.7054632
51
8.0359751
0
ARC
8
DEFAULT_255_1_388
10
12.624254
20
94.7030252
40
0.5947474
50
7.8926278
51
20.2962188
0
ARC
8
DEFAULT_255_1_388
10
12.8073391
20
94.7705367
40
0.3996117
50
20.3231056
51
36.4990255
0
ARC
8
DEFAULT_255_1_388
10
12.8844688
20
94.8299399
40
0.3022818
50
36.1436715
51
85.6627846
0
ARC
8
DEFAULT_255_1_388
10
12.8661943
20
94.7129881
40
0.4203853
50
84.3845912
51
90.076054
0
ARC
8
DEFAULT_255_1_388
10
12.8614298
20
94.7872416
40
0.346157
50
89.3037228
51
109.9046209
0
ARC
8
DEFAULT_255_1_388
10
12.8510131
20
94.8302379
40
0.3022217
50
110.8229774
51
143.917961
0
ARC
8
DEFAULT_255_1_388
10
12.9560491
20
94.7500455
40
0.434348
50
143.5289166
51
163.2980252
0
ARC
8
DEFAULT_255_1_388
10
13.1706778
20
94.6825685
40
0.659321
50
163.0418884
51
174.3139873
0
ARC
8
DEFAULT_255_1_388
10
13.4411742
20
94.6513378
40
0.9315905
50
174.050934
51
179.4174954
0
ARC
8
DEFAULT_255_1_388
10
13.3843686
20
94.5594382
40
0.8747493
50
179.6928582
51
188.7908948
0
ARC
8
DEFAULT_255_1_388
10
13.0847486
20
94.5115086
40
0.5713262
50
188.6328449
51
202.5630732
0
ARC
8
DEFAULT_255_1_388
10
12.9436323
20
94.4548142
40
0.4192612
50
202.8078931
51
216.1195888
0
ARC
8
DEFAULT_255_1_388
10
12.852584
20
94.3815479
40
0.3025752
50
215.0755613
51
264.6379773
0
ARC
8
DEFAULT_255_1_388
10
12.8668678
20
94.4750376
40
0.3970284
50
263.8464302
51
270.0830805
0
ARC
8
DEFAULT_255_1_388
10
12.8715222
20
94.4459808
40
0.3679937
50
269.3649295
51
287.5149684
0
ARC
8
DEFAULT_255_1_388
10
12.8915663
20
94.3731714
40
0.2925408
50
288.0629019
51
323.8115617
0
ARC
8
DEFAULT_255_1_388
10
12.7935639
20
94.4462754
40
0.4148018
50
323.6546541
51
342.6591359
0
ARC
8
DEFAULT_255_1_388
10
12.5650297
20
94.520628
40
0.6551163
50
342.4092446
51
353.6451501
0
ARC
8
DEFAULT_255_1_388
10
12.2465091
20
94.5602565
40
0.9760748
50
353.4027553
51
359.4846611
0
LINE
8
DEFAULT_255_1_388
10
14.6266834
20
94.6038842
11
14.6266834
21
94.1213808
0
LINE
8
DEFAULT_255_1_388
10
13.6128841
20
94.5433454
11
13.6128841
21
94.6580981
0
LINE
8
DEFAULT_255_1_388
10
14.6266834
20
94.8785678
11
14.4531991
21
94.8785678
0
LINE
8
DEFAULT_255_1_388
10
13.7872721
20
94.6626159
11
13.7872721
21
94.5550917
0
LINE
8
DEFAULT_255_1_388
10
14.4541026
20
94.1674626
11
14.4541026
21
94.4629282
0
LINE
8
DEFAULT_255_1_388
10
14.4541026
20
94.4629282
11
14.1496014
21
94.4629282
0
LINE
8
DEFAULT_255_1_388
10
14.1496014
20
94.4629282
11
14.1496014
21
94.6038842
0
LINE
8
DEFAULT_255_1_388
10
14.1496014
20
94.6038842
11
14.6266834
21
94.6038842
0
ARC
8
DEFAULT_255_1_388
10
14.3081435
20
94.3456284
40
0.3895571
50
295.8437277
51
324.8549962
0
ARC
8
DEFAULT_255_1_388
10
14.2613817
20
94.4302619
40
0.4861381
50
291.5691164
51
296.4556269
0
ARC
8
DEFAULT_255_1_388
10
14.203882
20
94.5838801
40
0.6501442
50
278.6622213
51
291.3047061
0
ARC
8
DEFAULT_255_1_388
10
14.1656852
20
94.8255557
40
0.8948168
50
270.0200506
51
278.7494673
0
ARC
8
DEFAULT_255_1_388
10
14.1613056
20
95.0101453
40
1.0794166
50
270.0022372
51
270.2490917
0
ARC
8
DEFAULT_255_1_388
10
14.1570948
20
94.5142827
40
0.5835695
50
253.5785313
51
270.4175629
0
ARC
8
DEFAULT_255_1_388
10
14.1375944
20
94.4387625
40
0.5056241
50
238.8203954
51
253.2788387
0
ARC
8
DEFAULT_255_1_388
10
14.135386
20
94.4330224
40
0.4995712
50
206.7883476
51
238.696262
0
ARC
8
DEFAULT_255_1_388
10
14.2229256
20
94.4854847
40
0.6014056
50
206.1137778
51
207.4912776
0
ARC
8
DEFAULT_255_1_388
10
14.2896092
20
94.5138284
40
0.6737692
50
188.6922336
51
205.782076
0
ARC
8
DEFAULT_255_1_388
10
14.4984451
20
94.5493455
40
0.8855812
50
180.3881972
51
188.9218085
0
ARC
8
DEFAULT_255_1_388
10
14.6365608
20
94.6644622
40
1.0236965
50
170.2024645
51
180.3561986
0
ARC
8
DEFAULT_255_1_388
10
14.2806759
20
94.7281101
40
0.6621746
50
154.2856519
51
170.3893388
0
ARC
8
DEFAULT_255_1_388
10
14.1364722
20
94.7941192
40
0.5036209
50
139.8400879
51
153.9334639
0
ARC
8
DEFAULT_255_1_388
10
14.0960626
20
94.8264716
40
0.4518751
50
98.4190017
51
139.6707015
0
ARC
8
DEFAULT_255_1_388
10
14.1387593
20
94.6188755
40
0.6635912
50
89.7660128
51
99.4415389
0
ARC
8
DEFAULT_255_1_388
10
14.146099
20
94.6262517
40
0.6562258
50
78.0552044
51
90.4042252
0
ARC
8
DEFAULT_255_1_388
10
14.1916053
20
94.8308661
40
0.4466287
50
54.6380186
51
78.3338577
0
ARC
8
DEFAULT_255_1_388
10
14.2130352
20
94.8669444
40
0.4048184
50
50.0313964
51
54.1562739
0
ARC
8
DEFAULT_255_1_388
10
14.2009246
20
94.8560798
40
0.4209308
50
18.1092229
51
49.7179911
0
ARC
8
DEFAULT_255_1_388
10
14.0370326
20
94.7960399
40
0.5953982
50
7.967396
51
18.698492
0
ARC
8
DEFAULT_255_1_388
10
14.0539587
20
94.8099236
40
0.4050986
50
9.7558763
51
27.3214087
0
ARC
8
DEFAULT_255_1_388
10
14.1808051
20
94.8733087
40
0.2633168
50
27.736147
51
84.5257861
0
ARC
8
DEFAULT_255_1_388
10
14.1439461
20
94.6883988
40
0.4513019
50
82.1064239
51
90.1997295
0
ARC
8
DEFAULT_255_1_388
10
14.1383477
20
94.7455501
40
0.3941684
50
89.4148952
51
105.5824837
0
ARC
8
DEFAULT_255_1_388
10
14.1094358
20
94.8508043
40
0.2850167
50
105.6678541
51
144.2649156
0
ARC
8
DEFAULT_255_1_388
10
14.209925
20
94.7793024
40
0.4083468
50
144.3560675
51
162.8564185
0
ARC
8
DEFAULT_255_1_388
10
14.4443693
20
94.7040083
40
0.6545749
50
162.6076338
51
173.6779811
0
ARC
8
DEFAULT_255_1_388
10
14.7887808
20
94.6621422
40
1.0015089
50
173.4670996
51
179.9729015
0
ARC
8
DEFAULT_255_1_388
10
14.5740679
20
94.5503636
40
0.78681
50
179.6556955
51
190.007958
0
ARC
8
DEFAULT_255_1_388
10
14.313496
20
94.502566
40
0.5218997
50
189.8117884
51
206.6795375
0
ARC
8
DEFAULT_255_1_388
10
14.2184406
20
94.4582514
40
0.4170788
50
207.1031171
51
217.7074698
0
ARC
8
DEFAULT_255_1_388
10
14.1470837
20
94.3961596
40
0.3226945
50
216.7345117
51
265.6812141
0
ARC
8
DEFAULT_255_1_388
10
14.1617979
20
94.497903
40
0.4253149
50
264.7367524
51
270.0610826
0
ARC
8
DEFAULT_255_1_388
10
14.1644164
20
94.8174173
40
0.7448321
50
269.8334494
51
276.0538364
0
ARC
8
DEFAULT_255_1_388
10
14.1877027
20
94.6034924
40
0.5296446
50
275.9894423
51
284.4615914
0
ARC
8
DEFAULT_255_1_388
10
14.209854
20
94.510257
40
0.4338353
50
284.7038488
51
286.4938196
0
ARC
8
DEFAULT_255_1_388
10
14.2557689
20
94.3623371
40
0.2789738
50
286.0770429
51
304.2629628
0
ARC
8
DEFAULT_255_1_388
10
14.2707847
20
94.337768
40
0.2502188
50
304.5886247
51
317.1074126
0
LINE
8
DEFAULT_255_1_388
10
15.1019583
20
95.2643898
11
15.1019583
21
93.9488
0
LINE
8
DEFAULT_255_1_388
10
15.1019583
20
93.9488
11
14.928474
21
93.9488
0
LINE
8
DEFAULT_255_1_388
10
14.928474
20
93.9488
11
14.928474
21
95.2643898
0
LINE
8
DEFAULT_255_1_388
10
14.928474
20
95.2643898
11
15.1019583
21
95.2643898
0
LINE
8
DEFAULT_255_1_388
10
16.2124391
20
94.3662468
11
16.386827
21
94.3662468
0
LINE
8
DEFAULT_255_1_388
10
15.3739313
20
94.5451525
11
15.3739313
21
94.6716516
0
LINE
8
DEFAULT_255_1_388
10
16.386827
20
94.8415217
11
16.2124391
21
94.8415217
0
LINE
8
DEFAULT_255_1_388
10
15.5483192
20
94.6671337
11
15.5483192
21
94.5397312
0
ARC
8
DEFAULT_255_1_388
10
15.7702504
20
94.4334329
40
0.6202263
50
340.1774904
51
353.7812217
0
ARC
8
DEFAULT_255_1_388
10
15.9470357
20
94.3675893
40
0.4315926
50
311.4560052
51
340.4420756
0
ARC
8
DEFAULT_255_1_388
10
15.9432897
20
94.3800665
40
0.4434573
50
282.4332229
51
310.7514507
0
ARC
8
DEFAULT_255_1_388
10
15.8938714
20
94.5842703
40
0.6535262
50
269.9358869
51
282.8096729
0
ARC
8
DEFAULT_255_1_388
10
15.8880654
20
94.7355329
40
0.8048043
50
269.9995752
51
270.3612856
0
ARC
8
DEFAULT_255_1_388
10
15.8821144
20
94.4556781
40
0.5249831
50
250.7885263
51
270.6488451
0
ARC
8
DEFAULT_255_1_388
10
15.8631969
20
94.3839853
40
0.4510942
50
219.3628377
51
250.0611024
0
ARC
8
DEFAULT_255_1_388
10
15.9564843
20
94.4632653
40
0.5735046
50
193.5480293
51
219.5755675
0
ARC
8
DEFAULT_255_1_388
10
16.2233052
20
94.532552
40
0.849146
50
181.1220183
51
193.8754971
0
ARC
8
DEFAULT_255_1_388
10
16.4556285
20
94.5449914
40
1.0816971
50
179.9914644
51
181.5398227
0
ARC
8
DEFAULT_255_1_388
10
16.2479595
20
94.6758586
40
0.8740384
50
169.5837606
51
180.275782
0
ARC
8
DEFAULT_255_1_388
10
16.0412944
20
94.7140439
40
0.6638751
50
155.0367033
51
169.6002779
0
ARC
8
DEFAULT_255_1_388
10
15.9135402
20
94.7756336
40
0.5220662
50
136.7831557
51
155.2472983
0
ARC
8
DEFAULT_255_1_388
10
15.8697192
20
94.8128577
40
0.4646502
50
121.7633063
51
136.4281161
0
ARC
8
DEFAULT_255_1_388
10
15.8849032
20
94.7848049
40
0.4964979
50
95.6460018
51
121.5489589
0
ARC
8
DEFAULT_255_1_388
10
15.9026007
20
94.6600704
40
0.6223912
50
89.9245727
51
96.1375919
0
ARC
8
DEFAULT_255_1_388
10
15.9082712
20
94.6734721
40
0.6090084
50
76.6779212
51
90.456405
0
ARC
8
DEFAULT_255_1_388
10
15.9525525
20
94.852406
40
0.42469
50
47.4858803
51
76.9287069
0
ARC
8
DEFAULT_255_1_388
10
15.9360139
20
94.8411623
40
0.4441778
50
16.5424081
51
46.8934505
0
ARC
8
DEFAULT_255_1_388
10
15.7551188
20
94.7817265
40
0.6345318
50
5.4072971
51
17.0363711
0
ARC
8
DEFAULT_255_1_388
10
15.5932914
20
94.7557304
40
0.6250632
50
7.8888693
51
15.9242022
0
ARC
8
DEFAULT_255_1_388
10
15.8167899
20
94.8206309
40
0.3923364
50
15.7650676
51
27.9410069
0
ARC
8
DEFAULT_255_1_388
10
15.9410068
20
94.8871317
40
0.2514401
50
27.8167196
51
46.4007942
0
ARC
8
DEFAULT_255_1_388
10
15.946591
20
94.8864882
40
0.2480958
50
47.4372362
51
75.0695672
0
ARC
8
DEFAULT_255_1_388
10
15.9118746
20
94.7656277
40
0.3738281
50
74.7009379
51
87.8124314
0
ARC
8
DEFAULT_255_1_388
10
15.9036363
20
94.6472659
40
0.4924321
50
87.3802571
51
90.0251599
0
ARC
8
DEFAULT_255_1_388
10
15.899301
20
94.7792997
40
0.3604218
50
89.3451886
51
108.5744412
0
ARC
8
DEFAULT_255_1_388
10
15.8839002
20
94.8370836
40
0.3007661
50
109.2998307
51
143.3037387
0
ARC
8
DEFAULT_255_1_388
10
15.9696292
20
94.7711584
40
0.4089031
50
143.075267
51
163.1918576
0
ARC
8
DEFAULT_255_1_388
10
16.1892126
20
94.7018652
40
0.6391492
50
162.9375929
51
174.6208776
0
ARC
8
DEFAULT_255_1_388
10
16.4846508
20
94.6694711
40
0.9363344
50
174.342123
51
180.1430283
0
ARC
8
DEFAULT_255_1_388
10
16.3799049
20
94.5351117
40
0.8315986
50
179.6817261
51
189.150555
0
ARC
8
DEFAULT_255_1_388
10
16.0985798
20
94.4882559
40
0.5464044
50
188.9911061
51
203.5772363
0
ARC
8
DEFAULT_255_1_388
10
15.977109
20
94.4378539
40
0.4149206
50
203.9075402
51
215.1312435
0
ARC
8
DEFAULT_255_1_388
10
15.8732888
20
94.3573907
40
0.2837747
50
213.9071511
51
263.8848919
0
ARC
8
DEFAULT_255_1_388
10
15.8873881
20
94.4456519
40
0.3730641
50
263.1757928
51
270.1031044
0
ARC
8
DEFAULT_255_1_388
10
15.8909961
20
94.5859511
40
0.5133712
50
269.6722503
51
279.0606936
0
ARC
8
DEFAULT_255_1_388
10
15.9210116
20
94.404515
40
0.3294739
50
278.8749101
51
293.6349581
0
ARC
8
DEFAULT_255_1_388
10
15.957032
20
94.3199251
40
0.2375405
50
293.8553806
51
310.0518171
0
ARC
8
DEFAULT_255_1_388
10
15.9575828
20
94.3129021
40
0.2318463
50
311.0644687
51
332.0111037
0
ARC
8
DEFAULT_255_1_388
10
15.8234502
20
94.3868702
40
0.3850112
50
331.6586806
51
343.2877423
0
ARC
8
DEFAULT_255_1_388
10
15.5913967
20
94.4581806
40
0.6277712
50
343.1446576
51
351.0103568
0
ARC
8
DEFAULT_255_1_388
10
15.428129
20
94.4881873
40
0.7937327
50
350.71248
51
351.1626997
0
LINE
8
DEFAULT_255_1_388
10
17.8632513
20
94.726769
11
17.8632513
21
94.5099135
0
LINE
8
DEFAULT_255_1_388
10
17.0328756
20
94.4873244
11
17.0328756
21
94.7105048
0
LINE
8
DEFAULT_255_1_388
10
17.6960919
20
94.4647353
11
17.6960919
21
94.7385153
0
LINE
8
DEFAULT_255_1_388
10
17.200035
20
94.7511652
11
17.200035
21
94.4837102
0
ARC
8
DEFAULT_255_1_388
10
16.4854847
20
94.5044118
40
1.3777776
50
353.8440855
51
0.2287917
0
ARC
8
DEFAULT_255_1_388
10
17.0073865
20
94.4461414
40
0.852639
50
344.4934746
51
353.9763743
0
ARC
8
DEFAULT_255_1_388
10
17.3440672
20
94.3504191
40
0.5026273
50
329.2803599
51
344.7473406
0
ARC
8
DEFAULT_255_1_388
10
17.4556167
20
94.2892038
40
0.3754848
50
324.9361395
51
328.6153007
0
ARC
8
DEFAULT_255_1_388
10
17.4981817
20
94.2594586
40
0.3235566
50
280.5801797
51
324.9173226
0
ARC
8
DEFAULT_255_1_388
10
17.4530446
20
94.4474236
40
0.5167077
50
269.5979457
51
281.6732777
0
ARC
8
DEFAULT_255_1_388
10
17.4449349
20
94.4339113
40
0.5032026
50
256.6228565
51
270.5105488
0
ARC
8
DEFAULT_255_1_388
10
17.3997092
20
94.2597345
40
0.3233092
50
215.8618351
51
257.2787793
0
ARC
8
DEFAULT_255_1_388
10
17.5145799
20
94.3368106
40
0.4615831
50
197.9695203
51
215.2622745
0
ARC
8
DEFAULT_255_1_388
10
17.7941475
20
94.4311641
40
0.7566307
50
187.8816486
51
198.2346584
0
ARC
8
DEFAULT_255_1_388
10
18.2394713
20
94.4954453
40
1.2065653
50
180.8977266
51
188.0054894
0
ARC
8
DEFAULT_255_1_388
10
18.5444927
20
94.50694
40
1.5117443
50
180.7434591
51
181.152202
0
ARC
8
DEFAULT_255_1_388
10
18.3769923
20
94.7159371
40
1.3441277
50
173.7674302
51
180.2315596
0
ARC
8
DEFAULT_255_1_388
10
17.8687792
20
94.7733779
40
0.8326847
50
164.3058537
51
173.9000553
0
ARC
8
DEFAULT_255_1_388
10
17.5411792
20
94.8677652
40
0.4917711
50
148.7922028
51
164.5682288
0
ARC
8
DEFAULT_255_1_388
10
17.4342529
20
94.9274457
40
0.3694204
50
144.5883979
51
148.1161588
0
ARC
8
DEFAULT_255_1_388
10
17.3955274
20
94.9544667
40
0.322202
50
101.6440149
51
144.5142619
0
ARC
8
DEFAULT_255_1_388
10
17.4433467
20
94.7644337
40
0.5180451
50
89.528284
51
102.5820197
0
ARC
8
DEFAULT_255_1_388
10
17.4522458
20
94.7600376
40
0.5224441
50
77.0437914
51
90.508231
0
ARC
8
DEFAULT_255_1_388
10
17.4974712
20
94.9448272
40
0.3322297
50
48.2777708
51
77.4996087
0
ARC
8
DEFAULT_255_1_388
10
17.5056452
20
94.9593557
40
0.315966
50
36.3141586
51
47.6307332
0
ARC
8
DEFAULT_255_1_388
10
17.4079174
20
94.8935159
40
0.4337313
50
18.2931065
51
35.6770203
0
ARC
8
DEFAULT_255_1_388
10
17.1218015
20
94.7953107
40
0.7362203
50
8.0246996
51
18.5605636
0
ARC
8
DEFAULT_255_1_388
10
16.6534371
20
94.7261432
40
1.2096583
50
1.127539
51
8.1718423
0
ARC
8
DEFAULT_255_1_388
10
16.2885504
20
94.7118374
40
1.5747719
50
0.5432713
51
1.38669
0
ARC
8
DEFAULT_255_1_388
10
16.4942883
20
94.7425163
40
1.2018103
50
359.8092569
51
4.9408001
0
ARC
8
DEFAULT_255_1_388
10
16.9679464
20
94.78479
40
0.7262727
50
4.8364937
51
12.2906017
0
ARC
8
DEFAULT_255_1_388
10
17.2778929
20
94.8538485
40
0.4087324
50
12.0806994
51
23.8171225
0
ARC
8
DEFAULT_255_1_388
10
17.4099325
20
94.9097508
40
0.2653719
50
24.2874621
51
31.3934353
0
ARC
8
DEFAULT_255_1_388
10
17.4689761
20
94.9483822
40
0.1948607
50
30.7407708
51
82.4658033
0
ARC
8
DEFAULT_255_1_388
10
17.4487422
20
94.8490017
40
0.2961198
50
81.1057101
51
90.2187368
0
ARC
8
DEFAULT_255_1_388
10
17.4447233
20
94.8780421
40
0.2670929
50
89.380395
51
105.6763916
0
ARC
8
DEFAULT_255_1_388
10
17.4240955
20
94.953032
40
0.1893189
50
105.7980655
51
149.7387869
0
ARC
8
DEFAULT_255_1_388
10
17.5438095
20
94.8810719
40
0.3289892
50
149.4208441
51
163.628295
0
ARC
8
DEFAULT_255_1_388
10
17.7790325
20
94.8093345
40
0.5749004
50
163.3764549
51
172.141138
0
ARC
8
DEFAULT_255_1_388
10
18.1503047
20
94.7561582
40
0.9499585
50
172.0258462
51
178.0705453
0
ARC
8
DEFAULT_255_1_388
10
18.4924599
20
94.7399682
40
1.2924734
50
177.8639301
51
179.5036263
0
ARC
8
DEFAULT_255_1_388
10
18.3705618
20
94.4796151
40
1.170534
50
179.7995545
51
185.246089
0
ARC
8
DEFAULT_255_1_388
10
17.9157211
20
94.4365404
40
0.7136613
50
185.1411911
51
193.0082205
0
ARC
8
DEFAULT_255_1_388
10
17.6183472
20
94.3662441
40
0.4080987
50
192.7897338
51
205.2507384
0
ARC
8
DEFAULT_255_1_388
10
17.5005682
20
94.3136538
40
0.2791522
50
205.8001921
51
211.2545876
0
ARC
8
DEFAULT_255_1_388
10
17.4417221
20
94.2742132
40
0.2084074
50
210.3789935
51
238.4007996
0
ARC
8
DEFAULT_255_1_388
10
17.4395307
20
94.2794786
40
0.2117943
50
239.6521916
51
265.9793852
0
ARC
8
DEFAULT_255_1_388
10
17.4491156
20
94.3551358
40
0.2879689
50
265.1324455
51
270.0603288
0
ARC
8
DEFAULT_255_1_388
10
17.4523533
20
94.3186418
40
0.2514919
50
269.3314378
51
287.2180039
0
ARC
8
DEFAULT_255_1_388
10
17.4678615
20
94.2620291
40
0.1928357
50
287.7957942
51
329.0808983
0
ARC
8
DEFAULT_255_1_388
10
17.3601372
20
94.3292651
40
0.319808
50
328.6635261
51
343.3325043
0
ARC
8
DEFAULT_255_1_388
10
17.1156831
20
94.4054195
40
0.5758408
50
343.0498092
51
351.9392499
0
ARC
8
DEFAULT_255_1_388
10
16.7256152
20
94.4629205
40
0.9701202
50
351.8071632
51
357.7957897
0
ARC
8
DEFAULT_255_1_388
10
16.3621629
20
94.4817724
40
1.3340376
50
357.5870923
51
359.2682493
0
LINE
8
DEFAULT_255_1_388
10
18.2879266
20
94.5740666
11
18.1541991
21
94.6084021
0
LINE
8
DEFAULT_255_1_388
10
18.1541991
20
94.6084021
11
18.2210628
21
95.2643898
0
LINE
8
DEFAULT_255_1_388
10
18.2210628
20
95.2643898
11
18.8951219
21
95.2643898
0
LINE
8
DEFAULT_255_1_388
10
18.8951219
20
95.2643898
11
18.8951219
21
95.1098803
0
LINE
8
DEFAULT_255_1_388
10
18.8951219
20
95.1098803
11
18.3629225
21
95.1098803
0
LINE
8
DEFAULT_255_1_388
10
18.3629225
20
95.1098803
11
18.3231656
21
94.7511652
0
LINE
8
DEFAULT_255_1_388
10
18.1072137
20
94.2948652
11
18.2653375
21
94.2948652
0
LINE
8
DEFAULT_255_1_388
10
18.3322013
20
94.6102092
11
18.2879266
21
94.5740666
0
ARC
8
DEFAULT_255_1_388
10
18.531827
20
94.3934241
40
0.4141476
50
93.7181681
51
120.253934
0
ARC
8
DEFAULT_255_1_388
10
18.5424322
20
94.3025284
40
0.5055616
50
89.9660471
51
94.2495185
0
ARC
8
DEFAULT_255_1_388
10
18.5470144
20
94.3688154
40
0.4392953
50
73.8045384
51
90.5585736
0
ARC
8
DEFAULT_255_1_388
10
18.5734401
20
94.465352
40
0.3392225
50
41.3071072
51
73.543002
0
ARC
8
DEFAULT_255_1_388
10
18.5266222
20
94.4250461
40
0.4009977
50
13.5075837
51
41.2174839
0
ARC
8
DEFAULT_255_1_388
10
18.3419319
20
94.3766907
40
0.5918864
50
1.1330171
51
13.8830737
0
ARC
8
DEFAULT_255_1_388
10
18.1822965
20
94.3681522
40
0.7516787
50
359.9925091
51
1.5431298
0
ARC
8
DEFAULT_255_1_388
10
18.326758
20
94.3635027
40
0.6072343
50
347.8572712
51
0.4294349
0
ARC
8
DEFAULT_255_1_388
10
18.5236714
20
94.3188898
40
0.4053482
50
323.6727442
51
348.1674594
0
ARC
8
DEFAULT_255_1_388
10
18.5567679
20
94.2987175
40
0.3667495
50
316.8171818
51
323.1486802
0
ARC
8
DEFAULT_255_1_388
10
18.5636803
20
94.2945612
40
0.358869
50
281.839603
51
316.5458142
0
ARC
8
DEFAULT_255_1_388
10
18.521409
20
94.4695363
40
0.5388223
50
269.5770964
51
282.4214641
0
ARC
8
DEFAULT_255_1_388
10
18.5134011
20
94.445493
40
0.5147801
50
256.2425863
51
270.4486481
0
ARC
8
DEFAULT_255_1_388
10
18.4797539
20
94.3105124
40
0.3756708
50
228.9024379
51
256.33135
0
ARC
8
DEFAULT_255_1_388
10
18.4714519
20
94.2974054
40
0.360344
50
193.7536029
51
228.5272638
0
ARC
8
DEFAULT_255_1_388
10
18.6107084
20
94.3382463
40
0.5053599
50
184.9244437
51
194.4976052
0
ARC
8
DEFAULT_255_1_388
10
18.6323725
20
94.3422722
40
0.3700839
50
187.3596909
51
198.6733728
0
ARC
8
DEFAULT_255_1_388
10
18.5142968
20
94.3013373
40
0.2451195
50
198.4453795
51
217.7945479
0
ARC
8
DEFAULT_255_1_388
10
18.4810141
20
94.2777563
40
0.2043754
50
218.2887146
51
228.5613203
0
ARC
8
DEFAULT_255_1_388
10
18.4920148
20
94.2925902
40
0.2227819
50
228.9652423
51
258.1237049
0
ARC
8
DEFAULT_255_1_388
10
18.5151585
20
94.3916964
40
0.3245374
50
257.7260585
51
270.4013717
0
ARC
8
DEFAULT_255_1_388
10
18.5202083
20
94.3416255
40
0.2744726
50
269.4204315
51
286.420998
0
ARC
8
DEFAULT_255_1_388
10
18.5369139
20
94.2809705
40
0.2115721
50
286.7250065
51
320.6004665
0
ARC
8
DEFAULT_255_1_388
10
18.4938055
20
94.3159527
40
0.2670878
50
320.6712228
51
344.5440474
0
ARC
8
DEFAULT_255_1_388
10
18.3636768
20
94.3541394
40
0.4026927
50
344.241448
51
356.735803
0
ARC
8
DEFAULT_255_1_388
10
18.2233076
20
94.3657656
40
0.5435085
50
356.3547471
51
0.0507222
0
ARC
8
DEFAULT_255_1_388
10
18.3735341
20
94.3692812
40
0.3932934
50
359.5579289
51
12.9534322
0
ARC
8
DEFAULT_255_1_388
10
18.4922181
20
94.3980586
40
0.2711827
50
12.6489751
51
41.608121
0
ARC
8
DEFAULT_255_1_388
10
18.5181341
20
94.4200946
40
0.2371737
50
41.7851122
51
85.9892156
0
ARC
8
DEFAULT_255_1_388
10
18.5042651
20
94.3285738
40
0.3295244
50
84.6965848
51
90.0672125
0
ARC
8
DEFAULT_255_1_388
10
18.5016218
20
94.2534118
40
0.4046926
50
89.6804991
51
99.161352
0
ARC
8
DEFAULT_255_1_388
10
18.4785227
20
94.3914848
40
0.2647044
50
98.9836248
51
113.8905702
0
ARC
8
DEFAULT_255_1_388
10
18.4526902
20
94.4524118
40
0.1985386
50
114.195234
51
127.3641866
0
LINE
8
DEFAULT_255_1_388
10
19.7155584
20
95.2643898
11
19.1670948
21
93.8358544
0
LINE
8
DEFAULT_255_1_388
10
19.1670948
20
93.8358544
11
19.0234281
21
93.8358544
0
LINE
8
DEFAULT_255_1_388
10
19.0234281
20
93.8358544
11
19.5727953
21
95.2643898
0
LINE
8
DEFAULT_255_1_388
10
19.5727953
20
95.2643898
11
19.7155584
21
95.2643898
0
LINE
8
DEFAULT_255_1_388
10
20.704058
20
94.726769
11
20.704058
21
94.5099135
0
LINE
8
DEFAULT_255_1_388
10
19.8736822
20
94.4873244
11
19.8736822
21
94.7105048
0
LINE
8
DEFAULT_255_1_388
10
20.5368985
20
94.4647353
11
20.5368985
21
94.7385153
0
LINE
8
DEFAULT_255_1_388
10
20.0408417
20
94.7511652
11
20.0408417
21
94.4837102
0
ARC
8
DEFAULT_255_1_388
10
19.3262914
20
94.5044118
40
1.3777776
50
353.8440855
51
0.2287917
0
ARC
8
DEFAULT_255_1_388
10
19.8481931
20
94.4461414
40
0.852639
50
344.4934746
51
353.9763743
0
ARC
8
DEFAULT_255_1_388
10
20.1848738
20
94.3504191
40
0.5026273
50
329.2803599
51
344.7473406
0
ARC
8
DEFAULT_255_1_388
10
20.2964234
20
94.2892038
40
0.3754848
50
324.9361395
51
328.6153007
0
ARC
8
DEFAULT_255_1_388
10
20.3389884
20
94.2594586
40
0.3235566
50
280.5801797
51
324.9173226
0
ARC
8
DEFAULT_255_1_388
10
20.2938512
20
94.4474236
40
0.5167077
50
269.5979457
51
281.6732777
0
ARC
8
DEFAULT_255_1_388
10
20.2857416
20
94.4339113
40
0.5032026
50
256.6228565
51
270.5105488
0
ARC
8
DEFAULT_255_1_388
10
20.2405159
20
94.2597345
40
0.3233092
50
215.8618351
51
257.2787793
0
ARC
8
DEFAULT_255_1_388
10
20.3553866
20
94.3368106
40
0.4615831
50
197.9695203
51
215.2622745
0
ARC
8
DEFAULT_255_1_388
10
20.6349541
20
94.4311641
40
0.7566307
50
187.8816486
51
198.2346584
0
ARC
8
DEFAULT_255_1_388
10
21.0802779
20
94.4954453
40
1.2065653
50
180.8977266
51
188.0054894
0
ARC
8
DEFAULT_255_1_388
10
21.3852993
20
94.50694
40
1.5117443
50
180.7434591
51
181.152202
0
ARC
8
DEFAULT_255_1_388
10
21.2177989
20
94.7159371
40
1.3441277
50
173.7674302
51
180.2315596
0
ARC
8
DEFAULT_255_1_388
10
20.7095858
20
94.7733779
40
0.8326847
50
164.3058537
51
173.9000553
0
ARC
8
DEFAULT_255_1_388
10
20.3819858
20
94.8677652
40
0.4917711
50
148.7922028
51
164.5682288
0
ARC
8
DEFAULT_255_1_388
10
20.2750595
20
94.9274457
40
0.3694204
50
144.5883979
51
148.1161588
0
ARC
8
DEFAULT_255_1_388
10
20.2363341
20
94.9544667
40
0.322202
50
101.6440149
51
144.5142619
0
ARC
8
DEFAULT_255_1_388
10
20.2841533
20
94.7644337
40
0.5180451
50
89.528284
51
102.5820197
0
ARC
8
DEFAULT_255_1_388
10
20.2930525
20
94.7600376
40
0.5224441
50
77.0437914
51
90.508231
0
ARC
8
DEFAULT_255_1_388
10
20.3382779
20
94.9448272
40
0.3322297
50
48.2777708
51
77.4996087
0
ARC
8
DEFAULT_255_1_388
10
20.3464519
20
94.9593557
40
0.315966
50
36.3141586
51
47.6307332
0
ARC
8
DEFAULT_255_1_388
10
20.2487241
20
94.8935159
40
0.4337313
50
18.2931065
51
35.6770203
0
ARC
8
DEFAULT_255_1_388
10
19.9626082
20
94.7953107
40
0.7362203
50
8.0246996
51
18.5605636
0
ARC
8
DEFAULT_255_1_388
10
19.4942437
20
94.7261432
40
1.2096583
50
1.127539
51
8.1718423
0
ARC
8
DEFAULT_255_1_388
10
19.1293571
20
94.7118374
40
1.5747719
50
0.5432713
51
1.38669
0
ARC
8
DEFAULT_255_1_388
10
19.3350949
20
94.7425163
40
1.2018103
50
359.8092569
51
4.9408001
0
ARC
8
DEFAULT_255_1_388
10
19.8087531
20
94.78479
40
0.7262727
50
4.8364937
51
12.2906017
0
ARC
8
DEFAULT_255_1_388
10
20.1186995
20
94.8538485
40
0.4087324
50
12.0806994
51
23.8171225
0
ARC
8
DEFAULT_255_1_388
10
20.2507391
20
94.9097508
40
0.2653719
50
24.2874621
51
31.3934353
0
ARC
8
DEFAULT_255_1_388
10
20.3097827
20
94.9483822
40
0.1948607
50
30.7407708
51
82.4658033
0
ARC
8
DEFAULT_255_1_388
10
20.2895488
20
94.8490017
40
0.2961198
50
81.1057101
51
90.2187368
0
ARC
8
DEFAULT_255_1_388
10
20.28553
20
94.8780421
40
0.2670929
50
89.380395
51
105.6763916
0
ARC
8
DEFAULT_255_1_388
10
20.2649022
20
94.953032
40
0.1893189
50
105.7980655
51
149.7387869
0
ARC
8
DEFAULT_255_1_388
10
20.3846162
20
94.8810719
40
0.3289892
50
149.4208441
51
163.628295
0
ARC
8
DEFAULT_255_1_388
10
20.6198392
20
94.8093345
40
0.5749004
50
163.3764549
51
172.141138
0
ARC
8
DEFAULT_255_1_388
10
20.9911113
20
94.7561582
40
0.9499585
50
172.0258462
51
178.0705453
0
ARC
8
DEFAULT_255_1_388
10
21.3332666
20
94.7399682
40
1.2924734
50
177.8639301
51
179.5036263
0
ARC
8
DEFAULT_255_1_388
10
21.2113684
20
94.4796151
40
1.170534
50
179.7995545
51
185.246089
0
ARC
8
DEFAULT_255_1_388
10
20.7565278
20
94.4365404
40
0.7136613
50
185.1411911
51
193.0082205
0
ARC
8
DEFAULT_255_1_388
10
20.4591538
20
94.3662441
40
0.4080987
50
192.7897338
51
205.2507384
0
ARC
8
DEFAULT_255_1_388
10
20.3413748
20
94.3136538
40
0.2791522
50
205.8001921
51
211.2545876
0
ARC
8
DEFAULT_255_1_388
10
20.2825287
20
94.2742132
40
0.2084074
50
210.3789935
51
238.4007996
0
ARC
8
DEFAULT_255_1_388
10
20.2803373
20
94.2794786
40
0.2117943
50
239.6521916
51
265.9793852
0
ARC
8
DEFAULT_255_1_388
10
20.2899222
20
94.3551358
40
0.2879689
50
265.1324455
51
270.0603288
0
ARC
8
DEFAULT_255_1_388
10
20.2931599
20
94.3186418
40
0.2514919
50
269.3314378
51
287.2180039
0
ARC
8
DEFAULT_255_1_388
10
20.3086682
20
94.2620291
40
0.1928357
50
287.7957942
51
329.0808983
0
ARC
8
DEFAULT_255_1_388
10
20.2009439
20
94.3292651
40
0.319808
50
328.6635261
51
343.3325043
0
ARC
8
DEFAULT_255_1_388
10
19.9564897
20
94.4054195
40
0.5758408
50
343.0498092
51
351.9392499
0
ARC
8
DEFAULT_255_1_388
10
19.5664219
20
94.4629205
40
0.9701202
50
351.8071632
51
357.7957897
0
ARC
8
DEFAULT_255_1_388
10
19.2029696
20
94.4817724
40
1.3340376
50
357.5870923
51
359.2682493
0
LINE
8
DEFAULT_255_1_388
10
21.5443729
20
95.2652934
11
21.5741905
21
95.2652934
0
LINE
8
DEFAULT_255_1_388
10
21.5741905
20
95.2652934
11
21.5741905
21
95.1234338
0
LINE
8
DEFAULT_255_1_388
10
21.5741905
20
95.1234338
11
21.5434693
21
95.1234338
0
LINE
8
DEFAULT_255_1_388
10
20.9281419
20
94.4493747
11
20.9281419
21
94.5135278
0
LINE
8
DEFAULT_255_1_388
10
21.0962049
20
94.4918422
11
21.0962049
21
94.4303999
0
ARC
8
DEFAULT_255_1_388
10
21.5493585
20
94.5611826
40
0.562282
50
90.6001079
51
104.5146616
0
ARC
8
DEFAULT_255_1_388
10
21.5056544
20
94.72371
40
0.3939917
50
104.2855758
51
133.8630124
0
ARC
8
DEFAULT_255_1_388
10
21.5240797
20
94.7115243
40
0.4155734
50
134.5304124
51
161.6210222
0
ARC
8
DEFAULT_255_1_388
10
21.7100729
20
94.6459421
40
0.6127682
50
161.2850533
51
174.2074364
0
ARC
8
DEFAULT_255_1_388
10
21.8690296
20
94.6240437
40
0.7731446
50
173.7817938
51
174.9251711
0
ARC
8
DEFAULT_255_1_388
10
21.356449
20
94.468527
40
0.3412588
50
95.8332067
51
138.995412
0
ARC
8
DEFAULT_255_1_388
10
21.381577
20
94.3246695
40
0.4870358
50
89.8755506
51
97.0540979
0
ARC
8
DEFAULT_255_1_388
10
21.3869159
20
94.4186841
40
0.3930432
50
71.6407016
51
90.6240821
0
ARC
8
DEFAULT_255_1_388
10
21.4038553
20
94.4810433
40
0.3285421
50
39.6368051
51
71.0190743
0
ARC
8
DEFAULT_255_1_388
10
21.332246
20
94.4191586
40
0.4231706
50
10.6588054
51
39.9044509
0
ARC
8
DEFAULT_255_1_388
10
21.1581006
20
94.3813223
40
0.60133
50
359.6827842
51
11.1326896
0
ARC
8
DEFAULT_255_1_388
10
21.1536342
20
94.3733715
40
0.6058047
50
347.2485908
51
0.4371098
0
ARC
8
DEFAULT_255_1_388
10
21.3412127
20
94.3282379
40
0.4128987
50
318.1408565
51
347.6118497
0
ARC
8
DEFAULT_255_1_388
10
21.3777724
20
94.2981903
40
0.3656244
50
275.6342406
51
317.824739
0
ARC
8
DEFAULT_255_1_388
10
21.3529245
20
94.4443827
40
0.513655
50
269.8872513
51
276.7916069
0
ARC
8
DEFAULT_255_1_388
10
21.3467437
20
94.3290181
40
0.398323
50
246.9139443
51
270.7436787
0
ARC
8
DEFAULT_255_1_388
10
21.3474633
20
94.3130044
40
0.3839368
50
218.1665534
51
245.8780431
0
ARC
8
DEFAULT_255_1_388
10
21.4464005
20
94.3957903
40
0.5128958
50
191.4115343
51
218.6077624
0
ARC
8
DEFAULT_255_1_388
10
21.6644321
20
94.4446777
40
0.7363054
50
179.6344971
51
191.7836758
0
ARC
8
DEFAULT_255_1_388
10
22.2924196
20
94.5210495
40
1.3642984
50
171.4523743
51
180.3158856
0
ARC
8
DEFAULT_255_1_388
10
21.7979923
20
94.5979895
40
0.8639311
50
157.9802296
51
171.6246761
0
ARC
8
DEFAULT_255_1_388
10
21.5489273
20
94.6973038
40
0.5958004
50
141.4299236
51
157.8541251
0
ARC
8
DEFAULT_255_1_388
10
21.4767357
20
94.7483746
40
0.5075416
50
102.871586
51
140.8564533
0
ARC
8
DEFAULT_255_1_388
10
21.549591
20
94.4738943
40
0.7914163
50
90.377773
51
103.5868422
0
ARC
8
DEFAULT_255_1_388
10
21.3540431
20
94.4058543
40
0.2667015
50
89.8751238
51
126.2072139
0
ARC
8
DEFAULT_255_1_388
10
21.3591902
20
94.3884847
40
0.2838229
50
124.9742447
51
144.8960197
0
ARC
8
DEFAULT_255_1_388
10
21.3394147
20
94.4045981
40
0.2583845
50
145.2974778
51
160.2660922
0
ARC
8
DEFAULT_255_1_388
10
21.6850635
20
94.4268151
40
0.5888695
50
179.6512124
51
190.285571
0
ARC
8
DEFAULT_255_1_388
10
21.4945115
20
94.3908968
40
0.3949683
50
190.0944895
51
207.5099647
0
ARC
8
DEFAULT_255_1_388
10
21.4308697
20
94.3606177
40
0.3245464
50
207.9585471
51
216.325377
0
ARC
8
DEFAULT_255_1_388
10
21.3926334
20
94.3291712
40
0.2751259
50
215.7661336
51
232.5457193
0
ARC
8
DEFAULT_255_1_388
10
21.3495449
20
94.2744273
40
0.2054668
50
232.8005815
51
270.6605497
0
ARC
8
DEFAULT_255_1_388
10
21.3546874
20
94.3153853
40
0.2464268
50
269.3550767
51
288.474612
0
ARC
8
DEFAULT_255_1_388
10
21.3651381
20
94.2760721
40
0.2058436
50
289.1831976
51
322.9685307
0
ARC
8
DEFAULT_255_1_388
10
21.2963482
20
94.3303279
40
0.2934408
50
322.6007085
51
346.5183319
0
ARC
8
DEFAULT_255_1_388
10
21.1661239
20
94.3635434
40
0.4278249
50
346.2584622
51
358.7739592
0
ARC
8
DEFAULT_255_1_388
10
21.0509814
20
94.3697829
40
0.5430876
50
358.3757628
51
0.0082477
0
ARC
8
DEFAULT_255_1_388
10
21.1366632
20
94.3728856
40
0.4574157
50
359.6211417
51
11.28403
0
ARC
8
DEFAULT_255_1_388
10
21.2803239
20
94.4028535
40
0.3106708
50
11.0483152
51
31.8145585
0
ARC
8
DEFAULT_255_1_388
10
21.3150944
20
94.4217045
40
0.2711963
50
32.3028554
51
38.0820598
0
ARC
8
DEFAULT_255_1_388
10
21.3624177
20
94.4645717
40
0.2075566
50
36.8249851
51
85.741667
0
ARC
8
DEFAULT_255_1_388
10
21.3548589
20
94.4082065
40
0.2643487
50
85.0150021
51
90.050843
0
ARC
8
DEFAULT_255_2_778
10
13.4953021
20
97.6985533
40
2.3035416
50
339.8907409
51
346.994376
0
ARC
8
DEFAULT_255_2_778
10
14.4646357
20
97.3384276
40
1.2694939
50
328.7691853
51
340.1120733
0
ARC
8
DEFAULT_255_2_778
10
14.9922733
20
97.0117249
40
0.6489533
50
308.240385
51
329.2799976
0
ARC
8
DEFAULT_255_2_778
10
15.1335254
20
96.8428956
40
0.42897
50
290.2149747
51
307.3797345
0
ARC
8
DEFAULT_255_2_778
10
14.8550836
20
97.1055832
40
0.5085768
50
279.0582472
51
335.0254579
0
ARC
8
DEFAULT_255_2_778
10
14.4035606
20
97.3538036
40
1.0232605
50
333.100566
51
347.4967948
0
ARC
8
DEFAULT_255_2_778
10
13.9267879
20
97.4777273
40
1.515659
50
346.8251736
51
349.6433145
0
ARC
8
DEFAULT_255_2_778
10
16.7325297
20
97.7502541
40
0.6340004
50
90.2418805
51
180.4975197
0
ARC
8
DEFAULT_255_2_778
10
16.7271765
20
97.750254
40
0.6340006
50
359.5024881
51
89.7581009
0
ARC
8
DEFAULT_255_2_778
10
16.7271768
20
97.7392436
40
0.6340003
50
270.2418684
51
0.4975336
0
ARC
8
DEFAULT_255_2_778
10
16.7325299
20
97.7392437
40
0.6340005
50
179.5024805
51
269.758104
0
ARC
8
DEFAULT_255_2_778
10
17.1189581
20
97.7646235
40
0.5748535
50
158.6224664
51
180.7450103
0
ARC
8
DEFAULT_255_2_778
10
16.8143054
20
97.8916995
40
0.2449488
50
125.6968143
51
160.3264119
0
ARC
8
DEFAULT_255_2_778
10
16.7310393
20
97.9984868
40
0.1097683
50
90.6191325
51
122.9231799
0
ARC
8
DEFAULT_255_2_778
10
16.7161984
20
97.9603461
40
0.1485318
50
26.6299238
51
84.7252528
0
ARC
8
DEFAULT_255_2_778
10
16.4561415
20
97.794902
40
0.4562354
50
6.9672199
51
30.5675002
0
ARC
8
DEFAULT_255_2_778
10
16.261361
20
97.7579325
40
0.6541928
50
359.9313724
51
8.1119436
0
ARC
8
DEFAULT_255_2_778
10
16.3407903
20
97.7497075
40
0.5748111
50
338.6217917
51
0.7417631
0
ARC
8
DEFAULT_255_2_778
10
16.6452775
20
97.6226776
40
0.2450776
50
305.7107467
51
340.3279893
0
ARC
8
DEFAULT_255_2_778
10
16.7286626
20
97.5157757
40
0.1097331
50
270.6216799
51
302.9378787
0
ARC
8
DEFAULT_255_2_778
10
16.7435343
20
97.5539636
40
0.148546
50
206.6181959
51
264.7155805
0
ARC
8
DEFAULT_255_2_778
10
17.0037331
20
97.7194852
40
0.456409
50
186.9714802
51
210.5628916
0
ARC
8
DEFAULT_255_2_778
10
17.1979553
20
97.7563721
40
0.6538026
50
179.9319269
51
188.1143536
0
ARC
8
DEFAULT_255_2_778
10
14.2076298
20
97.7502541
40
0.6340005
50
90.2418914
51
180.4975151
0
ARC
8
DEFAULT_255_2_778
10
14.2022765
20
97.750254
40
0.6340006
50
359.5024881
51
89.7581009
0
ARC
8
DEFAULT_255_2_778
10
14.2022768
20
97.7392436
40
0.6340003
50
270.2418684
51
0.4975336
0
ARC
8
DEFAULT_255_2_778
10
14.2076299
20
97.7392437
40
0.6340005
50
179.5024805
51
269.758104
0
ARC
8
DEFAULT_255_2_778
10
14.5935296
20
97.7646068
40
0.5744248
50
158.6039448
51
180.7439081
0
ARC
8
DEFAULT_255_2_778
10
14.2894145
20
97.891583
40
0.2450547
50
125.6846154
51
160.3063409
0
ARC
8
DEFAULT_255_2_778
10
14.2061439
20
97.998437
40
0.1098183
50
90.6212609
51
122.9155624
0
ARC
8
DEFAULT_255_2_778
10
14.1912984
20
97.9603461
40
0.1485318
50
26.6299238
51
84.7252528
0
ARC
8
DEFAULT_255_2_778
10
13.9312415
20
97.794902
40
0.4562354
50
6.9672199
51
30.5675002
0
ARC
8
DEFAULT_255_2_778
10
13.736461
20
97.7579325
40
0.6541928
50
359.9313724
51
8.1119436
0
ARC
8
DEFAULT_255_2_778
10
13.8158903
20
97.7497075
40
0.5748111
50
338.6217917
51
0.7417631
0
ARC
8
DEFAULT_255_2_778
10
14.1203775
20
97.6226776
40
0.2450776
50
305.7107467
51
340.3279893
0
ARC
8
DEFAULT_255_2_778
10
14.2037626
20
97.5157757
40
0.1097331
50
270.6216799
51
302.9378787
0
ARC
8
DEFAULT_255_2_778
10
14.2183015
20
97.5532507
40
0.1478058
50
207.0367178
51
264.8185874
0
ARC
8
DEFAULT_255_2_778
10
14.4731143
20
97.7174943
40
0.4504617
50
187.4901111
51
210.9147812
0
ARC
8
DEFAULT_255_2_778
10
14.6699142
20
97.7562625
40
0.6507616
50
179.9219565
51
188.6157011
0
LINE
8
DEFAULT_255_2_778
10
14.8857532
20
98.3591489
11
15.3807532
21
98.3591489
0
LINE
8
DEFAULT_255_2_778
10
15.3807532
20
98.3591489
11
15.5540532
21
97.6944489
0
LINE
8
DEFAULT_255_2_778
10
15.5540532
20
97.6944489
11
15.7397532
21
98.3715489
0
LINE
8
DEFAULT_255_2_778
10
15.7397532
20
98.3715489
11
16.0369532
21
98.2837489
0
LINE
8
DEFAULT_255_2_778
10
16.0369532
20
98.2837489
11
15.7397532
21
97.1801489
0
LINE
8
DEFAULT_255_2_778
10
15.2817532
20
96.4403489
11
14.9351532
21
96.6033489
0
LINE
8
DEFAULT_255_2_778
10
15.4177532
20
97.2052489
11
15.2074532
21
97.2052489
0
LINE
8
DEFAULT_255_2_778
10
15.2074532
20
97.2052489
11
14.8857532
21
98.3591489
0
LINE
8
DEFAULT_255_2_778
10
16.0985532
20
97.7447489
11
16.0985532
21
97.7447489
0
LINE
8
DEFAULT_255_2_778
10
16.5441532
20
97.7571489
11
16.5441532
21
97.7571489
0
LINE
8
DEFAULT_255_2_778
10
13.5736532
20
97.7447489
11
13.5736532
21
97.7447489
0
LINE
8
DEFAULT_255_2_778
10
14.0191532
20
97.7571489
11
14.0191532
21
97.7571489
0
LINE
8
DEFAULT_255_2_778
10
12.0390532
20
99.0864489
11
12.5835532
21
99.0864489
0
LINE
8
DEFAULT_255_2_778
10
12.5835532
20
99.0864489
11
12.5835532
21
98.3591489
0
LINE
8
DEFAULT_255_2_778
10
12.5835532
20
98.3591489
11
13.0291532
21
99.0864489
0
LINE
8
DEFAULT_255_2_778
10
13.0291532
20
99.0864489
11
13.4992532
21
99.0864489
0
LINE
8
DEFAULT_255_2_778
10
13.4992532
20
99.0864489
11
12.9793532
21
98.2336489
0
LINE
8
DEFAULT_255_2_778
10
12.9793532
20
98.2336489
11
13.5982532
21
97.1803489
0
LINE
8
DEFAULT_255_2_778
10
13.5982532
20
97.1803489
11
13.0288532
21
97.1803489
0
LINE
8
DEFAULT_255_2_778
10
13.0288532
20
97.1803489
11
12.5584532
21
97.9828489
0
LINE
8
DEFAULT_255_2_778
10
12.5584532
20
97.9828489
11
12.5584532
21
97.1803489
0
LINE
8
DEFAULT_255_2_778
10
12.5584532
20
97.1803489
11
12.0390532
21
97.1803489
0
LINE
8
DEFAULT_255_2_778
10
12.0390532
20
97.1803489
11
12.0390532
21
99.0864489
0
LINE
8
DEFAULT_255_2_778
10
9.3932417
20
84.534349
11
10.7161417
21
84.534349
0
LINE
8
DEFAULT_255_2_778
10
10.7161417
20
84.534349
11
10.7161417
21
51.461449
0
LINE
8
DEFAULT_255_2_778
10
10.7161417
20
46.169749
11
10.7161417
21
13.096849
0
LINE
8
DEFAULT_255_2_778
10
10.7161417
20
13.096849
11
9.3932417
21
13.096849
0
LINE
8
DEFAULT_255_2_778
10
9.3932834
20
51.4614333
11
12.0390834
21
51.4614333
0
LINE
8
DEFAULT_255_2_778
10
12.0390834
20
51.4614333
11
12.0390834
21
46.1697333
0
LINE
8
DEFAULT_255_2_778
10
12.0390834
20
46.1697333
11
9.3932834
21
46.1697333
0
LINE
8
DEFAULT_255_2_778
10
9.3932834
20
46.1697333
11
9.3932834
21
51.4614333
0
LINE
8
DEFAULT_255_2_778
10
10.187
20
46.6989666
11
10.187
21
50.9322666
0
LINE
8
DEFAULT_255_2_778
10
9.9224167
20
50.138575
11
10.1870167
21
50.932275
0
LINE
8
DEFAULT_255_2_778
10
10.1870167
20
50.932275
11
10.4516167
21
50.138575
0
LINE
8
DEFAULT_255_2_778
10
10.4516167
20
50.138575
11
9.9224167
21
50.138575
0
LINE
8
DEFAULT_255_2_778
10
11.2453
20
50.9322666
11
11.2453
21
46.6989666
0
LINE
8
DEFAULT_255_2_778
10
10.9807167
20
47.492675
11
11.2453167
21
46.698975
0
LINE
8
DEFAULT_255_2_778
10
11.2453167
20
46.698975
11
11.5099167
21
47.492675
0
LINE
8
DEFAULT_255_2_778
10
11.5099167
20
47.492675
11
10.9807167
21
47.492675
0
LINE
8
DEFAULT_255_2_778
10
19.9765417
20
84.5343993
11
18.6536417
21
84.5343993
0
LINE
8
DEFAULT_255_2_778
10
18.6536417
20
84.5343993
11
18.6536417
21
63.3676993
0
LINE
8
DEFAULT_255_2_778
10
18.6536417
20
58.0760993
11
18.6536417
21
36.9093993
0
LINE
8
DEFAULT_255_2_778
10
18.6536417
20
36.9093993
11
19.9765417
21
36.9093993
0
LINE
8
DEFAULT_255_2_778
10
17.3307834
20
63.3677333
11
19.9765834
21
63.3677333
0
LINE
8
DEFAULT_255_2_778
10
19.9765834
20
63.3677333
11
19.9765834
21
58.0760333
0
LINE
8
DEFAULT_255_2_778
10
19.9765834
20
58.0760333
11
17.3307834
21
58.0760333
0
LINE
8
DEFAULT_255_2_778
10
17.3307834
20
58.0760333
11
17.3307834
21
63.3677333
0
LINE
8
DEFAULT_255_2_778
10
18.1245
20
58.6052666
11
18.1245
21
62.8385666
0
LINE
8
DEFAULT_255_2_778
10
17.8599167
20
62.044875
11
18.1245167
21
62.838575
0
LINE
8
DEFAULT_255_2_778
10
18.1245167
20
62.838575
11
18.3891167
21
62.044875
0
LINE
8
DEFAULT_255_2_778
10
18.3891167
20
62.044875
11
17.8599167
21
62.044875
0
LINE
8
DEFAULT_255_2_778
10
19.1828
20
62.8385666
11
19.1828
21
58.6052666
0
LINE
8
DEFAULT_255_2_778
10
18.9182167
20
59.398975
11
19.1828167
21
58.605275
0
LINE
8
DEFAULT_255_2_778
10
19.1828167
20
58.605275
11
19.4474167
21
59.398975
0
LINE
8
DEFAULT_255_2_778
10
19.4474167
20
59.398975
11
18.9182167
21
59.398975
0
LINE
8
DEFAULT_255_1_388
10
4.1939903
20
93.2799898
11
4.1939903
21
92.1062596
0
LINE
8
DEFAULT_255_1_388
10
4.1939903
20
92.1062596
11
4.8174498
21
92.1062596
0
LINE
8
DEFAULT_255_1_388
10
4.8174498
20
92.1062596
11
4.8174498
21
91.9644
0
LINE
8
DEFAULT_255_1_388
10
4.8174498
20
91.9644
11
4.0196024
21
91.9644
0
LINE
8
DEFAULT_255_1_388
10
4.0196024
20
91.9644
11
4.0196024
21
93.2799898
0
LINE
8
DEFAULT_255_1_388
10
4.0196024
20
93.2799898
11
4.1939903
21
93.2799898
0
LINE
8
DEFAULT_255_1_388
10
4.9909342
20
5.3069842
11
4.9909342
21
4.8244808
0
LINE
8
DEFAULT_255_1_388
10
3.9771349
20
5.2464454
11
3.9771349
21
5.3611981
0
LINE
8
DEFAULT_255_1_388
10
4.9909342
20
5.5816678
11
4.8174498
21
5.5816678
0
LINE
8
DEFAULT_255_1_388
10
4.1515228
20
5.3657159
11
4.1515228
21
5.2581917
0
LINE
8
DEFAULT_255_1_388
10
4.8183534
20
4.8705626
11
4.8183534
21
5.1660282
0
LINE
8
DEFAULT_255_1_388
10
4.8183534
20
5.1660282
11
4.5138521
21
5.1660282
0
LINE
8
DEFAULT_255_1_388
10
4.5138521
20
5.1660282
11
4.5138521
21
5.3069842
0
LINE
8
DEFAULT_255_1_388
10
4.5138521
20
5.3069842
11
4.9909342
21
5.3069842
0
ARC
8
DEFAULT_255_1_388
10
4.6723942
20
5.0487284
40
0.3895571
50
295.8437277
51
324.8549962
0
ARC
8
DEFAULT_255_1_388
10
4.6256325
20
5.1333619
40
0.4861381
50
291.5691164
51
296.4556269
0
ARC
8
DEFAULT_255_1_388
10
4.5681327
20
5.2869801
40
0.6501442
50
278.6622213
51
291.3047061
0
ARC
8
DEFAULT_255_1_388
10
4.5299359
20
5.5286557
40
0.8948168
50
270.0200506
51
278.7494673
0
ARC
8
DEFAULT_255_1_388
10
4.5255563
20
5.7132453
40
1.0794166
50
270.0022372
51
270.2490917
0
ARC
8
DEFAULT_255_1_388
10
4.5213456
20
5.2173827
40
0.5835695
50
253.5785313
51
270.4175629
0
ARC
8
DEFAULT_255_1_388
10
4.5018452
20
5.1418625
40
0.5056241
50
238.8203954
51
253.2788387
0
ARC
8
DEFAULT_255_1_388
10
4.4996367
20
5.1361224
40
0.4995712
50
206.7883476
51
238.696262
0
ARC
8
DEFAULT_255_1_388
10
4.5871763
20
5.1885847
40
0.6014056
50
206.1137778
51
207.4912776
0
ARC
8
DEFAULT_255_1_388
10
4.6538599
20
5.2169284
40
0.6737692
50
188.6922336
51
205.782076
0
ARC
8
DEFAULT_255_1_388
10
4.8626958
20
5.2524455
40
0.8855812
50
180.3881972
51
188.9218085
0
ARC
8
DEFAULT_255_1_388
10
5.0008116
20
5.3675622
40
1.0236965
50
170.2024645
51
180.3561986
0
ARC
8
DEFAULT_255_1_388
10
4.6449266
20
5.4312101
40
0.6621746
50
154.2856519
51
170.3893388
0
ARC
8
DEFAULT_255_1_388
10
4.500723
20
5.4972192
40
0.5036209
50
139.8400879
51
153.9334639
0
ARC
8
DEFAULT_255_1_388
10
4.4603133
20
5.5295716
40
0.4518751
50
98.4190017
51
139.6707015
0
ARC
8
DEFAULT_255_1_388
10
4.5030101
20
5.3219755
40
0.6635912
50
89.7660128
51
99.4415389
0
ARC
8
DEFAULT_255_1_388
10
4.5103497
20
5.3293517
40
0.6562258
50
78.0552044
51
90.4042252
0
ARC
8
DEFAULT_255_1_388
10
4.5558561
20
5.5339661
40
0.4466287
50
54.6380186
51
78.3338577
0
ARC
8
DEFAULT_255_1_388
10
4.5772859
20
5.5700444
40
0.4048184
50
50.0313964
51
54.1562739
0
ARC
8
DEFAULT_255_1_388
10
4.5651753
20
5.5591798
40
0.4209308
50
18.1092229
51
49.7179911
0
ARC
8
DEFAULT_255_1_388
10
4.4012833
20
5.4991399
40
0.5953982
50
7.967396
51
18.698492
0
ARC
8
DEFAULT_255_1_388
10
4.4182094
20
5.5130236
40
0.4050986
50
9.7558763
51
27.3214087
0
ARC
8
DEFAULT_255_1_388
10
4.5450559
20
5.5764087
40
0.2633168
50
27.736147
51
84.5257861
0
ARC
8
DEFAULT_255_1_388
10
4.5081968
20
5.3914988
40
0.4513019
50
82.1064239
51
90.1997295
0
ARC
8
DEFAULT_255_1_388
10
4.5025985
20
5.4486501
40
0.3941684
50
89.4148952
51
105.5824837
0
ARC
8
DEFAULT_255_1_388
10
4.4736865
20
5.5539043
40
0.2850167
50
105.6678541
51
144.2649156
0
ARC
8
DEFAULT_255_1_388
10
4.5741758
20
5.4824024
40
0.4083468
50
144.3560675
51
162.8564185
0
ARC
8
DEFAULT_255_1_388
10
4.80862
20
5.4071083
40
0.6545749
50
162.6076338
51
173.6779811
0
ARC
8
DEFAULT_255_1_388
10
5.1530315
20
5.3652422
40
1.0015089
50
173.4670996
51
179.9729015
0
ARC
8
DEFAULT_255_1_388
10
4.9383186
20
5.2534636
40
0.78681
50
179.6556955
51
190.007958
0
ARC
8
DEFAULT_255_1_388
10
4.6777468
20
5.205666
40
0.5218997
50
189.8117884
51
206.6795375
0
ARC
8
DEFAULT_255_1_388
10
4.5826914
20
5.1613514
40
0.4170788
50
207.1031171
51
217.7074698
0
ARC
8
DEFAULT_255_1_388
10
4.5113344
20
5.0992596
40
0.3226945
50
216.7345117
51
265.6812141
0
ARC
8
DEFAULT_255_1_388
10
4.5260486
20
5.201003
40
0.4253149
50
264.7367524
51
270.0610826
0
ARC
8
DEFAULT_255_1_388
10
4.5286672
20
5.5205173
40
0.7448321
50
269.8334494
51
276.0538364
0
ARC
8
DEFAULT_255_1_388
10
4.5519534
20
5.3065924
40
0.5296446
50
275.9894423
51
284.4615914
0
ARC
8
DEFAULT_255_1_388
10
4.5741047
20
5.213357
40
0.4338353
50
284.7038488
51
286.4938196
0
ARC
8
DEFAULT_255_1_388
10
4.6200196
20
5.0654371
40
0.2789738
50
286.0770429
51
304.2629628
0
ARC
8
DEFAULT_255_1_388
10
4.6350354
20
5.040868
40
0.2502188
50
304.5886247
51
317.1074126
0
LINE
8
DEFAULT_255_1_388
10
4.2430444
20
13.9049898
11
4.5601955
21
13.4008009
0
LINE
8
DEFAULT_255_1_388
10
4.5601955
20
13.4008009
11
4.8755395
21
13.9049898
0
LINE
8
DEFAULT_255_1_388
10
4.8755395
20
13.9049898
11
5.0797451
21
13.9049898
0
LINE
8
DEFAULT_255_1_388
10
5.0797451
20
13.9049898
11
4.6641054
21
13.2526163
0
LINE
8
DEFAULT_255_1_388
10
4.6641054
20
13.2526163
11
5.0896843
21
12.5894
0
LINE
8
DEFAULT_255_1_388
10
5.0896843
20
12.5894
11
4.8836716
21
12.5894
0
LINE
8
DEFAULT_255_1_388
10
4.8836716
20
12.5894
11
4.5601955
21
13.1026246
0
LINE
8
DEFAULT_255_1_388
10
4.5601955
20
13.1026246
11
4.2349123
21
12.5894
0
LINE
8
DEFAULT_255_1_388
10
4.2349123
20
12.5894
11
4.0298032
21
12.5894
0
LINE
8
DEFAULT_255_1_388
10
4.0298032
20
12.5894
11
4.4562856
21
13.2526163
0
LINE
8
DEFAULT_255_1_388
10
4.4562856
20
13.2526163
11
4.0397424
21
13.9049898
0
LINE
8
DEFAULT_255_1_388
10
4.0397424
20
13.9049898
11
4.2430444
21
13.9049898
0
LINE
8
DEFAULT_255_1_388
10
6.0971586
20
13.9049898
11
6.0971586
21
13.8110191
0
LINE
8
DEFAULT_255_1_388
10
6.0971586
20
13.8110191
11
5.5523093
21
12.5894
0
LINE
8
DEFAULT_255_1_388
10
5.5523093
20
12.5894
11
5.3770178
21
12.5894
0
LINE
8
DEFAULT_255_1_388
10
5.3770178
20
12.5894
11
5.92006
21
13.767648
0
LINE
8
DEFAULT_255_1_388
10
5.92006
20
13.767648
11
5.2080512
21
13.767648
0
LINE
8
DEFAULT_255_1_388
10
5.2080512
20
13.767648
11
5.2080512
21
13.9049898
0
LINE
8
DEFAULT_255_1_388
10
5.2080512
20
13.9049898
11
6.0971586
21
13.9049898
0
LINE
8
DEFAULT_255_1_388
10
4.2430444
20
21.8424898
11
4.5601955
21
21.3383009
0
LINE
8
DEFAULT_255_1_388
10
4.5601955
20
21.3383009
11
4.8755395
21
21.8424898
0
LINE
8
DEFAULT_255_1_388
10
4.8755395
20
21.8424898
11
5.0797451
21
21.8424898
0
LINE
8
DEFAULT_255_1_388
10
5.0797451
20
21.8424898
11
4.6641054
21
21.1901163
0
LINE
8
DEFAULT_255_1_388
10
4.6641054
20
21.1901163
11
5.0896843
21
20.5269
0
LINE
8
DEFAULT_255_1_388
10
5.0896843
20
20.5269
11
4.8836716
21
20.5269
0
LINE
8
DEFAULT_255_1_388
10
4.8836716
20
20.5269
11
4.5601955
21
21.0401246
0
LINE
8
DEFAULT_255_1_388
10
4.5601955
20
21.0401246
11
4.2349123
21
20.5269
0
LINE
8
DEFAULT_255_1_388
10
4.2349123
20
20.5269
11
4.0298032
21
20.5269
0
LINE
8
DEFAULT_255_1_388
10
4.0298032
20
20.5269
11
4.4562856
21
21.1901163
0
LINE
8
DEFAULT_255_1_388
10
4.4562856
20
21.1901163
11
4.0397424
21
21.8424898
0
LINE
8
DEFAULT_255_1_388
10
4.0397424
20
21.8424898
11
4.2430444
21
21.8424898
0
LINE
8
DEFAULT_255_1_388
10
5.8739782
20
21.8433934
11
5.9037958
21
21.8433934
0
LINE
8
DEFAULT_255_1_388
10
5.9037958
20
21.8433934
11
5.9037958
21
21.7015338
0
LINE
8
DEFAULT_255_1_388
10
5.9037958
20
21.7015338
11
5.8730747
21
21.7015338
0
LINE
8
DEFAULT_255_1_388
10
5.2577473
20
21.0274747
11
5.2577473
21
21.0916278
0
LINE
8
DEFAULT_255_1_388
10
5.4258103
20
21.0699422
11
5.4258103
21
21.0084999
0
ARC
8
DEFAULT_255_1_388
10
5.8789638
20
21.1392826
40
0.562282
50
90.6001079
51
104.5146616
0
ARC
8
DEFAULT_255_1_388
10
5.8352598
20
21.30181
40
0.3939917
50
104.2855758
51
133.8630124
0
ARC
8
DEFAULT_255_1_388
10
5.853685
20
21.2896243
40
0.4155734
50
134.5304124
51
161.6210222
0
ARC
8
DEFAULT_255_1_388
10
6.0396782
20
21.2240421
40
0.6127682
50
161.2850533
51
174.2074364
0
ARC
8
DEFAULT_255_1_388
10
6.1986349
20
21.2021437
40
0.7731446
50
173.7817938
51
174.9251711
0
ARC
8
DEFAULT_255_1_388
10
5.6860543
20
21.046627
40
0.3412588
50
95.8332067
51
138.995412
0
ARC
8
DEFAULT_255_1_388
10
5.7111823
20
20.9027695
40
0.4870358
50
89.8755506
51
97.0540979
0
ARC
8
DEFAULT_255_1_388
10
5.7165212
20
20.9967841
40
0.3930432
50
71.6407016
51
90.6240821
0
ARC
8
DEFAULT_255_1_388
10
5.7334606
20
21.0591433
40
0.3285421
50
39.6368051
51
71.0190743
0
ARC
8
DEFAULT_255_1_388
10
5.6618513
20
20.9972586
40
0.4231706
50
10.6588054
51
39.9044509
0
ARC
8
DEFAULT_255_1_388
10
5.4877059
20
20.9594223
40
0.60133
50
359.6827842
51
11.1326896
0
ARC
8
DEFAULT_255_1_388
10
5.4832395
20
20.9514715
40
0.6058047
50
347.2485908
51
0.4371098
0
ARC
8
DEFAULT_255_1_388
10
5.670818
20
20.9063379
40
0.4128987
50
318.1408565
51
347.6118497
0
ARC
8
DEFAULT_255_1_388
10
5.7073777
20
20.8762903
40
0.3656244
50
275.6342406
51
317.824739
0
ARC
8
DEFAULT_255_1_388
10
5.6825298
20
21.0224827
40
0.513655
50
269.8872513
51
276.7916069
0
ARC
8
DEFAULT_255_1_388
10
5.676349
20
20.9071181
40
0.398323
50
246.9139443
51
270.7436787
0
ARC
8
DEFAULT_255_1_388
10
5.6770686
20
20.8911044
40
0.3839368
50
218.1665534
51
245.8780431
0
ARC
8
DEFAULT_255_1_388
10
5.7760059
20
20.9738903
40
0.5128958
50
191.4115343
51
218.6077624
0
ARC
8
DEFAULT_255_1_388
10
5.9940375
20
21.0227777
40
0.7363054
50
179.6344971
51
191.7836758
0
ARC
8
DEFAULT_255_1_388
10
6.6220249
20
21.0991495
40
1.3642984
50
171.4523743
51
180.3158856
0
ARC
8
DEFAULT_255_1_388
10
6.1275976
20
21.1760895
40
0.8639311
50
157.9802296
51
171.6246761
0
ARC
8
DEFAULT_255_1_388
10
5.8785327
20
21.2754038
40
0.5958004
50
141.4299236
51
157.8541251
0
ARC
8
DEFAULT_255_1_388
10
5.806341
20
21.3264746
40
0.5075416
50
102.871586
51
140.8564533
0
ARC
8
DEFAULT_255_1_388
10
5.8791963
20
21.0519943
40
0.7914163
50
90.377773
51
103.5868422
0
ARC
8
DEFAULT_255_1_388
10
5.6836484
20
20.9839543
40
0.2667015
50
89.8751238
51
126.2072139
0
ARC
8
DEFAULT_255_1_388
10
5.6887955
20
20.9665847
40
0.2838229
50
124.9742447
51
144.8960197
0
ARC
8
DEFAULT_255_1_388
10
5.66902
20
20.9826981
40
0.2583845
50
145.2974778
51
160.2660922
0
ARC
8
DEFAULT_255_1_388
10
6.0146689
20
21.0049151
40
0.5888695
50
179.6512124
51
190.285571
0
ARC
8
DEFAULT_255_1_388
10
5.8241168
20
20.9689968
40
0.3949683
50
190.0944895
51
207.5099647
0
ARC
8
DEFAULT_255_1_388
10
5.760475
20
20.9387177
40
0.3245464
50
207.9585471
51
216.325377
0
ARC
8
DEFAULT_255_1_388
10
5.7222387
20
20.9072712
40
0.2751259
50
215.7661336
51
232.5457193
0
ARC
8
DEFAULT_255_1_388
10
5.6791503
20
20.8525273
40
0.2054668
50
232.8005815
51
270.6605497
0
ARC
8
DEFAULT_255_1_388
10
5.6842927
20
20.8934853
40
0.2464268
50
269.3550767
51
288.474612
0
ARC
8
DEFAULT_255_1_388
10
5.6947434
20
20.8541721
40
0.2058436
50
289.1831976
51
322.9685307
0
ARC
8
DEFAULT_255_1_388
10
5.6259536
20
20.9084279
40
0.2934408
50
322.6007085
51
346.5183319
0
ARC
8
DEFAULT_255_1_388
10
5.4957292
20
20.9416434
40
0.4278249
50
346.2584622
51
358.7739592
0
ARC
8
DEFAULT_255_1_388
10
5.3805867
20
20.9478829
40
0.5430876
50
358.3757628
51
0.0082477
0
ARC
8
DEFAULT_255_1_388
10
5.4662686
20
20.9509856
40
0.4574157
50
359.6211417
51
11.28403
0
ARC
8
DEFAULT_255_1_388
10
5.6099292
20
20.9809535
40
0.3106708
50
11.0483152
51
31.8145585
0
ARC
8
DEFAULT_255_1_388
10
5.6446997
20
20.9998045
40
0.2711963
50
32.3028554
51
38.0820598
0
ARC
8
DEFAULT_255_1_388
10
5.692023
20
21.0426717
40
0.2075566
50
36.8249851
51
85.741667
0
ARC
8
DEFAULT_255_1_388
10
5.6844643
20
20.9863065
40
0.2643487
50
85.0150021
51
90.050843
0
LINE
8
DEFAULT_255_1_388
10
4.2430444
20
29.7799898
11
4.5601955
21
29.2758009
0
LINE
8
DEFAULT_255_1_388
10
4.5601955
20
29.2758009
11
4.8755395
21
29.7799898
0
LINE
8
DEFAULT_255_1_388
10
4.8755395
20
29.7799898
11
5.0797451
21
29.7799898
0
LINE
8
DEFAULT_255_1_388
10
5.0797451
20
29.7799898
11
4.6641054
21
29.1276163
0
LINE
8
DEFAULT_255_1_388
10
4.6641054
20
29.1276163
11
5.0896843
21
28.4644
0
LINE
8
DEFAULT_255_1_388
10
5.0896843
20
28.4644
11
4.8836716
21
28.4644
0
LINE
8
DEFAULT_255_1_388
10
4.8836716
20
28.4644
11
4.5601955
21
28.9776246
0
LINE
8
DEFAULT_255_1_388
10
4.5601955
20
28.9776246
11
4.2349123
21
28.4644
0
LINE
8
DEFAULT_255_1_388
10
4.2349123
20
28.4644
11
4.0298032
21
28.4644
0
LINE
8
DEFAULT_255_1_388
10
4.0298032
20
28.4644
11
4.4562856
21
29.1276163
0
LINE
8
DEFAULT_255_1_388
10
4.4562856
20
29.1276163
11
4.0397424
21
29.7799898
0
LINE
8
DEFAULT_255_1_388
10
4.0397424
20
29.7799898
11
4.2430444
21
29.7799898
0
LINE
8
DEFAULT_255_1_388
10
5.4583386
20
29.0896666
11
5.324611
21
29.1240021
0
LINE
8
DEFAULT_255_1_388
10
5.324611
20
29.1240021
11
5.3914748
21
29.7799898
0
LINE
8
DEFAULT_255_1_388
10
5.3914748
20
29.7799898
11
6.0655339
21
29.7799898
0
LINE
8
DEFAULT_255_1_388
10
6.0655339
20
29.7799898
11
6.0655339
21
29.6254803
0
LINE
8
DEFAULT_255_1_388
10
6.0655339
20
29.6254803
11
5.5333344
21
29.6254803
0
LINE
8
DEFAULT_255_1_388
10
5.5333344
20
29.6254803
11
5.4935776
21
29.2667652
0
LINE
8
DEFAULT_255_1_388
10
5.2776257
20
28.8104652
11
5.4357495
21
28.8104652
0
LINE
8
DEFAULT_255_1_388
10
5.5026132
20
29.1258092
11
5.4583386
21
29.0896666
0
ARC
8
DEFAULT_255_1_388
10
5.7022389
20
28.9090241
40
0.4141476
50
93.7181681
51
120.253934
0
ARC
8
DEFAULT_255_1_388
10
5.7128442
20
28.8181284
40
0.5055616
50
89.9660471
51
94.2495185
0
ARC
8
DEFAULT_255_1_388
10
5.7174263
20
28.8844154
40
0.4392953
50
73.8045384
51
90.5585736
0
ARC
8
DEFAULT_255_1_388
10
5.7438521
20
28.980952
40
0.3392225
50
41.3071072
51
73.543002
0
ARC
8
DEFAULT_255_1_388
10
5.6970341
20
28.9406461
40
0.4009977
50
13.5075837
51
41.2174839
0
ARC
8
DEFAULT_255_1_388
10
5.5123439
20
28.8922907
40
0.5918864
50
1.1330171
51
13.8830737
0
ARC
8
DEFAULT_255_1_388
10
5.3527084
20
28.8837522
40
0.7516787
50
359.9925091
51
1.5431298
0
ARC
8
DEFAULT_255_1_388
10
5.4971699
20
28.8791027
40
0.6072343
50
347.8572712
51
0.4294349
0
ARC
8
DEFAULT_255_1_388
10
5.6940834
20
28.8344898
40
0.4053482
50
323.6727442
51
348.1674594
0
ARC
8
DEFAULT_255_1_388
10
5.7271799
20
28.8143175
40
0.3667495
50
316.8171818
51
323.1486802
0
ARC
8
DEFAULT_255_1_388
10
5.7340922
20
28.8101612
40
0.358869
50
281.839603
51
316.5458142
0
ARC
8
DEFAULT_255_1_388
10
5.691821
20
28.9851363
40
0.5388223
50
269.5770964
51
282.4214641
0
ARC
8
DEFAULT_255_1_388
10
5.6838131
20
28.961093
40
0.5147801
50
256.2425863
51
270.4486481
0
ARC
8
DEFAULT_255_1_388
10
5.6501658
20
28.8261124
40
0.3756708
50
228.9024379
51
256.33135
0
ARC
8
DEFAULT_255_1_388
10
5.6418639
20
28.8130054
40
0.360344
50
193.7536029
51
228.5272638
0
ARC
8
DEFAULT_255_1_388
10
5.7811204
20
28.8538463
40
0.5053599
50
184.9244437
51
194.4976052
0
ARC
8
DEFAULT_255_1_388
10
5.8027845
20
28.8578722
40
0.3700839
50
187.3596909
51
198.6733728
0
ARC
8
DEFAULT_255_1_388
10
5.6847088
20
28.8169373
40
0.2451195
50
198.4453795
51
217.7945479
0
ARC
8
DEFAULT_255_1_388
10
5.6514261
20
28.7933563
40
0.2043754
50
218.2887146
51
228.5613203
0
ARC
8
DEFAULT_255_1_388
10
5.6624268
20
28.8081902
40
0.2227819
50
228.9652423
51
258.1237049
0
ARC
8
DEFAULT_255_1_388
10
5.6855705
20
28.9072964
40
0.3245374
50
257.7260585
51
270.4013717
0
ARC
8
DEFAULT_255_1_388
10
5.6906203
20
28.8572255
40
0.2744726
50
269.4204315
51
286.420998
0
ARC
8
DEFAULT_255_1_388
10
5.7073259
20
28.7965705
40
0.2115721
50
286.7250065
51
320.6004665
0
ARC
8
DEFAULT_255_1_388
10
5.6642174
20
28.8315527
40
0.2670878
50
320.6712228
51
344.5440474
0
ARC
8
DEFAULT_255_1_388
10
5.5340888
20
28.8697394
40
0.4026927
50
344.241448
51
356.735803
0
ARC
8
DEFAULT_255_1_388
10
5.3937195
20
28.8813656
40
0.5435085
50
356.3547471
51
0.0507222
0
ARC
8
DEFAULT_255_1_388
10
5.543946
20
28.8848812
40
0.3932934
50
359.5579289
51
12.9534322
0
ARC
8
DEFAULT_255_1_388
10
5.66263
20
28.9136586
40
0.2711827
50
12.6489751
51
41.608121
0
ARC
8
DEFAULT_255_1_388
10
5.688546
20
28.9356946
40
0.2371737
50
41.7851122
51
85.9892156
0
ARC
8
DEFAULT_255_1_388
10
5.674677
20
28.8441738
40
0.3295244
50
84.6965848
51
90.0672125
0
ARC
8
DEFAULT_255_1_388
10
5.6720338
20
28.7690118
40
0.4046926
50
89.6804991
51
99.161352
0
ARC
8
DEFAULT_255_1_388
10
5.6489347
20
28.9070848
40
0.2647044
50
98.9836248
51
113.8905702
0
ARC
8
DEFAULT_255_1_388
10
5.6231022
20
28.9680118
40
0.1985386
50
114.195234
51
127.3641866
0
LINE
8
DEFAULT_255_1_388
10
4.3753444
20
37.7174898
11
4.6924955
21
37.2133009
0
LINE
8
DEFAULT_255_1_388
10
4.6924955
20
37.2133009
11
5.0078395
21
37.7174898
0
LINE
8
DEFAULT_255_1_388
10
5.0078395
20
37.7174898
11
5.2120451
21
37.7174898
0
LINE
8
DEFAULT_255_1_388
10
5.2120451
20
37.7174898
11
4.7964054
21
37.0651163
0
LINE
8
DEFAULT_255_1_388
10
4.7964054
20
37.0651163
11
5.2219843
21
36.4019
0
LINE
8
DEFAULT_255_1_388
10
5.2219843
20
36.4019
11
5.0159716
21
36.4019
0
LINE
8
DEFAULT_255_1_388
10
5.0159716
20
36.4019
11
4.6924955
21
36.9151246
0
LINE
8
DEFAULT_255_1_388
10
4.6924955
20
36.9151246
11
4.3672123
21
36.4019
0
LINE
8
DEFAULT_255_1_388
10
4.3672123
20
36.4019
11
4.1621032
21
36.4019
0
LINE
8
DEFAULT_255_1_388
10
4.1621032
20
36.4019
11
4.5885856
21
37.0651163
0
LINE
8
DEFAULT_255_1_388
10
4.5885856
20
37.0651163
11
4.1720424
21
37.7174898
0
LINE
8
DEFAULT_255_1_388
10
4.1720424
20
37.7174898
11
4.3753444
21
37.7174898
0
LINE
8
DEFAULT_255_1_388
10
6.0857919
20
37.7174898
11
6.0857919
21
36.843743
0
LINE
8
DEFAULT_255_1_388
10
6.0857919
20
36.843743
11
6.2683119
21
36.843743
0
LINE
8
DEFAULT_255_1_388
10
6.2683119
20
36.843743
11
6.2683119
21
36.7073048
0
LINE
8
DEFAULT_255_1_388
10
6.2683119
20
36.7073048
11
6.0857919
21
36.7073048
0
LINE
8
DEFAULT_255_1_388
10
6.0857919
20
36.7073048
11
6.0857919
21
36.4019
0
LINE
8
DEFAULT_255_1_388
10
6.0857919
20
36.4019
11
5.9177289
21
36.4019
0
LINE
8
DEFAULT_255_1_388
10
5.9177289
20
36.4019
11
5.9177289
21
36.7073048
0
LINE
8
DEFAULT_255_1_388
10
5.9177289
20
36.7073048
11
5.3186657
21
36.7073048
0
LINE
8
DEFAULT_255_1_388
10
5.3186657
20
36.7073048
11
5.3186657
21
36.8057933
0
LINE
8
DEFAULT_255_1_388
10
5.3186657
20
36.8057933
11
5.9077897
21
37.7174898
0
LINE
8
DEFAULT_255_1_388
10
5.9077897
20
37.7174898
11
6.0857919
21
37.7174898
0
LINE
8
DEFAULT_255_1_388
10
5.8978505
20
37.4527455
11
5.5084142
21
36.843743
0
LINE
8
DEFAULT_255_1_388
10
5.5084142
20
36.843743
11
5.9177289
21
36.843743
0
LINE
8
DEFAULT_255_1_388
10
5.9177289
20
36.843743
11
5.9177289
21
37.488888
0
LINE
8
DEFAULT_255_1_388
10
5.9177289
20
37.488888
11
5.8978505
21
37.4527455
0
LINE
8
DEFAULT_255_1_388
10
4.784032
20
44.7568468
11
4.9584199
21
44.7568468
0
LINE
8
DEFAULT_255_1_388
10
3.9455242
20
44.9357525
11
3.9455242
21
45.0622516
0
LINE
8
DEFAULT_255_1_388
10
4.9584199
20
45.2321217
11
4.784032
21
45.2321217
0
LINE
8
DEFAULT_255_1_388
10
4.1199121
20
45.0577337
11
4.1199121
21
44.9303312
0
ARC
8
DEFAULT_255_1_388
10
4.3418433
20
44.8240329
40
0.6202263
50
340.1774904
51
353.7812217
0
ARC
8
DEFAULT_255_1_388
10
4.5186286
20
44.7581893
40
0.4315926
50
311.4560052
51
340.4420756
0
ARC
8
DEFAULT_255_1_388
10
4.5148826
20
44.7706665
40
0.4434573
50
282.4332229
51
310.7514507
0
ARC
8
DEFAULT_255_1_388
10
4.4654644
20
44.9748703
40
0.6535262
50
269.9358869
51
282.8096729
0
ARC
8
DEFAULT_255_1_388
10
4.4596583
20
45.1261329
40
0.8048043
50
269.9995752
51
270.3612856
0
ARC
8
DEFAULT_255_1_388
10
4.4537073
20
44.8462781
40
0.5249831
50
250.7885263
51
270.6488451
0
ARC
8
DEFAULT_255_1_388
10
4.4347898
20
44.7745853
40
0.4510942
50
219.3628377
51
250.0611024
0
ARC
8
DEFAULT_255_1_388
10
4.5280772
20
44.8538653
40
0.5735046
50
193.5480293
51
219.5755675
0
ARC
8
DEFAULT_255_1_388
10
4.7948981
20
44.923152
40
0.849146
50
181.1220183
51
193.8754971
0
ARC
8
DEFAULT_255_1_388
10
5.0272214
20
44.9355914
40
1.0816971
50
179.9914644
51
181.5398227
0
ARC
8
DEFAULT_255_1_388
10
4.8195525
20
45.0664586
40
0.8740384
50
169.5837606
51
180.275782
0
ARC
8
DEFAULT_255_1_388
10
4.6128873
20
45.1046439
40
0.6638751
50
155.0367033
51
169.6002779
0
ARC
8
DEFAULT_255_1_388
10
4.4851331
20
45.1662336
40
0.5220662
50
136.7831557
51
155.2472983
0
ARC
8
DEFAULT_255_1_388
10
4.4413122
20
45.2034577
40
0.4646502
50
121.7633063
51
136.4281161
0
ARC
8
DEFAULT_255_1_388
10
4.4564962
20
45.1754049
40
0.4964979
50
95.6460018
51
121.5489589
0
ARC
8
DEFAULT_255_1_388
10
4.4741936
20
45.0506704
40
0.6223912
50
89.9245727
51
96.1375919
0
ARC
8
DEFAULT_255_1_388
10
4.4798641
20
45.0640721
40
0.6090084
50
76.6779212
51
90.456405
0
ARC
8
DEFAULT_255_1_388
10
4.5241454
20
45.243006
40
0.42469
50
47.4858803
51
76.9287069
0
ARC
8
DEFAULT_255_1_388
10
4.5076068
20
45.2317623
40
0.4441778
50
16.5424081
51
46.8934505
0
ARC
8
DEFAULT_255_1_388
10
4.3267118
20
45.1723265
40
0.6345318
50
5.4072971
51
17.0363711
0
ARC
8
DEFAULT_255_1_388
10
4.1648843
20
45.1463304
40
0.6250632
50
7.8888693
51
15.9242022
0
ARC
8
DEFAULT_255_1_388
10
4.3883828
20
45.2112309
40
0.3923364
50
15.7650676
51
27.9410069
0
ARC
8
DEFAULT_255_1_388
10
4.5125997
20
45.2777317
40
0.2514401
50
27.8167196
51
46.4007942
0
ARC
8
DEFAULT_255_1_388
10
4.5181839
20
45.2770882
40
0.2480958
50
47.4372362
51
75.0695672
0
ARC
8
DEFAULT_255_1_388
10
4.4834675
20
45.1562277
40
0.3738281
50
74.7009379
51
87.8124314
0
ARC
8
DEFAULT_255_1_388
10
4.4752292
20
45.0378659
40
0.4924321
50
87.3802571
51
90.0251599
0
ARC
8
DEFAULT_255_1_388
10
4.4708939
20
45.1698997
40
0.3604218
50
89.3451886
51
108.5744412
0
ARC
8
DEFAULT_255_1_388
10
4.4554931
20
45.2276836
40
0.3007661
50
109.2998307
51
143.3037387
0
ARC
8
DEFAULT_255_1_388
10
4.5412221
20
45.1617584
40
0.4089031
50
143.075267
51
163.1918576
0
ARC
8
DEFAULT_255_1_388
10
4.7608055
20
45.0924652
40
0.6391492
50
162.9375929
51
174.6208776
0
ARC
8
DEFAULT_255_1_388
10
5.0562437
20
45.0600711
40
0.9363344
50
174.342123
51
180.1430283
0
ARC
8
DEFAULT_255_1_388
10
4.9514978
20
44.9257117
40
0.8315986
50
179.6817261
51
189.150555
0
ARC
8
DEFAULT_255_1_388
10
4.6701727
20
44.8788559
40
0.5464044
50
188.9911061
51
203.5772363
0
ARC
8
DEFAULT_255_1_388
10
4.5487019
20
44.8284539
40
0.4149206
50
203.9075402
51
215.1312435
0
ARC
8
DEFAULT_255_1_388
10
4.4448817
20
44.7479907
40
0.2837747
50
213.9071511
51
263.8848919
0
ARC
8
DEFAULT_255_1_388
10
4.458981
20
44.8362519
40
0.3730641
50
263.1757928
51
270.1031044
0
ARC
8
DEFAULT_255_1_388
10
4.462589
20
44.9765511
40
0.5133712
50
269.6722503
51
279.0606936
0
ARC
8
DEFAULT_255_1_388
10
4.4926045
20
44.795115
40
0.3294739
50
278.8749101
51
293.6349581
0
ARC
8
DEFAULT_255_1_388
10
4.5286249
20
44.7105251
40
0.2375405
50
293.8553806
51
310.0518171
0
ARC
8
DEFAULT_255_1_388
10
4.5291758
20
44.7035021
40
0.2318463
50
311.0644687
51
332.0111037
0
ARC
8
DEFAULT_255_1_388
10
4.3950431
20
44.7774702
40
0.3850112
50
331.6586806
51
343.2877423
0
ARC
8
DEFAULT_255_1_388
10
4.1629896
20
44.8487806
40
0.6277712
50
343.1446576
51
351.0103568
0
ARC
8
DEFAULT_255_1_388
10
3.999722
20
44.8787873
40
0.7937327
50
350.71248
51
351.1626997
0
LINE
8
DEFAULT_255_1_388
10
5.7011499
20
45.6613148
11
5.7011499
21
44.3394
0
LINE
8
DEFAULT_255_1_388
10
5.7011499
20
44.3394
11
5.5330869
21
44.3394
0
LINE
8
DEFAULT_255_1_388
10
5.5330869
20
44.3394
11
5.5330869
21
45.453495
0
LINE
8
DEFAULT_255_1_388
10
5.5330869
20
45.453495
11
5.1960574
21
45.3297066
0
LINE
8
DEFAULT_255_1_388
10
5.1960574
20
45.3297066
11
5.1960574
21
45.4815055
0
LINE
8
DEFAULT_255_1_388
10
5.1960574
20
45.4815055
11
5.6749465
21
45.6613148
0
LINE
8
DEFAULT_255_1_388
10
5.6749465
20
45.6613148
11
5.7011499
21
45.6613148
0
LINE
8
DEFAULT_255_1_388
10
4.2430444
20
53.5924898
11
4.5601955
21
53.0883009
0
LINE
8
DEFAULT_255_1_388
10
4.5601955
20
53.0883009
11
4.8755395
21
53.5924898
0
LINE
8
DEFAULT_255_1_388
10
4.8755395
20
53.5924898
11
5.0797451
21
53.5924898
0
LINE
8
DEFAULT_255_1_388
10
5.0797451
20
53.5924898
11
4.6641054
21
52.9401163
0
LINE
8
DEFAULT_255_1_388
10
4.6641054
20
52.9401163
11
5.0896843
21
52.2769
0
LINE
8
DEFAULT_255_1_388
10
5.0896843
20
52.2769
11
4.8836716
21
52.2769
0
LINE
8
DEFAULT_255_1_388
10
4.8836716
20
52.2769
11
4.5601955
21
52.7901246
0
LINE
8
DEFAULT_255_1_388
10
4.5601955
20
52.7901246
11
4.2349123
21
52.2769
0
LINE
8
DEFAULT_255_1_388
10
4.2349123
20
52.2769
11
4.0298032
21
52.2769
0
LINE
8
DEFAULT_255_1_388
10
4.0298032
20
52.2769
11
4.4562856
21
52.9401163
0
LINE
8
DEFAULT_255_1_388
10
4.4562856
20
52.9401163
11
4.0397424
21
53.5924898
0
LINE
8
DEFAULT_255_1_388
10
4.0397424
20
53.5924898
11
4.2430444
21
53.5924898
0
LINE
8
DEFAULT_255_1_388
10
5.4908669
20
52.8795775
11
5.4908669
21
53.0160157
0
LINE
8
DEFAULT_255_1_388
10
5.4908669
20
53.0160157
11
5.6164624
21
53.0160157
0
LINE
8
DEFAULT_255_1_388
10
5.4023176
20
53.2473282
11
5.2351582
21
53.2473282
0
LINE
8
DEFAULT_255_1_388
10
5.2234118
20
52.6238688
11
5.3914748
21
52.6238688
0
LINE
8
DEFAULT_255_1_388
10
5.6164624
20
52.8795775
11
5.4908669
21
52.8795775
0
ARC
8
DEFAULT_255_1_388
10
5.613185
20
53.3976922
40
0.3816905
50
270.491971
51
281.8953028
0
ARC
8
DEFAULT_255_1_388
10
5.6403277
20
53.2737199
40
0.2547877
50
281.6690378
51
301.2943765
0
ARC
8
DEFAULT_255_1_388
10
5.6594728
20
53.2386926
40
0.2149197
50
301.7834992
51
311.754567
0
ARC
8
DEFAULT_255_1_388
10
5.669777
20
53.227265
40
0.1995326
50
311.7325027
51
354.2803031
0
ARC
8
DEFAULT_255_1_388
10
5.5880186
20
53.241328
40
0.2823461
50
353.0941646
51
0.1174696
0
ARC
8
DEFAULT_255_1_388
10
5.5361744
20
53.2466874
40
0.3342238
50
359.1804452
51
15.0452323
0
ARC
8
DEFAULT_255_1_388
10
5.6875802
20
53.2908546
40
0.1765747
50
13.957816
51
77.6713812
0
ARC
8
DEFAULT_255_1_388
10
5.6441038
20
53.1350464
40
0.3381982
50
76.111571
51
90.7028736
0
ARC
8
DEFAULT_255_1_388
10
5.637445
20
53.165825
40
0.3074046
50
89.5321574
51
103.5319393
0
ARC
8
DEFAULT_255_1_388
10
5.6148833
20
53.2557443
40
0.2147041
50
103.2930114
51
133.5619756
0
ARC
8
DEFAULT_255_1_388
10
5.6098775
20
53.2624351
40
0.2064084
50
133.8349761
51
173.5343225
0
ARC
8
DEFAULT_255_1_388
10
5.6912432
20
53.2480144
40
0.2889266
50
172.5097183
51
180.1360699
0
ARC
8
DEFAULT_255_1_388
10
5.5842196
20
53.251888
40
0.3490913
50
155.3483706
51
180.7484035
0
ARC
8
DEFAULT_255_1_388
10
5.5787172
20
53.2486519
40
0.3454798
50
131.5745177
51
154.4799474
0
ARC
8
DEFAULT_255_1_388
10
5.6139455
20
53.2130422
40
0.3955058
50
96.9874487
51
131.9690874
0
ARC
8
DEFAULT_255_1_388
10
5.6386347
20
53.0729407
40
0.537622
50
89.8592909
51
97.7827481
0
ARC
8
DEFAULT_255_1_388
10
5.6440456
20
53.043436
40
0.5671399
50
78.3654493
51
90.4132586
0
ARC
8
DEFAULT_255_1_388
10
5.6843097
20
53.2300918
40
0.3762034
50
56.6229818
51
78.6387103
0
ARC
8
DEFAULT_255_1_388
10
5.7084927
20
53.2723846
40
0.3275964
50
47.0254604
51
56.085558
0
ARC
8
DEFAULT_255_1_388
10
5.7107178
20
53.2768189
40
0.3228382
50
10.9207523
51
46.777927
0
ARC
8
DEFAULT_255_1_388
10
5.5572772
20
53.2413401
40
0.4802559
50
359.6364235
51
11.6087615
0
ARC
8
DEFAULT_255_1_388
10
5.7636937
20
53.2396404
40
0.273833
50
332.3549969
51
359.7179765
0
ARC
8
DEFAULT_255_1_388
10
5.6905338
20
53.2743285
40
0.3547505
50
325.2332381
51
332.8746682
0
ARC
8
DEFAULT_255_1_388
10
5.7076921
20
53.2623763
40
0.3338396
50
292.9803892
51
325.2391113
0
ARC
8
DEFAULT_255_1_388
10
5.6766117
20
53.3228679
40
0.4016959
50
292.542178
51
293.6931461
0
ARC
8
DEFAULT_255_1_388
10
5.7209688
20
52.5963036
40
0.372079
50
57.643292
51
72.8626085
0
ARC
8
DEFAULT_255_1_388
10
5.7608523
20
52.6609273
40
0.2961455
50
36.7246661
51
57.4701329
0
ARC
8
DEFAULT_255_1_388
10
5.759568
20
52.662347
40
0.2963321
50
8.054535
51
36.3561529
0
ARC
8
DEFAULT_255_1_388
10
5.6625352
20
52.6449073
40
0.3948682
50
359.8316595
51
8.5873361
0
ARC
8
DEFAULT_255_1_388
10
5.6202827
20
52.639497
40
0.4371398
50
343.9831631
51
0.557075
0
ARC
8
DEFAULT_255_1_388
10
5.7199876
20
52.6121963
40
0.3337749
50
311.6358204
51
343.7652116
0
ARC
8
DEFAULT_255_1_388
10
5.677413
20
52.6601955
40
0.3979351
50
279.7829743
51
311.625622
0
ARC
8
DEFAULT_255_1_388
10
5.6435265
20
52.8218642
40
0.5630417
50
269.7285092
51
280.3857694
0
ARC
8
DEFAULT_255_1_388
10
5.6365578
20
52.8172241
40
0.5584119
50
256.6827433
51
270.4412869
0
ARC
8
DEFAULT_255_1_388
10
5.5984565
20
52.6614698
40
0.3980715
50
229.4223821
51
256.8554507
0
ARC
8
DEFAULT_255_1_388
10
5.5518118
20
52.6089683
40
0.3278564
50
181.8183354
51
229.6455015
0
ARC
8
DEFAULT_255_1_388
10
5.6687727
20
52.6236825
40
0.4453611
50
179.9760419
51
183.2330638
0
ARC
8
DEFAULT_255_1_388
10
5.649428
20
52.6213781
40
0.2579652
50
179.4467996
51
196.2871626
0
ARC
8
DEFAULT_255_1_388
10
5.5945733
20
52.6063709
40
0.2011057
50
196.5661293
51
227.7059371
0
ARC
8
DEFAULT_255_1_388
10
5.6130341
20
52.6270155
40
0.2287994
50
227.7653015
51
257.8763321
0
ARC
8
DEFAULT_255_1_388
10
5.6383424
20
52.7330961
40
0.3378385
50
257.4583525
51
270.4267406
0
ARC
8
DEFAULT_255_1_388
10
5.6434673
20
52.765723
40
0.3704652
50
269.5965319
51
280.8788143
0
ARC
8
DEFAULT_255_1_388
10
5.6692901
20
52.6367529
40
0.2389415
50
280.6347277
51
299.8594068
0
ARC
8
DEFAULT_255_1_388
10
5.6907671
20
52.5959736
40
0.19289
50
300.3575552
51
314.5515667
0
ARC
8
DEFAULT_255_1_388
10
5.6814347
20
52.6028025
40
0.204312
50
315.0730962
51
345.0429362
0
ARC
8
DEFAULT_255_1_388
10
5.5775854
20
52.6330539
40
0.31246
50
344.598526
51
357.9270698
0
ARC
8
DEFAULT_255_1_388
10
5.4766159
20
52.6399705
40
0.4136265
50
357.4755098
51
0.0224936
0
ARC
8
DEFAULT_255_1_388
10
5.5919037
20
52.6427099
40
0.2983498
50
359.5051035
51
13.4236939
0
ARC
8
DEFAULT_255_1_388
10
5.6894127
20
52.6676637
40
0.1977186
50
12.9497905
51
48.7550905
0
ARC
8
DEFAULT_255_1_388
10
5.6689048
20
52.6396373
40
0.2323321
50
49.509109
51
72.1832965
0
ARC
8
DEFAULT_255_1_388
10
5.6286517
20
52.5201632
40
0.358397
50
71.9008458
51
84.3555134
0
ARC
8
DEFAULT_255_1_388
10
5.6104911
20
52.3669712
40
0.512641
50
84.019632
51
89.3326067
0
LINE
8
DEFAULT_255_1_388
10
4.2430444
20
61.5299898
11
4.5601955
21
61.0258009
0
LINE
8
DEFAULT_255_1_388
10
4.5601955
20
61.0258009
11
4.8755395
21
61.5299898
0
LINE
8
DEFAULT_255_1_388
10
4.8755395
20
61.5299898
11
5.0797451
21
61.5299898
0
LINE
8
DEFAULT_255_1_388
10
5.0797451
20
61.5299898
11
4.6641054
21
60.8776163
0
LINE
8
DEFAULT_255_1_388
10
4.6641054
20
60.8776163
11
5.0896843
21
60.2144
0
LINE
8
DEFAULT_255_1_388
10
5.0896843
20
60.2144
11
4.8836716
21
60.2144
0
LINE
8
DEFAULT_255_1_388
10
4.8836716
20
60.2144
11
4.5601955
21
60.7276246
0
LINE
8
DEFAULT_255_1_388
10
4.5601955
20
60.7276246
11
4.2349123
21
60.2144
0
LINE
8
DEFAULT_255_1_388
10
4.2349123
20
60.2144
11
4.0298032
21
60.2144
0
LINE
8
DEFAULT_255_1_388
10
4.0298032
20
60.2144
11
4.4562856
21
60.8776163
0
LINE
8
DEFAULT_255_1_388
10
4.4562856
20
60.8776163
11
4.0397424
21
61.5299898
0
LINE
8
DEFAULT_255_1_388
10
4.0397424
20
61.5299898
11
4.2430444
21
61.5299898
0
LINE
8
DEFAULT_255_1_388
10
6.1098085
20
60.3508382
11
6.1098085
21
60.2144
0
LINE
8
DEFAULT_255_1_388
10
6.1098085
20
60.2144
11
5.2478081
21
60.2144
0
LINE
8
DEFAULT_255_1_388
10
5.2478081
20
60.2144
11
5.2478081
21
60.3345741
0
LINE
8
DEFAULT_255_1_388
10
5.2478081
20
60.3345741
11
5.7032045
21
60.8405702
0
LINE
8
DEFAULT_255_1_388
10
5.3896677
20
61.1423607
11
5.2225083
21
61.1423607
0
LINE
8
DEFAULT_255_1_388
10
5.8016931
20
60.733046
11
5.4493029
21
60.3508382
0
LINE
8
DEFAULT_255_1_388
10
5.4493029
20
60.3508382
11
6.1098085
21
60.3508382
0
ARC
8
DEFAULT_255_1_388
10
4.1856105
20
62.1825983
40
2.0258655
50
318.5132526
51
320.7829045
0
ARC
8
DEFAULT_255_1_388
10
4.7804062
20
61.6984929
40
1.2589638
50
320.7372878
51
323.9739031
0
ARC
8
DEFAULT_255_1_388
10
5.2212994
20
61.3790554
40
0.7145141
50
323.8962701
51
328.64194
0
ARC
8
DEFAULT_255_1_388
10
5.4515251
20
61.2370545
40
0.4440242
50
328.8294576
51
331.7891185
0
ARC
8
DEFAULT_255_1_388
10
5.5637571
20
61.1791374
40
0.3177517
50
331.4254512
51
352.9365785
0
ARC
8
DEFAULT_255_1_388
10
5.5790571
20
61.175705
40
0.3021496
50
353.2257659
51
0.0166158
0
ARC
8
DEFAULT_255_1_388
10
5.6027332
20
61.1782894
40
0.2784847
50
359.486299
51
15.9343185
0
ARC
8
DEFAULT_255_1_388
10
5.6597599
20
61.1936269
40
0.2194403
50
16.1712913
51
43.5286088
0
ARC
8
DEFAULT_255_1_388
10
5.6684543
20
61.2023191
40
0.2071504
50
43.4417391
51
83.1661095
0
ARC
8
DEFAULT_255_1_388
10
5.6533704
20
61.1194316
40
0.2912888
50
82.160179
51
90.1505708
0
ARC
8
DEFAULT_255_1_388
10
5.6498186
20
61.0590279
40
0.3517025
50
89.5460741
51
102.5418361
0
ARC
8
DEFAULT_255_1_388
10
5.6224906
20
61.1749933
40
0.2325748
50
102.1738499
51
129.206123
0
ARC
8
DEFAULT_255_1_388
10
5.6136359
20
61.1889664
40
0.2161591
50
129.72865
51
135.753947
0
ARC
8
DEFAULT_255_1_388
10
5.6272841
20
61.1780728
40
0.2335433
50
136.1757367
51
166.3673339
0
ARC
8
DEFAULT_255_1_388
10
5.740553
20
61.1477148
40
0.3507873
50
165.9090694
51
178.8684636
0
ARC
8
DEFAULT_255_1_388
10
5.8381301
20
61.1424263
40
0.4484624
50
178.4391136
51
180.0083808
0
ARC
8
DEFAULT_255_1_388
10
5.6802003
20
61.1468197
40
0.4577138
50
163.2878482
51
180.5581842
0
ARC
8
DEFAULT_255_1_388
10
5.5900044
20
61.1716393
40
0.3641968
50
133.4540601
51
162.947111
0
ARC
8
DEFAULT_255_1_388
10
5.6100926
20
61.1502789
40
0.3935189
50
100.7869829
51
133.4382499
0
ARC
8
DEFAULT_255_1_388
10
5.6492171
20
60.9760399
40
0.5720313
50
89.660664
51
101.3702276
0
ARC
8
DEFAULT_255_1_388
10
5.656678
20
60.9829263
40
0.5651495
50
78.2172678
51
90.412935
0
ARC
8
DEFAULT_255_1_388
10
5.6966245
20
61.1656511
40
0.378122
50
55.9269121
51
78.4888449
0
ARC
8
DEFAULT_255_1_388
10
5.7186961
20
61.2037187
40
0.3342379
50
47.929771
51
55.4049217
0
ARC
8
DEFAULT_255_1_388
10
5.7301491
20
61.2153618
40
0.3179217
50
4.334829
51
48.0560205
0
ARC
8
DEFAULT_255_1_388
10
5.6069293
20
61.1962487
40
0.442341
50
359.9251713
51
5.5971671
0
ARC
8
DEFAULT_255_1_388
10
5.6551447
20
61.2025728
40
0.3941854
50
337.8914027
51
358.9967534
0
ARC
8
DEFAULT_255_1_388
10
5.3499017
20
61.3203295
40
0.7213271
50
326.9132501
51
338.3508308
0
ARC
8
DEFAULT_255_1_388
10
4.9015129
20
61.6077105
40
1.2538973
50
319.6471833
51
327.0959558
0
ARC
8
DEFAULT_255_1_388
10
4.4701787
20
61.963505
40
1.8129975
50
317.2588228
51
319.9045804
0
LINE
8
DEFAULT_255_1_388
10
4.2350444
20
69.4674898
11
4.5521955
21
68.9633009
0
LINE
8
DEFAULT_255_1_388
10
4.5521955
20
68.9633009
11
4.8675395
21
69.4674898
0
LINE
8
DEFAULT_255_1_388
10
4.8675395
20
69.4674898
11
5.0717451
21
69.4674898
0
LINE
8
DEFAULT_255_1_388
10
5.0717451
20
69.4674898
11
4.6561054
21
68.8151163
0
LINE
8
DEFAULT_255_1_388
10
4.6561054
20
68.8151163
11
5.0816843
21
68.1519
0
LINE
8
DEFAULT_255_1_388
10
5.0816843
20
68.1519
11
4.8756716
21
68.1519
0
LINE
8
DEFAULT_255_1_388
10
4.8756716
20
68.1519
11
4.5521955
21
68.6651246
0
LINE
8
DEFAULT_255_1_388
10
4.5521955
20
68.6651246
11
4.2269123
21
68.1519
0
LINE
8
DEFAULT_255_1_388
10
4.2269123
20
68.1519
11
4.0218032
21
68.1519
0
LINE
8
DEFAULT_255_1_388
10
4.0218032
20
68.1519
11
4.4482856
21
68.8151163
0
LINE
8
DEFAULT_255_1_388
10
4.4482856
20
68.8151163
11
4.0317424
21
69.4674898
0
LINE
8
DEFAULT_255_1_388
10
4.0317424
20
69.4674898
11
4.2350444
21
69.4674898
0
LINE
8
DEFAULT_255_1_388
10
5.7891752
20
69.4738148
11
5.7891752
21
68.1519
0
LINE
8
DEFAULT_255_1_388
10
5.7891752
20
68.1519
11
5.6211123
21
68.1519
0
LINE
8
DEFAULT_255_1_388
10
5.6211123
20
68.1519
11
5.6211123
21
69.265995
0
LINE
8
DEFAULT_255_1_388
10
5.6211123
20
69.265995
11
5.2840827
21
69.1422066
0
LINE
8
DEFAULT_255_1_388
10
5.2840827
20
69.1422066
11
5.2840827
21
69.2940055
0
LINE
8
DEFAULT_255_1_388
10
5.2840827
20
69.2940055
11
5.7629719
21
69.4738148
0
LINE
8
DEFAULT_255_1_388
10
5.7629719
20
69.4738148
11
5.7891752
21
69.4738148
0
LINE
8
DEFAULT_255_1_388
10
4.2430444
20
77.4049898
11
4.5601955
21
76.9008009
0
LINE
8
DEFAULT_255_1_388
10
4.5601955
20
76.9008009
11
4.8755395
21
77.4049898
0
LINE
8
DEFAULT_255_1_388
10
4.8755395
20
77.4049898
11
5.0797451
21
77.4049898
0
LINE
8
DEFAULT_255_1_388
10
5.0797451
20
77.4049898
11
4.6641054
21
76.7526163
0
LINE
8
DEFAULT_255_1_388
10
4.6641054
20
76.7526163
11
5.0896843
21
76.0894
0
LINE
8
DEFAULT_255_1_388
10
5.0896843
20
76.0894
11
4.8836716
21
76.0894
0
LINE
8
DEFAULT_255_1_388
10
4.8836716
20
76.0894
11
4.5601955
21
76.6026246
0
LINE
8
DEFAULT_255_1_388
10
4.5601955
20
76.6026246
11
4.2349123
21
76.0894
0
LINE
8
DEFAULT_255_1_388
10
4.2349123
20
76.0894
11
4.0298032
21
76.0894
0
LINE
8
DEFAULT_255_1_388
10
4.0298032
20
76.0894
11
4.4562856
21
76.7526163
0
LINE
8
DEFAULT_255_1_388
10
4.4562856
20
76.7526163
11
4.0397424
21
77.4049898
0
LINE
8
DEFAULT_255_1_388
10
4.0397424
20
77.4049898
11
4.2430444
21
77.4049898
0
LINE
8
DEFAULT_255_1_388
10
6.0727624
20
76.867369
11
6.0727624
21
76.6505135
0
LINE
8
DEFAULT_255_1_388
10
5.2423867
20
76.6279244
11
5.2423867
21
76.8511048
0
LINE
8
DEFAULT_255_1_388
10
5.905603
20
76.6053353
11
5.905603
21
76.8791153
0
LINE
8
DEFAULT_255_1_388
10
5.4095461
20
76.8917652
11
5.4095461
21
76.6243102
0
ARC
8
DEFAULT_255_1_388
10
4.6949958
20
76.6450118
40
1.3777776
50
353.8440855
51
0.2287917
0
ARC
8
DEFAULT_255_1_388
10
5.2168975
20
76.5867414
40
0.852639
50
344.4934746
51
353.9763743
0
ARC
8
DEFAULT_255_1_388
10
5.5535783
20
76.4910191
40
0.5026273
50
329.2803599
51
344.7473406
0
ARC
8
DEFAULT_255_1_388
10
5.6651278
20
76.4298038
40
0.3754848
50
324.9361395
51
328.6153007
0
ARC
8
DEFAULT_255_1_388
10
5.7076928
20
76.4000586
40
0.3235566
50
280.5801797
51
324.9173226
0
ARC
8
DEFAULT_255_1_388
10
5.6625557
20
76.5880236
40
0.5167077
50
269.5979457
51
281.6732777
0
ARC
8
DEFAULT_255_1_388
10
5.654446
20
76.5745113
40
0.5032026
50
256.6228565
51
270.5105488
0
ARC
8
DEFAULT_255_1_388
10
5.6092203
20
76.4003345
40
0.3233092
50
215.8618351
51
257.2787793
0
ARC
8
DEFAULT_255_1_388
10
5.724091
20
76.4774106
40
0.4615831
50
197.9695203
51
215.2622745
0
ARC
8
DEFAULT_255_1_388
10
6.0036586
20
76.5717641
40
0.7566307
50
187.8816486
51
198.2346584
0
ARC
8
DEFAULT_255_1_388
10
6.4489824
20
76.6360453
40
1.2065653
50
180.8977266
51
188.0054894
0
ARC
8
DEFAULT_255_1_388
10
6.7540038
20
76.64754
40
1.5117443
50
180.7434591
51
181.152202
0
ARC
8
DEFAULT_255_1_388
10
6.5865034
20
76.8565371
40
1.3441277
50
173.7674302
51
180.2315596
0
ARC
8
DEFAULT_255_1_388
10
6.0782902
20
76.9139779
40
0.8326847
50
164.3058537
51
173.9000553
0
ARC
8
DEFAULT_255_1_388
10
5.7506902
20
77.0083652
40
0.4917711
50
148.7922028
51
164.5682288
0
ARC
8
DEFAULT_255_1_388
10
5.643764
20
77.0680457
40
0.3694204
50
144.5883979
51
148.1161588
0
ARC
8
DEFAULT_255_1_388
10
5.6050385
20
77.0950667
40
0.322202
50
101.6440149
51
144.5142619
0
ARC
8
DEFAULT_255_1_388
10
5.6528577
20
76.9050337
40
0.5180451
50
89.528284
51
102.5820197
0
ARC
8
DEFAULT_255_1_388
10
5.6617569
20
76.9006376
40
0.5224441
50
77.0437914
51
90.508231
0
ARC
8
DEFAULT_255_1_388
10
5.7069823
20
77.0854272
40
0.3322297
50
48.2777708
51
77.4996087
0
ARC
8
DEFAULT_255_1_388
10
5.7151563
20
77.0999557
40
0.315966
50
36.3141586
51
47.6307332
0
ARC
8
DEFAULT_255_1_388
10
5.6174285
20
77.0341159
40
0.4337313
50
18.2931065
51
35.6770203
0
ARC
8
DEFAULT_255_1_388
10
5.3313126
20
76.9359107
40
0.7362203
50
8.0246996
51
18.5605636
0
ARC
8
DEFAULT_255_1_388
10
4.8629481
20
76.8667432
40
1.2096583
50
1.127539
51
8.1718423
0
ARC
8
DEFAULT_255_1_388
10
4.4980615
20
76.8524374
40
1.5747719
50
0.5432713
51
1.38669
0
ARC
8
DEFAULT_255_1_388
10
4.7037994
20
76.8831163
40
1.2018103
50
359.8092569
51
4.9408001
0
ARC
8
DEFAULT_255_1_388
10
5.1774575
20
76.92539
40
0.7262727
50
4.8364937
51
12.2906017
0
ARC
8
DEFAULT_255_1_388
10
5.487404
20
76.9944485
40
0.4087324
50
12.0806994
51
23.8171225
0
ARC
8
DEFAULT_255_1_388
10
5.6194436
20
77.0503508
40
0.2653719
50
24.2874621
51
31.3934353
0
ARC
8
DEFAULT_255_1_388
10
5.6784872
20
77.0889822
40
0.1948607
50
30.7407708
51
82.4658033
0
ARC
8
DEFAULT_255_1_388
10
5.6582532
20
76.9896017
40
0.2961198
50
81.1057101
51
90.2187368
0
ARC
8
DEFAULT_255_1_388
10
5.6542344
20
77.0186421
40
0.2670929
50
89.380395
51
105.6763916
0
ARC
8
DEFAULT_255_1_388
10
5.6336066
20
77.093632
40
0.1893189
50
105.7980655
51
149.7387869
0
ARC
8
DEFAULT_255_1_388
10
5.7533206
20
77.0216719
40
0.3289892
50
149.4208441
51
163.628295
0
ARC
8
DEFAULT_255_1_388
10
5.9885436
20
76.9499345
40
0.5749004
50
163.3764549
51
172.141138
0
ARC
8
DEFAULT_255_1_388
10
6.3598157
20
76.8967582
40
0.9499585
50
172.0258462
51
178.0705453
0
ARC
8
DEFAULT_255_1_388
10
6.701971
20
76.8805682
40
1.2924734
50
177.8639301
51
179.5036263
0
ARC
8
DEFAULT_255_1_388
10
6.5800729
20
76.6202151
40
1.170534
50
179.7995545
51
185.246089
0
ARC
8
DEFAULT_255_1_388
10
6.1252322
20
76.5771404
40
0.7136613
50
185.1411911
51
193.0082205
0
ARC
8
DEFAULT_255_1_388
10
5.8278583
20
76.5068441
40
0.4080987
50
192.7897338
51
205.2507384
0
ARC
8
DEFAULT_255_1_388
10
5.7100793
20
76.4542538
40
0.2791522
50
205.8001921
51
211.2545876
0
ARC
8
DEFAULT_255_1_388
10
5.6512332
20
76.4148132
40
0.2084074
50
210.3789935
51
238.4007996
0
ARC
8
DEFAULT_255_1_388
10
5.6490418
20
76.4200786
40
0.2117943
50
239.6521916
51
265.9793852
0
ARC
8
DEFAULT_255_1_388
10
5.6586267
20
76.4957358
40
0.2879689
50
265.1324455
51
270.0603288
0
ARC
8
DEFAULT_255_1_388
10
5.6618644
20
76.4592418
40
0.2514919
50
269.3314378
51
287.2180039
0
ARC
8
DEFAULT_255_1_388
10
5.6773726
20
76.4026291
40
0.1928357
50
287.7957942
51
329.0808983
0
ARC
8
DEFAULT_255_1_388
10
5.5696483
20
76.4698651
40
0.319808
50
328.6635261
51
343.3325043
0
ARC
8
DEFAULT_255_1_388
10
5.3251942
20
76.5460195
40
0.5758408
50
343.0498092
51
351.9392499
0
ARC
8
DEFAULT_255_1_388
10
4.9351263
20
76.6035205
40
0.9701202
50
351.8071632
51
357.7957897
0
ARC
8
DEFAULT_255_1_388
10
4.571674
20
76.6223724
40
1.3340376
50
357.5870923
51
359.2682493
0
LINE
8
DEFAULT_255_1_388
10
4.791432
20
84.4443468
11
4.9658199
21
84.4443468
0
LINE
8
DEFAULT_255_1_388
10
3.9529242
20
84.6232525
11
3.9529242
21
84.7497516
0
LINE
8
DEFAULT_255_1_388
10
4.9658199
20
84.9196217
11
4.791432
21
84.9196217
0
LINE
8
DEFAULT_255_1_388
10
4.1273121
20
84.7452337
11
4.1273121
21
84.6178312
0
ARC
8
DEFAULT_255_1_388
10
4.3492433
20
84.5115329
40
0.6202263
50
340.1774904
51
353.7812217
0
ARC
8
DEFAULT_255_1_388
10
4.5260286
20
84.4456893
40
0.4315926
50
311.4560052
51
340.4420756
0
ARC
8
DEFAULT_255_1_388
10
4.5222826
20
84.4581665
40
0.4434573
50
282.4332229
51
310.7514507
0
ARC
8
DEFAULT_255_1_388
10
4.4728644
20
84.6623703
40
0.6535262
50
269.9358869
51
282.8096729
0
ARC
8
DEFAULT_255_1_388
10
4.4670583
20
84.8136329
40
0.8048043
50
269.9995752
51
270.3612856
0
ARC
8
DEFAULT_255_1_388
10
4.4611073
20
84.5337781
40
0.5249831
50
250.7885263
51
270.6488451
0
ARC
8
DEFAULT_255_1_388
10
4.4421898
20
84.4620853
40
0.4510942
50
219.3628377
51
250.0611024
0
ARC
8
DEFAULT_255_1_388
10
4.5354772
20
84.5413653
40
0.5735046
50
193.5480293
51
219.5755675
0
ARC
8
DEFAULT_255_1_388
10
4.8022981
20
84.610652
40
0.849146
50
181.1220183
51
193.8754971
0
ARC
8
DEFAULT_255_1_388
10
5.0346214
20
84.6230914
40
1.0816971
50
179.9914644
51
181.5398227
0
ARC
8
DEFAULT_255_1_388
10
4.8269525
20
84.7539586
40
0.8740384
50
169.5837606
51
180.275782
0
ARC
8
DEFAULT_255_1_388
10
4.6202873
20
84.7921439
40
0.6638751
50
155.0367033
51
169.6002779
0
ARC
8
DEFAULT_255_1_388
10
4.4925331
20
84.8537336
40
0.5220662
50
136.7831557
51
155.2472983
0
ARC
8
DEFAULT_255_1_388
10
4.4487122
20
84.8909577
40
0.4646502
50
121.7633063
51
136.4281161
0
ARC
8
DEFAULT_255_1_388
10
4.4638962
20
84.8629049
40
0.4964979
50
95.6460018
51
121.5489589
0
ARC
8
DEFAULT_255_1_388
10
4.4815936
20
84.7381704
40
0.6223912
50
89.9245727
51
96.1375919
0
ARC
8
DEFAULT_255_1_388
10
4.4872641
20
84.7515721
40
0.6090084
50
76.6779212
51
90.456405
0
ARC
8
DEFAULT_255_1_388
10
4.5315454
20
84.930506
40
0.42469
50
47.4858803
51
76.9287069
0
ARC
8
DEFAULT_255_1_388
10
4.5150068
20
84.9192623
40
0.4441778
50
16.5424081
51
46.8934505
0
ARC
8
DEFAULT_255_1_388
10
4.3341118
20
84.8598265
40
0.6345318
50
5.4072971
51
17.0363711
0
ARC
8
DEFAULT_255_1_388
10
4.1722843
20
84.8338304
40
0.6250632
50
7.8888693
51
15.9242022
0
ARC
8
DEFAULT_255_1_388
10
4.3957828
20
84.8987309
40
0.3923364
50
15.7650676
51
27.9410069
0
ARC
8
DEFAULT_255_1_388
10
4.5199997
20
84.9652317
40
0.2514401
50
27.8167196
51
46.4007942
0
ARC
8
DEFAULT_255_1_388
10
4.5255839
20
84.9645882
40
0.2480958
50
47.4372362
51
75.0695672
0
ARC
8
DEFAULT_255_1_388
10
4.4908675
20
84.8437277
40
0.3738281
50
74.7009379
51
87.8124314
0
ARC
8
DEFAULT_255_1_388
10
4.4826292
20
84.7253659
40
0.4924321
50
87.3802571
51
90.0251599
0
ARC
8
DEFAULT_255_1_388
10
4.4782939
20
84.8573997
40
0.3604218
50
89.3451886
51
108.5744412
0
ARC
8
DEFAULT_255_1_388
10
4.4628931
20
84.9151836
40
0.3007661
50
109.2998307
51
143.3037387
0
ARC
8
DEFAULT_255_1_388
10
4.5486221
20
84.8492584
40
0.4089031
50
143.075267
51
163.1918576
0
ARC
8
DEFAULT_255_1_388
10
4.7682055
20
84.7799652
40
0.6391492
50
162.9375929
51
174.6208776
0
ARC
8
DEFAULT_255_1_388
10
5.0636437
20
84.7475711
40
0.9363344
50
174.342123
51
180.1430283
0
ARC
8
DEFAULT_255_1_388
10
4.9588978
20
84.6132117
40
0.8315986
50
179.6817261
51
189.150555
0
ARC
8
DEFAULT_255_1_388
10
4.6775727
20
84.5663559
40
0.5464044
50
188.9911061
51
203.5772363
0
ARC
8
DEFAULT_255_1_388
10
4.5561019
20
84.5159539
40
0.4149206
50
203.9075402
51
215.1312435
0
ARC
8
DEFAULT_255_1_388
10
4.4522817
20
84.4354907
40
0.2837747
50
213.9071511
51
263.8848919
0
ARC
8
DEFAULT_255_1_388
10
4.466381
20
84.5237519
40
0.3730641
50
263.1757928
51
270.1031044
0
ARC
8
DEFAULT_255_1_388
10
4.469989
20
84.6640511
40
0.5133712
50
269.6722503
51
279.0606936
0
ARC
8
DEFAULT_255_1_388
10
4.5000045
20
84.482615
40
0.3294739
50
278.8749101
51
293.6349581
0
ARC
8
DEFAULT_255_1_388
10
4.5360249
20
84.3980251
40
0.2375405
50
293.8553806
51
310.0518171
0
ARC
8
DEFAULT_255_1_388
10
4.5365758
20
84.3910021
40
0.2318463
50
311.0644687
51
332.0111037
0
ARC
8
DEFAULT_255_1_388
10
4.4024431
20
84.4649702
40
0.3850112
50
331.6586806
51
343.2877423
0
ARC
8
DEFAULT_255_1_388
10
4.1703896
20
84.5362806
40
0.6277712
50
343.1446576
51
351.0103568
0
ARC
8
DEFAULT_255_1_388
10
4.007122
20
84.5662873
40
0.7937327
50
350.71248
51
351.1626997
0
LINE
8
DEFAULT_255_1_388
10
5.9841371
20
84.804869
11
5.9841371
21
84.5880135
0
LINE
8
DEFAULT_255_1_388
10
5.1537613
20
84.5654244
11
5.1537613
21
84.7886048
0
LINE
8
DEFAULT_255_1_388
10
5.8169776
20
84.5428353
11
5.8169776
21
84.8166153
0
LINE
8
DEFAULT_255_1_388
10
5.3209208
20
84.8292652
11
5.3209208
21
84.5618102
0
ARC
8
DEFAULT_255_1_388
10
4.6063705
20
84.5825118
40
1.3777776
50
353.8440855
51
0.2287917
0
ARC
8
DEFAULT_255_1_388
10
5.1282722
20
84.5242414
40
0.852639
50
344.4934746
51
353.9763743
0
ARC
8
DEFAULT_255_1_388
10
5.4649529
20
84.4285191
40
0.5026273
50
329.2803599
51
344.7473406
0
ARC
8
DEFAULT_255_1_388
10
5.5765025
20
84.3673038
40
0.3754848
50
324.9361395
51
328.6153007
0
ARC
8
DEFAULT_255_1_388
10
5.6190675
20
84.3375586
40
0.3235566
50
280.5801797
51
324.9173226
0
ARC
8
DEFAULT_255_1_388
10
5.5739303
20
84.5255236
40
0.5167077
50
269.5979457
51
281.6732777
0
ARC
8
DEFAULT_255_1_388
10
5.5658207
20
84.5120113
40
0.5032026
50
256.6228565
51
270.5105488
0
ARC
8
DEFAULT_255_1_388
10
5.520595
20
84.3378345
40
0.3233092
50
215.8618351
51
257.2787793
0
ARC
8
DEFAULT_255_1_388
10
5.6354657
20
84.4149106
40
0.4615831
50
197.9695203
51
215.2622745
0
ARC
8
DEFAULT_255_1_388
10
5.9150332
20
84.5092641
40
0.7566307
50
187.8816486
51
198.2346584
0
ARC
8
DEFAULT_255_1_388
10
6.360357
20
84.5735453
40
1.2065653
50
180.8977266
51
188.0054894
0
ARC
8
DEFAULT_255_1_388
10
6.6653784
20
84.58504
40
1.5117443
50
180.7434591
51
181.152202
0
ARC
8
DEFAULT_255_1_388
10
6.497878
20
84.7940371
40
1.3441277
50
173.7674302
51
180.2315596
0
ARC
8
DEFAULT_255_1_388
10
5.9896649
20
84.8514779
40
0.8326847
50
164.3058537
51
173.9000553
0
ARC
8
DEFAULT_255_1_388
10
5.6620649
20
84.9458652
40
0.4917711
50
148.7922028
51
164.5682288
0
ARC
8
DEFAULT_255_1_388
10
5.5551386
20
85.0055457
40
0.3694204
50
144.5883979
51
148.1161588
0
ARC
8
DEFAULT_255_1_388
10
5.5164132
20
85.0325667
40
0.322202
50
101.6440149
51
144.5142619
0
ARC
8
DEFAULT_255_1_388
10
5.5642324
20
84.8425337
40
0.5180451
50
89.528284
51
102.5820197
0
ARC
8
DEFAULT_255_1_388
10
5.5731316
20
84.8381376
40
0.5224441
50
77.0437914
51
90.508231
0
ARC
8
DEFAULT_255_1_388
10
5.618357
20
85.0229272
40
0.3322297
50
48.2777708
51
77.4996087
0
ARC
8
DEFAULT_255_1_388
10
5.626531
20
85.0374557
40
0.315966
50
36.3141586
51
47.6307332
0
ARC
8
DEFAULT_255_1_388
10
5.5288032
20
84.9716159
40
0.4337313
50
18.2931065
51
35.6770203
0
ARC
8
DEFAULT_255_1_388
10
5.2426873
20
84.8734107
40
0.7362203
50
8.0246996
51
18.5605636
0
ARC
8
DEFAULT_255_1_388
10
4.7743228
20
84.8042432
40
1.2096583
50
1.127539
51
8.1718423
0
ARC
8
DEFAULT_255_1_388
10
4.4094362
20
84.7899374
40
1.5747719
50
0.5432713
51
1.38669
0
ARC
8
DEFAULT_255_1_388
10
4.615174
20
84.8206163
40
1.2018103
50
359.8092569
51
4.9408001
0
ARC
8
DEFAULT_255_1_388
10
5.0888322
20
84.86289
40
0.7262727
50
4.8364937
51
12.2906017
0
ARC
8
DEFAULT_255_1_388
10
5.3987786
20
84.9319485
40
0.4087324
50
12.0806994
51
23.8171225
0
ARC
8
DEFAULT_255_1_388
10
5.5308182
20
84.9878508
40
0.2653719
50
24.2874621
51
31.3934353
0
ARC
8
DEFAULT_255_1_388
10
5.5898618
20
85.0264822
40
0.1948607
50
30.7407708
51
82.4658033
0
ARC
8
DEFAULT_255_1_388
10
5.5696279
20
84.9271017
40
0.2961198
50
81.1057101
51
90.2187368
0
ARC
8
DEFAULT_255_1_388
10
5.5656091
20
84.9561421
40
0.2670929
50
89.380395
51
105.6763916
0
ARC
8
DEFAULT_255_1_388
10
5.5449813
20
85.031132
40
0.1893189
50
105.7980655
51
149.7387869
0
ARC
8
DEFAULT_255_1_388
10
5.6646953
20
84.9591719
40
0.3289892
50
149.4208441
51
163.628295
0
ARC
8
DEFAULT_255_1_388
10
5.8999183
20
84.8874345
40
0.5749004
50
163.3764549
51
172.141138
0
ARC
8
DEFAULT_255_1_388
10
6.2711904
20
84.8342582
40
0.9499585
50
172.0258462
51
178.0705453
0
ARC
8
DEFAULT_255_1_388
10
6.6133457
20
84.8180682
40
1.2924734
50
177.8639301
51
179.5036263
0
ARC
8
DEFAULT_255_1_388
10
6.4914476
20
84.5577151
40
1.170534
50
179.7995545
51
185.246089
0
ARC
8
DEFAULT_255_1_388
10
6.0366069
20
84.5146404
40
0.7136613
50
185.1411911
51
193.0082205
0
ARC
8
DEFAULT_255_1_388
10
5.7392329
20
84.4443441
40
0.4080987
50
192.7897338
51
205.2507384
0
ARC
8
DEFAULT_255_1_388
10
5.6214539
20
84.3917538
40
0.2791522
50
205.8001921
51
211.2545876
0
ARC
8
DEFAULT_255_1_388
10
5.5626078
20
84.3523132
40
0.2084074
50
210.3789935
51
238.4007996
0
ARC
8
DEFAULT_255_1_388
10
5.5604164
20
84.3575786
40
0.2117943
50
239.6521916
51
265.9793852
0
ARC
8
DEFAULT_255_1_388
10
5.5700013
20
84.4332358
40
0.2879689
50
265.1324455
51
270.0603288
0
ARC
8
DEFAULT_255_1_388
10
5.573239
20
84.3967418
40
0.2514919
50
269.3314378
51
287.2180039
0
ARC
8
DEFAULT_255_1_388
10
5.5887473
20
84.3401291
40
0.1928357
50
287.7957942
51
329.0808983
0
ARC
8
DEFAULT_255_1_388
10
5.481023
20
84.4073651
40
0.319808
50
328.6635261
51
343.3325043
0
ARC
8
DEFAULT_255_1_388
10
5.2365688
20
84.4835195
40
0.5758408
50
343.0498092
51
351.9392499
0
ARC
8
DEFAULT_255_1_388
10
4.846501
20
84.5410205
40
0.9701202
50
351.8071632
51
357.7957897
0
ARC
8
DEFAULT_255_1_388
10
4.4830487
20
84.5598724
40
1.3340376
50
357.5870923
51
359.2682493
0
LINE
8
DEFAULT_255_1_388
10
24.318491
20
93.2799898
11
24.318491
21
91.9644
0
LINE
8
DEFAULT_255_1_388
10
24.318491
20
91.9644
11
24.1441031
21
91.9644
0
LINE
8
DEFAULT_255_1_388
10
24.1441031
20
91.9644
11
23.4817903
21
92.9781993
0
LINE
8
DEFAULT_255_1_388
10
23.4817903
20
92.9781993
11
23.4817903
21
91.9644
0
LINE
8
DEFAULT_255_1_388
10
23.4817903
20
91.9644
11
23.3074024
21
91.9644
0
LINE
8
DEFAULT_255_1_388
10
23.3074024
20
91.9644
11
23.3074024
21
93.2799898
0
LINE
8
DEFAULT_255_1_388
10
23.3074024
20
93.2799898
11
23.4817903
21
93.2799898
0
LINE
8
DEFAULT_255_1_388
10
23.4817903
20
93.2799898
11
24.1459102
21
92.2616727
0
LINE
8
DEFAULT_255_1_388
10
24.1459102
20
92.2616727
11
24.1459102
21
93.2799898
0
LINE
8
DEFAULT_255_1_388
10
24.1459102
20
93.2799898
11
24.318491
21
93.2799898
0
LINE
8
DEFAULT_255_1_388
10
22.5725903
20
21.8424898
11
22.5725903
21
20.6687596
0
LINE
8
DEFAULT_255_1_388
10
22.5725903
20
20.6687596
11
23.1960498
21
20.6687596
0
LINE
8
DEFAULT_255_1_388
10
23.1960498
20
20.6687596
11
23.1960498
21
20.5269
0
LINE
8
DEFAULT_255_1_388
10
23.1960498
20
20.5269
11
22.3982024
21
20.5269
0
LINE
8
DEFAULT_255_1_388
10
22.3982024
20
20.5269
11
22.3982024
21
21.8424898
0
LINE
8
DEFAULT_255_1_388
10
22.3982024
20
21.8424898
11
22.5725903
21
21.8424898
0
LINE
8
DEFAULT_255_1_388
10
24.3065305
20
21.1819842
11
24.3065305
21
20.6994808
0
LINE
8
DEFAULT_255_1_388
10
23.2927312
20
21.1214454
11
23.2927312
21
21.2361981
0
LINE
8
DEFAULT_255_1_388
10
24.3065305
20
21.4566678
11
24.1330461
21
21.4566678
0
LINE
8
DEFAULT_255_1_388
10
23.4671191
20
21.2407159
11
23.4671191
21
21.1331917
0
LINE
8
DEFAULT_255_1_388
10
24.1339497
20
20.7455626
11
24.1339497
21
21.0410282
0
LINE
8
DEFAULT_255_1_388
10
24.1339497
20
21.0410282
11
23.8294485
21
21.0410282
0
LINE
8
DEFAULT_255_1_388
10
23.8294485
20
21.0410282
11
23.8294485
21
21.1819842
0
LINE
8
DEFAULT_255_1_388
10
23.8294485
20
21.1819842
11
24.3065305
21
21.1819842
0
ARC
8
DEFAULT_255_1_388
10
23.9879906
20
20.9237284
40
0.3895571
50
295.8437277
51
324.8549962
0
ARC
8
DEFAULT_255_1_388
10
23.9412288
20
21.0083619
40
0.4861381
50
291.5691164
51
296.4556269
0
ARC
8
DEFAULT_255_1_388
10
23.883729
20
21.1619801
40
0.6501442
50
278.6622213
51
291.3047061
0
ARC
8
DEFAULT_255_1_388
10
23.8455323
20
21.4036557
40
0.8948168
50
270.0200506
51
278.7494673
0
ARC
8
DEFAULT_255_1_388
10
23.8411527
20
21.5882453
40
1.0794166
50
270.0022372
51
270.2490917
0
ARC
8
DEFAULT_255_1_388
10
23.8369419
20
21.0923827
40
0.5835695
50
253.5785313
51
270.4175629
0
ARC
8
DEFAULT_255_1_388
10
23.8174415
20
21.0168625
40
0.5056241
50
238.8203954
51
253.2788387
0
ARC
8
DEFAULT_255_1_388
10
23.8152331
20
21.0111224
40
0.4995712
50
206.7883476
51
238.696262
0
ARC
8
DEFAULT_255_1_388
10
23.9027727
20
21.0635847
40
0.6014056
50
206.1137778
51
207.4912776
0
ARC
8
DEFAULT_255_1_388
10
23.9694562
20
21.0919284
40
0.6737692
50
188.6922336
51
205.782076
0
ARC
8
DEFAULT_255_1_388
10
24.1782922
20
21.1274455
40
0.8855812
50
180.3881972
51
188.9218085
0
ARC
8
DEFAULT_255_1_388
10
24.3164079
20
21.2425622
40
1.0236965
50
170.2024645
51
180.3561986
0
ARC
8
DEFAULT_255_1_388
10
23.9605229
20
21.3062101
40
0.6621746
50
154.2856519
51
170.3893388
0
ARC
8
DEFAULT_255_1_388
10
23.8163193
20
21.3722192
40
0.5036209
50
139.8400879
51
153.9334639
0
ARC
8
DEFAULT_255_1_388
10
23.7759097
20
21.4045716
40
0.4518751
50
98.4190017
51
139.6707015
0
ARC
8
DEFAULT_255_1_388
10
23.8186064
20
21.1969755
40
0.6635912
50
89.7660128
51
99.4415389
0
ARC
8
DEFAULT_255_1_388
10
23.8259461
20
21.2043517
40
0.6562258
50
78.0552044
51
90.4042252
0
ARC
8
DEFAULT_255_1_388
10
23.8714524
20
21.4089661
40
0.4466287
50
54.6380186
51
78.3338577
0
ARC
8
DEFAULT_255_1_388
10
23.8928823
20
21.4450444
40
0.4048184
50
50.0313964
51
54.1562739
0
ARC
8
DEFAULT_255_1_388
10
23.8807716
20
21.4341798
40
0.4209308
50
18.1092229
51
49.7179911
0
ARC
8
DEFAULT_255_1_388
10
23.7168797
20
21.3741399
40
0.5953982
50
7.967396
51
18.698492
0
ARC
8
DEFAULT_255_1_388
10
23.7338058
20
21.3880236
40
0.4050986
50
9.7558763
51
27.3214087
0
ARC
8
DEFAULT_255_1_388
10
23.8606522
20
21.4514087
40
0.2633168
50
27.736147
51
84.5257861
0
ARC
8
DEFAULT_255_1_388
10
23.8237932
20
21.2664988
40
0.4513019
50
82.1064239
51
90.1997295
0
ARC
8
DEFAULT_255_1_388
10
23.8181948
20
21.3236501
40
0.3941684
50
89.4148952
51
105.5824837
0
ARC
8
DEFAULT_255_1_388
10
23.7892829
20
21.4289043
40
0.2850167
50
105.6678541
51
144.2649156
0
ARC
8
DEFAULT_255_1_388
10
23.8897721
20
21.3574024
40
0.4083468
50
144.3560675
51
162.8564185
0
ARC
8
DEFAULT_255_1_388
10
24.1242164
20
21.2821083
40
0.6545749
50
162.6076338
51
173.6779811
0
ARC
8
DEFAULT_255_1_388
10
24.4686279
20
21.2402422
40
1.0015089
50
173.4670996
51
179.9729015
0
ARC
8
DEFAULT_255_1_388
10
24.2539149
20
21.1284636
40
0.78681
50
179.6556955
51
190.007958
0
ARC
8
DEFAULT_255_1_388
10
23.9933431
20
21.080666
40
0.5218997
50
189.8117884
51
206.6795375
0
ARC
8
DEFAULT_255_1_388
10
23.8982877
20
21.0363514
40
0.4170788
50
207.1031171
51
217.7074698
0
ARC
8
DEFAULT_255_1_388
10
23.8269308
20
20.9742596
40
0.3226945
50
216.7345117
51
265.6812141
0
ARC
8
DEFAULT_255_1_388
10
23.841645
20
21.076003
40
0.4253149
50
264.7367524
51
270.0610826
0
ARC
8
DEFAULT_255_1_388
10
23.8442635
20
21.3955173
40
0.7448321
50
269.8334494
51
276.0538364
0
ARC
8
DEFAULT_255_1_388
10
23.8675498
20
21.1815924
40
0.5296446
50
275.9894423
51
284.4615914
0
ARC
8
DEFAULT_255_1_388
10
23.8897011
20
21.088357
40
0.4338353
50
284.7038488
51
286.4938196
0
ARC
8
DEFAULT_255_1_388
10
23.935616
20
20.9404371
40
0.2789738
50
286.0770429
51
304.2629628
0
ARC
8
DEFAULT_255_1_388
10
23.9506318
20
20.915868
40
0.2502188
50
304.5886247
51
317.1074126
0
LINE
8
DEFAULT_255_1_388
10
22.7803882
20
29.5540987
11
22.7803882
21
29.1700838
0
LINE
8
DEFAULT_255_1_388
10
22.7803882
20
29.1700838
11
23.1472354
21
29.1700838
0
LINE
8
DEFAULT_255_1_388
10
23.1472354
20
29.1700838
11
23.1472354
21
29.0119601
0
LINE
8
DEFAULT_255_1_388
10
23.1472354
20
29.0119601
11
22.7803882
21
29.0119601
0
LINE
8
DEFAULT_255_1_388
10
22.7803882
20
29.0119601
11
22.7803882
21
28.5963204
0
LINE
8
DEFAULT_255_1_388
10
22.7803882
20
28.5963204
11
22.6123252
21
28.5963204
0
LINE
8
DEFAULT_255_1_388
10
22.6123252
20
28.5963204
11
22.6123252
21
29.0119601
0
LINE
8
DEFAULT_255_1_388
10
22.6123252
20
29.0119601
11
22.245478
21
29.0119601
0
LINE
8
DEFAULT_255_1_388
10
22.245478
20
29.0119601
11
22.245478
21
29.1700838
0
LINE
8
DEFAULT_255_1_388
10
22.245478
20
29.1700838
11
22.6123252
21
29.1700838
0
LINE
8
DEFAULT_255_1_388
10
22.6123252
20
29.1700838
11
22.6123252
21
29.5540987
0
LINE
8
DEFAULT_255_1_388
10
22.6123252
20
29.5540987
11
22.7803882
21
29.5540987
0
LINE
8
DEFAULT_255_1_388
10
23.4381831
20
29.7799898
11
23.8122588
21
28.6948089
0
LINE
8
DEFAULT_255_1_388
10
23.8122588
20
28.6948089
11
24.1881416
21
29.7799898
0
LINE
8
DEFAULT_255_1_388
10
24.1881416
20
29.7799898
11
24.3778901
21
29.7799898
0
LINE
8
DEFAULT_255_1_388
10
24.3778901
20
29.7799898
11
23.8899653
21
28.4644
0
LINE
8
DEFAULT_255_1_388
10
23.8899653
20
28.4644
11
23.7363594
21
28.4644
0
LINE
8
DEFAULT_255_1_388
10
23.7363594
20
28.4644
11
23.2493381
21
29.7799898
0
LINE
8
DEFAULT_255_1_388
10
23.2493381
20
29.7799898
11
23.4381831
21
29.7799898
0
LINE
8
DEFAULT_255_1_388
10
22.3954376
20
37.7174898
11
22.736985
21
37.0569842
0
LINE
8
DEFAULT_255_1_388
10
22.736985
20
37.0569842
11
23.0803395
21
37.7174898
0
LINE
8
DEFAULT_255_1_388
10
23.0803395
20
37.7174898
11
23.2773166
21
37.7174898
0
LINE
8
DEFAULT_255_1_388
10
23.2773166
20
37.7174898
11
22.8237272
21
36.8925355
0
LINE
8
DEFAULT_255_1_388
10
22.8237272
20
36.8925355
11
22.8237272
21
36.4019
0
LINE
8
DEFAULT_255_1_388
10
22.8237272
20
36.4019
11
22.6502428
21
36.4019
0
LINE
8
DEFAULT_255_1_388
10
22.6502428
20
36.4019
11
22.6502428
21
36.8925355
0
LINE
8
DEFAULT_255_1_388
10
22.6502428
20
36.8925355
11
22.1966535
21
37.7174898
0
LINE
8
DEFAULT_255_1_388
10
22.1966535
20
37.7174898
11
22.3954376
21
37.7174898
0
LINE
8
DEFAULT_255_1_388
10
23.6143461
20
37.0271666
11
23.4806186
21
37.0615021
0
LINE
8
DEFAULT_255_1_388
10
23.4806186
20
37.0615021
11
23.5474823
21
37.7174898
0
LINE
8
DEFAULT_255_1_388
10
23.5474823
20
37.7174898
11
24.2215414
21
37.7174898
0
LINE
8
DEFAULT_255_1_388
10
24.2215414
20
37.7174898
11
24.2215414
21
37.5629803
0
LINE
8
DEFAULT_255_1_388
10
24.2215414
20
37.5629803
11
23.6893419
21
37.5629803
0
LINE
8
DEFAULT_255_1_388
10
23.6893419
20
37.5629803
11
23.6495851
21
37.2042652
0
LINE
8
DEFAULT_255_1_388
10
23.4336332
20
36.7479652
11
23.591757
21
36.7479652
0
LINE
8
DEFAULT_255_1_388
10
23.6586208
20
37.0633092
11
23.6143461
21
37.0271666
0
ARC
8
DEFAULT_255_1_388
10
23.8582465
20
36.8465241
40
0.4141476
50
93.7181681
51
120.253934
0
ARC
8
DEFAULT_255_1_388
10
23.8688517
20
36.7556284
40
0.5055616
50
89.9660471
51
94.2495185
0
ARC
8
DEFAULT_255_1_388
10
23.8734339
20
36.8219154
40
0.4392953
50
73.8045384
51
90.5585736
0
ARC
8
DEFAULT_255_1_388
10
23.8998596
20
36.918452
40
0.3392225
50
41.3071072
51
73.543002
0
ARC
8
DEFAULT_255_1_388
10
23.8530416
20
36.8781461
40
0.4009977
50
13.5075837
51
41.2174839
0
ARC
8
DEFAULT_255_1_388
10
23.6683514
20
36.8297907
40
0.5918864
50
1.1330171
51
13.8830737
0
ARC
8
DEFAULT_255_1_388
10
23.508716
20
36.8212522
40
0.7516787
50
359.9925091
51
1.5431298
0
ARC
8
DEFAULT_255_1_388
10
23.6531774
20
36.8166027
40
0.6072343
50
347.8572712
51
0.4294349
0
ARC
8
DEFAULT_255_1_388
10
23.8500909
20
36.7719898
40
0.4053482
50
323.6727442
51
348.1674594
0
ARC
8
DEFAULT_255_1_388
10
23.8831874
20
36.7518175
40
0.3667495
50
316.8171818
51
323.1486802
0
ARC
8
DEFAULT_255_1_388
10
23.8900997
20
36.7476612
40
0.358869
50
281.839603
51
316.5458142
0
ARC
8
DEFAULT_255_1_388
10
23.8478285
20
36.9226363
40
0.5388223
50
269.5770964
51
282.4214641
0
ARC
8
DEFAULT_255_1_388
10
23.8398206
20
36.898593
40
0.5147801
50
256.2425863
51
270.4486481
0
ARC
8
DEFAULT_255_1_388
10
23.8061733
20
36.7636124
40
0.3756708
50
228.9024379
51
256.33135
0
ARC
8
DEFAULT_255_1_388
10
23.7978714
20
36.7505054
40
0.360344
50
193.7536029
51
228.5272638
0
ARC
8
DEFAULT_255_1_388
10
23.9371279
20
36.7913463
40
0.5053599
50
184.9244437
51
194.4976052
0
ARC
8
DEFAULT_255_1_388
10
23.958792
20
36.7953722
40
0.3700839
50
187.3596909
51
198.6733728
0
ARC
8
DEFAULT_255_1_388
10
23.8407163
20
36.7544373
40
0.2451195
50
198.4453795
51
217.7945479
0
ARC
8
DEFAULT_255_1_388
10
23.8074336
20
36.7308563
40
0.2043754
50
218.2887146
51
228.5613203
0
ARC
8
DEFAULT_255_1_388
10
23.8184343
20
36.7456902
40
0.2227819
50
228.9652423
51
258.1237049
0
ARC
8
DEFAULT_255_1_388
10
23.841578
20
36.8447964
40
0.3245374
50
257.7260585
51
270.4013717
0
ARC
8
DEFAULT_255_1_388
10
23.8466278
20
36.7947255
40
0.2744726
50
269.4204315
51
286.420998
0
ARC
8
DEFAULT_255_1_388
10
23.8633334
20
36.7340705
40
0.2115721
50
286.7250065
51
320.6004665
0
ARC
8
DEFAULT_255_1_388
10
23.8202249
20
36.7690527
40
0.2670878
50
320.6712228
51
344.5440474
0
ARC
8
DEFAULT_255_1_388
10
23.6900963
20
36.8072394
40
0.4026927
50
344.241448
51
356.735803
0
ARC
8
DEFAULT_255_1_388
10
23.549727
20
36.8188656
40
0.5435085
50
356.3547471
51
0.0507222
0
ARC
8
DEFAULT_255_1_388
10
23.6999536
20
36.8223812
40
0.3932934
50
359.5579289
51
12.9534322
0
ARC
8
DEFAULT_255_1_388
10
23.8186375
20
36.8511586
40
0.2711827
50
12.6489751
51
41.608121
0
ARC
8
DEFAULT_255_1_388
10
23.8445535
20
36.8731946
40
0.2371737
50
41.7851122
51
85.9892156
0
ARC
8
DEFAULT_255_1_388
10
23.8306846
20
36.7816738
40
0.3295244
50
84.6965848
51
90.0672125
0
ARC
8
DEFAULT_255_1_388
10
23.8280413
20
36.7065118
40
0.4046926
50
89.6804991
51
99.161352
0
ARC
8
DEFAULT_255_1_388
10
23.8049422
20
36.8445848
40
0.2647044
50
98.9836248
51
113.8905702
0
ARC
8
DEFAULT_255_1_388
10
23.7791097
20
36.9055118
40
0.1985386
50
114.195234
51
127.3641866
0
LINE
8
DEFAULT_255_1_388
10
22.2631376
20
45.6549898
11
22.604685
21
44.9944842
0
LINE
8
DEFAULT_255_1_388
10
22.604685
20
44.9944842
11
22.9480395
21
45.6549898
0
LINE
8
DEFAULT_255_1_388
10
22.9480395
20
45.6549898
11
23.1450166
21
45.6549898
0
LINE
8
DEFAULT_255_1_388
10
23.1450166
20
45.6549898
11
22.6914272
21
44.8300355
0
LINE
8
DEFAULT_255_1_388
10
22.6914272
20
44.8300355
11
22.6914272
21
44.3394
0
LINE
8
DEFAULT_255_1_388
10
22.6914272
20
44.3394
11
22.5179428
21
44.3394
0
LINE
8
DEFAULT_255_1_388
10
22.5179428
20
44.3394
11
22.5179428
21
44.8300355
0
LINE
8
DEFAULT_255_1_388
10
22.5179428
20
44.8300355
11
22.0643535
21
45.6549898
0
LINE
8
DEFAULT_255_1_388
10
22.0643535
20
45.6549898
11
22.2631376
21
45.6549898
0
LINE
8
DEFAULT_255_1_388
10
23.9771994
20
45.6549898
11
23.9771994
21
44.781243
0
LINE
8
DEFAULT_255_1_388
10
23.9771994
20
44.781243
11
24.1597194
21
44.781243
0
LINE
8
DEFAULT_255_1_388
10
24.1597194
20
44.781243
11
24.1597194
21
44.6448048
0
LINE
8
DEFAULT_255_1_388
10
24.1597194
20
44.6448048
11
23.9771994
21
44.6448048
0
LINE
8
DEFAULT_255_1_388
10
23.9771994
20
44.6448048
11
23.9771994
21
44.3394
0
LINE
8
DEFAULT_255_1_388
10
23.9771994
20
44.3394
11
23.8091364
21
44.3394
0
LINE
8
DEFAULT_255_1_388
10
23.8091364
20
44.3394
11
23.8091364
21
44.6448048
0
LINE
8
DEFAULT_255_1_388
10
23.8091364
20
44.6448048
11
23.2100732
21
44.6448048
0
LINE
8
DEFAULT_255_1_388
10
23.2100732
20
44.6448048
11
23.2100732
21
44.7432933
0
LINE
8
DEFAULT_255_1_388
10
23.2100732
20
44.7432933
11
23.7991972
21
45.6549898
0
LINE
8
DEFAULT_255_1_388
10
23.7991972
20
45.6549898
11
23.9771994
21
45.6549898
0
LINE
8
DEFAULT_255_1_388
10
23.789258
20
45.3902455
11
23.3998217
21
44.781243
0
LINE
8
DEFAULT_255_1_388
10
23.3998217
20
44.781243
11
23.8091364
21
44.781243
0
LINE
8
DEFAULT_255_1_388
10
23.8091364
20
44.781243
11
23.8091364
21
45.426388
0
LINE
8
DEFAULT_255_1_388
10
23.8091364
20
45.426388
11
23.789258
21
45.3902455
0
LINE
8
DEFAULT_255_1_388
10
22.3954376
20
53.5924898
11
22.736985
21
52.9319842
0
LINE
8
DEFAULT_255_1_388
10
22.736985
20
52.9319842
11
23.0803395
21
53.5924898
0
LINE
8
DEFAULT_255_1_388
10
23.0803395
20
53.5924898
11
23.2773166
21
53.5924898
0
LINE
8
DEFAULT_255_1_388
10
23.2773166
20
53.5924898
11
22.8237272
21
52.7675355
0
LINE
8
DEFAULT_255_1_388
10
22.8237272
20
52.7675355
11
22.8237272
21
52.2769
0
LINE
8
DEFAULT_255_1_388
10
22.8237272
20
52.2769
11
22.6502428
21
52.2769
0
LINE
8
DEFAULT_255_1_388
10
22.6502428
20
52.2769
11
22.6502428
21
52.7675355
0
LINE
8
DEFAULT_255_1_388
10
22.6502428
20
52.7675355
11
22.1966535
21
53.5924898
0
LINE
8
DEFAULT_255_1_388
10
22.1966535
20
53.5924898
11
22.3954376
21
53.5924898
0
LINE
8
DEFAULT_255_1_388
10
23.6468744
20
52.8795775
11
23.6468744
21
53.0160157
0
LINE
8
DEFAULT_255_1_388
10
23.6468744
20
53.0160157
11
23.7724699
21
53.0160157
0
LINE
8
DEFAULT_255_1_388
10
23.5583251
20
53.2473282
11
23.3911657
21
53.2473282
0
LINE
8
DEFAULT_255_1_388
10
23.3794193
20
52.6238688
11
23.5474823
21
52.6238688
0
LINE
8
DEFAULT_255_1_388
10
23.7724699
20
52.8795775
11
23.6468744
21
52.8795775
0
ARC
8
DEFAULT_255_1_388
10
23.7691925
20
53.3976922
40
0.3816905
50
270.491971
51
281.8953028
0
ARC
8
DEFAULT_255_1_388
10
23.7963352
20
53.2737199
40
0.2547877
50
281.6690378
51
301.2943765
0
ARC
8
DEFAULT_255_1_388
10
23.8154803
20
53.2386926
40
0.2149197
50
301.7834992
51
311.754567
0
ARC
8
DEFAULT_255_1_388
10
23.8257845
20
53.227265
40
0.1995326
50
311.7325027
51
354.2803031
0
ARC
8
DEFAULT_255_1_388
10
23.7440261
20
53.241328
40
0.2823461
50
353.0941646
51
0.1174696
0
ARC
8
DEFAULT_255_1_388
10
23.6921819
20
53.2466874
40
0.3342238
50
359.1804452
51
15.0452323
0
ARC
8
DEFAULT_255_1_388
10
23.8435877
20
53.2908546
40
0.1765747
50
13.957816
51
77.6713812
0
ARC
8
DEFAULT_255_1_388
10
23.8001113
20
53.1350464
40
0.3381982
50
76.111571
51
90.7028736
0
ARC
8
DEFAULT_255_1_388
10
23.7934525
20
53.165825
40
0.3074046
50
89.5321574
51
103.5319393
0
ARC
8
DEFAULT_255_1_388
10
23.7708909
20
53.2557443
40
0.2147041
50
103.2930114
51
133.5619756
0
ARC
8
DEFAULT_255_1_388
10
23.765885
20
53.2624351
40
0.2064084
50
133.8349761
51
173.5343225
0
ARC
8
DEFAULT_255_1_388
10
23.8472508
20
53.2480144
40
0.2889266
50
172.5097183
51
180.1360699
0
ARC
8
DEFAULT_255_1_388
10
23.7402272
20
53.251888
40
0.3490913
50
155.3483706
51
180.7484035
0
ARC
8
DEFAULT_255_1_388
10
23.7347247
20
53.2486519
40
0.3454798
50
131.5745177
51
154.4799474
0
ARC
8
DEFAULT_255_1_388
10
23.769953
20
53.2130422
40
0.3955058
50
96.9874487
51
131.9690874
0
ARC
8
DEFAULT_255_1_388
10
23.7946422
20
53.0729407
40
0.537622
50
89.8592909
51
97.7827481
0
ARC
8
DEFAULT_255_1_388
10
23.8000531
20
53.043436
40
0.5671399
50
78.3654493
51
90.4132586
0
ARC
8
DEFAULT_255_1_388
10
23.8403173
20
53.2300918
40
0.3762034
50
56.6229818
51
78.6387103
0
ARC
8
DEFAULT_255_1_388
10
23.8645002
20
53.2723846
40
0.3275964
50
47.0254604
51
56.085558
0
ARC
8
DEFAULT_255_1_388
10
23.8667253
20
53.2768189
40
0.3228382
50
10.9207523
51
46.777927
0
ARC
8
DEFAULT_255_1_388
10
23.7132847
20
53.2413401
40
0.4802559
50
359.6364235
51
11.6087615
0
ARC
8
DEFAULT_255_1_388
10
23.9197012
20
53.2396404
40
0.273833
50
332.3549969
51
359.7179765
0
ARC
8
DEFAULT_255_1_388
10
23.8465413
20
53.2743285
40
0.3547505
50
325.2332381
51
332.8746682
0
ARC
8
DEFAULT_255_1_388
10
23.8636996
20
53.2623763
40
0.3338396
50
292.9803892
51
325.2391113
0
ARC
8
DEFAULT_255_1_388
10
23.8326192
20
53.3228679
40
0.4016959
50
292.542178
51
293.6931461
0
ARC
8
DEFAULT_255_1_388
10
23.8769764
20
52.5963036
40
0.372079
50
57.643292
51
72.8626085
0
ARC
8
DEFAULT_255_1_388
10
23.9168598
20
52.6609273
40
0.2961455
50
36.7246661
51
57.4701329
0
ARC
8
DEFAULT_255_1_388
10
23.9155755
20
52.662347
40
0.2963321
50
8.054535
51
36.3561529
0
ARC
8
DEFAULT_255_1_388
10
23.8185428
20
52.6449073
40
0.3948682
50
359.8316595
51
8.5873361
0
ARC
8
DEFAULT_255_1_388
10
23.7762902
20
52.639497
40
0.4371398
50
343.9831631
51
0.557075
0
ARC
8
DEFAULT_255_1_388
10
23.8759951
20
52.6121963
40
0.3337749
50
311.6358204
51
343.7652116
0
ARC
8
DEFAULT_255_1_388
10
23.8334205
20
52.6601955
40
0.3979351
50
279.7829743
51
311.625622
0
ARC
8
DEFAULT_255_1_388
10
23.799534
20
52.8218642
40
0.5630417
50
269.7285092
51
280.3857694
0
ARC
8
DEFAULT_255_1_388
10
23.7925653
20
52.8172241
40
0.5584119
50
256.6827433
51
270.4412869
0
ARC
8
DEFAULT_255_1_388
10
23.754464
20
52.6614698
40
0.3980715
50
229.4223821
51
256.8554507
0
ARC
8
DEFAULT_255_1_388
10
23.7078193
20
52.6089683
40
0.3278564
50
181.8183354
51
229.6455015
0
ARC
8
DEFAULT_255_1_388
10
23.8247803
20
52.6236825
40
0.4453611
50
179.9760419
51
183.2330638
0
ARC
8
DEFAULT_255_1_388
10
23.8054355
20
52.6213781
40
0.2579652
50
179.4467996
51
196.2871626
0
ARC
8
DEFAULT_255_1_388
10
23.7505809
20
52.6063709
40
0.2011057
50
196.5661293
51
227.7059371
0
ARC
8
DEFAULT_255_1_388
10
23.7690416
20
52.6270155
40
0.2287994
50
227.7653015
51
257.8763321
0
ARC
8
DEFAULT_255_1_388
10
23.7943499
20
52.7330961
40
0.3378385
50
257.4583525
51
270.4267406
0
ARC
8
DEFAULT_255_1_388
10
23.7994749
20
52.765723
40
0.3704652
50
269.5965319
51
280.8788143
0
ARC
8
DEFAULT_255_1_388
10
23.8252977
20
52.6367529
40
0.2389415
50
280.6347277
51
299.8594068
0
ARC
8
DEFAULT_255_1_388
10
23.8467746
20
52.5959736
40
0.19289
50
300.3575552
51
314.5515667
0
ARC
8
DEFAULT_255_1_388
10
23.8374422
20
52.6028025
40
0.204312
50
315.0730962
51
345.0429362
0
ARC
8
DEFAULT_255_1_388
10
23.7335929
20
52.6330539
40
0.31246
50
344.598526
51
357.9270698
0
ARC
8
DEFAULT_255_1_388
10
23.6326234
20
52.6399705
40
0.4136265
50
357.4755098
51
0.0224936
0
ARC
8
DEFAULT_255_1_388
10
23.7479112
20
52.6427099
40
0.2983498
50
359.5051035
51
13.4236939
0
ARC
8
DEFAULT_255_1_388
10
23.8454202
20
52.6676637
40
0.1977186
50
12.9497905
51
48.7550905
0
ARC
8
DEFAULT_255_1_388
10
23.8249124
20
52.6396373
40
0.2323321
50
49.509109
51
72.1832965
0
ARC
8
DEFAULT_255_1_388
10
23.7846592
20
52.5201632
40
0.358397
50
71.9008458
51
84.3555134
0
ARC
8
DEFAULT_255_1_388
10
23.7664987
20
52.3669712
40
0.512641
50
84.019632
51
89.3326067
0
LINE
8
DEFAULT_255_1_388
10
22.3954376
20
61.5299898
11
22.736985
21
60.8694842
0
LINE
8
DEFAULT_255_1_388
10
22.736985
20
60.8694842
11
23.0803395
21
61.5299898
0
LINE
8
DEFAULT_255_1_388
10
23.0803395
20
61.5299898
11
23.2773166
21
61.5299898
0
LINE
8
DEFAULT_255_1_388
10
23.2773166
20
61.5299898
11
22.8237272
21
60.7050355
0
LINE
8
DEFAULT_255_1_388
10
22.8237272
20
60.7050355
11
22.8237272
21
60.2144
0
LINE
8
DEFAULT_255_1_388
10
22.8237272
20
60.2144
11
22.6502428
21
60.2144
0
LINE
8
DEFAULT_255_1_388
10
22.6502428
20
60.2144
11
22.6502428
21
60.7050355
0
LINE
8
DEFAULT_255_1_388
10
22.6502428
20
60.7050355
11
22.1966535
21
61.5299898
0
LINE
8
DEFAULT_255_1_388
10
22.1966535
20
61.5299898
11
22.3954376
21
61.5299898
0
LINE
8
DEFAULT_255_1_388
10
24.2658161
20
60.3508382
11
24.2658161
21
60.2144
0
LINE
8
DEFAULT_255_1_388
10
24.2658161
20
60.2144
11
23.4038156
21
60.2144
0
LINE
8
DEFAULT_255_1_388
10
23.4038156
20
60.2144
11
23.4038156
21
60.3345741
0
LINE
8
DEFAULT_255_1_388
10
23.4038156
20
60.3345741
11
23.8592121
21
60.8405702
0
LINE
8
DEFAULT_255_1_388
10
23.5456752
20
61.1423607
11
23.3785158
21
61.1423607
0
LINE
8
DEFAULT_255_1_388
10
23.9577006
20
60.733046
11
23.6053104
21
60.3508382
0
LINE
8
DEFAULT_255_1_388
10
23.6053104
20
60.3508382
11
24.2658161
21
60.3508382
0
ARC
8
DEFAULT_255_1_388
10
22.341618
20
62.1825983
40
2.0258655
50
318.5132526
51
320.7829045
0
ARC
8
DEFAULT_255_1_388
10
22.9364137
20
61.6984929
40
1.2589638
50
320.7372878
51
323.9739031
0
ARC
8
DEFAULT_255_1_388
10
23.3773069
20
61.3790554
40
0.7145141
50
323.8962701
51
328.64194
0
ARC
8
DEFAULT_255_1_388
10
23.6075326
20
61.2370545
40
0.4440242
50
328.8294576
51
331.7891185
0
ARC
8
DEFAULT_255_1_388
10
23.7197646
20
61.1791374
40
0.3177517
50
331.4254512
51
352.9365785
0
ARC
8
DEFAULT_255_1_388
10
23.7350646
20
61.175705
40
0.3021496
50
353.2257659
51
0.0166158
0
ARC
8
DEFAULT_255_1_388
10
23.7587407
20
61.1782894
40
0.2784847
50
359.486299
51
15.9343185
0
ARC
8
DEFAULT_255_1_388
10
23.8157674
20
61.1936269
40
0.2194403
50
16.1712913
51
43.5286088
0
ARC
8
DEFAULT_255_1_388
10
23.8244618
20
61.2023191
40
0.2071504
50
43.4417391
51
83.1661095
0
ARC
8
DEFAULT_255_1_388
10
23.8093779
20
61.1194316
40
0.2912888
50
82.160179
51
90.1505708
0
ARC
8
DEFAULT_255_1_388
10
23.8058261
20
61.0590279
40
0.3517025
50
89.5460741
51
102.5418361
0
ARC
8
DEFAULT_255_1_388
10
23.7784981
20
61.1749933
40
0.2325748
50
102.1738499
51
129.206123
0
ARC
8
DEFAULT_255_1_388
10
23.7696434
20
61.1889664
40
0.2161591
50
129.72865
51
135.753947
0
ARC
8
DEFAULT_255_1_388
10
23.7832917
20
61.1780728
40
0.2335433
50
136.1757367
51
166.3673339
0
ARC
8
DEFAULT_255_1_388
10
23.8965605
20
61.1477148
40
0.3507873
50
165.9090694
51
178.8684636
0
ARC
8
DEFAULT_255_1_388
10
23.9941377
20
61.1424263
40
0.4484624
50
178.4391136
51
180.0083808
0
ARC
8
DEFAULT_255_1_388
10
23.8362078
20
61.1468197
40
0.4577138
50
163.2878482
51
180.5581842
0
ARC
8
DEFAULT_255_1_388
10
23.7460119
20
61.1716393
40
0.3641968
50
133.4540601
51
162.947111
0
ARC
8
DEFAULT_255_1_388
10
23.7661001
20
61.1502789
40
0.3935189
50
100.7869829
51
133.4382499
0
ARC
8
DEFAULT_255_1_388
10
23.8052246
20
60.9760399
40
0.5720313
50
89.660664
51
101.3702276
0
ARC
8
DEFAULT_255_1_388
10
23.8126855
20
60.9829263
40
0.5651495
50
78.2172678
51
90.412935
0
ARC
8
DEFAULT_255_1_388
10
23.8526321
20
61.1656511
40
0.378122
50
55.9269121
51
78.4888449
0
ARC
8
DEFAULT_255_1_388
10
23.8747036
20
61.2037187
40
0.3342379
50
47.929771
51
55.4049217
0
ARC
8
DEFAULT_255_1_388
10
23.8861566
20
61.2153618
40
0.3179217
50
4.334829
51
48.0560205
0
ARC
8
DEFAULT_255_1_388
10
23.7629368
20
61.1962487
40
0.442341
50
359.9251713
51
5.5971671
0
ARC
8
DEFAULT_255_1_388
10
23.8111522
20
61.2025728
40
0.3941854
50
337.8914027
51
358.9967534
0
ARC
8
DEFAULT_255_1_388
10
23.5059093
20
61.3203295
40
0.7213271
50
326.9132501
51
338.3508308
0
ARC
8
DEFAULT_255_1_388
10
23.0575204
20
61.6077105
40
1.2538973
50
319.6471833
51
327.0959558
0
ARC
8
DEFAULT_255_1_388
10
22.6261863
20
61.963505
40
1.8129975
50
317.2588228
51
319.9045804
0
LINE
8
DEFAULT_255_1_388
10
22.4038376
20
69.4674898
11
22.745385
21
68.8069842
0
LINE
8
DEFAULT_255_1_388
10
22.745385
20
68.8069842
11
23.0887395
21
69.4674898
0
LINE
8
DEFAULT_255_1_388
10
23.0887395
20
69.4674898
11
23.2857166
21
69.4674898
0
LINE
8
DEFAULT_255_1_388
10
23.2857166
20
69.4674898
11
22.8321272
21
68.6425355
0
LINE
8
DEFAULT_255_1_388
10
22.8321272
20
68.6425355
11
22.8321272
21
68.1519
0
LINE
8
DEFAULT_255_1_388
10
22.8321272
20
68.1519
11
22.6586428
21
68.1519
0
LINE
8
DEFAULT_255_1_388
10
22.6586428
20
68.1519
11
22.6586428
21
68.6425355
0
LINE
8
DEFAULT_255_1_388
10
22.6586428
20
68.6425355
11
22.2050535
21
69.4674898
0
LINE
8
DEFAULT_255_1_388
10
22.2050535
20
69.4674898
11
22.4038376
21
69.4674898
0
LINE
8
DEFAULT_255_1_388
10
23.9615828
20
69.4738148
11
23.9615828
21
68.1519
0
LINE
8
DEFAULT_255_1_388
10
23.9615828
20
68.1519
11
23.7935198
21
68.1519
0
LINE
8
DEFAULT_255_1_388
10
23.7935198
20
68.1519
11
23.7935198
21
69.265995
0
LINE
8
DEFAULT_255_1_388
10
23.7935198
20
69.265995
11
23.4564902
21
69.1422066
0
LINE
8
DEFAULT_255_1_388
10
23.4564902
20
69.1422066
11
23.4564902
21
69.2940055
0
LINE
8
DEFAULT_255_1_388
10
23.4564902
20
69.2940055
11
23.9353794
21
69.4738148
0
LINE
8
DEFAULT_255_1_388
10
23.9353794
20
69.4738148
11
23.9615828
21
69.4738148
0
LINE
8
DEFAULT_255_1_388
10
22.3954376
20
77.4049898
11
22.736985
21
76.7444842
0
LINE
8
DEFAULT_255_1_388
10
22.736985
20
76.7444842
11
23.0803395
21
77.4049898
0
LINE
8
DEFAULT_255_1_388
10
23.0803395
20
77.4049898
11
23.2773166
21
77.4049898
0
LINE
8
DEFAULT_255_1_388
10
23.2773166
20
77.4049898
11
22.8237272
21
76.5800355
0
LINE
8
DEFAULT_255_1_388
10
22.8237272
20
76.5800355
11
22.8237272
21
76.0894
0
LINE
8
DEFAULT_255_1_388
10
22.8237272
20
76.0894
11
22.6502428
21
76.0894
0
LINE
8
DEFAULT_255_1_388
10
22.6502428
20
76.0894
11
22.6502428
21
76.5800355
0
LINE
8
DEFAULT_255_1_388
10
22.6502428
20
76.5800355
11
22.1966535
21
77.4049898
0
LINE
8
DEFAULT_255_1_388
10
22.1966535
20
77.4049898
11
22.3954376
21
77.4049898
0
LINE
8
DEFAULT_255_1_388
10
24.2287699
20
76.867369
11
24.2287699
21
76.6505135
0
LINE
8
DEFAULT_255_1_388
10
23.3983942
20
76.6279244
11
23.3983942
21
76.8511048
0
LINE
8
DEFAULT_255_1_388
10
24.0616105
20
76.6053353
11
24.0616105
21
76.8791153
0
LINE
8
DEFAULT_255_1_388
10
23.5655536
20
76.8917652
11
23.5655536
21
76.6243102
0
ARC
8
DEFAULT_255_1_388
10
22.8510033
20
76.6450118
40
1.3777776
50
353.8440855
51
0.2287917
0
ARC
8
DEFAULT_255_1_388
10
23.3729051
20
76.5867414
40
0.852639
50
344.4934746
51
353.9763743
0
ARC
8
DEFAULT_255_1_388
10
23.7095858
20
76.4910191
40
0.5026273
50
329.2803599
51
344.7473406
0
ARC
8
DEFAULT_255_1_388
10
23.8211354
20
76.4298038
40
0.3754848
50
324.9361395
51
328.6153007
0
ARC
8
DEFAULT_255_1_388
10
23.8637003
20
76.4000586
40
0.3235566
50
280.5801797
51
324.9173226
0
ARC
8
DEFAULT_255_1_388
10
23.8185632
20
76.5880236
40
0.5167077
50
269.5979457
51
281.6732777
0
ARC
8
DEFAULT_255_1_388
10
23.8104535
20
76.5745113
40
0.5032026
50
256.6228565
51
270.5105488
0
ARC
8
DEFAULT_255_1_388
10
23.7652278
20
76.4003345
40
0.3233092
50
215.8618351
51
257.2787793
0
ARC
8
DEFAULT_255_1_388
10
23.8800985
20
76.4774106
40
0.4615831
50
197.9695203
51
215.2622745
0
ARC
8
DEFAULT_255_1_388
10
24.1596661
20
76.5717641
40
0.7566307
50
187.8816486
51
198.2346584
0
ARC
8
DEFAULT_255_1_388
10
24.6049899
20
76.6360453
40
1.2065653
50
180.8977266
51
188.0054894
0
ARC
8
DEFAULT_255_1_388
10
24.9100113
20
76.64754
40
1.5117443
50
180.7434591
51
181.152202
0
ARC
8
DEFAULT_255_1_388
10
24.7425109
20
76.8565371
40
1.3441277
50
173.7674302
51
180.2315596
0
ARC
8
DEFAULT_255_1_388
10
24.2342978
20
76.9139779
40
0.8326847
50
164.3058537
51
173.9000553
0
ARC
8
DEFAULT_255_1_388
10
23.9066978
20
77.0083652
40
0.4917711
50
148.7922028
51
164.5682288
0
ARC
8
DEFAULT_255_1_388
10
23.7997715
20
77.0680457
40
0.3694204
50
144.5883979
51
148.1161588
0
ARC
8
DEFAULT_255_1_388
10
23.761046
20
77.0950667
40
0.322202
50
101.6440149
51
144.5142619
0
ARC
8
DEFAULT_255_1_388
10
23.8088653
20
76.9050337
40
0.5180451
50
89.528284
51
102.5820197
0
ARC
8
DEFAULT_255_1_388
10
23.8177645
20
76.9006376
40
0.5224441
50
77.0437914
51
90.508231
0
ARC
8
DEFAULT_255_1_388
10
23.8629898
20
77.0854272
40
0.3322297
50
48.2777708
51
77.4996087
0
ARC
8
DEFAULT_255_1_388
10
23.8711638
20
77.0999557
40
0.315966
50
36.3141586
51
47.6307332
0
ARC
8
DEFAULT_255_1_388
10
23.773436
20
77.0341159
40
0.4337313
50
18.2931065
51
35.6770203
0
ARC
8
DEFAULT_255_1_388
10
23.4873201
20
76.9359107
40
0.7362203
50
8.0246996
51
18.5605636
0
ARC
8
DEFAULT_255_1_388
10
23.0189557
20
76.8667432
40
1.2096583
50
1.127539
51
8.1718423
0
ARC
8
DEFAULT_255_1_388
10
22.654069
20
76.8524374
40
1.5747719
50
0.5432713
51
1.38669
0
ARC
8
DEFAULT_255_1_388
10
22.8598069
20
76.8831163
40
1.2018103
50
359.8092569
51
4.9408001
0
ARC
8
DEFAULT_255_1_388
10
23.333465
20
76.92539
40
0.7262727
50
4.8364937
51
12.2906017
0
ARC
8
DEFAULT_255_1_388
10
23.6434115
20
76.9944485
40
0.4087324
50
12.0806994
51
23.8171225
0
ARC
8
DEFAULT_255_1_388
10
23.7754511
20
77.0503508
40
0.2653719
50
24.2874621
51
31.3934353
0
ARC
8
DEFAULT_255_1_388
10
23.8344947
20
77.0889822
40
0.1948607
50
30.7407708
51
82.4658033
0
ARC
8
DEFAULT_255_1_388
10
23.8142608
20
76.9896017
40
0.2961198
50
81.1057101
51
90.2187368
0
ARC
8
DEFAULT_255_1_388
10
23.8102419
20
77.0186421
40
0.2670929
50
89.380395
51
105.6763916
0
ARC
8
DEFAULT_255_1_388
10
23.7896141
20
77.093632
40
0.1893189
50
105.7980655
51
149.7387869
0
ARC
8
DEFAULT_255_1_388
10
23.9093282
20
77.0216719
40
0.3289892
50
149.4208441
51
163.628295
0
ARC
8
DEFAULT_255_1_388
10
24.1445511
20
76.9499345
40
0.5749004
50
163.3764549
51
172.141138
0
ARC
8
DEFAULT_255_1_388
10
24.5158233
20
76.8967582
40
0.9499585
50
172.0258462
51
178.0705453
0
ARC
8
DEFAULT_255_1_388
10
24.8579785
20
76.8805682
40
1.2924734
50
177.8639301
51
179.5036263
0
ARC
8
DEFAULT_255_1_388
10
24.7360804
20
76.6202151
40
1.170534
50
179.7995545
51
185.246089
0
ARC
8
DEFAULT_255_1_388
10
24.2812397
20
76.5771404
40
0.7136613
50
185.1411911
51
193.0082205
0
ARC
8
DEFAULT_255_1_388
10
23.9838658
20
76.5068441
40
0.4080987
50
192.7897338
51
205.2507384
0
ARC
8
DEFAULT_255_1_388
10
23.8660868
20
76.4542538
40
0.2791522
50
205.8001921
51
211.2545876
0
ARC
8
DEFAULT_255_1_388
10
23.8072407
20
76.4148132
40
0.2084074
50
210.3789935
51
238.4007996
0
ARC
8
DEFAULT_255_1_388
10
23.8050493
20
76.4200786
40
0.2117943
50
239.6521916
51
265.9793852
0
ARC
8
DEFAULT_255_1_388
10
23.8146342
20
76.4957358
40
0.2879689
50
265.1324455
51
270.0603288
0
ARC
8
DEFAULT_255_1_388
10
23.8178719
20
76.4592418
40
0.2514919
50
269.3314378
51
287.2180039
0
ARC
8
DEFAULT_255_1_388
10
23.8333801
20
76.4026291
40
0.1928357
50
287.7957942
51
329.0808983
0
ARC
8
DEFAULT_255_1_388
10
23.7256558
20
76.4698651
40
0.319808
50
328.6635261
51
343.3325043
0
ARC
8
DEFAULT_255_1_388
10
23.4812017
20
76.5460195
40
0.5758408
50
343.0498092
51
351.9392499
0
ARC
8
DEFAULT_255_1_388
10
23.0911338
20
76.6035205
40
0.9701202
50
351.8071632
51
357.7957897
0
ARC
8
DEFAULT_255_1_388
10
22.7276815
20
76.6223724
40
1.3340376
50
357.5870923
51
359.2682493
0
LINE
8
DEFAULT_255_1_388
10
23.167232
20
84.4443468
11
23.3416199
21
84.4443468
0
LINE
8
DEFAULT_255_1_388
10
22.3287242
20
84.6232525
11
22.3287242
21
84.7497516
0
LINE
8
DEFAULT_255_1_388
10
23.3416199
20
84.9196217
11
23.167232
21
84.9196217
0
LINE
8
DEFAULT_255_1_388
10
22.5031121
20
84.7452337
11
22.5031121
21
84.6178312
0
ARC
8
DEFAULT_255_1_388
10
22.7250433
20
84.5115329
40
0.6202263
50
340.1774904
51
353.7812217
0
ARC
8
DEFAULT_255_1_388
10
22.9018286
20
84.4456893
40
0.4315926
50
311.4560052
51
340.4420756
0
ARC
8
DEFAULT_255_1_388
10
22.8980826
20
84.4581665
40
0.4434573
50
282.4332229
51
310.7514507
0
ARC
8
DEFAULT_255_1_388
10
22.8486644
20
84.6623703
40
0.6535262
50
269.9358869
51
282.8096729
0
ARC
8
DEFAULT_255_1_388
10
22.8428583
20
84.8136329
40
0.8048043
50
269.9995752
51
270.3612856
0
ARC
8
DEFAULT_255_1_388
10
22.8369073
20
84.5337781
40
0.5249831
50
250.7885263
51
270.6488451
0
ARC
8
DEFAULT_255_1_388
10
22.8179898
20
84.4620853
40
0.4510942
50
219.3628377
51
250.0611024
0
ARC
8
DEFAULT_255_1_388
10
22.9112772
20
84.5413653
40
0.5735046
50
193.5480293
51
219.5755675
0
ARC
8
DEFAULT_255_1_388
10
23.1780981
20
84.610652
40
0.849146
50
181.1220183
51
193.8754971
0
ARC
8
DEFAULT_255_1_388
10
23.4104214
20
84.6230914
40
1.0816971
50
179.9914644
51
181.5398227
0
ARC
8
DEFAULT_255_1_388
10
23.2027525
20
84.7539586
40
0.8740384
50
169.5837606
51
180.275782
0
ARC
8
DEFAULT_255_1_388
10
22.9960873
20
84.7921439
40
0.6638751
50
155.0367033
51
169.6002779
0
ARC
8
DEFAULT_255_1_388
10
22.8683331
20
84.8537336
40
0.5220662
50
136.7831557
51
155.2472983
0
ARC
8
DEFAULT_255_1_388
10
22.8245122
20
84.8909577
40
0.4646502
50
121.7633063
51
136.4281161
0
ARC
8
DEFAULT_255_1_388
10
22.8396962
20
84.8629049
40
0.4964979
50
95.6460018
51
121.5489589
0
ARC
8
DEFAULT_255_1_388
10
22.8573936
20
84.7381704
40
0.6223912
50
89.9245727
51
96.1375919
0
ARC
8
DEFAULT_255_1_388
10
22.8630641
20
84.7515721
40
0.6090084
50
76.6779212
51
90.456405
0
ARC
8
DEFAULT_255_1_388
10
22.9073454
20
84.930506
40
0.42469
50
47.4858803
51
76.9287069
0
ARC
8
DEFAULT_255_1_388
10
22.8908068
20
84.9192623
40
0.4441778
50
16.5424081
51
46.8934505
0
ARC
8
DEFAULT_255_1_388
10
22.7099118
20
84.8598265
40
0.6345318
50
5.4072971
51
17.0363711
0
ARC
8
DEFAULT_255_1_388
10
22.5480843
20
84.8338304
40
0.6250632
50
7.8888693
51
15.9242022
0
ARC
8
DEFAULT_255_1_388
10
22.7715828
20
84.8987309
40
0.3923364
50
15.7650676
51
27.9410069
0
ARC
8
DEFAULT_255_1_388
10
22.8957997
20
84.9652317
40
0.2514401
50
27.8167196
51
46.4007942
0
ARC
8
DEFAULT_255_1_388
10
22.9013839
20
84.9645882
40
0.2480958
50
47.4372362
51
75.0695672
0
ARC
8
DEFAULT_255_1_388
10
22.8666675
20
84.8437277
40
0.3738281
50
74.7009379
51
87.8124314
0
ARC
8
DEFAULT_255_1_388
10
22.8584292
20
84.7253659
40
0.4924321
50
87.3802571
51
90.0251599
0
ARC
8
DEFAULT_255_1_388
10
22.8540939
20
84.8573997
40
0.3604218
50
89.3451886
51
108.5744412
0
ARC
8
DEFAULT_255_1_388
10
22.8386931
20
84.9151836
40
0.3007661
50
109.2998307
51
143.3037387
0
ARC
8
DEFAULT_255_1_388
10
22.9244221
20
84.8492584
40
0.4089031
50
143.075267
51
163.1918576
0
ARC
8
DEFAULT_255_1_388
10
23.1440055
20
84.7799652
40
0.6391492
50
162.9375929
51
174.6208776
0
ARC
8
DEFAULT_255_1_388
10
23.4394437
20
84.7475711
40
0.9363344
50
174.342123
51
180.1430283
0
ARC
8
DEFAULT_255_1_388
10
23.3346978
20
84.6132117
40
0.8315986
50
179.6817261
51
189.150555
0
ARC
8
DEFAULT_255_1_388
10
23.0533727
20
84.5663559
40
0.5464044
50
188.9911061
51
203.5772363
0
ARC
8
DEFAULT_255_1_388
10
22.9319019
20
84.5159539
40
0.4149206
50
203.9075402
51
215.1312435
0
ARC
8
DEFAULT_255_1_388
10
22.8280817
20
84.4354907
40
0.2837747
50
213.9071511
51
263.8848919
0
ARC
8
DEFAULT_255_1_388
10
22.842181
20
84.5237519
40
0.3730641
50
263.1757928
51
270.1031044
0
ARC
8
DEFAULT_255_1_388
10
22.845789
20
84.6640511
40
0.5133712
50
269.6722503
51
279.0606936
0
ARC
8
DEFAULT_255_1_388
10
22.8758045
20
84.482615
40
0.3294739
50
278.8749101
51
293.6349581
0
ARC
8
DEFAULT_255_1_388
10
22.9118249
20
84.3980251
40
0.2375405
50
293.8553806
51
310.0518171
0
ARC
8
DEFAULT_255_1_388
10
22.9123758
20
84.3910021
40
0.2318463
50
311.0644687
51
332.0111037
0
ARC
8
DEFAULT_255_1_388
10
22.7782431
20
84.4649702
40
0.3850112
50
331.6586806
51
343.2877423
0
ARC
8
DEFAULT_255_1_388
10
22.5461896
20
84.5362806
40
0.6277712
50
343.1446576
51
351.0103568
0
ARC
8
DEFAULT_255_1_388
10
22.382922
20
84.5662873
40
0.7937327
50
350.71248
51
351.1626997
0
LINE
8
DEFAULT_255_1_388
10
24.3969832
20
84.1633382
11
24.3969832
21
84.0269
0
LINE
8
DEFAULT_255_1_388
10
24.3969832
20
84.0269
11
23.5349827
21
84.0269
0
LINE
8
DEFAULT_255_1_388
10
23.5349827
20
84.0269
11
23.5349827
21
84.1470741
0
LINE
8
DEFAULT_255_1_388
10
23.5349827
20
84.1470741
11
23.9903792
21
84.6530702
0
LINE
8
DEFAULT_255_1_388
10
23.6768423
20
84.9548607
11
23.5096829
21
84.9548607
0
LINE
8
DEFAULT_255_1_388
10
24.0888677
20
84.545546
11
23.7364776
21
84.1633382
0
LINE
8
DEFAULT_255_1_388
10
23.7364776
20
84.1633382
11
24.3969832
21
84.1633382
0
ARC
8
DEFAULT_255_1_388
10
22.4727852
20
85.9950983
40
2.0258655
50
318.5132526
51
320.7829045
0
ARC
8
DEFAULT_255_1_388
10
23.0675808
20
85.5109929
40
1.2589638
50
320.7372878
51
323.9739031
0
ARC
8
DEFAULT_255_1_388
10
23.508474
20
85.1915554
40
0.7145141
50
323.8962701
51
328.64194
0
ARC
8
DEFAULT_255_1_388
10
23.7386998
20
85.0495545
40
0.4440242
50
328.8294576
51
331.7891185
0
ARC
8
DEFAULT_255_1_388
10
23.8509318
20
84.9916374
40
0.3177517
50
331.4254512
51
352.9365785
0
ARC
8
DEFAULT_255_1_388
10
23.8662318
20
84.988205
40
0.3021496
50
353.2257659
51
0.0166158
0
ARC
8
DEFAULT_255_1_388
10
23.8899078
20
84.9907894
40
0.2784847
50
359.486299
51
15.9343185
0
ARC
8
DEFAULT_255_1_388
10
23.9469345
20
85.0061269
40
0.2194403
50
16.1712913
51
43.5286088
0
ARC
8
DEFAULT_255_1_388
10
23.955629
20
85.0148191
40
0.2071504
50
43.4417391
51
83.1661095
0
ARC
8
DEFAULT_255_1_388
10
23.9405451
20
84.9319316
40
0.2912888
50
82.160179
51
90.1505708
0
ARC
8
DEFAULT_255_1_388
10
23.9369933
20
84.8715279
40
0.3517025
50
89.5460741
51
102.5418361
0
ARC
8
DEFAULT_255_1_388
10
23.9096653
20
84.9874933
40
0.2325748
50
102.1738499
51
129.206123
0
ARC
8
DEFAULT_255_1_388
10
23.9008106
20
85.0014664
40
0.2161591
50
129.72865
51
135.753947
0
ARC
8
DEFAULT_255_1_388
10
23.9144588
20
84.9905728
40
0.2335433
50
136.1757367
51
166.3673339
0
ARC
8
DEFAULT_255_1_388
10
24.0277276
20
84.9602148
40
0.3507873
50
165.9090694
51
178.8684636
0
ARC
8
DEFAULT_255_1_388
10
24.1253048
20
84.9549263
40
0.4484624
50
178.4391136
51
180.0083808
0
ARC
8
DEFAULT_255_1_388
10
23.9673749
20
84.9593197
40
0.4577138
50
163.2878482
51
180.5581842
0
ARC
8
DEFAULT_255_1_388
10
23.8771791
20
84.9841393
40
0.3641968
50
133.4540601
51
162.947111
0
ARC
8
DEFAULT_255_1_388
10
23.8972672
20
84.9627789
40
0.3935189
50
100.7869829
51
133.4382499
0
ARC
8
DEFAULT_255_1_388
10
23.9363917
20
84.7885399
40
0.5720313
50
89.660664
51
101.3702276
0
ARC
8
DEFAULT_255_1_388
10
23.9438526
20
84.7954263
40
0.5651495
50
78.2172678
51
90.412935
0
ARC
8
DEFAULT_255_1_388
10
23.9837992
20
84.9781511
40
0.378122
50
55.9269121
51
78.4888449
0
ARC
8
DEFAULT_255_1_388
10
24.0058707
20
85.0162187
40
0.3342379
50
47.929771
51
55.4049217
0
ARC
8
DEFAULT_255_1_388
10
24.0173238
20
85.0278618
40
0.3179217
50
4.334829
51
48.0560205
0
ARC
8
DEFAULT_255_1_388
10
23.8941039
20
85.0087487
40
0.442341
50
359.9251713
51
5.5971671
0
ARC
8
DEFAULT_255_1_388
10
23.9423194
20
85.0150728
40
0.3941854
50
337.8914027
51
358.9967534
0
ARC
8
DEFAULT_255_1_388
10
23.6370764
20
85.1328295
40
0.7213271
50
326.9132501
51
338.3508308
0
ARC
8
DEFAULT_255_1_388
10
23.1886876
20
85.4202105
40
1.2538973
50
319.6471833
51
327.0959558
0
ARC
8
DEFAULT_255_1_388
10
22.7573534
20
85.776005
40
1.8129975
50
317.2588228
51
319.9045804
0
ENDSEC
0
EOF