0
SECTION
2
HEADER
9
$MEASUREMENT
70
1
0
ENDSEC
0
SECTION
2
TABLES
0
TABLE
2
LTYPE
0
LTYPE
72
65
70
64
2
CONTINUOUS
3
______
73
0
40
0
0
ENDTAB
0
TABLE
2
LAYER
0
LAYER
2
DEFAULT_255_2_778
70
0
62
255
6
CONTINUOUS
0
ENDTAB
0
ENDSEC
0
SECTION
2
ENTITIES
0
LINE
8
DEFAULT_255_2_778
10
7.1527531
20
9.8689562
11
7.1527531
21
9.7472562
0
LINE
8
DEFAULT_255_2_778
10
7.1527531
20
9.7472562
11
6.6791531
21
9.7472562
0
LINE
8
DEFAULT_255_2_778
10
6.6791531
20
9.7472562
11
6.6791531
21
9.2487562
0
LINE
8
DEFAULT_255_2_778
10
6.6791531
20
9.2487562
11
6.5304531
21
9.2487562
0
LINE
8
DEFAULT_255_2_778
10
6.5304531
20
9.2487562
11
6.5304531
21
10.3774562
0
LINE
8
DEFAULT_255_2_778
10
6.5304531
20
10.3774562
11
7.2297531
21
10.3774562
0
LINE
8
DEFAULT_255_2_778
10
7.2297531
20
10.3774562
11
7.2297531
21
10.2549562
0
LINE
8
DEFAULT_255_2_778
10
7.2297531
20
10.2549562
11
6.6794531
21
10.2549562
0
LINE
8
DEFAULT_255_2_778
10
6.6794531
20
10.2549562
11
6.6794531
21
9.8689562
0
LINE
8
DEFAULT_255_2_778
10
6.6794531
20
9.8689562
11
7.1530531
21
9.8689562
0
LINE
8
DEFAULT_255_2_778
10
7.1530531
20
9.8689562
11
7.1527531
21
9.8689562
0
ARC
8
DEFAULT_255_2_778
10
7.0629963
20
9.7180019
40
1.0153176
50
348.9064471
51
0.6977792
0
ARC
8
DEFAULT_255_2_778
10
7.6177897
20
9.6035646
40
0.4489062
50
326.5260062
51
349.6148714
0
ARC
8
DEFAULT_255_2_778
10
7.7530328
20
9.5300599
40
0.295851
50
269.6528471
51
323.9529877
0
ARC
8
DEFAULT_255_2_778
10
7.723519
20
9.7476042
40
0.5141377
50
269.9687429
51
273.0907669
0
ARC
8
DEFAULT_255_2_778
10
7.7095385
20
9.5817756
40
0.3485782
50
237.9592072
51
272.252459
0
ARC
8
DEFAULT_255_2_778
10
7.6768221
20
9.5117251
40
0.2720054
50
215.6305234
51
235.9723227
0
ARC
8
DEFAULT_255_2_778
10
7.8329864
20
9.6104683
40
0.4565837
50
189.9843051
51
214.2855514
0
ARC
8
DEFAULT_255_2_778
10
8.3319296
20
9.7148143
40
0.9661987
50
180.2281695
51
190.9485577
0
ARC
8
DEFAULT_255_2_778
10
8.3565726
20
9.9147368
40
0.9909088
50
168.7703816
51
180.7037107
0
ARC
8
DEFAULT_255_2_778
10
7.8186435
20
10.0269881
40
0.441451
50
146.2154155
51
169.4641509
0
ARC
8
DEFAULT_255_2_778
10
7.6894106
20
10.0966073
40
0.2956595
50
90.4021108
51
143.5013525
0
ARC
8
DEFAULT_255_2_778
10
7.7212089
20
9.8748403
40
0.5185266
50
89.9525195
51
93.7455676
0
ARC
8
DEFAULT_255_2_778
10
7.7350815
20
10.0304873
40
0.3631283
50
60.3456636
51
92.1215716
0
ARC
8
DEFAULT_255_2_778
10
7.7759887
20
10.1202548
40
0.2650268
50
36.1693438
51
58.4288962
0
ARC
8
DEFAULT_255_2_778
10
7.632693
20
10.0303338
40
0.4339404
50
10.1435277
51
34.5875698
0
ARC
8
DEFAULT_255_2_778
10
7.0963775
20
9.9176234
40
0.9818616
50
359.9383354
51
11.1061693
0
ARC
8
DEFAULT_255_2_778
10
7.1129645
20
9.9384464
40
0.8219628
50
359.1579346
51
10.7713749
0
ARC
8
DEFAULT_255_2_778
10
7.6124158
20
10.0355405
40
0.3131722
50
10.3980291
51
29.9239636
0
ARC
8
DEFAULT_255_2_778
10
7.7339608
20
10.0994648
40
0.1760198
50
31.6267492
51
93.9490194
0
ARC
8
DEFAULT_255_2_778
10
7.7098063
20
10.1020091
40
0.1734753
50
86.0227771
51
148.7255821
0
ARC
8
DEFAULT_255_2_778
10
7.8827703
20
10.0143947
40
0.3670929
50
151.0531998
51
173.5509742
0
ARC
8
DEFAULT_255_2_778
10
8.3887496
20
9.9346426
40
0.8791139
50
172.0898531
51
179.8485337
0
ARC
8
DEFAULT_255_2_778
10
8.3192569
20
9.6959281
40
0.809702
50
179.1764115
51
191.0818592
0
ARC
8
DEFAULT_255_2_778
10
7.8488309
20
9.6021755
40
0.3300312
50
190.8069932
51
209.9385249
0
ARC
8
DEFAULT_255_2_778
10
7.7149583
20
9.5257078
40
0.1758605
50
210.1170404
51
272.8618248
0
ARC
8
DEFAULT_255_2_778
10
7.7337698
20
9.5230845
40
0.1733084
50
266.6818264
51
328.4362127
0
ARC
8
DEFAULT_255_2_778
10
7.5750937
20
9.6078892
40
0.3530657
50
330.1891244
51
352.7458062
0
ARC
8
DEFAULT_255_2_778
10
7.0551424
20
9.6957206
40
0.8802077
50
351.3478966
51
359.7035645
0
LINE
8
DEFAULT_255_2_778
10
8.0782386
20
9.9163667
11
8.0782386
21
9.7303667
0
LINE
8
DEFAULT_255_2_778
10
7.3657386
20
9.7109667
11
7.3657386
21
9.9025667
0
LINE
8
DEFAULT_255_2_778
10
8.0782386
20
9.9165667
11
8.0782386
21
9.9163667
0
LINE
8
DEFAULT_255_2_778
10
7.9348386
20
9.6914667
11
7.9348386
21
9.9263667
0
LINE
8
DEFAULT_255_2_778
10
7.5096386
20
9.9369667
11
7.5096386
21
9.7075667
0
LINE
8
DEFAULT_255_2_778
10
7.9353386
20
9.6911667
11
7.9348386
21
9.6914667
0
LINE
8
DEFAULT_255_2_778
10
8.5754229
20
9.7869729
11
8.5754229
21
9.6700729
0
LINE
8
DEFAULT_255_2_778
10
8.5754229
20
9.6700729
11
8.1970229
21
9.6700729
0
LINE
8
DEFAULT_255_2_778
10
8.1970229
20
9.6700729
11
8.1970229
21
9.7869729
0
LINE
8
DEFAULT_255_2_778
10
8.1970229
20
9.7869729
11
8.5754229
21
9.7869729
0
LINE
8
DEFAULT_255_2_778
10
8.5754229
20
9.7869729
11
8.5754229
21
9.7869729
0
ARC
8
DEFAULT_255_2_778
10
8.3924963
20
9.7180019
40
1.0153176
50
348.9064471
51
0.6977792
0
ARC
8
DEFAULT_255_2_778
10
8.9472897
20
9.6035646
40
0.4489062
50
326.5260062
51
349.6148714
0
ARC
8
DEFAULT_255_2_778
10
9.0825328
20
9.5300599
40
0.295851
50
269.6528471
51
323.9529877
0
ARC
8
DEFAULT_255_2_778
10
9.053019
20
9.7476042
40
0.5141377
50
269.9687429
51
273.0907669
0
ARC
8
DEFAULT_255_2_778
10
9.0390385
20
9.5817756
40
0.3485782
50
237.9592072
51
272.252459
0
ARC
8
DEFAULT_255_2_778
10
9.0063221
20
9.5117251
40
0.2720054
50
215.6305234
51
235.9723227
0
ARC
8
DEFAULT_255_2_778
10
9.1624864
20
9.6104683
40
0.4565837
50
189.9843051
51
214.2855514
0
ARC
8
DEFAULT_255_2_778
10
9.6614296
20
9.7148143
40
0.9661987
50
180.2281695
51
190.9485577
0
ARC
8
DEFAULT_255_2_778
10
9.6860726
20
9.9147368
40
0.9909088
50
168.7703816
51
180.7037107
0
ARC
8
DEFAULT_255_2_778
10
9.1481435
20
10.0269881
40
0.441451
50
146.2154155
51
169.4641509
0
ARC
8
DEFAULT_255_2_778
10
9.0189106
20
10.0966073
40
0.2956595
50
90.4021108
51
143.5013525
0
ARC
8
DEFAULT_255_2_778
10
9.0507089
20
9.8748403
40
0.5185266
50
89.9525195
51
93.7455676
0
ARC
8
DEFAULT_255_2_778
10
9.0646069
20
10.0313936
40
0.3622236
50
60.1219077
51
92.1308812
0
ARC
8
DEFAULT_255_2_778
10
9.1047314
20
10.1191566
40
0.2662867
50
36.2639302
51
58.2005002
0
ARC
8
DEFAULT_255_2_778
10
8.962193
20
10.0303338
40
0.4339404
50
10.1435277
51
34.5875698
0
ARC
8
DEFAULT_255_2_778
10
8.4258775
20
9.9176234
40
0.9818616
50
359.9383354
51
11.1061693
0
ARC
8
DEFAULT_255_2_778
10
8.4424645
20
9.9384464
40
0.8219628
50
359.1579346
51
10.7713749
0
ARC
8
DEFAULT_255_2_778
10
8.9419158
20
10.0355405
40
0.3131722
50
10.3980291
51
29.9239636
0
ARC
8
DEFAULT_255_2_778
10
9.0634608
20
10.0994648
40
0.1760198
50
31.6267492
51
93.9490194
0
ARC
8
DEFAULT_255_2_778
10
9.0393063
20
10.1020091
40
0.1734753
50
86.0227771
51
148.7255821
0
ARC
8
DEFAULT_255_2_778
10
9.2122703
20
10.0143947
40
0.3670929
50
151.0531998
51
173.5509742
0
ARC
8
DEFAULT_255_2_778
10
9.7182496
20
9.9346426
40
0.8791139
50
172.0898531
51
179.8485337
0
ARC
8
DEFAULT_255_2_778
10
9.6487569
20
9.6959281
40
0.809702
50
179.1764115
51
191.0818592
0
ARC
8
DEFAULT_255_2_778
10
9.1783309
20
9.6021755
40
0.3300312
50
190.8069932
51
209.9385249
0
ARC
8
DEFAULT_255_2_778
10
9.0444583
20
9.5257078
40
0.1758605
50
210.1170404
51
272.8618248
0
ARC
8
DEFAULT_255_2_778
10
9.0632698
20
9.5230845
40
0.1733084
50
266.6818264
51
328.4362127
0
ARC
8
DEFAULT_255_2_778
10
8.9045937
20
9.6078892
40
0.3530657
50
330.1891244
51
352.7458062
0
ARC
8
DEFAULT_255_2_778
10
8.3846424
20
9.6957206
40
0.8802077
50
351.3478966
51
359.7035645
0
LINE
8
DEFAULT_255_2_778
10
9.4077386
20
9.9163667
11
9.4077386
21
9.7303667
0
LINE
8
DEFAULT_255_2_778
10
8.6952386
20
9.7109667
11
8.6952386
21
9.9025667
0
LINE
8
DEFAULT_255_2_778
10
9.4077386
20
9.9165667
11
9.4077386
21
9.9163667
0
LINE
8
DEFAULT_255_2_778
10
9.2643386
20
9.6914667
11
9.2643386
21
9.9263667
0
LINE
8
DEFAULT_255_2_778
10
8.8391386
20
9.9369667
11
8.8391386
21
9.7075667
0
LINE
8
DEFAULT_255_2_778
10
9.2648386
20
9.6911667
11
9.2643386
21
9.6914667
0
LINE
8
DEFAULT_255_2_778
10
10.196774
20
10.3775239
11
10.196774
21
9.6279239
0
LINE
8
DEFAULT_255_2_778
10
10.196774
20
9.6279239
11
10.353474
21
9.6279239
0
LINE
8
DEFAULT_255_2_778
10
10.353474
20
9.6279239
11
10.353474
21
9.5110239
0
LINE
8
DEFAULT_255_2_778
10
10.353474
20
9.5110239
11
10.196774
21
9.5110239
0
LINE
8
DEFAULT_255_2_778
10
10.196774
20
9.5110239
11
10.196774
21
9.2491239
0
LINE
8
DEFAULT_255_2_778
10
10.196774
20
9.2491239
11
10.052574
21
9.2491239
0
LINE
8
DEFAULT_255_2_778
10
10.052574
20
9.2491239
11
10.052574
21
9.5110239
0
LINE
8
DEFAULT_255_2_778
10
10.052574
20
9.5110239
11
9.538774
21
9.5110239
0
LINE
8
DEFAULT_255_2_778
10
9.538774
20
9.5110239
11
9.538774
21
9.5954239
0
LINE
8
DEFAULT_255_2_778
10
9.538774
20
9.5954239
11
10.044174
21
10.3775239
0
LINE
8
DEFAULT_255_2_778
10
10.044174
20
10.3775239
11
10.196774
21
10.3775239
0
LINE
8
DEFAULT_255_2_778
10
10.196774
20
10.3775239
11
10.196774
21
10.3775239
0
LINE
8
DEFAULT_255_2_778
10
10.035674
20
10.1505239
11
9.701474
21
9.6279239
0
LINE
8
DEFAULT_255_2_778
10
9.701474
20
9.6279239
11
10.052574
21
9.6279239
0
LINE
8
DEFAULT_255_2_778
10
10.052574
20
9.6279239
11
10.052574
21
10.1814239
0
LINE
8
DEFAULT_255_2_778
10
10.052574
20
10.1814239
11
10.035374
21
10.1505239
0
LINE
8
DEFAULT_255_2_778
10
10.035374
20
10.1505239
11
10.035674
21
10.1505239
0
LINE
8
DEFAULT_255_2_778
10
11.3001698
20
10.3774562
11
11.3001698
21
10.2549562
0
LINE
8
DEFAULT_255_2_778
10
11.3001698
20
10.2549562
11
10.9373698
21
10.2549562
0
LINE
8
DEFAULT_255_2_778
10
10.9373698
20
10.2549562
11
10.9373698
21
9.2487562
0
LINE
8
DEFAULT_255_2_778
10
10.9373698
20
9.2487562
11
10.7894698
21
9.2487562
0
LINE
8
DEFAULT_255_2_778
10
10.7894698
20
9.2487562
11
10.7894698
21
10.2549562
0
LINE
8
DEFAULT_255_2_778
10
10.7894698
20
10.2549562
11
10.4272698
21
10.2549562
0
LINE
8
DEFAULT_255_2_778
10
10.4272698
20
10.2549562
11
10.4272698
21
10.3774562
0
LINE
8
DEFAULT_255_2_778
10
10.4272698
20
10.3774562
11
11.3001698
21
10.3774562
0
LINE
8
DEFAULT_255_2_778
10
11.3001698
20
10.3774562
11
11.3001698
21
10.3774562
0
LINE
8
DEFAULT_255_2_778
10
12.3345479
20
10.3774562
11
12.3345479
21
9.2487562
0
LINE
8
DEFAULT_255_2_778
10
12.3345479
20
9.2487562
11
12.1850479
21
9.2487562
0
LINE
8
DEFAULT_255_2_778
10
12.1850479
20
9.2487562
11
12.1850479
21
9.7704562
0
LINE
8
DEFAULT_255_2_778
10
12.1850479
20
9.7704562
11
11.6162479
21
9.7704562
0
LINE
8
DEFAULT_255_2_778
10
11.6162479
20
9.7704562
11
11.6162479
21
9.2487562
0
LINE
8
DEFAULT_255_2_778
10
11.6162479
20
9.2487562
11
11.4675479
21
9.2487562
0
LINE
8
DEFAULT_255_2_778
10
11.4675479
20
9.2487562
11
11.4675479
21
10.3774562
0
LINE
8
DEFAULT_255_2_778
10
11.4675479
20
10.3774562
11
11.6165479
21
10.3774562
0
LINE
8
DEFAULT_255_2_778
10
11.6165479
20
10.3774562
11
11.6165479
21
9.8922562
0
LINE
8
DEFAULT_255_2_778
10
11.6165479
20
9.8922562
11
12.1853479
21
9.8922562
0
LINE
8
DEFAULT_255_2_778
10
12.1853479
20
9.8922562
11
12.1853479
21
10.3774562
0
LINE
8
DEFAULT_255_2_778
10
12.1853479
20
10.3774562
11
12.3348479
21
10.3774562
0
LINE
8
DEFAULT_255_2_778
10
12.3348479
20
10.3774562
11
12.3345479
21
10.3774562
0
LINE
8
DEFAULT_255_2_778
10
12.5991573
20
10.3774562
11
12.7915573
21
10.3774562
0
LINE
8
DEFAULT_255_2_778
10
12.7915573
20
10.3774562
11
13.1605573
21
9.4564562
0
LINE
8
DEFAULT_255_2_778
10
13.1605573
20
9.4564562
11
13.5296573
21
10.3774562
0
LINE
8
DEFAULT_255_2_778
10
13.5296573
20
10.3774562
11
13.7228573
21
10.3774562
0
LINE
8
DEFAULT_255_2_778
10
13.7228573
20
10.3774562
11
13.7228573
21
9.2487562
0
LINE
8
DEFAULT_255_2_778
10
13.7228573
20
9.2487562
11
13.5741573
21
9.2487562
0
LINE
8
DEFAULT_255_2_778
10
13.5741573
20
9.2487562
11
13.5741573
21
9.6882562
0
LINE
8
DEFAULT_255_2_778
10
13.5741573
20
9.6882562
11
13.5881573
21
10.1626562
0
LINE
8
DEFAULT_255_2_778
10
13.5881573
20
10.1626562
11
13.2177573
21
9.2487562
0
LINE
8
DEFAULT_255_2_778
10
13.2177573
20
9.2487562
11
13.1037573
21
9.2487562
0
LINE
8
DEFAULT_255_2_778
10
13.1037573
20
9.2487562
11
12.7338573
21
10.1602562
0
LINE
8
DEFAULT_255_2_778
10
12.7338573
20
10.1602562
11
12.7486573
21
9.6882562
0
LINE
8
DEFAULT_255_2_778
10
12.7486573
20
9.6882562
11
12.7486573
21
9.2487562
0
LINE
8
DEFAULT_255_2_778
10
12.7486573
20
9.2487562
11
12.5999573
21
9.2487562
0
LINE
8
DEFAULT_255_2_778
10
12.5999573
20
9.2487562
11
12.5999573
21
10.3774562
0
LINE
8
DEFAULT_255_2_778
10
12.5999573
20
10.3774562
11
12.5991573
21
10.3774562
0
LINE
8
DEFAULT_255_2_778
10
13.0675698
20
65.8701562
11
13.0675698
21
65.7476562
0
LINE
8
DEFAULT_255_2_778
10
13.0675698
20
65.7476562
11
12.7047698
21
65.7476562
0
LINE
8
DEFAULT_255_2_778
10
12.7047698
20
65.7476562
11
12.7047698
21
64.7414562
0
LINE
8
DEFAULT_255_2_778
10
12.7047698
20
64.7414562
11
12.5565698
21
64.7414562
0
LINE
8
DEFAULT_255_2_778
10
12.5565698
20
64.7414562
11
12.5565698
21
65.7476562
0
LINE
8
DEFAULT_255_2_778
10
12.5565698
20
65.7476562
11
12.1946698
21
65.7476562
0
LINE
8
DEFAULT_255_2_778
10
12.1946698
20
65.7476562
11
12.1946698
21
65.8701562
0
LINE
8
DEFAULT_255_2_778
10
12.1946698
20
65.8701562
11
13.0675698
21
65.8701562
0
LINE
8
DEFAULT_255_2_778
10
13.0675698
20
65.8701562
11
13.0675698
21
65.8701562
0
LINE
8
DEFAULT_255_2_778
10
13.8728896
20
65.3849562
11
13.8728896
21
65.2631562
0
LINE
8
DEFAULT_255_2_778
10
13.8728896
20
65.2631562
11
13.3836896
21
65.2631562
0
LINE
8
DEFAULT_255_2_778
10
13.3836896
20
65.2631562
11
13.3836896
21
64.8631562
0
LINE
8
DEFAULT_255_2_778
10
13.3836896
20
64.8631562
11
13.9516896
21
64.8631562
0
LINE
8
DEFAULT_255_2_778
10
13.9516896
20
64.8631562
11
13.9516896
21
64.7414562
0
LINE
8
DEFAULT_255_2_778
10
13.9516896
20
64.7414562
11
13.2346896
21
64.7414562
0
LINE
8
DEFAULT_255_2_778
10
13.2346896
20
64.7414562
11
13.2346896
21
65.8701562
0
LINE
8
DEFAULT_255_2_778
10
13.2346896
20
65.8701562
11
13.9439896
21
65.8701562
0
LINE
8
DEFAULT_255_2_778
10
13.9439896
20
65.8701562
11
13.9439896
21
65.7476562
0
LINE
8
DEFAULT_255_2_778
10
13.9439896
20
65.7476562
11
13.3836896
21
65.7476562
0
LINE
8
DEFAULT_255_2_778
10
13.3836896
20
65.7476562
11
13.3836896
21
65.3849562
0
LINE
8
DEFAULT_255_2_778
10
13.3836896
20
65.3849562
11
13.8728896
21
65.3849562
0
LINE
8
DEFAULT_255_2_778
10
13.8728896
20
65.3849562
11
13.8728896
21
65.3849562
0
LINE
8
DEFAULT_255_2_778
10
14.1371896
20
65.8701562
11
14.3295896
21
65.8701562
0
LINE
8
DEFAULT_255_2_778
10
14.3295896
20
65.8701562
11
14.6985896
21
64.9494562
0
LINE
8
DEFAULT_255_2_778
10
14.6985896
20
64.9494562
11
15.0676896
21
65.8701562
0
LINE
8
DEFAULT_255_2_778
10
15.0676896
20
65.8701562
11
15.2605896
21
65.8701562
0
LINE
8
DEFAULT_255_2_778
10
15.2605896
20
65.8701562
11
15.2605896
21
64.7414562
0
LINE
8
DEFAULT_255_2_778
10
15.2605896
20
64.7414562
11
15.1118896
21
64.7414562
0
LINE
8
DEFAULT_255_2_778
10
15.1118896
20
64.7414562
11
15.1118896
21
65.1809562
0
LINE
8
DEFAULT_255_2_778
10
15.1118896
20
65.1809562
11
15.1258896
21
65.6553562
0
LINE
8
DEFAULT_255_2_778
10
15.1258896
20
65.6553562
11
14.7554896
21
64.7414562
0
LINE
8
DEFAULT_255_2_778
10
14.7554896
20
64.7414562
11
14.6414896
21
64.7414562
0
LINE
8
DEFAULT_255_2_778
10
14.6414896
20
64.7414562
11
14.2718896
21
65.6529562
0
LINE
8
DEFAULT_255_2_778
10
14.2718896
20
65.6529562
11
14.2866896
21
65.1809562
0
LINE
8
DEFAULT_255_2_778
10
14.2866896
20
65.1809562
11
14.2866896
21
64.7414562
0
LINE
8
DEFAULT_255_2_778
10
14.2866896
20
64.7414562
11
14.1379896
21
64.7414562
0
LINE
8
DEFAULT_255_2_778
10
14.1379896
20
64.7414562
11
14.1379896
21
65.8701562
0
LINE
8
DEFAULT_255_2_778
10
14.1379896
20
65.8701562
11
14.1371896
21
65.8701562
0
ARC
8
DEFAULT_255_2_778
10
15.9523899
20
65.383504
40
0.4868293
50
66.0692334
51
91.545294
0
ARC
8
DEFAULT_255_2_778
10
16.0089767
20
65.5298221
40
0.330224
50
48.111567
51
64.7454398
0
ARC
8
DEFAULT_255_2_778
10
16.0147219
20
65.5382724
40
0.3201003
50
357.6874706
51
47.8672221
0
ARC
8
DEFAULT_255_2_778
10
15.9982353
20
65.5108872
40
0.3366372
50
323.8275683
51
2.4633866
0
ARC
8
DEFAULT_255_2_778
10
16.0470724
20
65.486254
40
0.282816
50
310.7976874
51
322.016237
0
ARC
8
DEFAULT_255_2_778
10
15.9943772
20
65.5642841
40
0.3764804
50
275.9142111
51
309.1092605
0
ARC
8
DEFAULT_255_2_778
10
15.940512
20
65.8727305
40
0.6891801
50
269.7630158
51
277.7265782
0
ARC
8
DEFAULT_255_2_778
10
15.9520076
20
65.6038872
40
0.2991027
50
267.5576248
51
298.3334246
0
ARC
8
DEFAULT_255_2_778
10
15.99808
20
65.501966
40
0.1876885
50
300.7210179
51
311.3433755
0
ARC
8
DEFAULT_255_2_778
10
15.9806549
20
65.5099705
40
0.2053565
50
313.5186673
51
3.7932752
0
ARC
8
DEFAULT_255_2_778
10
15.9740606
20
65.5332547
40
0.2117231
50
357.3745136
51
45.6507442
0
ARC
8
DEFAULT_255_2_778
10
15.9565573
20
65.4981892
40
0.2493222
50
48.4084258
51
92.0217605
0
LINE
8
DEFAULT_255_2_778
10
15.9376615
20
65.1832562
11
15.6717615
21
65.1832562
0
LINE
8
DEFAULT_255_2_778
10
15.6717615
20
65.1832562
11
15.6717615
21
64.7414562
0
LINE
8
DEFAULT_255_2_778
10
15.6717615
20
64.7414562
11
15.5230615
21
64.7414562
0
LINE
8
DEFAULT_255_2_778
10
15.5230615
20
64.7414562
11
15.5230615
21
65.8701562
0
LINE
8
DEFAULT_255_2_778
10
15.5230615
20
65.8701562
11
15.9392615
21
65.8701562
0
LINE
8
DEFAULT_255_2_778
10
15.9376615
20
65.1835562
11
15.9376615
21
65.1832562
0
LINE
8
DEFAULT_255_2_778
10
15.6717615
20
65.7476562
11
15.6717615
21
65.3050562
0
LINE
8
DEFAULT_255_2_778
10
15.6717615
20
65.3050562
11
15.9392615
21
65.3050562
0
LINE
8
DEFAULT_255_2_778
10
15.9477615
20
65.7473562
11
15.6717615
21
65.7473562
0
LINE
8
DEFAULT_255_2_778
10
15.6717615
20
65.7473562
11
15.6717615
21
65.7476562
0
ARC
8
DEFAULT_255_2_778
10
12.6396658
20
63.1982123
40
0.3097308
50
87.5924415
51
139.5478218
0
ARC
8
DEFAULT_255_2_778
10
12.6663755
20
63.2325315
40
0.2754791
50
54.314272
51
92.8503249
0
ARC
8
DEFAULT_255_2_778
10
12.6864555
20
63.2795315
40
0.2258643
50
24.3812784
51
51.4954783
0
ARC
8
DEFAULT_255_2_778
10
13.1497665
20
63.1947586
40
0.3131141
50
118.3303418
51
145.3530059
0
ARC
8
DEFAULT_255_2_778
10
13.1513679
20
63.1875456
40
0.3202294
50
88.5310918
51
117.9701084
0
ARC
8
DEFAULT_255_2_778
10
13.1725208
20
63.1922674
40
0.3156679
50
60.9738155
51
92.3500743
0
ARC
8
DEFAULT_255_2_778
10
13.193953
20
63.2663972
40
0.2410664
50
5.8199549
51
56.875599
0
ARC
8
DEFAULT_255_2_778
10
12.93602
20
63.2099437
40
0.504288
50
0.639238
51
9.2313261
0
ARC
8
DEFAULT_255_2_778
10
13.0914274
20
63.2195777
40
0.2059296
50
356.5177784
51
32.7626859
0
ARC
8
DEFAULT_255_2_778
10
13.1661618
20
63.2586023
40
0.1222037
50
36.3408747
51
42.6960817
0
ARC
8
DEFAULT_255_2_778
10
13.1454271
20
63.2232098
40
0.1618847
50
46.9299929
51
90.4342151
0
ARC
8
DEFAULT_255_2_778
10
13.1186002
20
63.0133178
40
0.3726524
50
86.060848
51
90.0804739
0
ARC
8
DEFAULT_255_2_778
10
13.1114928
20
63.1960828
40
0.1900011
50
88.014159
51
131.5070135
0
ARC
8
DEFAULT_255_2_778
10
13.1174303
20
63.1967387
40
0.1935064
50
132.9524339
51
176.0793122
0
ARC
8
DEFAULT_255_2_778
10
12.5839382
20
63.2157104
40
0.1966583
50
356.2562547
51
36.4503541
0
ARC
8
DEFAULT_255_2_778
10
12.6185748
20
63.2161183
40
0.1697673
50
43.3010952
51
93.3886651
0
ARC
8
DEFAULT_255_2_778
10
12.6011248
20
63.0462229
40
0.3394468
50
88.7482664
51
90.0081002
0
ARC
8
DEFAULT_255_2_778
10
12.5862646
20
63.1944963
40
0.1917465
50
85.5695487
51
158.2434343
0
LINE
8
DEFAULT_255_2_778
10
12.2642768
20
63.4923698
11
12.3999768
21
63.4923698
0
LINE
8
DEFAULT_255_2_778
10
12.3999768
20
63.4923698
11
12.4039768
21
63.3991698
0
LINE
8
DEFAULT_255_2_778
10
13.4402768
20
63.2155698
11
13.4402768
21
62.6535698
0
LINE
8
DEFAULT_255_2_778
10
13.4402768
20
62.6535698
11
13.2969768
21
62.6535698
0
LINE
8
DEFAULT_255_2_778
10
13.2969768
20
62.6535698
11
13.2969768
21
63.2070698
0
LINE
8
DEFAULT_255_2_778
10
12.9243768
20
63.2099698
11
12.9243768
21
62.6533698
0
LINE
8
DEFAULT_255_2_778
10
12.9243768
20
62.6533698
11
12.7801768
21
62.6533698
0
LINE
8
DEFAULT_255_2_778
10
12.7801768
20
62.6533698
11
12.7801768
21
63.2028698
0
LINE
8
DEFAULT_255_2_778
10
12.4081768
20
63.2655698
11
12.4081768
21
62.6533698
0
LINE
8
DEFAULT_255_2_778
10
12.4081768
20
62.6533698
11
12.2647768
21
62.6533698
0
LINE
8
DEFAULT_255_2_778
10
12.2647768
20
62.6533698
11
12.2647768
21
63.4920698
0
LINE
8
DEFAULT_255_2_778
10
12.2647768
20
63.4920698
11
12.2642768
21
63.4923698
0
LINE
8
DEFAULT_255_2_778
10
13.7315448
20
63.7823562
11
14.0525448
21
62.8512562
0
LINE
8
DEFAULT_255_2_778
10
14.0525448
20
62.8512562
11
14.3750448
21
63.7823562
0
LINE
8
DEFAULT_255_2_778
10
14.3750448
20
63.7823562
11
14.5377448
21
63.7823562
0
LINE
8
DEFAULT_255_2_778
10
14.5377448
20
63.7823562
11
14.1191448
21
62.6536562
0
LINE
8
DEFAULT_255_2_778
10
14.1191448
20
62.6536562
11
13.9874448
21
62.6536562
0
LINE
8
DEFAULT_255_2_778
10
13.9874448
20
62.6536562
11
13.5696448
21
63.7823562
0
LINE
8
DEFAULT_255_2_778
10
13.5696448
20
63.7823562
11
13.7315448
21
63.7823562
0
LINE
8
DEFAULT_255_2_778
10
13.7315448
20
63.7823562
11
13.7315448
21
63.7823562
0
LINE
8
DEFAULT_255_2_778
10
4.4844198
20
65.8701562
11
4.4844198
21
64.7414562
0
LINE
8
DEFAULT_255_2_778
10
4.4844198
20
64.7414562
11
4.3357198
21
64.7414562
0
LINE
8
DEFAULT_255_2_778
10
4.3357198
20
64.7414562
11
4.3357198
21
65.8701562
0
LINE
8
DEFAULT_255_2_778
10
4.3357198
20
65.8701562
11
4.4847198
21
65.8701562
0
LINE
8
DEFAULT_255_2_778
10
4.4847198
20
65.8701562
11
4.4844198
21
65.8701562
0
LINE
8
DEFAULT_255_2_778
10
5.6236479
20
65.8701562
11
5.6236479
21
64.7414562
0
LINE
8
DEFAULT_255_2_778
10
5.6236479
20
64.7414562
11
5.4741479
21
64.7414562
0
LINE
8
DEFAULT_255_2_778
10
5.4741479
20
64.7414562
11
4.9061479
21
65.6111562
0
LINE
8
DEFAULT_255_2_778
10
4.9061479
20
65.6111562
11
4.9061479
21
64.7414562
0
LINE
8
DEFAULT_255_2_778
10
4.9061479
20
64.7414562
11
4.7566479
21
64.7414562
0
LINE
8
DEFAULT_255_2_778
10
4.7566479
20
64.7414562
11
4.7566479
21
65.8701562
0
LINE
8
DEFAULT_255_2_778
10
4.7566479
20
65.8701562
11
4.9061479
21
65.8701562
0
LINE
8
DEFAULT_255_2_778
10
4.9061479
20
65.8701562
11
5.4757479
21
64.9964562
0
LINE
8
DEFAULT_255_2_778
10
5.4757479
20
64.9964562
11
5.4757479
21
65.8701562
0
LINE
8
DEFAULT_255_2_778
10
5.4757479
20
65.8701562
11
5.6239479
21
65.8701562
0
LINE
8
DEFAULT_255_2_778
10
5.6239479
20
65.8701562
11
5.6236479
21
65.8701562
0
ARC
8
DEFAULT_255_2_778
10
15.5532173
20
54.2240189
40
0.5121365
50
326.2184918
51
354.8656936
0
ARC
8
DEFAULT_255_2_778
10
15.6534058
20
54.167809
40
0.3977108
50
311.2048225
51
324.9235483
0
ARC
8
DEFAULT_255_2_778
10
15.621033
20
54.2193109
40
0.4578846
50
272.8408486
51
310.0071001
0
ARC
8
DEFAULT_255_2_778
10
15.585047
20
54.4775144
40
0.7179274
50
269.9323211
51
274.6882835
0
ARC
8
DEFAULT_255_2_778
10
15.5678712
20
54.2048507
40
0.4455625
50
219.7087309
51
272.1000954
0
ARC
8
DEFAULT_255_2_778
10
15.6775907
20
54.2870763
40
0.5825429
50
186.5891652
51
219.0357958
0
ARC
8
DEFAULT_255_2_778
10
16.0140102
20
54.3467319
40
0.9238166
50
179.804288
51
187.8704709
0
ARC
8
DEFAULT_255_2_778
10
15.820536
20
54.4850369
40
0.7304646
50
157.5214431
51
181.0706907
0
ARC
8
DEFAULT_255_2_778
10
15.6826723
20
54.5315379
40
0.5853775
50
154.7558617
51
156.5678126
0
ARC
8
DEFAULT_255_2_778
10
15.5825171
20
54.5884065
40
0.4706151
50
122.2343248
51
155.8180159
0
ARC
8
DEFAULT_255_2_778
10
15.5886467
20
54.5619623
40
0.4963331
50
88.8048695
51
121.2045592
0
ARC
8
DEFAULT_255_2_778
10
15.6128822
20
54.5575852
40
0.5007947
50
62.2422622
51
91.5885758
0
ARC
8
DEFAULT_255_2_778
10
15.6549568
20
54.6569825
40
0.3933444
50
47.2421292
51
60.9224648
0
ARC
8
DEFAULT_255_2_778
10
15.6057737
20
54.6166643
40
0.4564214
50
6.848003
51
46.144956
0
ARC
8
DEFAULT_255_2_778
10
15.3762337
20
54.5653746
40
0.6908412
50
5.7499022
51
8.8018951
0
ARC
8
DEFAULT_255_2_778
10
15.4346091
20
54.5808172
40
0.4646118
50
6.6458289
51
27.3063564
0
ARC
8
DEFAULT_255_2_778
10
15.6368064
20
54.6796881
40
0.2396394
50
28.4790051
51
46.4552552
0
ARC
8
DEFAULT_255_2_778
10
15.6217264
20
54.6458531
40
0.2748321
50
49.036857
51
90.5109421
0
ARC
8
DEFAULT_255_2_778
10
15.5994647
20
54.4462272
40
0.4748605
50
87.6089635
51
90.0199922
0
ARC
8
DEFAULT_255_2_778
10
15.5866416
20
54.6228652
40
0.2984908
50
87.5696613
51
142.8590089
0
ARC
8
DEFAULT_255_2_778
10
15.7075397
20
54.5424402
40
0.4435129
50
144.0068746
51
172.5291695
0
ARC
8
DEFAULT_255_2_778
10
16.0914723
20
54.4719708
40
0.8335876
50
171.157672
51
180.3356483
0
ARC
8
DEFAULT_255_2_778
10
15.9412861
20
54.3319261
40
0.6835044
50
178.9385759
51
197.6160422
0
ARC
8
DEFAULT_255_2_778
10
15.6861195
20
54.2563971
40
0.4174785
50
198.3346205
51
214.9420149
0
ARC
8
DEFAULT_255_2_778
10
15.5737293
20
54.1736721
40
0.2779895
50
214.2327449
51
272.1996373
0
ARC
8
DEFAULT_255_2_778
10
15.5969852
20
54.2729485
40
0.3772711
50
268.0881929
51
294.0518506
0
ARC
8
DEFAULT_255_2_778
10
15.6522382
20
54.1317282
40
0.2259043
50
295.8530136
51
310.0835836
0
ARC
8
DEFAULT_255_2_778
10
15.6120463
20
54.1591961
40
0.2731126
50
312.8253804
51
345.2298686
0
ARC
8
DEFAULT_255_2_778
10
15.2951883
20
54.267007
40
0.6074393
50
343.0157255
51
351.5920952
0
LINE
8
DEFAULT_255_2_778
10
15.895899
20
54.1781875
11
16.063299
21
54.1781875
0
LINE
8
DEFAULT_255_2_778
10
15.090199
20
54.3498875
11
15.090199
21
54.4713875
0
LINE
8
DEFAULT_255_2_778
10
16.063599
20
54.6345875
11
15.896099
21
54.6345875
0
LINE
8
DEFAULT_255_2_778
10
15.257899
20
54.4670875
11
15.257899
21
54.3445875
0
LINE
8
DEFAULT_255_2_778
10
15.896099
20
54.1781875
11
15.895899
21
54.1781875
0
LINE
8
DEFAULT_255_2_778
10
17.2624573
20
55.0409219
11
17.2624573
21
53.7768219
0
LINE
8
DEFAULT_255_2_778
10
17.2624573
20
53.7768219
11
17.0949573
21
53.7768219
0
LINE
8
DEFAULT_255_2_778
10
17.0949573
20
53.7768219
11
17.0949573
21
54.3612219
0
LINE
8
DEFAULT_255_2_778
10
17.0949573
20
54.3612219
11
16.4578573
21
54.3612219
0
LINE
8
DEFAULT_255_2_778
10
16.4578573
20
54.3612219
11
16.4578573
21
53.7770219
0
LINE
8
DEFAULT_255_2_778
10
16.4578573
20
53.7770219
11
16.2911573
21
53.7770219
0
LINE
8
DEFAULT_255_2_778
10
16.2911573
20
53.7770219
11
16.2911573
21
55.0412219
0
LINE
8
DEFAULT_255_2_778
10
16.2911573
20
55.0412219
11
16.4578573
21
55.0412219
0
LINE
8
DEFAULT_255_2_778
10
16.4578573
20
55.0412219
11
16.4578573
21
54.4977219
0
LINE
8
DEFAULT_255_2_778
10
16.4578573
20
54.4977219
11
17.0949573
21
54.4977219
0
LINE
8
DEFAULT_255_2_778
10
17.0949573
20
54.4977219
11
17.0949573
21
55.0412219
0
LINE
8
DEFAULT_255_2_778
10
17.0949573
20
55.0412219
11
17.2624573
21
55.0412219
0
LINE
8
DEFAULT_255_2_778
10
17.2624573
20
55.0412219
11
17.2624573
21
55.0409219
0
LINE
8
DEFAULT_255_2_778
10
18.0445771
20
55.0471
11
18.0445771
21
53.7771
0
LINE
8
DEFAULT_255_2_778
10
18.0445771
20
53.7771
11
17.8831771
21
53.7771
0
LINE
8
DEFAULT_255_2_778
10
17.8831771
20
53.7771
11
17.8831771
21
54.8476
0
LINE
8
DEFAULT_255_2_778
10
17.8831771
20
54.8476
11
17.5593771
21
54.7285
0
LINE
8
DEFAULT_255_2_778
10
17.5593771
20
54.7285
11
17.5593771
21
54.8743
0
LINE
8
DEFAULT_255_2_778
10
17.5593771
20
54.8743
11
18.0194771
21
55.0471
0
LINE
8
DEFAULT_255_2_778
10
18.0194771
20
55.0471
11
18.0445771
21
55.0471
0
LINE
8
DEFAULT_255_2_778
10
18.0445771
20
55.0471
11
18.0445771
21
55.0471
0
ARC
8
DEFAULT_255_2_778
10
15.5532173
20
43.7084189
40
0.5121365
50
326.2184918
51
354.8656936
0
ARC
8
DEFAULT_255_2_778
10
15.6534058
20
43.652209
40
0.3977108
50
311.2048225
51
324.9235483
0
ARC
8
DEFAULT_255_2_778
10
15.621033
20
43.7037109
40
0.4578846
50
272.8408486
51
310.0071001
0
ARC
8
DEFAULT_255_2_778
10
15.585047
20
43.9619144
40
0.7179274
50
269.9323211
51
274.6882835
0
ARC
8
DEFAULT_255_2_778
10
15.5678712
20
43.6892507
40
0.4455625
50
219.7087309
51
272.1000954
0
ARC
8
DEFAULT_255_2_778
10
15.6775907
20
43.7714763
40
0.5825429
50
186.5891652
51
219.0357958
0
ARC
8
DEFAULT_255_2_778
10
16.0140102
20
43.8311319
40
0.9238166
50
179.804288
51
187.8704709
0
ARC
8
DEFAULT_255_2_778
10
15.820536
20
43.9694369
40
0.7304646
50
157.5214431
51
181.0706907
0
ARC
8
DEFAULT_255_2_778
10
15.6826723
20
44.0159379
40
0.5853775
50
154.7558617
51
156.5678126
0
ARC
8
DEFAULT_255_2_778
10
15.5825171
20
44.0728065
40
0.4706151
50
122.2343248
51
155.8180159
0
ARC
8
DEFAULT_255_2_778
10
15.5886467
20
44.0463623
40
0.4963331
50
88.8048695
51
121.2045592
0
ARC
8
DEFAULT_255_2_778
10
15.6128822
20
44.0419852
40
0.5007947
50
62.2422622
51
91.5885758
0
ARC
8
DEFAULT_255_2_778
10
15.6549568
20
44.1413825
40
0.3933444
50
47.2421292
51
60.9224648
0
ARC
8
DEFAULT_255_2_778
10
15.6057737
20
44.1010643
40
0.4564214
50
6.848003
51
46.144956
0
ARC
8
DEFAULT_255_2_778
10
15.3762337
20
44.0497746
40
0.6908412
50
5.7499022
51
8.8018951
0
ARC
8
DEFAULT_255_2_778
10
15.4346091
20
44.0652172
40
0.4646118
50
6.6458289
51
27.3063564
0
ARC
8
DEFAULT_255_2_778
10
15.6368064
20
44.1640881
40
0.2396394
50
28.4790051
51
46.4552552
0
ARC
8
DEFAULT_255_2_778
10
15.6217264
20
44.1302531
40
0.2748321
50
49.036857
51
90.5109421
0
ARC
8
DEFAULT_255_2_778
10
15.5994647
20
43.9306272
40
0.4748605
50
87.6089635
51
90.0199922
0
ARC
8
DEFAULT_255_2_778
10
15.5866416
20
44.1072652
40
0.2984908
50
87.5696613
51
142.8590089
0
ARC
8
DEFAULT_255_2_778
10
15.7075397
20
44.0268402
40
0.4435129
50
144.0068746
51
172.5291695
0
ARC
8
DEFAULT_255_2_778
10
16.0914723
20
43.9563708
40
0.8335876
50
171.157672
51
180.3356483
0
ARC
8
DEFAULT_255_2_778
10
15.9412861
20
43.8163261
40
0.6835044
50
178.9385759
51
197.6160422
0
ARC
8
DEFAULT_255_2_778
10
15.6861195
20
43.7407971
40
0.4174785
50
198.3346205
51
214.9420149
0
ARC
8
DEFAULT_255_2_778
10
15.5737293
20
43.6580721
40
0.2779895
50
214.2327449
51
272.1996373
0
ARC
8
DEFAULT_255_2_778
10
15.5969852
20
43.7573485
40
0.3772711
50
268.0881929
51
294.0518506
0
ARC
8
DEFAULT_255_2_778
10
15.6522382
20
43.6161282
40
0.2259043
50
295.8530136
51
310.0835836
0
ARC
8
DEFAULT_255_2_778
10
15.6120463
20
43.6435961
40
0.2731126
50
312.8253804
51
345.2298686
0
ARC
8
DEFAULT_255_2_778
10
15.2951883
20
43.751407
40
0.6074393
50
343.0157255
51
351.5920952
0
LINE
8
DEFAULT_255_2_778
10
15.895899
20
43.6625875
11
16.063299
21
43.6625875
0
LINE
8
DEFAULT_255_2_778
10
15.090199
20
43.8342875
11
15.090199
21
43.9557875
0
LINE
8
DEFAULT_255_2_778
10
16.063599
20
44.1189875
11
15.896099
21
44.1189875
0
LINE
8
DEFAULT_255_2_778
10
15.257899
20
43.9514875
11
15.257899
21
43.8289875
0
LINE
8
DEFAULT_255_2_778
10
15.896099
20
43.6625875
11
15.895899
21
43.6625875
0
LINE
8
DEFAULT_255_2_778
10
17.2624573
20
44.5253896
11
17.2624573
21
43.2611896
0
LINE
8
DEFAULT_255_2_778
10
17.2624573
20
43.2611896
11
17.0949573
21
43.2611896
0
LINE
8
DEFAULT_255_2_778
10
17.0949573
20
43.2611896
11
17.0949573
21
43.8453896
0
LINE
8
DEFAULT_255_2_778
10
17.0949573
20
43.8453896
11
16.4578573
21
43.8453896
0
LINE
8
DEFAULT_255_2_778
10
16.4578573
20
43.8453896
11
16.4578573
21
43.2611896
0
LINE
8
DEFAULT_255_2_778
10
16.4578573
20
43.2611896
11
16.2911573
21
43.2611896
0
LINE
8
DEFAULT_255_2_778
10
16.2911573
20
43.2611896
11
16.2911573
21
44.5253896
0
LINE
8
DEFAULT_255_2_778
10
16.2911573
20
44.5253896
11
16.4578573
21
44.5253896
0
LINE
8
DEFAULT_255_2_778
10
16.4578573
20
44.5253896
11
16.4578573
21
43.9818896
0
LINE
8
DEFAULT_255_2_778
10
16.4578573
20
43.9818896
11
17.0949573
21
43.9818896
0
LINE
8
DEFAULT_255_2_778
10
17.0949573
20
43.9818896
11
17.0949573
21
44.5253896
0
LINE
8
DEFAULT_255_2_778
10
17.0949573
20
44.5253896
11
17.2624573
21
44.5253896
0
LINE
8
DEFAULT_255_2_778
10
17.2624573
20
44.5253896
11
17.2624573
21
44.5253896
0
ARC
8
DEFAULT_255_2_778
10
16.8400226
20
44.8588033
40
1.4945186
50
318.2118479
51
324.1442158
0
ARC
8
DEFAULT_255_2_778
10
17.5862241
20
44.3178104
40
0.5728435
50
324.2828573
51
331.2510692
0
ARC
8
DEFAULT_255_2_778
10
17.8249519
20
44.1863353
40
0.3003065
50
331.3364202
51
359.7812054
0
ARC
8
DEFAULT_255_2_778
10
17.8980444
20
44.1937331
40
0.2273724
50
357.8463467
51
42.5837515
0
ARC
8
DEFAULT_255_2_778
10
17.9151657
20
44.2021982
40
0.2091066
50
44.050538
51
92.6065155
0
ARC
8
DEFAULT_255_2_778
10
17.8907988
20
44.1629182
40
0.2486147
50
86.5739116
51
133.2674693
0
ARC
8
DEFAULT_255_2_778
10
17.8669142
20
44.1992355
40
0.2059358
50
135.3546321
51
135.7682293
0
ARC
8
DEFAULT_255_2_778
10
17.9112899
20
44.1695837
40
0.2585983
50
137.9197998
51
182.6915536
0
ARC
8
DEFAULT_255_2_778
10
18.0942705
20
44.153176
40
0.4413143
50
179.4463836
51
179.9983719
0
ARC
8
DEFAULT_255_2_778
10
17.8642173
20
44.1683719
40
0.3721709
50
134.1992452
51
182.338126
0
ARC
8
DEFAULT_255_2_778
10
17.8792067
20
44.1369026
40
0.4053364
50
90.3568815
51
132.6169096
0
ARC
8
DEFAULT_255_2_778
10
17.9054372
20
43.9137072
40
0.6291814
50
89.9800484
51
92.6194715
0
ARC
8
DEFAULT_255_2_778
10
17.9189669
20
44.0930803
40
0.4500051
50
63.6234822
51
91.6949884
0
ARC
8
DEFAULT_255_2_778
10
17.9676062
20
44.209982
40
0.3237726
50
47.9990825
51
62.1439091
0
ARC
8
DEFAULT_255_2_778
10
17.9716301
20
44.2177628
40
0.3153057
50
357.5871497
51
47.5963624
0
ARC
8
DEFAULT_255_2_778
10
17.867892
20
44.2175323
40
0.4189674
50
332.058958
51
358.2159101
0
ARC
8
DEFAULT_255_2_778
10
17.381843
20
44.4578713
40
0.9610953
50
320.6386833
51
332.978364
0
ARC
8
DEFAULT_255_2_778
10
16.8346703
20
44.8837204
40
1.6543211
50
317.2133166
51
321.2541887
0
LINE
8
DEFAULT_255_2_778
10
18.3448563
20
43.3924885
11
18.3448563
21
43.2614885
0
LINE
8
DEFAULT_255_2_778
10
18.3448563
20
43.2614885
11
17.5166563
21
43.2614885
0
LINE
8
DEFAULT_255_2_778
10
17.5166563
20
43.2614885
11
17.5166563
21
43.3768885
0
LINE
8
DEFAULT_255_2_778
10
17.5166563
20
43.3768885
11
17.9543563
21
43.8628885
0
LINE
8
DEFAULT_255_2_778
10
17.6529563
20
44.1531885
11
17.4923563
21
44.1531885
0
LINE
8
DEFAULT_255_2_778
10
18.0487563
20
43.7599885
11
17.7101563
21
43.3927885
0
LINE
8
DEFAULT_255_2_778
10
17.7101563
20
43.3927885
11
18.3448563
21
43.3927885
0
LINE
8
DEFAULT_255_2_778
10
18.3448563
20
43.3927885
11
18.3448563
21
43.3924885
0
ARC
8
DEFAULT_255_2_778
10
15.6173173
20
38.4530189
40
0.5121365
50
326.2184918
51
354.8656936
0
ARC
8
DEFAULT_255_2_778
10
15.7175058
20
38.396809
40
0.3977108
50
311.2048225
51
324.9235483
0
ARC
8
DEFAULT_255_2_778
10
15.685133
20
38.4483109
40
0.4578846
50
272.8408486
51
310.0071001
0
ARC
8
DEFAULT_255_2_778
10
15.649147
20
38.7065144
40
0.7179274
50
269.9323211
51
274.6882835
0
ARC
8
DEFAULT_255_2_778
10
15.6319712
20
38.4338507
40
0.4455625
50
219.7087309
51
272.1000954
0
ARC
8
DEFAULT_255_2_778
10
15.7416907
20
38.5160763
40
0.5825429
50
186.5891652
51
219.0357958
0
ARC
8
DEFAULT_255_2_778
10
16.0781102
20
38.5757319
40
0.9238166
50
179.804288
51
187.8704709
0
ARC
8
DEFAULT_255_2_778
10
15.884636
20
38.7140369
40
0.7304646
50
157.5214431
51
181.0706907
0
ARC
8
DEFAULT_255_2_778
10
15.7467723
20
38.7605379
40
0.5853775
50
154.7558617
51
156.5678126
0
ARC
8
DEFAULT_255_2_778
10
15.6466171
20
38.8174065
40
0.4706151
50
122.2343248
51
155.8180159
0
ARC
8
DEFAULT_255_2_778
10
15.6527467
20
38.7909623
40
0.4963331
50
88.8048695
51
121.2045592
0
ARC
8
DEFAULT_255_2_778
10
15.6769822
20
38.7865852
40
0.5007947
50
62.2422622
51
91.5885758
0
ARC
8
DEFAULT_255_2_778
10
15.7190568
20
38.8859825
40
0.3933444
50
47.2421292
51
60.9224648
0
ARC
8
DEFAULT_255_2_778
10
15.6698737
20
38.8456643
40
0.4564214
50
6.848003
51
46.144956
0
ARC
8
DEFAULT_255_2_778
10
15.4403337
20
38.7943746
40
0.6908412
50
5.7499022
51
8.8018951
0
ARC
8
DEFAULT_255_2_778
10
15.4987091
20
38.8098172
40
0.4646118
50
6.6458289
51
27.3063564
0
ARC
8
DEFAULT_255_2_778
10
15.7009064
20
38.9086881
40
0.2396394
50
28.4790051
51
46.4552552
0
ARC
8
DEFAULT_255_2_778
10
15.6858264
20
38.8748531
40
0.2748321
50
49.036857
51
90.5109421
0
ARC
8
DEFAULT_255_2_778
10
15.6635647
20
38.6752272
40
0.4748605
50
87.6089635
51
90.0199922
0
ARC
8
DEFAULT_255_2_778
10
15.6507416
20
38.8518652
40
0.2984908
50
87.5696613
51
142.8590089
0
ARC
8
DEFAULT_255_2_778
10
15.7716397
20
38.7714402
40
0.4435129
50
144.0068746
51
172.5291695
0
ARC
8
DEFAULT_255_2_778
10
16.1555723
20
38.7009708
40
0.8335876
50
171.157672
51
180.3356483
0
ARC
8
DEFAULT_255_2_778
10
16.0053861
20
38.5609261
40
0.6835044
50
178.9385759
51
197.6160422
0
ARC
8
DEFAULT_255_2_778
10
15.7502195
20
38.4853971
40
0.4174785
50
198.3346205
51
214.9420149
0
ARC
8
DEFAULT_255_2_778
10
15.6378293
20
38.4026721
40
0.2779895
50
214.2327449
51
272.1996373
0
ARC
8
DEFAULT_255_2_778
10
15.6610852
20
38.5019485
40
0.3772711
50
268.0881929
51
294.0518506
0
ARC
8
DEFAULT_255_2_778
10
15.7163382
20
38.3607282
40
0.2259043
50
295.8530136
51
310.0835836
0
ARC
8
DEFAULT_255_2_778
10
15.6761463
20
38.3881961
40
0.2731126
50
312.8253804
51
345.2298686
0
ARC
8
DEFAULT_255_2_778
10
15.3592883
20
38.496007
40
0.6074393
50
343.0157255
51
351.5920952
0
LINE
8
DEFAULT_255_2_778
10
15.959999
20
38.4071875
11
16.127399
21
38.4071875
0
LINE
8
DEFAULT_255_2_778
10
15.154299
20
38.5788875
11
15.154299
21
38.7003875
0
LINE
8
DEFAULT_255_2_778
10
16.127699
20
38.8635875
11
15.960199
21
38.8635875
0
LINE
8
DEFAULT_255_2_778
10
15.321999
20
38.6960875
11
15.321999
21
38.5735875
0
LINE
8
DEFAULT_255_2_778
10
15.960199
20
38.4071875
11
15.959999
21
38.4071875
0
ARC
8
DEFAULT_255_2_778
10
16.6490254
20
38.3609802
40
0.403123
50
328.6033919
51
1.9771729
0
ARC
8
DEFAULT_255_2_778
10
16.7214423
20
38.3274087
40
0.3239471
50
313.1294432
51
326.9989584
0
ARC
8
DEFAULT_255_2_778
10
16.6780022
20
38.3848315
40
0.3956248
50
270.3364288
51
312.035379
0
ARC
8
DEFAULT_255_2_778
10
16.6526261
20
38.6026534
40
0.6140649
50
269.979679
51
272.5853604
0
ARC
8
DEFAULT_255_2_778
10
16.6395573
20
38.4841248
40
0.4957029
50
246.9166559
51
271.4855545
0
ARC
8
DEFAULT_255_2_778
10
16.5808001
20
38.3281729
40
0.3292767
50
227.6330762
51
245.6826582
0
ARC
8
DEFAULT_255_2_778
10
16.5934954
20
38.3298387
40
0.3391632
50
179.5112963
51
226.2379986
0
ARC
8
DEFAULT_255_2_778
10
16.8036758
20
38.3546279
40
0.5497675
50
179.9832641
51
182.2826092
0
ARC
8
DEFAULT_255_2_778
10
16.6519531
20
38.3409884
40
0.231756
50
176.5862555
51
222.1415025
0
ARC
8
DEFAULT_255_2_778
10
16.6343562
20
38.3500085
40
0.2255199
50
226.8456827
51
272.368769
0
ARC
8
DEFAULT_255_2_778
10
16.6523682
20
38.5315988
40
0.4070102
50
268.7764468
51
270.0056472
0
ARC
8
DEFAULT_255_2_778
10
16.6614349
20
38.3486698
40
0.224263
50
267.6932347
51
314.8540719
0
ARC
8
DEFAULT_255_2_778
10
16.6341141
20
38.3575346
40
0.2501608
50
317.859343
51
2.3711211
0
ARC
8
DEFAULT_255_2_778
10
16.449674
20
38.3749747
40
0.4344446
50
359.0648586
51
359.6061723
0
LINE
8
DEFAULT_255_2_778
10
16.8844083
20
38.3722885
11
16.8844083
21
39.2699885
0
LINE
8
DEFAULT_255_2_778
10
16.8844083
20
39.2699885
11
17.0519083
21
39.2699885
0
LINE
8
DEFAULT_255_2_778
10
17.0519083
20
39.2699885
11
17.0519083
21
38.3748885
0
LINE
8
DEFAULT_255_2_778
10
16.2539083
20
38.3547885
11
16.4206083
21
38.3547885
0
LINE
8
DEFAULT_255_2_778
10
16.8841083
20
38.3719885
11
16.8844083
21
38.3722885
0
ARC
8
DEFAULT_255_2_778
10
17.7556173
20
38.4530189
40
0.5121365
50
326.2184918
51
354.8656936
0
ARC
8
DEFAULT_255_2_778
10
17.8558058
20
38.396809
40
0.3977108
50
311.2048225
51
324.9235483
0
ARC
8
DEFAULT_255_2_778
10
17.823433
20
38.4483109
40
0.4578846
50
272.8408486
51
310.0071001
0
ARC
8
DEFAULT_255_2_778
10
17.787447
20
38.7065144
40
0.7179274
50
269.9323211
51
274.6882835
0
ARC
8
DEFAULT_255_2_778
10
17.7702712
20
38.4338507
40
0.4455625
50
219.7087309
51
272.1000954
0
ARC
8
DEFAULT_255_2_778
10
17.8799907
20
38.5160763
40
0.5825429
50
186.5891652
51
219.0357958
0
ARC
8
DEFAULT_255_2_778
10
18.2164102
20
38.5757319
40
0.9238166
50
179.804288
51
187.8704709
0
ARC
8
DEFAULT_255_2_778
10
18.022936
20
38.7140369
40
0.7304646
50
157.5214431
51
181.0706907
0
ARC
8
DEFAULT_255_2_778
10
17.8850723
20
38.7605379
40
0.5853775
50
154.7558617
51
156.5678126
0
ARC
8
DEFAULT_255_2_778
10
17.7849171
20
38.8174065
40
0.4706151
50
122.2343248
51
155.8180159
0
ARC
8
DEFAULT_255_2_778
10
17.7910467
20
38.7909623
40
0.4963331
50
88.8048695
51
121.2045592
0
ARC
8
DEFAULT_255_2_778
10
17.8152822
20
38.7865852
40
0.5007947
50
62.2422622
51
91.5885758
0
ARC
8
DEFAULT_255_2_778
10
17.8573568
20
38.8859825
40
0.3933444
50
47.2421292
51
60.9224648
0
ARC
8
DEFAULT_255_2_778
10
17.8081737
20
38.8456643
40
0.4564214
50
6.848003
51
46.144956
0
ARC
8
DEFAULT_255_2_778
10
17.5786337
20
38.7943746
40
0.6908412
50
5.7499022
51
8.8018951
0
ARC
8
DEFAULT_255_2_778
10
17.6381227
20
38.8102754
40
0.4634528
50
6.6054926
51
27.3165624
0
ARC
8
DEFAULT_255_2_778
10
17.8395256
20
38.9087693
40
0.2393606
50
28.4930998
51
46.4972474
0
ARC
8
DEFAULT_255_2_778
10
17.8241264
20
38.8748531
40
0.2748321
50
49.036857
51
90.5109421
0
ARC
8
DEFAULT_255_2_778
10
17.8018647
20
38.6752272
40
0.4748605
50
87.6089635
51
90.0199922
0
ARC
8
DEFAULT_255_2_778
10
17.7890416
20
38.8518652
40
0.2984908
50
87.5696613
51
142.8590089
0
ARC
8
DEFAULT_255_2_778
10
17.9099397
20
38.7714402
40
0.4435129
50
144.0068746
51
172.5291695
0
ARC
8
DEFAULT_255_2_778
10
18.2938723
20
38.7009708
40
0.8335876
50
171.157672
51
180.3356483
0
ARC
8
DEFAULT_255_2_778
10
18.1436861
20
38.5609261
40
0.6835044
50
178.9385759
51
197.6160422
0
ARC
8
DEFAULT_255_2_778
10
17.8885195
20
38.4853971
40
0.4174785
50
198.3346205
51
214.9420149
0
ARC
8
DEFAULT_255_2_778
10
17.7762114
20
38.4028347
40
0.2781488
50
214.2509183
51
272.1814639
0
ARC
8
DEFAULT_255_2_778
10
17.7993852
20
38.5019485
40
0.3772711
50
268.0881929
51
294.0518506
0
ARC
8
DEFAULT_255_2_778
10
17.8546382
20
38.3607282
40
0.2259043
50
295.8530136
51
310.0835836
0
ARC
8
DEFAULT_255_2_778
10
17.8144463
20
38.3881961
40
0.2731126
50
312.8253804
51
345.2298686
0
ARC
8
DEFAULT_255_2_778
10
17.4975883
20
38.496007
40
0.6074393
50
343.0157255
51
351.5920952
0
LINE
8
DEFAULT_255_2_778
10
18.098299
20
38.4071875
11
18.265699
21
38.4071875
0
LINE
8
DEFAULT_255_2_778
10
17.292599
20
38.5788875
11
17.292599
21
38.7003875
0
LINE
8
DEFAULT_255_2_778
10
18.265999
20
38.8635875
11
18.098499
21
38.8635875
0
LINE
8
DEFAULT_255_2_778
10
17.460299
20
38.6960875
11
17.460299
21
38.5735875
0
LINE
8
DEFAULT_255_2_778
10
18.098499
20
38.4071875
11
18.098299
21
38.4071875
0
ARC
8
DEFAULT_255_2_778
10
15.5532173
20
26.1771189
40
0.5121365
50
326.2184918
51
354.8656936
0
ARC
8
DEFAULT_255_2_778
10
15.6534058
20
26.120909
40
0.3977108
50
311.2048225
51
324.9235483
0
ARC
8
DEFAULT_255_2_778
10
15.621033
20
26.1724109
40
0.4578846
50
272.8408486
51
310.0071001
0
ARC
8
DEFAULT_255_2_778
10
15.585047
20
26.4306144
40
0.7179274
50
269.9323211
51
274.6882835
0
ARC
8
DEFAULT_255_2_778
10
15.5678712
20
26.1579507
40
0.4455625
50
219.7087309
51
272.1000954
0
ARC
8
DEFAULT_255_2_778
10
15.6775907
20
26.2401763
40
0.5825429
50
186.5891652
51
219.0357958
0
ARC
8
DEFAULT_255_2_778
10
16.0140102
20
26.2998319
40
0.9238166
50
179.804288
51
187.8704709
0
ARC
8
DEFAULT_255_2_778
10
15.820536
20
26.4381369
40
0.7304646
50
157.5214431
51
181.0706907
0
ARC
8
DEFAULT_255_2_778
10
15.6826723
20
26.4846379
40
0.5853775
50
154.7558617
51
156.5678126
0
ARC
8
DEFAULT_255_2_778
10
15.5825171
20
26.5415065
40
0.4706151
50
122.2343248
51
155.8180159
0
ARC
8
DEFAULT_255_2_778
10
15.5886467
20
26.5150623
40
0.4963331
50
88.8048695
51
121.2045592
0
ARC
8
DEFAULT_255_2_778
10
15.6128822
20
26.5106852
40
0.5007947
50
62.2422622
51
91.5885758
0
ARC
8
DEFAULT_255_2_778
10
15.6549568
20
26.6100825
40
0.3933444
50
47.2421292
51
60.9224648
0
ARC
8
DEFAULT_255_2_778
10
15.6057737
20
26.5697643
40
0.4564214
50
6.848003
51
46.144956
0
ARC
8
DEFAULT_255_2_778
10
15.3762337
20
26.5184746
40
0.6908412
50
5.7499022
51
8.8018951
0
ARC
8
DEFAULT_255_2_778
10
15.4346091
20
26.5339172
40
0.4646118
50
6.6458289
51
27.3063564
0
ARC
8
DEFAULT_255_2_778
10
15.6368064
20
26.6327881
40
0.2396394
50
28.4790051
51
46.4552552
0
ARC
8
DEFAULT_255_2_778
10
15.6217264
20
26.5989531
40
0.2748321
50
49.036857
51
90.5109421
0
ARC
8
DEFAULT_255_2_778
10
15.5994647
20
26.3993272
40
0.4748605
50
87.6089635
51
90.0199922
0
ARC
8
DEFAULT_255_2_778
10
15.5866416
20
26.5759652
40
0.2984908
50
87.5696613
51
142.8590089
0
ARC
8
DEFAULT_255_2_778
10
15.7075397
20
26.4955402
40
0.4435129
50
144.0068746
51
172.5291695
0
ARC
8
DEFAULT_255_2_778
10
16.0914723
20
26.4250708
40
0.8335876
50
171.157672
51
180.3356483
0
ARC
8
DEFAULT_255_2_778
10
15.9412861
20
26.2850261
40
0.6835044
50
178.9385759
51
197.6160422
0
ARC
8
DEFAULT_255_2_778
10
15.6861195
20
26.2094971
40
0.4174785
50
198.3346205
51
214.9420149
0
ARC
8
DEFAULT_255_2_778
10
15.5737293
20
26.1267721
40
0.2779895
50
214.2327449
51
272.1996373
0
ARC
8
DEFAULT_255_2_778
10
15.5969852
20
26.2260485
40
0.3772711
50
268.0881929
51
294.0518506
0
ARC
8
DEFAULT_255_2_778
10
15.6522382
20
26.0848282
40
0.2259043
50
295.8530136
51
310.0835836
0
ARC
8
DEFAULT_255_2_778
10
15.6120463
20
26.1122961
40
0.2731126
50
312.8253804
51
345.2298686
0
ARC
8
DEFAULT_255_2_778
10
15.2951883
20
26.220107
40
0.6074393
50
343.0157255
51
351.5920952
0
LINE
8
DEFAULT_255_2_778
10
15.895899
20
26.1312875
11
16.063299
21
26.1312875
0
LINE
8
DEFAULT_255_2_778
10
15.090199
20
26.3029875
11
15.090199
21
26.4244875
0
LINE
8
DEFAULT_255_2_778
10
16.063599
20
26.5876875
11
15.896099
21
26.5876875
0
LINE
8
DEFAULT_255_2_778
10
15.257899
20
26.4201875
11
15.257899
21
26.2976875
0
LINE
8
DEFAULT_255_2_778
10
15.896099
20
26.1312875
11
15.895899
21
26.1312875
0
LINE
8
DEFAULT_255_2_778
10
17.2624573
20
26.9940896
11
17.2624573
21
25.7298896
0
LINE
8
DEFAULT_255_2_778
10
17.2624573
20
25.7298896
11
17.0949573
21
25.7298896
0
LINE
8
DEFAULT_255_2_778
10
17.0949573
20
25.7298896
11
17.0949573
21
26.3140896
0
LINE
8
DEFAULT_255_2_778
10
17.0949573
20
26.3140896
11
16.4578573
21
26.3140896
0
LINE
8
DEFAULT_255_2_778
10
16.4578573
20
26.3140896
11
16.4578573
21
25.7298896
0
LINE
8
DEFAULT_255_2_778
10
16.4578573
20
25.7298896
11
16.2911573
21
25.7298896
0
LINE
8
DEFAULT_255_2_778
10
16.2911573
20
25.7298896
11
16.2911573
21
26.9940896
0
LINE
8
DEFAULT_255_2_778
10
16.2911573
20
26.9940896
11
16.4578573
21
26.9940896
0
LINE
8
DEFAULT_255_2_778
10
16.4578573
20
26.9940896
11
16.4578573
21
26.4505896
0
LINE
8
DEFAULT_255_2_778
10
16.4578573
20
26.4505896
11
17.0949573
21
26.4505896
0
LINE
8
DEFAULT_255_2_778
10
17.0949573
20
26.4505896
11
17.0949573
21
26.9940896
0
LINE
8
DEFAULT_255_2_778
10
17.0949573
20
26.9940896
11
17.2624573
21
26.9940896
0
LINE
8
DEFAULT_255_2_778
10
17.2624573
20
26.9940896
11
17.2624573
21
26.9940896
0
ARC
8
DEFAULT_255_2_778
10
17.8798194
20
26.7122719
40
0.2723698
50
268.0788643
51
306.6286825
0
ARC
8
DEFAULT_255_2_778
10
17.9136487
20
26.6526978
40
0.2045494
50
308.9807947
51
311.6502317
0
ARC
8
DEFAULT_255_2_778
10
17.9146052
20
26.6478345
40
0.2002957
50
312.3703626
51
2.63858
0
ARC
8
DEFAULT_255_2_778
10
17.8635646
20
26.6698221
40
0.2514483
50
357.0896304
51
31.4245321
0
ARC
8
DEFAULT_255_2_778
10
17.92426
20
26.6859531
40
0.192079
50
36.7657785
51
89.824813
0
ARC
8
DEFAULT_255_2_778
10
17.8937645
20
26.484112
40
0.3951436
50
85.488331
51
90.0835129
0
ARC
8
DEFAULT_255_2_778
10
17.8816287
20
26.6499337
40
0.2296127
50
87.1142128
51
132.3026575
0
ARC
8
DEFAULT_255_2_778
10
17.8728222
20
26.6711585
40
0.2081328
50
134.4426824
51
182.5068033
0
ARC
8
DEFAULT_255_2_778
10
17.8261796
20
26.6693077
40
0.3219728
50
131.2026017
51
181.2907137
0
ARC
8
DEFAULT_255_2_778
10
17.8783239
20
26.6115596
40
0.3997721
50
87.8690939
51
131.3735179
0
ARC
8
DEFAULT_255_2_778
10
17.906367
20
26.5602921
40
0.4509557
50
64.1996056
51
91.6746097
0
ARC
8
DEFAULT_255_2_778
10
17.9569049
20
26.6834484
40
0.3181833
50
47.0533965
51
62.740488
0
ARC
8
DEFAULT_255_2_778
10
17.9395895
20
26.6760019
40
0.3355176
50
358.9093001
51
45.7552276
0
ARC
8
DEFAULT_255_2_778
10
17.7346698
20
26.6534344
40
0.5406187
50
359.99161
51
1.7151388
0
ARC
8
DEFAULT_255_2_778
10
17.9983442
20
26.6572186
40
0.2769713
50
323.7788149
51
359.2007638
0
ARC
8
DEFAULT_255_2_778
10
17.9576685
20
26.6771407
40
0.3216567
50
291.6403027
51
325.1974751
0
ARC
8
DEFAULT_255_2_778
10
17.9907911
20
26.0787636
40
0.3113601
50
37.627106
51
74.0622026
0
ARC
8
DEFAULT_255_2_778
10
17.9910126
20
26.0917575
40
0.3034217
50
358.2242624
51
35.7089865
0
ARC
8
DEFAULT_255_2_778
10
17.9500027
20
26.0662587
40
0.3446619
50
312.5757187
51
2.6768243
0
ARC
8
DEFAULT_255_2_778
10
17.9154211
20
26.1229619
40
0.4100168
50
269.3176415
51
310.7730456
0
ARC
8
DEFAULT_255_2_778
10
17.8940606
20
26.3321757
40
0.6194206
50
269.9933366
51
271.5243431
0
ARC
8
DEFAULT_255_2_778
10
17.8797462
20
26.1629896
40
0.4504596
50
239.2099068
51
271.8118473
0
ARC
8
DEFAULT_255_2_778
10
17.8444814
20
26.0861552
40
0.3665147
50
229.1163839
51
237.7970477
0
ARC
8
DEFAULT_255_2_778
10
17.8119723
20
26.0518293
40
0.3192919
50
177.9312701
51
229.4952136
0
ARC
8
DEFAULT_255_2_778
10
17.8609695
20
26.0543934
40
0.2068752
50
177.5171847
51
226.8132291
0
ARC
8
DEFAULT_255_2_778
10
17.8812875
20
26.0914642
40
0.2480344
50
229.2524177
51
272.935212
0
ARC
8
DEFAULT_255_2_778
10
17.9073039
20
26.1028202
40
0.2594069
50
267.0577195
51
304.2721999
0
ARC
8
DEFAULT_255_2_778
10
17.9433272
20
26.0352268
40
0.1834517
50
306.8637564
51
314.5781345
0
ARC
8
DEFAULT_255_2_778
10
17.902825
20
26.0618006
40
0.231033
50
317.1079925
51
2.5552046
0
ARC
8
DEFAULT_255_2_778
10
17.7246366
20
26.0791182
40
0.409052
50
359.0169832
51
0.0051792
0
ARC
8
DEFAULT_255_2_778
10
17.9215028
20
26.092584
40
0.2126103
50
356.3786831
51
47.1891425
0
ARC
8
DEFAULT_255_2_778
10
17.8975863
20
26.0381199
40
0.2695224
50
51.3312341
51
87.5514053
0
ARC
8
DEFAULT_255_2_778
10
17.8642678
20
25.8058759
40
0.5035203
50
84.8916276
51
89.2693582
0
LINE
8
DEFAULT_255_2_778
10
17.7500886
20
26.3091552
11
17.7500886
21
26.4400552
0
LINE
8
DEFAULT_255_2_778
10
17.7500886
20
26.4400552
11
17.8706886
21
26.4400552
0
LINE
8
DEFAULT_255_2_778
10
17.6648886
20
26.6620552
11
17.5042886
21
26.6620552
0
LINE
8
DEFAULT_255_2_778
10
17.4928886
20
26.0633552
11
17.6542886
21
26.0633552
0
LINE
8
DEFAULT_255_2_778
10
17.8706886
20
26.3093552
11
17.7500886
21
26.3093552
0
LINE
8
DEFAULT_255_2_778
10
17.7500886
20
26.3093552
11
17.7500886
21
26.3091552
0
ARC
8
DEFAULT_255_2_778
10
15.5532173
20
15.6668189
40
0.5121365
50
326.2184918
51
354.8656936
0
ARC
8
DEFAULT_255_2_778
10
15.6534058
20
15.610609
40
0.3977108
50
311.2048225
51
324.9235483
0
ARC
8
DEFAULT_255_2_778
10
15.621033
20
15.6621109
40
0.4578846
50
272.8408486
51
310.0071001
0
ARC
8
DEFAULT_255_2_778
10
15.585047
20
15.9203144
40
0.7179274
50
269.9323211
51
274.6882835
0
ARC
8
DEFAULT_255_2_778
10
15.5678712
20
15.6476507
40
0.4455625
50
219.7087309
51
272.1000954
0
ARC
8
DEFAULT_255_2_778
10
15.6775907
20
15.7298763
40
0.5825429
50
186.5891652
51
219.0357958
0
ARC
8
DEFAULT_255_2_778
10
16.0140102
20
15.7895319
40
0.9238166
50
179.804288
51
187.8704709
0
ARC
8
DEFAULT_255_2_778
10
15.820536
20
15.9278369
40
0.7304646
50
157.5214431
51
181.0706907
0
ARC
8
DEFAULT_255_2_778
10
15.6826723
20
15.9743379
40
0.5853775
50
154.7558617
51
156.5678126
0
ARC
8
DEFAULT_255_2_778
10
15.5825171
20
16.0312065
40
0.4706151
50
122.2343248
51
155.8180159
0
ARC
8
DEFAULT_255_2_778
10
15.5886467
20
16.0047623
40
0.4963331
50
88.8048695
51
121.2045592
0
ARC
8
DEFAULT_255_2_778
10
15.6128822
20
16.0003852
40
0.5007947
50
62.2422622
51
91.5885758
0
ARC
8
DEFAULT_255_2_778
10
15.6549568
20
16.0997825
40
0.3933444
50
47.2421292
51
60.9224648
0
ARC
8
DEFAULT_255_2_778
10
15.6057737
20
16.0594643
40
0.4564214
50
6.848003
51
46.144956
0
ARC
8
DEFAULT_255_2_778
10
15.3762337
20
16.0081746
40
0.6908412
50
5.7499022
51
8.8018951
0
ARC
8
DEFAULT_255_2_778
10
15.4346091
20
16.0236172
40
0.4646118
50
6.6458289
51
27.3063564
0
ARC
8
DEFAULT_255_2_778
10
15.6368064
20
16.1224881
40
0.2396394
50
28.4790051
51
46.4552552
0
ARC
8
DEFAULT_255_2_778
10
15.6217264
20
16.0886531
40
0.2748321
50
49.036857
51
90.5109421
0
ARC
8
DEFAULT_255_2_778
10
15.5994647
20
15.8890272
40
0.4748605
50
87.6089635
51
90.0199922
0
ARC
8
DEFAULT_255_2_778
10
15.5866416
20
16.0656652
40
0.2984908
50
87.5696613
51
142.8590089
0
ARC
8
DEFAULT_255_2_778
10
15.7075397
20
15.9852402
40
0.4435129
50
144.0068746
51
172.5291695
0
ARC
8
DEFAULT_255_2_778
10
16.0914723
20
15.9147708
40
0.8335876
50
171.157672
51
180.3356483
0
ARC
8
DEFAULT_255_2_778
10
15.9412861
20
15.7747261
40
0.6835044
50
178.9385759
51
197.6160422
0
ARC
8
DEFAULT_255_2_778
10
15.6861195
20
15.6991971
40
0.4174785
50
198.3346205
51
214.9420149
0
ARC
8
DEFAULT_255_2_778
10
15.5737293
20
15.6164721
40
0.2779895
50
214.2327449
51
272.1996373
0
ARC
8
DEFAULT_255_2_778
10
15.5969852
20
15.7157485
40
0.3772711
50
268.0881929
51
294.0518506
0
ARC
8
DEFAULT_255_2_778
10
15.6522382
20
15.5745282
40
0.2259043
50
295.8530136
51
310.0835836
0
ARC
8
DEFAULT_255_2_778
10
15.6120463
20
15.6019961
40
0.2731126
50
312.8253804
51
345.2298686
0
ARC
8
DEFAULT_255_2_778
10
15.2951883
20
15.709807
40
0.6074393
50
343.0157255
51
351.5920952
0
LINE
8
DEFAULT_255_2_778
10
15.895899
20
15.6209875
11
16.063299
21
15.6209875
0
LINE
8
DEFAULT_255_2_778
10
15.090199
20
15.7926875
11
15.090199
21
15.9141875
0
LINE
8
DEFAULT_255_2_778
10
16.063599
20
16.0773875
11
15.896099
21
16.0773875
0
LINE
8
DEFAULT_255_2_778
10
15.257899
20
15.9098875
11
15.257899
21
15.7873875
0
LINE
8
DEFAULT_255_2_778
10
15.896099
20
15.6209875
11
15.895899
21
15.6209875
0
LINE
8
DEFAULT_255_2_778
10
17.2624573
20
16.4837896
11
17.2624573
21
15.2195896
0
LINE
8
DEFAULT_255_2_778
10
17.2624573
20
15.2195896
11
17.0949573
21
15.2195896
0
LINE
8
DEFAULT_255_2_778
10
17.0949573
20
15.2195896
11
17.0949573
21
15.8037896
0
LINE
8
DEFAULT_255_2_778
10
17.0949573
20
15.8037896
11
16.4578573
21
15.8037896
0
LINE
8
DEFAULT_255_2_778
10
16.4578573
20
15.8037896
11
16.4578573
21
15.2195896
0
LINE
8
DEFAULT_255_2_778
10
16.4578573
20
15.2195896
11
16.2911573
21
15.2195896
0
LINE
8
DEFAULT_255_2_778
10
16.2911573
20
15.2195896
11
16.2911573
21
16.4837896
0
LINE
8
DEFAULT_255_2_778
10
16.2911573
20
16.4837896
11
16.4578573
21
16.4837896
0
LINE
8
DEFAULT_255_2_778
10
16.4578573
20
16.4837896
11
16.4578573
21
15.9402896
0
LINE
8
DEFAULT_255_2_778
10
16.4578573
20
15.9402896
11
17.0949573
21
15.9402896
0
LINE
8
DEFAULT_255_2_778
10
17.0949573
20
15.9402896
11
17.0949573
21
16.4837896
0
LINE
8
DEFAULT_255_2_778
10
17.0949573
20
16.4837896
11
17.2624573
21
16.4837896
0
LINE
8
DEFAULT_255_2_778
10
17.2624573
20
16.4837896
11
17.2624573
21
16.4837896
0
LINE
8
DEFAULT_255_2_778
10
18.1948583
20
16.4837896
11
18.1948583
21
15.6442896
0
LINE
8
DEFAULT_255_2_778
10
18.1948583
20
15.6442896
11
18.3702583
21
15.6442896
0
LINE
8
DEFAULT_255_2_778
10
18.3702583
20
15.6442896
11
18.3702583
21
15.5132896
0
LINE
8
DEFAULT_255_2_778
10
18.3702583
20
15.5132896
11
18.1948583
21
15.5132896
0
LINE
8
DEFAULT_255_2_778
10
18.1948583
20
15.5132896
11
18.1948583
21
15.2198896
0
LINE
8
DEFAULT_255_2_778
10
18.1948583
20
15.2198896
11
18.0334583
21
15.2198896
0
LINE
8
DEFAULT_255_2_778
10
18.0334583
20
15.2198896
11
18.0334583
21
15.5132896
0
LINE
8
DEFAULT_255_2_778
10
18.0334583
20
15.5132896
11
17.4579583
21
15.5132896
0
LINE
8
DEFAULT_255_2_778
10
17.4579583
20
15.5132896
11
17.4579583
21
15.6080896
0
LINE
8
DEFAULT_255_2_778
10
17.4579583
20
15.6080896
11
18.0238583
21
16.4840896
0
LINE
8
DEFAULT_255_2_778
10
18.0238583
20
16.4840896
11
18.1948583
21
16.4840896
0
LINE
8
DEFAULT_255_2_778
10
18.1948583
20
16.4840896
11
18.1948583
21
16.4837896
0
LINE
8
DEFAULT_255_2_778
10
18.0141583
20
16.2295896
11
17.6399583
21
15.6442896
0
LINE
8
DEFAULT_255_2_778
10
17.6399583
20
15.6442896
11
18.0331583
21
15.6442896
0
LINE
8
DEFAULT_255_2_778
10
18.0331583
20
15.6442896
11
18.0331583
21
16.2641896
0
LINE
8
DEFAULT_255_2_778
10
18.0331583
20
16.2641896
11
18.0141583
21
16.2295896
0
LINE
8
DEFAULT_255_2_778
10
18.0141583
20
16.2295896
11
18.0141583
21
16.2295896
0
ARC
8
DEFAULT_255_2_778
10
15.6173173
20
34.9528189
40
0.5121365
50
326.2184918
51
354.8656936
0
ARC
8
DEFAULT_255_2_778
10
15.7175058
20
34.896609
40
0.3977108
50
311.2048225
51
324.9235483
0
ARC
8
DEFAULT_255_2_778
10
15.685133
20
34.9481109
40
0.4578846
50
272.8408486
51
310.0071001
0
ARC
8
DEFAULT_255_2_778
10
15.649147
20
35.2063144
40
0.7179274
50
269.9323211
51
274.6882835
0
ARC
8
DEFAULT_255_2_778
10
15.6319712
20
34.9336507
40
0.4455625
50
219.7087309
51
272.1000954
0
ARC
8
DEFAULT_255_2_778
10
15.7416907
20
35.0158763
40
0.5825429
50
186.5891652
51
219.0357958
0
ARC
8
DEFAULT_255_2_778
10
16.0781102
20
35.0755319
40
0.9238166
50
179.804288
51
187.8704709
0
ARC
8
DEFAULT_255_2_778
10
15.884636
20
35.2138369
40
0.7304646
50
157.5214431
51
181.0706907
0
ARC
8
DEFAULT_255_2_778
10
15.7467723
20
35.2603379
40
0.5853775
50
154.7558617
51
156.5678126
0
ARC
8
DEFAULT_255_2_778
10
15.6466171
20
35.3172065
40
0.4706151
50
122.2343248
51
155.8180159
0
ARC
8
DEFAULT_255_2_778
10
15.6527467
20
35.2907623
40
0.4963331
50
88.8048695
51
121.2045592
0
ARC
8
DEFAULT_255_2_778
10
15.6769822
20
35.2863852
40
0.5007947
50
62.2422622
51
91.5885758
0
ARC
8
DEFAULT_255_2_778
10
15.7190568
20
35.3857825
40
0.3933444
50
47.2421292
51
60.9224648
0
ARC
8
DEFAULT_255_2_778
10
15.6698737
20
35.3454643
40
0.4564214
50
6.848003
51
46.144956
0
ARC
8
DEFAULT_255_2_778
10
15.4403337
20
35.2941746
40
0.6908412
50
5.7499022
51
8.8018951
0
ARC
8
DEFAULT_255_2_778
10
15.4987091
20
35.3096172
40
0.4646118
50
6.6458289
51
27.3063564
0
ARC
8
DEFAULT_255_2_778
10
15.7009064
20
35.4084881
40
0.2396394
50
28.4790051
51
46.4552552
0
ARC
8
DEFAULT_255_2_778
10
15.6858264
20
35.3746531
40
0.2748321
50
49.036857
51
90.5109421
0
ARC
8
DEFAULT_255_2_778
10
15.6635647
20
35.1750272
40
0.4748605
50
87.6089635
51
90.0199922
0
ARC
8
DEFAULT_255_2_778
10
15.6507416
20
35.3516652
40
0.2984908
50
87.5696613
51
142.8590089
0
ARC
8
DEFAULT_255_2_778
10
15.7716397
20
35.2712402
40
0.4435129
50
144.0068746
51
172.5291695
0
ARC
8
DEFAULT_255_2_778
10
16.1555723
20
35.2007708
40
0.8335876
50
171.157672
51
180.3356483
0
ARC
8
DEFAULT_255_2_778
10
16.0053861
20
35.0607261
40
0.6835044
50
178.9385759
51
197.6160422
0
ARC
8
DEFAULT_255_2_778
10
15.7502195
20
34.9851971
40
0.4174785
50
198.3346205
51
214.9420149
0
ARC
8
DEFAULT_255_2_778
10
15.6378293
20
34.9024721
40
0.2779895
50
214.2327449
51
272.1996373
0
ARC
8
DEFAULT_255_2_778
10
15.6610852
20
35.0017485
40
0.3772711
50
268.0881929
51
294.0518506
0
ARC
8
DEFAULT_255_2_778
10
15.7163382
20
34.8605282
40
0.2259043
50
295.8530136
51
310.0835836
0
ARC
8
DEFAULT_255_2_778
10
15.6761463
20
34.8879961
40
0.2731126
50
312.8253804
51
345.2298686
0
ARC
8
DEFAULT_255_2_778
10
15.3592883
20
34.995807
40
0.6074393
50
343.0157255
51
351.5920952
0
LINE
8
DEFAULT_255_2_778
10
15.959999
20
34.9069875
11
16.127399
21
34.9069875
0
LINE
8
DEFAULT_255_2_778
10
15.154299
20
35.0786875
11
15.154299
21
35.2001875
0
LINE
8
DEFAULT_255_2_778
10
16.127699
20
35.3633875
11
15.960199
21
35.3633875
0
LINE
8
DEFAULT_255_2_778
10
15.321999
20
35.1958875
11
15.321999
21
35.0733875
0
LINE
8
DEFAULT_255_2_778
10
15.960199
20
34.9069875
11
15.959999
21
34.9069875
0
ARC
8
DEFAULT_255_2_778
10
16.6490254
20
34.8607802
40
0.403123
50
328.6033919
51
1.9771729
0
ARC
8
DEFAULT_255_2_778
10
16.7214423
20
34.8272087
40
0.3239471
50
313.1294432
51
326.9989584
0
ARC
8
DEFAULT_255_2_778
10
16.6780022
20
34.8846315
40
0.3956248
50
270.3364288
51
312.035379
0
ARC
8
DEFAULT_255_2_778
10
16.6526261
20
35.1024534
40
0.6140649
50
269.979679
51
272.5853604
0
ARC
8
DEFAULT_255_2_778
10
16.6395573
20
34.9839248
40
0.4957029
50
246.9166559
51
271.4855545
0
ARC
8
DEFAULT_255_2_778
10
16.5808001
20
34.8279729
40
0.3292767
50
227.6330762
51
245.6826582
0
ARC
8
DEFAULT_255_2_778
10
16.5934954
20
34.8296387
40
0.3391632
50
179.5112963
51
226.2379986
0
ARC
8
DEFAULT_255_2_778
10
16.8036758
20
34.8544279
40
0.5497675
50
179.9832641
51
182.2826092
0
ARC
8
DEFAULT_255_2_778
10
16.6519531
20
34.8407884
40
0.231756
50
176.5862555
51
222.1415025
0
ARC
8
DEFAULT_255_2_778
10
16.6343562
20
34.8498085
40
0.2255199
50
226.8456827
51
272.368769
0
ARC
8
DEFAULT_255_2_778
10
16.6523682
20
35.0313988
40
0.4070102
50
268.7764468
51
270.0056472
0
ARC
8
DEFAULT_255_2_778
10
16.6614349
20
34.8484698
40
0.224263
50
267.6932347
51
314.8540719
0
ARC
8
DEFAULT_255_2_778
10
16.6341141
20
34.8573346
40
0.2501608
50
317.859343
51
2.3711211
0
ARC
8
DEFAULT_255_2_778
10
16.449674
20
34.8747747
40
0.4344446
50
359.0648586
51
359.6061723
0
LINE
8
DEFAULT_255_2_778
10
16.8844083
20
34.8720885
11
16.8844083
21
35.7697885
0
LINE
8
DEFAULT_255_2_778
10
16.8844083
20
35.7697885
11
17.0519083
21
35.7697885
0
LINE
8
DEFAULT_255_2_778
10
17.0519083
20
35.7697885
11
17.0519083
21
34.8746885
0
LINE
8
DEFAULT_255_2_778
10
16.2539083
20
34.8545885
11
16.4206083
21
34.8545885
0
LINE
8
DEFAULT_255_2_778
10
16.8841083
20
34.8717885
11
16.8844083
21
34.8720885
0
ARC
8
DEFAULT_255_2_778
10
17.7556173
20
34.9528189
40
0.5121365
50
326.2184918
51
354.8656936
0
ARC
8
DEFAULT_255_2_778
10
17.8558058
20
34.896609
40
0.3977108
50
311.2048225
51
324.9235483
0
ARC
8
DEFAULT_255_2_778
10
17.823433
20
34.9481109
40
0.4578846
50
272.8408486
51
310.0071001
0
ARC
8
DEFAULT_255_2_778
10
17.787447
20
35.2063144
40
0.7179274
50
269.9323211
51
274.6882835
0
ARC
8
DEFAULT_255_2_778
10
17.7702712
20
34.9336507
40
0.4455625
50
219.7087309
51
272.1000954
0
ARC
8
DEFAULT_255_2_778
10
17.8799907
20
35.0158763
40
0.5825429
50
186.5891652
51
219.0357958
0
ARC
8
DEFAULT_255_2_778
10
18.2164102
20
35.0755319
40
0.9238166
50
179.804288
51
187.8704709
0
ARC
8
DEFAULT_255_2_778
10
18.022936
20
35.2138369
40
0.7304646
50
157.5214431
51
181.0706907
0
ARC
8
DEFAULT_255_2_778
10
17.8850723
20
35.2603379
40
0.5853775
50
154.7558617
51
156.5678126
0
ARC
8
DEFAULT_255_2_778
10
17.7849171
20
35.3172065
40
0.4706151
50
122.2343248
51
155.8180159
0
ARC
8
DEFAULT_255_2_778
10
17.7910467
20
35.2907623
40
0.4963331
50
88.8048695
51
121.2045592
0
ARC
8
DEFAULT_255_2_778
10
17.8152822
20
35.2863852
40
0.5007947
50
62.2422622
51
91.5885758
0
ARC
8
DEFAULT_255_2_778
10
17.8573568
20
35.3857825
40
0.3933444
50
47.2421292
51
60.9224648
0
ARC
8
DEFAULT_255_2_778
10
17.8081737
20
35.3454643
40
0.4564214
50
6.848003
51
46.144956
0
ARC
8
DEFAULT_255_2_778
10
17.5786337
20
35.2941746
40
0.6908412
50
5.7499022
51
8.8018951
0
ARC
8
DEFAULT_255_2_778
10
17.6381227
20
35.3100754
40
0.4634528
50
6.6054926
51
27.3165624
0
ARC
8
DEFAULT_255_2_778
10
17.8395256
20
35.4085693
40
0.2393606
50
28.4930998
51
46.4972474
0
ARC
8
DEFAULT_255_2_778
10
17.8241264
20
35.3746531
40
0.2748321
50
49.036857
51
90.5109421
0
ARC
8
DEFAULT_255_2_778
10
17.8018647
20
35.1750272
40
0.4748605
50
87.6089635
51
90.0199922
0
ARC
8
DEFAULT_255_2_778
10
17.7890416
20
35.3516652
40
0.2984908
50
87.5696613
51
142.8590089
0
ARC
8
DEFAULT_255_2_778
10
17.9099397
20
35.2712402
40
0.4435129
50
144.0068746
51
172.5291695
0
ARC
8
DEFAULT_255_2_778
10
18.2938723
20
35.2007708
40
0.8335876
50
171.157672
51
180.3356483
0
ARC
8
DEFAULT_255_2_778
10
18.1436861
20
35.0607261
40
0.6835044
50
178.9385759
51
197.6160422
0
ARC
8
DEFAULT_255_2_778
10
17.8885195
20
34.9851971
40
0.4174785
50
198.3346205
51
214.9420149
0
ARC
8
DEFAULT_255_2_778
10
17.7762114
20
34.9026347
40
0.2781488
50
214.2509183
51
272.1814639
0
ARC
8
DEFAULT_255_2_778
10
17.7993852
20
35.0017485
40
0.3772711
50
268.0881929
51
294.0518506
0
ARC
8
DEFAULT_255_2_778
10
17.8546382
20
34.8605282
40
0.2259043
50
295.8530136
51
310.0835836
0
ARC
8
DEFAULT_255_2_778
10
17.8144463
20
34.8879961
40
0.2731126
50
312.8253804
51
345.2298686
0
ARC
8
DEFAULT_255_2_778
10
17.4975883
20
34.995807
40
0.6074393
50
343.0157255
51
351.5920952
0
LINE
8
DEFAULT_255_2_778
10
18.098299
20
34.9069875
11
18.265699
21
34.9069875
0
LINE
8
DEFAULT_255_2_778
10
17.292599
20
35.0786875
11
17.292599
21
35.2001875
0
LINE
8
DEFAULT_255_2_778
10
18.265999
20
35.3633875
11
18.098499
21
35.3633875
0
LINE
8
DEFAULT_255_2_778
10
17.460299
20
35.1958875
11
17.460299
21
35.0733875
0
LINE
8
DEFAULT_255_2_778
10
18.098499
20
34.9069875
11
18.098299
21
34.9069875
0
ARC
8
DEFAULT_255_2_778
10
15.6173173
20
31.4529189
40
0.5121365
50
326.2184918
51
354.8656936
0
ARC
8
DEFAULT_255_2_778
10
15.7175058
20
31.396709
40
0.3977108
50
311.2048225
51
324.9235483
0
ARC
8
DEFAULT_255_2_778
10
15.685133
20
31.4482109
40
0.4578846
50
272.8408486
51
310.0071001
0
ARC
8
DEFAULT_255_2_778
10
15.649147
20
31.7064144
40
0.7179274
50
269.9323211
51
274.6882835
0
ARC
8
DEFAULT_255_2_778
10
15.6319712
20
31.4337507
40
0.4455625
50
219.7087309
51
272.1000954
0
ARC
8
DEFAULT_255_2_778
10
15.7416907
20
31.5159763
40
0.5825429
50
186.5891652
51
219.0357958
0
ARC
8
DEFAULT_255_2_778
10
16.0781102
20
31.5756319
40
0.9238166
50
179.804288
51
187.8704709
0
ARC
8
DEFAULT_255_2_778
10
15.884636
20
31.7139369
40
0.7304646
50
157.5214431
51
181.0706907
0
ARC
8
DEFAULT_255_2_778
10
15.7467723
20
31.7604379
40
0.5853775
50
154.7558617
51
156.5678126
0
ARC
8
DEFAULT_255_2_778
10
15.6466171
20
31.8173065
40
0.4706151
50
122.2343248
51
155.8180159
0
ARC
8
DEFAULT_255_2_778
10
15.6527467
20
31.7908623
40
0.4963331
50
88.8048695
51
121.2045592
0
ARC
8
DEFAULT_255_2_778
10
15.6769822
20
31.7864852
40
0.5007947
50
62.2422622
51
91.5885758
0
ARC
8
DEFAULT_255_2_778
10
15.7190568
20
31.8858825
40
0.3933444
50
47.2421292
51
60.9224648
0
ARC
8
DEFAULT_255_2_778
10
15.6698737
20
31.8455643
40
0.4564214
50
6.848003
51
46.144956
0
ARC
8
DEFAULT_255_2_778
10
15.4403337
20
31.7942746
40
0.6908412
50
5.7499022
51
8.8018951
0
ARC
8
DEFAULT_255_2_778
10
15.4987091
20
31.8097172
40
0.4646118
50
6.6458289
51
27.3063564
0
ARC
8
DEFAULT_255_2_778
10
15.7009064
20
31.9085881
40
0.2396394
50
28.4790051
51
46.4552552
0
ARC
8
DEFAULT_255_2_778
10
15.6858264
20
31.8747531
40
0.2748321
50
49.036857
51
90.5109421
0
ARC
8
DEFAULT_255_2_778
10
15.6635647
20
31.6751272
40
0.4748605
50
87.6089635
51
90.0199922
0
ARC
8
DEFAULT_255_2_778
10
15.6507416
20
31.8517652
40
0.2984908
50
87.5696613
51
142.8590089
0
ARC
8
DEFAULT_255_2_778
10
15.7716397
20
31.7713402
40
0.4435129
50
144.0068746
51
172.5291695
0
ARC
8
DEFAULT_255_2_778
10
16.1555723
20
31.7008708
40
0.8335876
50
171.157672
51
180.3356483
0
ARC
8
DEFAULT_255_2_778
10
16.0053861
20
31.5608261
40
0.6835044
50
178.9385759
51
197.6160422
0
ARC
8
DEFAULT_255_2_778
10
15.7502195
20
31.4852971
40
0.4174785
50
198.3346205
51
214.9420149
0
ARC
8
DEFAULT_255_2_778
10
15.6378293
20
31.4025721
40
0.2779895
50
214.2327449
51
272.1996373
0
ARC
8
DEFAULT_255_2_778
10
15.6610852
20
31.5018485
40
0.3772711
50
268.0881929
51
294.0518506
0
ARC
8
DEFAULT_255_2_778
10
15.7163382
20
31.3606282
40
0.2259043
50
295.8530136
51
310.0835836
0
ARC
8
DEFAULT_255_2_778
10
15.6761463
20
31.3880961
40
0.2731126
50
312.8253804
51
345.2298686
0
ARC
8
DEFAULT_255_2_778
10
15.3592883
20
31.495907
40
0.6074393
50
343.0157255
51
351.5920952
0
LINE
8
DEFAULT_255_2_778
10
15.959999
20
31.4070875
11
16.127399
21
31.4070875
0
LINE
8
DEFAULT_255_2_778
10
15.154299
20
31.5787875
11
15.154299
21
31.7002875
0
LINE
8
DEFAULT_255_2_778
10
16.127699
20
31.8634875
11
15.960199
21
31.8634875
0
LINE
8
DEFAULT_255_2_778
10
15.321999
20
31.6959875
11
15.321999
21
31.5734875
0
LINE
8
DEFAULT_255_2_778
10
15.960199
20
31.4070875
11
15.959999
21
31.4070875
0
ARC
8
DEFAULT_255_2_778
10
16.6490254
20
31.3608802
40
0.403123
50
328.6033919
51
1.9771729
0
ARC
8
DEFAULT_255_2_778
10
16.7214423
20
31.3273087
40
0.3239471
50
313.1294432
51
326.9989584
0
ARC
8
DEFAULT_255_2_778
10
16.6780022
20
31.3847315
40
0.3956248
50
270.3364288
51
312.035379
0
ARC
8
DEFAULT_255_2_778
10
16.6526261
20
31.6025534
40
0.6140649
50
269.979679
51
272.5853604
0
ARC
8
DEFAULT_255_2_778
10
16.6395573
20
31.4840248
40
0.4957029
50
246.9166559
51
271.4855545
0
ARC
8
DEFAULT_255_2_778
10
16.5808001
20
31.3280729
40
0.3292767
50
227.6330762
51
245.6826582
0
ARC
8
DEFAULT_255_2_778
10
16.5934954
20
31.3297387
40
0.3391632
50
179.5112963
51
226.2379986
0
ARC
8
DEFAULT_255_2_778
10
16.8036758
20
31.3545279
40
0.5497675
50
179.9832641
51
182.2826092
0
ARC
8
DEFAULT_255_2_778
10
16.6519531
20
31.3408884
40
0.231756
50
176.5862555
51
222.1415025
0
ARC
8
DEFAULT_255_2_778
10
16.6343562
20
31.3499085
40
0.2255199
50
226.8456827
51
272.368769
0
ARC
8
DEFAULT_255_2_778
10
16.6523682
20
31.5314988
40
0.4070102
50
268.7764468
51
270.0056472
0
ARC
8
DEFAULT_255_2_778
10
16.6614349
20
31.3485698
40
0.224263
50
267.6932347
51
314.8540719
0
ARC
8
DEFAULT_255_2_778
10
16.6341141
20
31.3574346
40
0.2501608
50
317.859343
51
2.3711211
0
ARC
8
DEFAULT_255_2_778
10
16.449674
20
31.3748747
40
0.4344446
50
359.0648586
51
359.6061723
0
LINE
8
DEFAULT_255_2_778
10
16.8844083
20
31.3721885
11
16.8844083
21
32.2698885
0
LINE
8
DEFAULT_255_2_778
10
16.8844083
20
32.2698885
11
17.0519083
21
32.2698885
0
LINE
8
DEFAULT_255_2_778
10
17.0519083
20
32.2698885
11
17.0519083
21
31.3747885
0
LINE
8
DEFAULT_255_2_778
10
16.2539083
20
31.3546885
11
16.4206083
21
31.3546885
0
LINE
8
DEFAULT_255_2_778
10
16.8841083
20
31.3718885
11
16.8844083
21
31.3721885
0
ARC
8
DEFAULT_255_2_778
10
17.7556173
20
31.4529189
40
0.5121365
50
326.2184918
51
354.8656936
0
ARC
8
DEFAULT_255_2_778
10
17.8558058
20
31.396709
40
0.3977108
50
311.2048225
51
324.9235483
0
ARC
8
DEFAULT_255_2_778
10
17.823433
20
31.4482109
40
0.4578846
50
272.8408486
51
310.0071001
0
ARC
8
DEFAULT_255_2_778
10
17.787447
20
31.7064144
40
0.7179274
50
269.9323211
51
274.6882835
0
ARC
8
DEFAULT_255_2_778
10
17.7702712
20
31.4337507
40
0.4455625
50
219.7087309
51
272.1000954
0
ARC
8
DEFAULT_255_2_778
10
17.8799907
20
31.5159763
40
0.5825429
50
186.5891652
51
219.0357958
0
ARC
8
DEFAULT_255_2_778
10
18.2164102
20
31.5756319
40
0.9238166
50
179.804288
51
187.8704709
0
ARC
8
DEFAULT_255_2_778
10
18.022936
20
31.7139369
40
0.7304646
50
157.5214431
51
181.0706907
0
ARC
8
DEFAULT_255_2_778
10
17.8850723
20
31.7604379
40
0.5853775
50
154.7558617
51
156.5678126
0
ARC
8
DEFAULT_255_2_778
10
17.7849171
20
31.8173065
40
0.4706151
50
122.2343248
51
155.8180159
0
ARC
8
DEFAULT_255_2_778
10
17.7910467
20
31.7908623
40
0.4963331
50
88.8048695
51
121.2045592
0
ARC
8
DEFAULT_255_2_778
10
17.8152822
20
31.7864852
40
0.5007947
50
62.2422622
51
91.5885758
0
ARC
8
DEFAULT_255_2_778
10
17.8573568
20
31.8858825
40
0.3933444
50
47.2421292
51
60.9224648
0
ARC
8
DEFAULT_255_2_778
10
17.8081737
20
31.8455643
40
0.4564214
50
6.848003
51
46.144956
0
ARC
8
DEFAULT_255_2_778
10
17.5786337
20
31.7942746
40
0.6908412
50
5.7499022
51
8.8018951
0
ARC
8
DEFAULT_255_2_778
10
17.6381227
20
31.8101754
40
0.4634528
50
6.6054926
51
27.3165624
0
ARC
8
DEFAULT_255_2_778
10
17.8395256
20
31.9086693
40
0.2393606
50
28.4930998
51
46.4972474
0
ARC
8
DEFAULT_255_2_778
10
17.8241264
20
31.8747531
40
0.2748321
50
49.036857
51
90.5109421
0
ARC
8
DEFAULT_255_2_778
10
17.8018647
20
31.6751272
40
0.4748605
50
87.6089635
51
90.0199922
0
ARC
8
DEFAULT_255_2_778
10
17.7890416
20
31.8517652
40
0.2984908
50
87.5696613
51
142.8590089
0
ARC
8
DEFAULT_255_2_778
10
17.9099397
20
31.7713402
40
0.4435129
50
144.0068746
51
172.5291695
0
ARC
8
DEFAULT_255_2_778
10
18.2938723
20
31.7008708
40
0.8335876
50
171.157672
51
180.3356483
0
ARC
8
DEFAULT_255_2_778
10
18.1436861
20
31.5608261
40
0.6835044
50
178.9385759
51
197.6160422
0
ARC
8
DEFAULT_255_2_778
10
17.8885195
20
31.4852971
40
0.4174785
50
198.3346205
51
214.9420149
0
ARC
8
DEFAULT_255_2_778
10
17.7762114
20
31.4027347
40
0.2781488
50
214.2509183
51
272.1814639
0
ARC
8
DEFAULT_255_2_778
10
17.7993852
20
31.5018485
40
0.3772711
50
268.0881929
51
294.0518506
0
ARC
8
DEFAULT_255_2_778
10
17.8546382
20
31.3606282
40
0.2259043
50
295.8530136
51
310.0835836
0
ARC
8
DEFAULT_255_2_778
10
17.8144463
20
31.3880961
40
0.2731126
50
312.8253804
51
345.2298686
0
ARC
8
DEFAULT_255_2_778
10
17.4975883
20
31.495907
40
0.6074393
50
343.0157255
51
351.5920952
0
LINE
8
DEFAULT_255_2_778
10
18.098299
20
31.4070875
11
18.265699
21
31.4070875
0
LINE
8
DEFAULT_255_2_778
10
17.292599
20
31.5787875
11
17.292599
21
31.7002875
0
LINE
8
DEFAULT_255_2_778
10
18.265999
20
31.8634875
11
18.098499
21
31.8634875
0
LINE
8
DEFAULT_255_2_778
10
17.460299
20
31.6959875
11
17.460299
21
31.5734875
0
LINE
8
DEFAULT_255_2_778
10
18.098499
20
31.4070875
11
18.098299
21
31.4070875
0
LINE
8
DEFAULT_255_2_778
10
18.7626771
20
56.9190104
11
18.7626771
21
56.5499104
0
LINE
8
DEFAULT_255_2_778
10
18.7626771
20
56.5499104
11
19.1150771
21
56.5499104
0
LINE
8
DEFAULT_255_2_778
10
19.1150771
20
56.5499104
11
19.1150771
21
56.3980104
0
LINE
8
DEFAULT_255_2_778
10
19.1150771
20
56.3980104
11
18.7626771
21
56.3980104
0
LINE
8
DEFAULT_255_2_778
10
18.7626771
20
56.3980104
11
18.7626771
21
55.9988104
0
LINE
8
DEFAULT_255_2_778
10
18.7626771
20
55.9988104
11
18.6012771
21
55.9988104
0
LINE
8
DEFAULT_255_2_778
10
18.6012771
20
55.9988104
11
18.6012771
21
56.3980104
0
LINE
8
DEFAULT_255_2_778
10
18.6012771
20
56.3980104
11
18.2488771
21
56.3980104
0
LINE
8
DEFAULT_255_2_778
10
18.2488771
20
56.3980104
11
18.2488771
21
56.5499104
0
LINE
8
DEFAULT_255_2_778
10
18.2488771
20
56.5499104
11
18.6012771
21
56.5499104
0
LINE
8
DEFAULT_255_2_778
10
18.6012771
20
56.5499104
11
18.6012771
21
56.9190104
0
LINE
8
DEFAULT_255_2_778
10
18.6012771
20
56.9190104
11
18.7626771
21
56.9190104
0
LINE
8
DEFAULT_255_2_778
10
18.7626771
20
56.9190104
11
18.7626771
21
56.9190104
0
LINE
8
DEFAULT_255_2_778
10
18.895001
20
52.0636844
11
18.895001
21
51.9326844
0
LINE
8
DEFAULT_255_2_778
10
18.895001
20
51.9326844
11
18.471401
21
51.9326844
0
LINE
8
DEFAULT_255_2_778
10
18.471401
20
51.9326844
11
18.471401
21
52.0636844
0
LINE
8
DEFAULT_255_2_778
10
18.471401
20
52.0636844
11
18.895001
21
52.0636844
0
LINE
8
DEFAULT_255_2_778
10
18.895001
20
52.0636844
11
18.895001
21
52.0636844
0
LINE
8
DEFAULT_255_2_778
10
18.7626771
20
46.4188104
11
18.7626771
21
46.0497104
0
LINE
8
DEFAULT_255_2_778
10
18.7626771
20
46.0497104
11
19.1150771
21
46.0497104
0
LINE
8
DEFAULT_255_2_778
10
19.1150771
20
46.0497104
11
19.1150771
21
45.8978104
0
LINE
8
DEFAULT_255_2_778
10
19.1150771
20
45.8978104
11
18.7626771
21
45.8978104
0
LINE
8
DEFAULT_255_2_778
10
18.7626771
20
45.8978104
11
18.7626771
21
45.4986104
0
LINE
8
DEFAULT_255_2_778
10
18.7626771
20
45.4986104
11
18.6012771
21
45.4986104
0
LINE
8
DEFAULT_255_2_778
10
18.6012771
20
45.4986104
11
18.6012771
21
45.8978104
0
LINE
8
DEFAULT_255_2_778
10
18.6012771
20
45.8978104
11
18.2488771
21
45.8978104
0
LINE
8
DEFAULT_255_2_778
10
18.2488771
20
45.8978104
11
18.2488771
21
46.0497104
0
LINE
8
DEFAULT_255_2_778
10
18.2488771
20
46.0497104
11
18.6012771
21
46.0497104
0
LINE
8
DEFAULT_255_2_778
10
18.6012771
20
46.0497104
11
18.6012771
21
46.4188104
0
LINE
8
DEFAULT_255_2_778
10
18.6012771
20
46.4188104
11
18.7626771
21
46.4188104
0
LINE
8
DEFAULT_255_2_778
10
18.7626771
20
46.4188104
11
18.7626771
21
46.4188104
0
LINE
8
DEFAULT_255_2_778
10
18.895001
20
41.5633844
11
18.895001
21
41.4323844
0
LINE
8
DEFAULT_255_2_778
10
18.895001
20
41.4323844
11
18.471401
21
41.4323844
0
LINE
8
DEFAULT_255_2_778
10
18.471401
20
41.4323844
11
18.471401
21
41.5633844
0
LINE
8
DEFAULT_255_2_778
10
18.471401
20
41.5633844
11
18.895001
21
41.5633844
0
LINE
8
DEFAULT_255_2_778
10
18.895001
20
41.5633844
11
18.895001
21
41.5633844
0
LINE
8
DEFAULT_255_2_778
10
18.7626771
20
28.9182104
11
18.7626771
21
28.5491104
0
LINE
8
DEFAULT_255_2_778
10
18.7626771
20
28.5491104
11
19.1150771
21
28.5491104
0
LINE
8
DEFAULT_255_2_778
10
19.1150771
20
28.5491104
11
19.1150771
21
28.3972104
0
LINE
8
DEFAULT_255_2_778
10
19.1150771
20
28.3972104
11
18.7626771
21
28.3972104
0
LINE
8
DEFAULT_255_2_778
10
18.7626771
20
28.3972104
11
18.7626771
21
27.9980104
0
LINE
8
DEFAULT_255_2_778
10
18.7626771
20
27.9980104
11
18.6012771
21
27.9980104
0
LINE
8
DEFAULT_255_2_778
10
18.6012771
20
27.9980104
11
18.6012771
21
28.3972104
0
LINE
8
DEFAULT_255_2_778
10
18.6012771
20
28.3972104
11
18.2488771
21
28.3972104
0
LINE
8
DEFAULT_255_2_778
10
18.2488771
20
28.3972104
11
18.2488771
21
28.5491104
0
LINE
8
DEFAULT_255_2_778
10
18.2488771
20
28.5491104
11
18.6012771
21
28.5491104
0
LINE
8
DEFAULT_255_2_778
10
18.6012771
20
28.5491104
11
18.6012771
21
28.9182104
0
LINE
8
DEFAULT_255_2_778
10
18.6012771
20
28.9182104
11
18.7626771
21
28.9182104
0
LINE
8
DEFAULT_255_2_778
10
18.7626771
20
28.9182104
11
18.7626771
21
28.9182104
0
LINE
8
DEFAULT_255_2_778
10
18.895001
20
24.0627844
11
18.895001
21
23.9317844
0
LINE
8
DEFAULT_255_2_778
10
18.895001
20
23.9317844
11
18.471401
21
23.9317844
0
LINE
8
DEFAULT_255_2_778
10
18.471401
20
23.9317844
11
18.471401
21
24.0627844
0
LINE
8
DEFAULT_255_2_778
10
18.471401
20
24.0627844
11
18.895001
21
24.0627844
0
LINE
8
DEFAULT_255_2_778
10
18.895001
20
24.0627844
11
18.895001
21
24.0627844
0
LINE
8
DEFAULT_255_2_778
10
18.7626771
20
18.4179104
11
18.7626771
21
18.0488104
0
LINE
8
DEFAULT_255_2_778
10
18.7626771
20
18.0488104
11
19.1150771
21
18.0488104
0
LINE
8
DEFAULT_255_2_778
10
19.1150771
20
18.0488104
11
19.1150771
21
17.8969104
0
LINE
8
DEFAULT_255_2_778
10
19.1150771
20
17.8969104
11
18.7626771
21
17.8969104
0
LINE
8
DEFAULT_255_2_778
10
18.7626771
20
17.8969104
11
18.7626771
21
17.4977104
0
LINE
8
DEFAULT_255_2_778
10
18.7626771
20
17.4977104
11
18.6012771
21
17.4977104
0
LINE
8
DEFAULT_255_2_778
10
18.6012771
20
17.4977104
11
18.6012771
21
17.8969104
0
LINE
8
DEFAULT_255_2_778
10
18.6012771
20
17.8969104
11
18.2488771
21
17.8969104
0
LINE
8
DEFAULT_255_2_778
10
18.2488771
20
17.8969104
11
18.2488771
21
18.0488104
0
LINE
8
DEFAULT_255_2_778
10
18.2488771
20
18.0488104
11
18.6012771
21
18.0488104
0
LINE
8
DEFAULT_255_2_778
10
18.6012771
20
18.0488104
11
18.6012771
21
18.4179104
0
LINE
8
DEFAULT_255_2_778
10
18.6012771
20
18.4179104
11
18.7626771
21
18.4179104
0
LINE
8
DEFAULT_255_2_778
10
18.7626771
20
18.4179104
11
18.7626771
21
18.4179104
0
LINE
8
DEFAULT_255_2_778
10
18.895001
20
13.5625844
11
18.895001
21
13.4315844
0
LINE
8
DEFAULT_255_2_778
10
18.895001
20
13.4315844
11
18.471401
21
13.4315844
0
LINE
8
DEFAULT_255_2_778
10
18.471401
20
13.4315844
11
18.471401
21
13.5625844
0
LINE
8
DEFAULT_255_2_778
10
18.471401
20
13.5625844
11
18.895001
21
13.5625844
0
LINE
8
DEFAULT_255_2_778
10
18.895001
20
13.5625844
11
18.895001
21
13.5625844
0
ARC
8
DEFAULT_255_2_778
10
8.3689585
20
55.8586754
40
3.4450064
50
163.741295
51
180.0005784
0
ARC
8
DEFAULT_255_2_778
10
8.3689585
20
55.8586058
40
3.4450064
50
179.9994216
51
196.258705
0
LINE
8
DEFAULT_255_2_778
10
4.9241271
20
54.8935906
11
6.9223271
21
54.8935906
0
LINE
8
DEFAULT_255_2_778
10
6.9223271
20
54.8935906
11
6.9223271
21
56.8226906
0
LINE
8
DEFAULT_255_2_778
10
6.9223271
20
56.8226906
11
4.9241271
21
56.8226906
0
LINE
8
DEFAULT_255_2_778
10
4.9241271
20
56.8226906
11
4.9241271
21
54.8935906
0
LINE
8
DEFAULT_255_2_778
10
4.9241271
20
54.8935906
11
4.4418271
21
54.5490906
0
LINE
8
DEFAULT_255_2_778
10
4.4418271
20
54.5490906
11
4.4418271
21
57.1673906
0
LINE
8
DEFAULT_255_2_778
10
4.4418271
20
57.1673906
11
4.9241271
21
56.8228906
0
LINE
8
DEFAULT_255_2_778
10
6.9223271
20
54.8938906
11
8.8513271
21
54.5493906
0
LINE
8
DEFAULT_255_2_778
10
8.8513271
20
54.5493906
11
8.8513271
21
57.1676906
0
LINE
8
DEFAULT_255_2_778
10
8.8513271
20
57.1676906
11
4.4418271
21
57.1676906
0
LINE
8
DEFAULT_255_2_778
10
8.8513271
20
54.5493906
11
4.4418271
21
54.5493906
0
LINE
8
DEFAULT_255_2_778
10
6.9223271
20
56.8231906
11
8.8513271
21
57.1676906
0
ARC
8
DEFAULT_255_2_778
10
8.3684557
20
52.35859
40
3.4442036
50
163.7393871
51
180.0010304
0
ARC
8
DEFAULT_255_2_778
10
6.8303313
20
52.3582194
40
1.9060792
50
179.9907198
51
180.0278405
0
ARC
8
DEFAULT_255_2_778
10
8.369233
20
52.3585014
40
3.4449809
50
180.0200951
51
196.2587537
0
LINE
8
DEFAULT_255_2_778
10
6.9223271
20
53.3227906
11
8.8513271
21
53.6672906
0
LINE
8
DEFAULT_255_2_778
10
4.9241271
20
51.3936906
11
6.9223271
21
51.3936906
0
LINE
8
DEFAULT_255_2_778
10
6.9223271
20
51.3936906
11
6.9223271
21
53.3227906
0
LINE
8
DEFAULT_255_2_778
10
6.9223271
20
53.3227906
11
4.9241271
21
53.3227906
0
LINE
8
DEFAULT_255_2_778
10
4.9241271
20
53.3227906
11
4.9241271
21
51.3936906
0
LINE
8
DEFAULT_255_2_778
10
4.9241271
20
51.3936906
11
4.4418271
21
51.0491906
0
LINE
8
DEFAULT_255_2_778
10
4.4418271
20
51.0491906
11
4.4418271
21
53.6674906
0
LINE
8
DEFAULT_255_2_778
10
4.4418271
20
53.6674906
11
4.9241271
21
53.3229906
0
LINE
8
DEFAULT_255_2_778
10
6.9223271
20
51.3939906
11
8.8513271
21
51.0494906
0
LINE
8
DEFAULT_255_2_778
10
8.8513271
20
51.0494906
11
8.8513271
21
53.6677906
0
LINE
8
DEFAULT_255_2_778
10
8.8513271
20
53.6677906
11
4.4418271
21
53.6677906
0
LINE
8
DEFAULT_255_2_778
10
8.8513271
20
51.0494906
11
4.4418271
21
51.0494906
0
ARC
8
DEFAULT_255_2_778
10
8.3684557
20
48.85849
40
3.4442036
50
163.7393871
51
180.0010304
0
ARC
8
DEFAULT_255_2_778
10
6.8303313
20
48.8581194
40
1.9060792
50
179.9907198
51
180.0278405
0
ARC
8
DEFAULT_255_2_778
10
8.369233
20
48.8584014
40
3.4449809
50
180.0200951
51
196.2587537
0
LINE
8
DEFAULT_255_2_778
10
6.9223271
20
49.8226906
11
8.8513271
21
50.1671906
0
LINE
8
DEFAULT_255_2_778
10
4.9241271
20
47.8935906
11
6.9223271
21
47.8935906
0
LINE
8
DEFAULT_255_2_778
10
6.9223271
20
47.8935906
11
6.9223271
21
49.8226906
0
LINE
8
DEFAULT_255_2_778
10
6.9223271
20
49.8226906
11
4.9241271
21
49.8226906
0
LINE
8
DEFAULT_255_2_778
10
4.9241271
20
49.8226906
11
4.9241271
21
47.8935906
0
LINE
8
DEFAULT_255_2_778
10
4.9241271
20
47.8935906
11
4.4418271
21
47.5490906
0
LINE
8
DEFAULT_255_2_778
10
4.4418271
20
47.5490906
11
4.4418271
21
50.1673906
0
LINE
8
DEFAULT_255_2_778
10
4.4418271
20
50.1673906
11
4.9241271
21
49.8228906
0
LINE
8
DEFAULT_255_2_778
10
6.9223271
20
47.8938906
11
8.8513271
21
47.5493906
0
LINE
8
DEFAULT_255_2_778
10
8.8513271
20
47.5493906
11
8.8513271
21
50.1676906
0
LINE
8
DEFAULT_255_2_778
10
8.8513271
20
50.1676906
11
4.4418271
21
50.1676906
0
LINE
8
DEFAULT_255_2_778
10
8.8513271
20
47.5493906
11
4.4418271
21
47.5493906
0
ARC
8
DEFAULT_255_2_778
10
8.3684557
20
45.35829
40
3.4442036
50
163.7393871
51
180.0010304
0
ARC
8
DEFAULT_255_2_778
10
6.8303313
20
45.3579194
40
1.9060792
50
179.9907198
51
180.0278405
0
ARC
8
DEFAULT_255_2_778
10
8.369233
20
45.3582014
40
3.4449809
50
180.0200951
51
196.2587537
0
LINE
8
DEFAULT_255_2_778
10
4.9241271
20
44.3933906
11
6.9223271
21
44.3933906
0
LINE
8
DEFAULT_255_2_778
10
6.9223271
20
44.3933906
11
6.9223271
21
46.3224906
0
LINE
8
DEFAULT_255_2_778
10
6.9223271
20
46.3224906
11
4.9241271
21
46.3224906
0
LINE
8
DEFAULT_255_2_778
10
4.9241271
20
46.3224906
11
4.9241271
21
44.3933906
0
LINE
8
DEFAULT_255_2_778
10
4.9241271
20
44.3933906
11
4.4418271
21
44.0488906
0
LINE
8
DEFAULT_255_2_778
10
4.4418271
20
44.0488906
11
4.4418271
21
46.6671906
0
LINE
8
DEFAULT_255_2_778
10
4.4418271
20
46.6671906
11
4.9241271
21
46.3226906
0
LINE
8
DEFAULT_255_2_778
10
6.9223271
20
44.3936906
11
8.8513271
21
44.0491906
0
LINE
8
DEFAULT_255_2_778
10
8.8513271
20
44.0491906
11
8.8513271
21
46.6674906
0
LINE
8
DEFAULT_255_2_778
10
8.8513271
20
46.6674906
11
4.4418271
21
46.6674906
0
LINE
8
DEFAULT_255_2_778
10
8.8513271
20
44.0491906
11
4.4418271
21
44.0491906
0
LINE
8
DEFAULT_255_2_778
10
6.9223271
20
46.3226906
11
8.8513271
21
46.6671906
0
ARC
8
DEFAULT_255_2_778
10
8.3684557
20
41.85809
40
3.4442036
50
163.7393871
51
180.0010304
0
ARC
8
DEFAULT_255_2_778
10
6.8303313
20
41.8577194
40
1.9060792
50
179.9907198
51
180.0278405
0
ARC
8
DEFAULT_255_2_778
10
8.369233
20
41.8580014
40
3.4449809
50
180.0200951
51
196.2587537
0
LINE
8
DEFAULT_255_2_778
10
6.9223271
20
42.8224906
11
8.8513271
21
43.1669906
0
LINE
8
DEFAULT_255_2_778
10
4.9241271
20
40.8931906
11
6.9223271
21
40.8931906
0
LINE
8
DEFAULT_255_2_778
10
6.9223271
20
40.8931906
11
6.9223271
21
42.8222906
0
LINE
8
DEFAULT_255_2_778
10
6.9223271
20
42.8222906
11
4.9241271
21
42.8222906
0
LINE
8
DEFAULT_255_2_778
10
4.9241271
20
42.8222906
11
4.9241271
21
40.8931906
0
LINE
8
DEFAULT_255_2_778
10
4.9241271
20
40.8931906
11
4.4418271
21
40.5486906
0
LINE
8
DEFAULT_255_2_778
10
4.4418271
20
40.5486906
11
4.4418271
21
43.1669906
0
LINE
8
DEFAULT_255_2_778
10
4.4418271
20
43.1669906
11
4.9241271
21
42.8224906
0
LINE
8
DEFAULT_255_2_778
10
6.9223271
20
40.8934906
11
8.8513271
21
40.5489906
0
LINE
8
DEFAULT_255_2_778
10
8.8513271
20
40.5489906
11
8.8513271
21
43.1672906
0
LINE
8
DEFAULT_255_2_778
10
8.8513271
20
43.1672906
11
4.4418271
21
43.1672906
0
LINE
8
DEFAULT_255_2_778
10
8.8513271
20
40.5489906
11
4.4418271
21
40.5489906
0
ARC
8
DEFAULT_255_2_778
10
8.3690313
20
38.3581033
40
3.4448115
50
163.7408329
51
180.0004187
0
ARC
8
DEFAULT_255_2_778
10
6.8498533
20
38.3577678
40
1.9256335
50
179.9907677
51
180.027697
0
ARC
8
DEFAULT_255_2_778
10
8.3698151
20
38.3580899
40
3.4455952
50
180.0208358
51
196.2573068
0
LINE
8
DEFAULT_255_2_778
10
7.0762949
20
37.0484906
11
4.4417949
21
37.0484906
0
LINE
8
DEFAULT_255_2_778
10
6.9222949
20
39.3222906
11
8.8512949
21
39.6667906
0
LINE
8
DEFAULT_255_2_778
10
8.1303949
20
37.1773906
11
8.8512949
21
37.0484906
0
LINE
8
DEFAULT_255_2_778
10
8.8512949
20
37.0484906
11
8.8512949
21
39.6667906
0
LINE
8
DEFAULT_255_2_778
10
8.8512949
20
39.6667906
11
4.4417949
21
39.6667906
0
LINE
8
DEFAULT_255_2_778
10
4.9240949
20
37.3932906
11
4.4417949
21
37.0487906
0
LINE
8
DEFAULT_255_2_778
10
4.4417949
20
37.0487906
11
4.4417949
21
39.6670906
0
LINE
8
DEFAULT_255_2_778
10
4.4417949
20
39.6670906
11
4.9240949
21
39.3225906
0
LINE
8
DEFAULT_255_2_778
10
6.4380949
20
37.3934906
11
4.9240949
21
37.3934906
0
LINE
8
DEFAULT_255_2_778
10
4.9240949
20
37.3934906
11
4.9240949
21
39.3225906
0
LINE
8
DEFAULT_255_2_778
10
4.9240949
20
39.3225906
11
6.9222949
21
39.3225906
0
LINE
8
DEFAULT_255_2_778
10
6.9222949
20
39.3225906
11
6.9222949
21
37.6993906
0
LINE
8
DEFAULT_255_2_778
10
8.8515949
20
37.0489906
11
8.5930949
21
37.0489906
0
ARC
8
DEFAULT_255_2_778
10
8.3684557
20
34.85779
40
3.4442036
50
163.7393871
51
180.0010304
0
ARC
8
DEFAULT_255_2_778
10
6.8303313
20
34.8574194
40
1.9060792
50
179.9907198
51
180.0278405
0
ARC
8
DEFAULT_255_2_778
10
8.369233
20
34.8577014
40
3.4449809
50
180.0200951
51
196.2587537
0
LINE
8
DEFAULT_255_2_778
10
6.9223271
20
35.8221906
11
8.8513271
21
36.1666906
0
LINE
8
DEFAULT_255_2_778
10
8.8513271
20
36.1666906
11
4.4418271
21
36.1666906
0
LINE
8
DEFAULT_255_2_778
10
8.8513271
20
33.5483906
11
4.4418271
21
33.5483906
0
LINE
8
DEFAULT_255_2_778
10
4.9241271
20
33.8928906
11
4.4418271
21
33.5483906
0
LINE
8
DEFAULT_255_2_778
10
4.4418271
20
33.5483906
11
4.4418271
21
36.1666906
0
LINE
8
DEFAULT_255_2_778
10
4.4418271
20
36.1666906
11
4.9241271
21
35.8221906
0
LINE
8
DEFAULT_255_2_778
10
6.9223271
20
34.6037906
11
6.9223271
21
33.8931906
0
LINE
8
DEFAULT_255_2_778
10
8.8513271
20
35.1117906
11
8.8513271
21
36.1669906
0
LINE
8
DEFAULT_255_2_778
10
6.9223271
20
35.1117906
11
6.9223271
21
35.8224906
0
LINE
8
DEFAULT_255_2_778
10
6.9223271
20
35.8224906
11
4.9241271
21
35.8224906
0
LINE
8
DEFAULT_255_2_778
10
4.9241271
20
35.8224906
11
4.9241271
21
33.8933906
0
LINE
8
DEFAULT_255_2_778
10
4.9241271
20
33.8933906
11
6.9223271
21
33.8933906
0
LINE
8
DEFAULT_255_2_778
10
6.9223271
20
33.8933906
11
8.8513271
21
33.5488906
0
LINE
8
DEFAULT_255_2_778
10
8.8513271
20
33.5488906
11
8.8513271
21
34.6040906
0
ARC
8
DEFAULT_255_2_778
10
8.3690636
20
31.3578033
40
3.4448115
50
163.7408329
51
180.0004187
0
ARC
8
DEFAULT_255_2_778
10
6.8498856
20
31.3574678
40
1.9256335
50
179.9907677
51
180.027697
0
ARC
8
DEFAULT_255_2_778
10
8.3698474
20
31.3577899
40
3.4455952
50
180.0208358
51
196.2573068
0
LINE
8
DEFAULT_255_2_778
10
7.0763271
20
32.6664906
11
4.4418271
21
32.6664906
0
LINE
8
DEFAULT_255_2_778
10
8.8513271
20
30.0481906
11
4.4418271
21
30.0481906
0
LINE
8
DEFAULT_255_2_778
10
6.9223271
20
30.3926906
11
8.8513271
21
30.0481906
0
LINE
8
DEFAULT_255_2_778
10
8.8513271
20
30.0481906
11
8.8513271
21
32.6664906
0
LINE
8
DEFAULT_255_2_778
10
8.8513271
20
32.6664906
11
8.5931271
21
32.6664906
0
LINE
8
DEFAULT_255_2_778
10
4.9241271
20
30.3929906
11
4.4418271
21
30.0484906
0
LINE
8
DEFAULT_255_2_778
10
4.4418271
20
30.0484906
11
4.4418271
21
32.6667906
0
LINE
8
DEFAULT_255_2_778
10
4.4418271
20
32.6667906
11
4.9241271
21
32.3222906
0
LINE
8
DEFAULT_255_2_778
10
6.9223271
20
32.0164906
11
6.9223271
21
30.3931906
0
LINE
8
DEFAULT_255_2_778
10
6.9223271
20
30.3931906
11
4.9241271
21
30.3931906
0
LINE
8
DEFAULT_255_2_778
10
4.9241271
20
30.3931906
11
4.9241271
21
32.3222906
0
LINE
8
DEFAULT_255_2_778
10
4.9241271
20
32.3222906
11
6.4381271
21
32.3222906
0
LINE
8
DEFAULT_255_2_778
10
8.1306271
20
32.5381906
11
8.8513271
21
32.6667906
0
ARC
8
DEFAULT_255_2_778
10
8.3692585
20
24.3577264
40
3.4450064
50
163.741295
51
180.0005784
0
ARC
8
DEFAULT_255_2_778
10
8.3692585
20
24.3576568
40
3.4450064
50
179.9994216
51
196.258705
0
ARC
8
DEFAULT_255_2_778
10
8.3689585
20
27.8584264
40
3.4450064
50
163.741295
51
180.0005784
0
ARC
8
DEFAULT_255_2_778
10
8.3689585
20
27.8583568
40
3.4450064
50
179.9994216
51
196.258705
0
LINE
8
DEFAULT_255_2_778
10
6.9223271
20
25.3219416
11
8.8513271
21
25.6664416
0
LINE
8
DEFAULT_255_2_778
10
4.9241271
20
23.3926416
11
6.9223271
21
23.3926416
0
LINE
8
DEFAULT_255_2_778
10
6.9223271
20
23.3926416
11
6.9223271
21
25.3217416
0
LINE
8
DEFAULT_255_2_778
10
6.9223271
20
25.3217416
11
4.9241271
21
25.3217416
0
LINE
8
DEFAULT_255_2_778
10
4.9241271
20
25.3217416
11
4.9241271
21
23.3926416
0
LINE
8
DEFAULT_255_2_778
10
4.9241271
20
23.3926416
11
4.4418271
21
23.0481416
0
LINE
8
DEFAULT_255_2_778
10
4.4418271
20
23.0481416
11
4.4418271
21
25.6664416
0
LINE
8
DEFAULT_255_2_778
10
4.4418271
20
25.6664416
11
4.9241271
21
25.3219416
0
LINE
8
DEFAULT_255_2_778
10
6.9223271
20
23.3929416
11
8.8513271
21
23.0484416
0
LINE
8
DEFAULT_255_2_778
10
8.8513271
20
23.0484416
11
8.8513271
21
25.6667416
0
LINE
8
DEFAULT_255_2_778
10
8.8513271
20
25.6667416
11
4.4418271
21
25.6667416
0
LINE
8
DEFAULT_255_2_778
10
8.8513271
20
23.0484416
11
4.4418271
21
23.0484416
0
LINE
8
DEFAULT_255_2_778
10
4.9241271
20
26.8933416
11
6.9223271
21
26.8933416
0
LINE
8
DEFAULT_255_2_778
10
6.9223271
20
26.8933416
11
6.9223271
21
28.8224416
0
LINE
8
DEFAULT_255_2_778
10
6.9223271
20
28.8224416
11
4.9241271
21
28.8224416
0
LINE
8
DEFAULT_255_2_778
10
4.9241271
20
28.8224416
11
4.9241271
21
26.8933416
0
LINE
8
DEFAULT_255_2_778
10
4.9241271
20
26.8933416
11
4.4418271
21
26.5488416
0
LINE
8
DEFAULT_255_2_778
10
4.4418271
20
26.5488416
11
4.4418271
21
29.1671416
0
LINE
8
DEFAULT_255_2_778
10
4.4418271
20
29.1671416
11
4.9241271
21
28.8226416
0
LINE
8
DEFAULT_255_2_778
10
6.9223271
20
26.8936416
11
8.8513271
21
26.5491416
0
LINE
8
DEFAULT_255_2_778
10
8.8513271
20
26.5491416
11
8.8513271
21
29.1674416
0
LINE
8
DEFAULT_255_2_778
10
8.8513271
20
29.1674416
11
4.4418271
21
29.1674416
0
LINE
8
DEFAULT_255_2_778
10
8.8513271
20
26.5491416
11
4.4418271
21
26.5491416
0
LINE
8
DEFAULT_255_2_778
10
6.9223271
20
28.8229416
11
8.8513271
21
29.1674416
0
ARC
8
DEFAULT_255_2_778
10
8.3687636
20
20.8575033
40
3.4448115
50
163.7408329
51
180.0004187
0
ARC
8
DEFAULT_255_2_778
10
6.8495856
20
20.8571678
40
1.9256335
50
179.9907677
51
180.027697
0
ARC
8
DEFAULT_255_2_778
10
8.3695474
20
20.8574899
40
3.4455952
50
180.0208358
51
196.2573068
0
LINE
8
DEFAULT_255_2_778
10
4.9241271
20
19.8923906
11
6.9223271
21
19.8923906
0
LINE
8
DEFAULT_255_2_778
10
6.9223271
20
19.8923906
11
6.9223271
21
21.8214906
0
LINE
8
DEFAULT_255_2_778
10
6.9223271
20
21.8214906
11
4.9241271
21
21.8214906
0
LINE
8
DEFAULT_255_2_778
10
4.9241271
20
21.8214906
11
4.9241271
21
19.8923906
0
LINE
8
DEFAULT_255_2_778
10
4.9241271
20
19.8923906
11
4.4418271
21
19.5478906
0
LINE
8
DEFAULT_255_2_778
10
4.4418271
20
19.5478906
11
4.4418271
21
22.1661906
0
LINE
8
DEFAULT_255_2_778
10
4.4418271
20
22.1661906
11
4.9241271
21
21.8216906
0
LINE
8
DEFAULT_255_2_778
10
6.9223271
20
19.8926906
11
8.8513271
21
19.5481906
0
LINE
8
DEFAULT_255_2_778
10
8.8513271
20
19.5481906
11
8.8513271
21
22.1664906
0
LINE
8
DEFAULT_255_2_778
10
8.8513271
20
22.1664906
11
4.4418271
21
22.1664906
0
LINE
8
DEFAULT_255_2_778
10
8.8513271
20
19.5481906
11
4.4418271
21
19.5481906
0
LINE
8
DEFAULT_255_2_778
10
6.9223271
20
21.8219906
11
8.8513271
21
22.1664906
0
ARC
8
DEFAULT_255_2_778
10
8.3687636
20
17.3574033
40
3.4448115
50
163.7408329
51
180.0004187
0
ARC
8
DEFAULT_255_2_778
10
6.8495856
20
17.3570678
40
1.9256335
50
179.9907677
51
180.027697
0
ARC
8
DEFAULT_255_2_778
10
8.3695474
20
17.3573899
40
3.4455952
50
180.0208358
51
196.2573068
0
LINE
8
DEFAULT_255_2_778
10
4.9241271
20
16.3922906
11
6.9223271
21
16.3922906
0
LINE
8
DEFAULT_255_2_778
10
6.9223271
20
16.3922906
11
6.9223271
21
18.3213906
0
LINE
8
DEFAULT_255_2_778
10
6.9223271
20
18.3213906
11
4.9241271
21
18.3213906
0
LINE
8
DEFAULT_255_2_778
10
4.9241271
20
18.3213906
11
4.9241271
21
16.3922906
0
LINE
8
DEFAULT_255_2_778
10
4.9241271
20
16.3922906
11
4.4418271
21
16.0477906
0
LINE
8
DEFAULT_255_2_778
10
4.4418271
20
16.0477906
11
4.4418271
21
18.6660906
0
LINE
8
DEFAULT_255_2_778
10
4.4418271
20
18.6660906
11
4.9241271
21
18.3215906
0
LINE
8
DEFAULT_255_2_778
10
6.9223271
20
16.3925906
11
8.8513271
21
16.0480906
0
LINE
8
DEFAULT_255_2_778
10
8.8513271
20
16.0480906
11
8.8513271
21
18.6663906
0
LINE
8
DEFAULT_255_2_778
10
8.8513271
20
18.6663906
11
4.4418271
21
18.6663906
0
LINE
8
DEFAULT_255_2_778
10
8.8513271
20
16.0480906
11
4.4418271
21
16.0480906
0
LINE
8
DEFAULT_255_2_778
10
6.9223271
20
18.3218906
11
8.8513271
21
18.6663906
0
ARC
8
DEFAULT_255_2_778
10
8.3689585
20
13.8574754
40
3.4450064
50
163.741295
51
180.0005784
0
ARC
8
DEFAULT_255_2_778
10
8.3689585
20
13.8574058
40
3.4450064
50
179.9994216
51
196.258705
0
LINE
8
DEFAULT_255_2_778
10
4.9241271
20
12.8923906
11
6.9223271
21
12.8923906
0
LINE
8
DEFAULT_255_2_778
10
6.9223271
20
12.8923906
11
6.9223271
21
14.8214906
0
LINE
8
DEFAULT_255_2_778
10
6.9223271
20
14.8214906
11
4.9241271
21
14.8214906
0
LINE
8
DEFAULT_255_2_778
10
4.9241271
20
14.8214906
11
4.9241271
21
12.8923906
0
LINE
8
DEFAULT_255_2_778
10
4.9241271
20
12.8923906
11
4.4418271
21
12.5478906
0
LINE
8
DEFAULT_255_2_778
10
4.4418271
20
12.5478906
11
4.4418271
21
15.1661906
0
LINE
8
DEFAULT_255_2_778
10
4.4418271
20
15.1661906
11
4.9241271
21
14.8216906
0
LINE
8
DEFAULT_255_2_778
10
6.9223271
20
12.8926906
11
8.8513271
21
12.5481906
0
LINE
8
DEFAULT_255_2_778
10
8.8513271
20
12.5481906
11
8.8513271
21
15.1664906
0
LINE
8
DEFAULT_255_2_778
10
8.8513271
20
15.1664906
11
4.4418271
21
15.1664906
0
LINE
8
DEFAULT_255_2_778
10
8.8513271
20
12.5481906
11
4.4418271
21
12.5481906
0
LINE
8
DEFAULT_255_2_778
10
6.9223271
20
14.8219906
11
8.8513271
21
15.1664906
0
ARC
8
DEFAULT_255_2_778
10
8.9559945
20
63.1225745
40
1.2412965
50
280.6690192
51
312.1690874
0
ARC
8
DEFAULT_255_2_778
10
8.9520594
20
63.1283526
40
1.2482212
50
312.1249121
51
359.9174932
0
ARC
8
DEFAULT_255_2_778
10
8.9479235
20
63.126264
40
1.2523559
50
0.0133197
51
8.995571
0
ARC
8
DEFAULT_255_2_778
10
8.9291662
20
63.1236609
40
1.2712896
50
8.9792655
51
10.266373
0
ARC
8
DEFAULT_255_2_778
10
8.9580841
20
63.1310807
40
1.2415143
50
10.1672834
51
41.8539411
0
ARC
8
DEFAULT_255_2_778
10
8.9524423
20
63.1274769
40
1.2481215
50
41.8043583
51
89.9177309
0
ARC
8
DEFAULT_255_2_778
10
8.9545049
20
63.1226631
40
1.2529343
50
90.0123674
51
98.5554515
0
ARC
8
DEFAULT_255_2_778
10
8.9568696
20
63.1046207
40
1.2711277
50
98.5398678
51
99.763834
0
ARC
8
DEFAULT_255_2_778
10
8.950255
20
63.1328222
40
1.242214
50
99.6837571
51
131.5427476
0
ARC
8
DEFAULT_255_2_778
10
8.9532178
20
63.1277049
40
1.2480096
50
131.4887474
51
179.9200615
0
ARC
8
DEFAULT_255_2_778
10
8.9597498
20
63.1297269
40
1.2545404
50
180.0128247
51
188.3931643
0
ARC
8
DEFAULT_255_2_778
10
8.9756971
20
63.1317168
40
1.2706074
50
188.3769709
51
189.2472567
0
ARC
8
DEFAULT_255_2_778
10
8.3434356
20
64.4567284
40
2.7448554
50
315.1100272
51
325.0660262
0
ARC
8
DEFAULT_255_2_778
10
8.509786
20
64.2894461
40
2.5089433
50
304.8817504
51
315.1354218
0
ARC
8
DEFAULT_255_2_778
10
8.6885128
20
64.0304698
40
2.1942856
50
293.9154723
51
304.9206276
0
ARC
8
DEFAULT_255_2_778
10
8.8059693
20
63.7732977
40
1.9115802
50
287.0919386
51
293.8220272
0
ARC
8
DEFAULT_255_2_778
10
8.869393
20
63.5645542
40
1.6934155
50
279.0277692
51
287.1165825
0
ARC
8
DEFAULT_255_2_778
10
8.9025355
20
63.3546192
40
1.4808806
50
270.1001448
51
279.0358822
0
ARC
8
DEFAULT_255_2_778
10
8.8975609
20
63.1132379
40
1.2395202
50
250.3517819
51
270.3495925
0
ARC
8
DEFAULT_255_2_778
10
8.8618813
20
62.9979146
40
1.1189265
50
235.0006788
51
250.0868092
0
ARC
8
DEFAULT_255_2_778
10
8.915063
20
63.0519014
40
1.1937199
50
196.147302
51
234.395934
0
ARC
8
DEFAULT_255_2_778
10
9.3146896
20
63.1903649
40
1.6162368
50
182.7199769
51
196.9223285
0
ARC
8
DEFAULT_255_2_778
10
9.5504111
20
63.2096416
40
1.8526249
50
179.9879466
51
182.9695215
0
ARC
8
DEFAULT_255_2_778
10
9.722781
20
63.2070076
40
2.024997
50
171.9571506
51
179.9144472
0
ARC
8
DEFAULT_255_2_778
10
9.964622
20
63.1734078
40
2.2691603
50
164.5072132
51
171.9714816
0
ARC
8
DEFAULT_255_2_778
10
10.1200959
20
63.1325327
40
2.4299042
50
161.2874942
51
164.5576688
0
ARC
8
DEFAULT_255_2_778
10
10.2474226
20
63.0880614
40
2.564768
50
154.5582289
51
161.2590863
0
ARC
8
DEFAULT_255_2_778
10
10.3862554
20
63.0223791
40
2.7183539
50
147.9622674
51
154.5651663
0
ARC
8
DEFAULT_255_2_778
10
10.4654037
20
62.974131
40
2.8110427
50
145.0010637
51
147.9844138
0
ARC
8
DEFAULT_255_2_778
10
10.4123475
20
63.0149051
40
2.7441963
50
135.105454
51
145.0630672
0
ARC
8
DEFAULT_255_2_778
10
10.2461712
20
63.182038
40
2.508513
50
124.8761429
51
135.1308101
0
ARC
8
DEFAULT_255_2_778
10
10.06768
20
63.4407291
40
2.194224
50
113.9101352
51
124.9150057
0
ARC
8
DEFAULT_255_2_778
10
9.9503617
20
63.6976638
40
1.9117919
50
107.0876789
51
113.8168136
0
ARC
8
DEFAULT_255_2_778
10
9.886997
20
63.9062739
40
1.6937719
50
99.0251899
51
107.1123542
0
ARC
8
DEFAULT_255_2_778
10
9.8538748
20
64.1161592
40
1.4812892
50
90.0999676
51
99.0333993
0
ARC
8
DEFAULT_255_2_778
10
9.8588477
20
64.3574808
40
1.2399883
50
70.3676329
51
90.3492068
0
ARC
8
DEFAULT_255_2_778
10
9.8945895
20
64.4730522
40
1.1191387
50
55.0124247
51
70.1031487
0
ARC
8
DEFAULT_255_2_778
10
9.8418549
20
64.4197307
40
1.1931287
50
16.1439168
51
54.4059146
0
ARC
8
DEFAULT_255_2_778
10
9.4415881
20
64.2810278
40
1.6163269
50
2.7195786
51
16.9216254
0
ARC
8
DEFAULT_255_2_778
10
9.2056819
20
64.2617372
40
1.8529003
50
359.9879416
51
2.9692982
0
ARC
8
DEFAULT_255_2_778
10
9.0333283
20
64.2643677
40
2.0252561
50
351.9598522
51
359.9145491
0
ARC
8
DEFAULT_255_2_778
10
8.7915969
20
64.2979376
40
2.2693067
50
344.5119795
51
351.9742501
0
ARC
8
DEFAULT_255_2_778
10
8.6366539
20
64.3386395
40
2.4294931
50
341.2926966
51
344.5627241
0
ARC
8
DEFAULT_255_2_778
10
8.5091035
20
64.383158
40
2.5645838
50
334.5619944
51
341.2646168
0
ARC
8
DEFAULT_255_2_778
10
8.3706082
20
64.448663
40
2.7177888
50
327.9635686
51
334.5690389
0
ARC
8
DEFAULT_255_2_778
10
8.2915541
20
64.4968487
40
2.8103645
50
325.0011525
51
327.985737
0
LINE
8
DEFAULT_255_2_778
10
10.5937023
20
62.8849362
11
10.5937023
21
62.8849362
0
ARC
8
DEFAULT_255_2_778
10
5.8209476
20
7.8052013
40
0.7938223
50
92.9578132
51
180.0001704
0
ARC
8
DEFAULT_255_2_778
10
5.8207863
20
7.7925798
40
0.806419
50
89.9972312
51
92.9000966
0
ARC
8
DEFAULT_255_2_778
10
14.5521005
20
7.8052579
40
0.793741
50
2.9456686
51
89.9982101
0
ARC
8
DEFAULT_255_2_778
10
14.538732
20
7.805234
40
0.8070933
50
359.9975126
51
2.8985971
0
LINE
8
DEFAULT_255_2_778
10
5.0271253
20
2.2489989
11
5.0271253
21
-0.1323011
0
LINE
8
DEFAULT_255_2_778
10
5.0271253
20
-0.1323011
11
0.2646253
21
-0.1323011
0
LINE
8
DEFAULT_255_2_778
10
0.2646253
20
-0.1323011
11
0.2646253
21
76.0676989
0
LINE
8
DEFAULT_255_2_778
10
0.2646253
20
76.0676989
11
5.0271253
21
76.0676989
0
LINE
8
DEFAULT_255_2_778
10
5.0271253
20
76.0676989
11
5.0271253
21
73.6864989
0
LINE
8
DEFAULT_255_2_778
10
0.2646253
20
1.0582989
11
2.6458253
21
1.0582989
0
LINE
8
DEFAULT_255_2_778
10
0.2646253
20
5.4239989
11
20.1083253
21
5.4239989
0
LINE
8
DEFAULT_255_2_778
10
5.0271253
20
1.0582989
11
15.3458253
21
1.0582989
0
LINE
8
DEFAULT_255_2_778
10
20.1083253
20
1.0582989
11
17.7271253
21
1.0582989
0
LINE
8
DEFAULT_255_2_778
10
15.3458253
20
2.2489989
11
17.7271253
21
2.2489989
0
LINE
8
DEFAULT_255_2_778
10
17.7271253
20
2.2489989
11
17.7271253
21
-0.1323011
0
LINE
8
DEFAULT_255_2_778
10
20.1083253
20
10.1123989
11
15.3461253
21
10.1123989
0
LINE
8
DEFAULT_255_2_778
10
15.3461253
20
10.1123989
11
15.3461253
21
9.3857989
0
LINE
8
DEFAULT_255_2_778
10
15.3461253
20
9.3857989
11
20.1083253
21
9.3857989
0
LINE
8
DEFAULT_255_2_778
10
0.2646253
20
10.1123989
11
5.0268253
21
10.1123989
0
LINE
8
DEFAULT_255_2_778
10
5.0268253
20
10.1123989
11
5.0268253
21
9.3857989
0
LINE
8
DEFAULT_255_2_778
10
5.0268253
20
9.3857989
11
0.2646253
21
9.3857989
0
LINE
8
DEFAULT_255_2_778
10
2.6458253
20
-0.1323011
11
2.6458253
21
2.2489989
0
LINE
8
DEFAULT_255_2_778
10
2.6458253
20
2.2489989
11
5.0271253
21
2.2489989
0
LINE
8
DEFAULT_255_2_778
10
5.0271253
20
2.2489989
11
5.0271253
21
7.8051989
0
LINE
8
DEFAULT_255_2_778
10
5.8208253
20
8.5989989
11
14.5521253
21
8.5989989
0
LINE
8
DEFAULT_255_2_778
10
15.3458253
20
7.8051989
11
15.3458253
21
-0.1323011
0
ARC
8
DEFAULT_255_2_778
10
5.820853
20
68.1302064
40
0.7937277
50
180.0005417
51
267.0486724
0
ARC
8
DEFAULT_255_2_778
10
5.8207903
20
68.1432303
40
0.8067313
50
267.1007459
51
270.0024871
0
ARC
8
DEFAULT_255_2_778
10
14.5521831
20
68.1301585
40
0.7936595
50
269.9958221
51
357.0412506
0
ARC
8
DEFAULT_255_2_778
10
14.5387701
20
68.1301625
40
0.8070551
50
357.0901152
51
0.0025865
0
LINE
8
DEFAULT_255_2_778
10
2.6458253
20
76.0676989
11
2.6458253
21
73.6864989
0
LINE
8
DEFAULT_255_2_778
10
2.6458253
20
73.6864989
11
5.0271253
21
73.6864989
0
LINE
8
DEFAULT_255_2_778
10
5.0271253
20
73.6864989
11
5.0271253
21
68.1301989
0
LINE
8
DEFAULT_255_2_778
10
5.8208253
20
67.3364989
11
14.5521253
21
67.3364989
0
LINE
8
DEFAULT_255_2_778
10
15.3458253
20
68.1301989
11
15.3458253
21
73.6864989
0
LINE
8
DEFAULT_255_2_778
10
15.3458253
20
73.6864989
11
15.3458253
21
76.0676989
0
LINE
8
DEFAULT_255_2_778
10
15.3458253
20
76.0676989
11
20.1083253
21
76.0676989
0
LINE
8
DEFAULT_255_2_778
10
20.1083253
20
76.0676989
11
20.1083253
21
-0.1323011
0
LINE
8
DEFAULT_255_2_778
10
20.1083253
20
-0.1323011
11
15.3458253
21
-0.1323011
0
LINE
8
DEFAULT_255_2_778
10
15.3458253
20
-0.1323011
11
20.1083253
21
-0.1323011
0
LINE
8
DEFAULT_255_2_778
10
0.2646253
20
74.8770989
11
2.6458253
21
74.8770989
0
LINE
8
DEFAULT_255_2_778
10
0.2646253
20
70.5114989
11
20.1083253
21
70.5114989
0
LINE
8
DEFAULT_255_2_778
10
5.0271253
20
74.8770989
11
15.3458253
21
74.8770989
0
LINE
8
DEFAULT_255_2_778
10
20.1083253
20
74.8770989
11
17.7271253
21
74.8770989
0
LINE
8
DEFAULT_255_2_778
10
15.3458253
20
73.6864989
11
17.7271253
21
73.6864989
0
LINE
8
DEFAULT_255_2_778
10
17.7271253
20
73.6864989
11
17.7271253
21
76.0676989
0
LINE
8
DEFAULT_255_2_778
10
13.6313253
20
12.1067989
11
20.1083253
21
12.1067989
0
LINE
8
DEFAULT_255_2_778
10
13.6313253
20
19.1070989
11
20.1083253
21
19.1070989
0
LINE
8
DEFAULT_255_2_778
10
13.6313253
20
22.6072989
11
20.1083253
21
22.6072989
0
LINE
8
DEFAULT_255_2_778
10
13.6313253
20
29.6076989
11
20.1083253
21
29.6076989
0
LINE
8
DEFAULT_255_2_778
10
14.6645253
20
33.1077989
11
20.1083253
21
33.1077989
0
LINE
8
DEFAULT_255_2_778
10
14.6645253
20
36.6076989
11
20.1083253
21
36.6076989
0
LINE
8
DEFAULT_255_2_778
10
13.6313253
20
40.1078989
11
20.1083253
21
40.1078989
0
LINE
8
DEFAULT_255_2_778
10
13.6313253
20
47.1082989
11
20.1083253
21
47.1082989
0
LINE
8
DEFAULT_255_2_778
10
13.6313253
20
50.6081989
11
20.1083253
21
50.6081989
0
LINE
8
DEFAULT_255_2_778
10
13.6313253
20
57.6082989
11
20.1083253
21
57.6082989
0
ARC
8
DEFAULT_255_2_778
10
10.1316321
20
43.4711654
40
7.1123105
50
228.6148157
51
265.5884776
0
ARC
8
DEFAULT_255_2_778
10
10.1314065
20
43.4706531
40
6.6038323
50
228.6120574
51
265.2474003
0
ARC
8
DEFAULT_255_2_778
10
10.1318494
20
26.243665
40
6.6046013
50
94.7559002
51
131.3871841
0
ARC
8
DEFAULT_255_2_778
10
10.1316321
20
26.2438875
40
7.1123105
50
94.4115224
51
131.3851843
0
LINE
8
DEFAULT_255_2_778
10
9.5845564
20
57.6082265
11
9.5845564
21
12.1067265
0
LINE
8
DEFAULT_255_2_778
10
13.1233564
20
32.3175265
11
13.1233564
21
12.1067265
0
LINE
8
DEFAULT_255_2_778
10
13.1233564
20
12.1067265
11
2.7884564
21
12.1067265
0
LINE
8
DEFAULT_255_2_778
10
2.7884564
20
12.1067265
11
2.7884564
21
57.6082265
0
LINE
8
DEFAULT_255_2_778
10
2.7884564
20
57.6082265
11
13.1233564
21
57.6082265
0
LINE
8
DEFAULT_255_2_778
10
13.1233564
20
57.6082265
11
13.1233564
21
37.3975265
0
LINE
8
DEFAULT_255_2_778
10
12.7100564
20
57.6082265
11
12.7100564
21
37.3975265
0
LINE
8
DEFAULT_255_2_778
10
12.2277564
20
37.3975265
11
12.2277564
21
57.6082265
0
LINE
8
DEFAULT_255_2_778
10
12.7100564
20
32.3175265
11
12.7100564
21
12.1067265
0
LINE
8
DEFAULT_255_2_778
10
12.2277564
20
12.1067265
11
12.2277564
21
32.3175265
0
LINE
8
DEFAULT_255_2_778
10
5.4295564
20
38.1349265
11
5.7652564
21
38.5161265
0
LINE
8
DEFAULT_255_2_778
10
5.7652564
20
31.1988265
11
5.4295564
21
31.5801265
0
LINE
8
DEFAULT_255_2_778
10
14.6645564
20
34.6035265
11
5.6946564
21
34.6035265
0
LINE
8
DEFAULT_255_2_778
10
5.6946564
20
34.6035265
11
5.6946564
21
35.1115265
0
LINE
8
DEFAULT_255_2_778
10
5.6946564
20
35.1115265
11
14.6645564
21
35.1115265
0
LINE
8
DEFAULT_255_2_778
10
14.6645564
20
37.3975265
11
9.5845564
21
37.3975265
0
LINE
8
DEFAULT_255_2_778
10
14.6645564
20
32.3175265
11
9.5845564
21
32.3175265
0
LINE
8
DEFAULT_255_2_778
10
14.6645564
20
37.3975265
11
14.6645564
21
32.3175265
0
ENDSEC
0
EOF