0
SECTION
2
HEADER
9
$MEASUREMENT
70
1
0
ENDSEC
0
SECTION
2
TABLES
0
TABLE
2
LTYPE
0
LTYPE
72
65
70
64
2
CONTINUOUS
3
______
73
0
40
0
0
ENDTAB
0
TABLE
2
LAYER
0
LAYER
2
DEFAULT_255_2_778
70
0
62
255
6
CONTINUOUS
0
LAYER
2
DEFAULT_255_1_234
70
0
62
255
6
CONTINUOUS
0
ENDTAB
0
ENDSEC
0
SECTION
2
ENTITIES
0
ARC
8
DEFAULT_255_2_778
10
3.5700693
20
28.1802037
40
0.7914215
50
129.1312896
51
180.1450914
0
ARC
8
DEFAULT_255_2_778
10
3.5703345
20
28.1806908
40
0.7912112
50
89.854026
51
129.1684493
0
ARC
8
DEFAULT_255_2_778
10
25.7993937
20
28.1803773
40
0.7915249
50
39.4792447
51
90.147911
0
ARC
8
DEFAULT_255_2_778
10
25.7999935
20
28.180224
40
0.7911595
50
359.8533901
51
39.5154338
0
ARC
8
DEFAULT_255_2_778
10
25.7996693
20
-1.9863486
40
0.7914836
50
309.4761667
51
0.1482649
0
ARC
8
DEFAULT_255_2_778
10
25.799398
20
-1.9867797
40
0.7913235
50
269.8517415
51
309.511178
0
ARC
8
DEFAULT_255_2_778
10
3.570342
20
-1.9867215
40
0.7913815
50
219.1282118
51
270.1454017
0
ARC
8
DEFAULT_255_2_778
10
3.5700247
20
-1.986339
40
0.7913769
50
179.8524075
51
219.1641908
0
LINE
8
DEFAULT_255_2_778
10
3.5723503
20
28.9718996
11
25.7973503
21
28.9718996
0
LINE
8
DEFAULT_255_2_778
10
26.5911503
20
28.1781996
11
26.5911503
21
-1.9843004
0
LINE
8
DEFAULT_255_2_778
10
25.7973503
20
-2.7781004
11
3.5723503
21
-2.7781004
0
LINE
8
DEFAULT_255_2_778
10
2.7786503
20
-1.9843004
11
2.7786503
21
28.1781996
0
LINE
8
DEFAULT_255_1_234
10
10.2441879
20
0.5181211
11
10.2441879
21
-0.6513
0
LINE
8
DEFAULT_255_1_234
10
10.2441879
20
-0.6513
11
10.0891753
21
-0.6513
0
LINE
8
DEFAULT_255_1_234
10
10.0891753
20
-0.6513
11
10.0891753
21
-0.110764
0
LINE
8
DEFAULT_255_1_234
10
10.0891753
20
-0.110764
11
9.4996458
21
-0.110764
0
LINE
8
DEFAULT_255_1_234
10
9.4996458
20
-0.110764
11
9.4996458
21
-0.6513
0
LINE
8
DEFAULT_255_1_234
10
9.4996458
20
-0.6513
11
9.3454364
21
-0.6513
0
LINE
8
DEFAULT_255_1_234
10
9.3454364
20
-0.6513
11
9.3454364
21
0.5181211
0
LINE
8
DEFAULT_255_1_234
10
9.3454364
20
0.5181211
11
9.4996458
21
0.5181211
0
LINE
8
DEFAULT_255_1_234
10
9.4996458
20
0.5181211
11
9.4996458
21
0.0153343
0
LINE
8
DEFAULT_255_1_234
10
9.4996458
20
0.0153343
11
10.0891753
21
0.0153343
0
LINE
8
DEFAULT_255_1_234
10
10.0891753
20
0.0153343
11
10.0891753
21
0.5181211
0
LINE
8
DEFAULT_255_1_234
10
10.0891753
20
0.5181211
11
10.2441879
21
0.5181211
0
LINE
8
DEFAULT_255_1_234
10
11.2457457
20
-0.5300208
11
11.2457457
21
-0.6513
0
LINE
8
DEFAULT_255_1_234
10
11.2457457
20
-0.6513
11
10.4795178
21
-0.6513
0
LINE
8
DEFAULT_255_1_234
10
10.4795178
20
-0.6513
11
10.4795178
21
-0.5444779
0
LINE
8
DEFAULT_255_1_234
10
10.4795178
20
-0.5444779
11
10.8843174
21
-0.0947005
0
LINE
8
DEFAULT_255_1_234
10
10.6056161
20
0.1735595
11
10.457029
21
0.1735595
0
LINE
8
DEFAULT_255_1_234
10
10.9718634
20
-0.1902782
11
10.6586256
21
-0.5300208
0
LINE
8
DEFAULT_255_1_234
10
10.6586256
20
-0.5300208
11
11.2457457
21
-0.5300208
0
ARC
8
DEFAULT_255_1_234
10
9.5353008
20
1.0982527
40
1.8008286
50
318.5132453
51
320.7828378
0
ARC
8
DEFAULT_255_1_234
10
10.0639982
20
0.6679426
40
1.1191493
50
320.7372736
51
323.9737074
0
ARC
8
DEFAULT_255_1_234
10
10.4559838
20
0.3839361
40
0.6350923
50
323.8961724
51
328.6421089
0
ARC
8
DEFAULT_255_1_234
10
10.6606434
20
0.2577031
40
0.3946393
50
328.8299013
51
331.789948
0
ARC
8
DEFAULT_255_1_234
10
10.7603612
20
0.2062509
40
0.2824501
50
331.4255242
51
352.9364833
0
ARC
8
DEFAULT_255_1_234
10
10.7740113
20
0.2031976
40
0.2685315
50
353.2248685
51
0.0169286
0
ARC
8
DEFAULT_255_1_234
10
10.794999
20
0.205495
40
0.2475536
50
359.4866256
51
15.9339782
0
ARC
8
DEFAULT_255_1_234
10
10.8456975
20
0.2191286
40
0.1950618
50
16.1714718
51
43.5284424
0
ARC
8
DEFAULT_255_1_234
10
10.8534284
20
0.2268573
40
0.184134
50
43.4415429
51
83.1661404
0
ARC
8
DEFAULT_255_1_234
10
10.8400202
20
0.1531771
40
0.258926
50
82.160215
51
90.1505798
0
ARC
8
DEFAULT_255_1_234
10
10.8368629
20
0.0994865
40
0.3126255
50
89.5460705
51
102.5418777
0
ARC
8
DEFAULT_255_1_234
10
10.8125715
20
0.2025665
40
0.2067346
50
102.1739365
51
129.2061916
0
ARC
8
DEFAULT_255_1_234
10
10.8046787
20
0.2150094
40
0.1921118
50
129.7279328
51
135.7542026
0
ARC
8
DEFAULT_255_1_234
10
10.8168315
20
0.2053045
40
0.2075944
50
136.175737
51
166.3674722
0
ARC
8
DEFAULT_255_1_234
10
10.9175234
20
0.1783182
40
0.3118201
50
165.9092917
51
178.8683903
0
ARC
8
DEFAULT_255_1_234
10
11.0040095
20
0.1736179
40
0.3983935
50
178.438168
51
180.0083905
0
ARC
8
DEFAULT_255_1_234
10
10.8638697
20
0.1775231
40
0.4068601
50
163.2878735
51
180.5581814
0
ARC
8
DEFAULT_255_1_234
10
10.7836959
20
0.199584
40
0.3237344
50
133.454115
51
162.9470031
0
ARC
8
DEFAULT_255_1_234
10
10.80155
20
0.1806
40
0.349795
50
100.7869394
51
133.4384016
0
ARC
8
DEFAULT_255_1_234
10
10.8363271
20
0.0257319
40
0.5084616
50
89.6605301
51
101.3704185
0
ARC
8
DEFAULT_255_1_234
10
10.842961
20
0.0318496
40
0.502348
50
78.2171172
51
90.4130393
0
ARC
8
DEFAULT_255_1_234
10
10.8784689
20
0.1942637
40
0.3361092
50
55.9268222
51
78.4888551
0
ARC
8
DEFAULT_255_1_234
10
10.8981129
20
0.2281324
40
0.2970617
50
47.9292255
51
55.4054003
0
ARC
8
DEFAULT_255_1_234
10
10.9082689
20
0.2384502
40
0.2825983
50
4.3347696
51
48.0560701
0
ARC
8
DEFAULT_255_1_234
10
10.7987083
20
0.2214601
40
0.393225
50
359.925209
51
5.5967654
0
ARC
8
DEFAULT_255_1_234
10
10.8415975
20
0.2270816
40
0.3503892
50
337.8914096
51
358.9967724
0
ARC
8
DEFAULT_255_1_234
10
10.5702387
20
0.3317706
40
0.6412172
50
326.9135351
51
338.3505194
0
ARC
8
DEFAULT_255_1_234
10
10.1716691
20
0.5872284
40
1.1146189
50
319.6472867
51
327.095818
0
ARC
8
DEFAULT_255_1_234
10
9.7883694
20
0.9034
40
1.6114559
50
317.2586784
51
319.9046139
0
LINE
8
DEFAULT_255_1_234
10
11.72765
20
-0.0938974
11
11.72765
21
-0.2151766
0
LINE
8
DEFAULT_255_1_234
10
11.72765
20
-0.2151766
11
11.3357011
21
-0.2151766
0
LINE
8
DEFAULT_255_1_234
10
11.3357011
20
-0.2151766
11
11.3357011
21
-0.0938974
0
LINE
8
DEFAULT_255_1_234
10
11.3357011
20
-0.0938974
11
11.72765
21
-0.0938974
0
LINE
8
DEFAULT_255_1_234
10
12.5565253
20
0.0153343
11
12.5565253
21
-0.110764
0
LINE
8
DEFAULT_255_1_234
10
12.5565253
20
-0.110764
11
12.0497227
21
-0.110764
0
LINE
8
DEFAULT_255_1_234
10
12.0497227
20
-0.110764
11
12.0497227
21
-0.5252017
0
LINE
8
DEFAULT_255_1_234
10
12.0497227
20
-0.5252017
11
12.6384491
21
-0.5252017
0
LINE
8
DEFAULT_255_1_234
10
12.6384491
20
-0.5252017
11
12.6384491
21
-0.6513
0
LINE
8
DEFAULT_255_1_234
10
12.6384491
20
-0.6513
11
11.8955133
21
-0.6513
0
LINE
8
DEFAULT_255_1_234
10
11.8955133
20
-0.6513
11
11.8955133
21
0.5181211
0
LINE
8
DEFAULT_255_1_234
10
11.8955133
20
0.5181211
11
12.6304173
21
0.5181211
0
LINE
8
DEFAULT_255_1_234
10
12.6304173
20
0.5181211
11
12.6304173
21
0.3912196
0
LINE
8
DEFAULT_255_1_234
10
12.6304173
20
0.3912196
11
12.0497227
21
0.3912196
0
LINE
8
DEFAULT_255_1_234
10
12.0497227
20
0.3912196
11
12.0497227
21
0.0153343
0
LINE
8
DEFAULT_255_1_234
10
12.0497227
20
0.0153343
11
12.5565253
21
0.0153343
0
LINE
8
DEFAULT_255_1_234
10
13.5355942
20
-0.2802337
11
13.6906068
21
-0.2802337
0
LINE
8
DEFAULT_255_1_234
10
12.7902489
20
-0.1212053
11
12.7902489
21
-0.0087609
0
LINE
8
DEFAULT_255_1_234
10
13.6906068
20
0.1422357
11
13.5355942
21
0.1422357
0
LINE
8
DEFAULT_255_1_234
10
12.9452615
20
-0.0127768
11
12.9452615
21
-0.1260243
0
ARC
8
DEFAULT_255_1_234
10
13.1425455
20
-0.2205154
40
0.5513052
50
340.1774281
51
353.7814284
0
ARC
8
DEFAULT_255_1_234
10
13.2996807
20
-0.2790418
40
0.3836379
50
311.4558989
51
340.4421614
0
ARC
8
DEFAULT_255_1_234
10
13.2963475
20
-0.2679472
40
0.3941894
50
282.4333181
51
310.7513653
0
ARC
8
DEFAULT_255_1_234
10
13.2524215
20
-0.0864321
40
0.5809175
50
269.9358511
51
282.809604
0
ARC
8
DEFAULT_255_1_234
10
13.2472281
20
0.0593212
40
0.7266847
50
270.0021091
51
270.3581957
0
ARC
8
DEFAULT_255_1_234
10
13.2419698
20
-0.2007415
40
0.4666519
50
250.7884749
51
270.6489167
0
ARC
8
DEFAULT_255_1_234
10
13.2251532
20
-0.2644681
40
0.4009729
50
219.3627325
51
250.0611886
0
ARC
8
DEFAULT_255_1_234
10
13.3080744
20
-0.1939958
40
0.5097822
50
193.5479632
51
219.5756669
0
ARC
8
DEFAULT_255_1_234
10
13.5452364
20
-0.1324081
40
0.7547848
50
181.1218675
51
193.87563
0
ARC
8
DEFAULT_255_1_234
10
13.7522545
20
-0.121342
40
0.9620055
50
179.9918545
51
181.5394234
0
ARC
8
DEFAULT_255_1_234
10
13.5671647
20
-0.0050212
40
0.7769248
50
169.5837241
51
180.2757934
0
ARC
8
DEFAULT_255_1_234
10
13.3834585
20
0.0289229
40
0.590109
50
155.0365899
51
169.6003176
0
ARC
8
DEFAULT_255_1_234
10
13.2699049
20
0.0836677
40
0.4640625
50
136.783148
51
155.2472683
0
ARC
8
DEFAULT_255_1_234
10
13.2309526
20
0.1167562
40
0.4130255
50
121.7633186
51
136.428115
0
ARC
8
DEFAULT_255_1_234
10
13.2444488
20
0.0918227
40
0.4413323
50
95.6459699
51
121.5490577
0
ARC
8
DEFAULT_255_1_234
10
13.260177
20
-0.0190051
40
0.55319
50
89.924208
51
96.1377933
0
ARC
8
DEFAULT_255_1_234
10
13.2652203
20
-0.0071458
40
0.5413475
50
76.6779277
51
90.4563316
0
ARC
8
DEFAULT_255_1_234
10
13.3045827
20
0.1519114
40
0.3775041
50
47.485847
51
76.9287264
0
ARC
8
DEFAULT_255_1_234
10
13.2898799
20
0.1419159
40
0.3948286
50
16.5424086
51
46.8933463
0
ARC
8
DEFAULT_255_1_234
10
13.1290956
20
0.0890861
40
0.564021
50
5.4072051
51
17.0365086
0
ARC
8
DEFAULT_255_1_234
10
12.9851974
20
0.0659679
40
0.5556559
50
7.8891745
51
15.9239216
0
ARC
8
DEFAULT_255_1_234
10
13.1838987
20
0.1236631
40
0.3487515
50
15.7653144
51
27.9410532
0
ARC
8
DEFAULT_255_1_234
10
13.2943205
20
0.182779
40
0.2235026
50
27.8166557
51
46.4008329
0
ARC
8
DEFAULT_255_1_234
10
13.2992847
20
0.1822082
40
0.2205286
50
47.4371857
51
75.0698205
0
ARC
8
DEFAULT_255_1_234
10
13.2684242
20
0.0747765
40
0.3322915
50
74.7008593
51
87.8124495
0
ARC
8
DEFAULT_255_1_234
10
13.261093
20
-0.0308156
40
0.4380987
50
87.3814673
51
90.0240855
0
ARC
8
DEFAULT_255_1_234
10
13.2572473
20
0.0869291
40
0.3203749
50
89.3451631
51
108.5745436
0
ARC
8
DEFAULT_255_1_234
10
13.2435578
20
0.1382908
40
0.2673494
50
109.2998449
51
143.3037509
0
ARC
8
DEFAULT_255_1_234
10
13.3197651
20
0.0796881
40
0.3634757
50
143.0753173
51
163.1916937
0
ARC
8
DEFAULT_255_1_234
10
13.5149378
20
0.0180967
40
0.5681262
50
162.9373603
51
174.6208611
0
ARC
8
DEFAULT_255_1_234
10
13.777542
20
-0.010699
40
0.8322832
50
174.3419979
51
180.1430411
0
ARC
8
DEFAULT_255_1_234
10
13.6844577
20
-0.1301302
40
0.7392076
50
179.6817502
51
189.150529
0
ARC
8
DEFAULT_255_1_234
10
13.4343825
20
-0.171781
40
0.4856932
50
188.9910863
51
203.5773039
0
ARC
8
DEFAULT_255_1_234
10
13.3264158
20
-0.2165789
40
0.3688271
50
203.9077269
51
215.1312379
0
ARC
8
DEFAULT_255_1_234
10
13.2341251
20
-0.2881059
40
0.2522457
50
213.9071664
51
263.8849284
0
ARC
8
DEFAULT_255_1_234
10
13.2466581
20
-0.2096482
40
0.3316174
50
263.1758525
51
270.1031083
0
ARC
8
DEFAULT_255_1_234
10
13.2498672
20
-0.0849635
40
0.4563091
50
269.6719807
51
279.0609165
0
ARC
8
DEFAULT_255_1_234
10
13.276544
20
-0.2462093
40
0.2928759
50
278.8750225
51
293.6346586
0
ARC
8
DEFAULT_255_1_234
10
13.3085648
20
-0.32141
40
0.2111472
50
293.8553404
51
310.0518804
0
ARC
8
DEFAULT_255_1_234
10
13.3090502
20
-0.3276484
40
0.2060917
50
311.0646779
51
332.0108348
0
ARC
8
DEFAULT_255_1_234
10
13.1898229
20
-0.2619022
40
0.3422352
50
331.6588543
51
343.2878891
0
ARC
8
DEFAULT_255_1_234
10
12.9835744
20
-0.1985202
40
0.5580003
50
343.1446044
51
351.010618
0
ARC
8
DEFAULT_255_1_234
10
12.829439
20
-0.1704129
40
0.7146438
50
350.7157277
51
351.1602153
0
LINE
8
DEFAULT_255_1_234
10
14.800593
20
-0.0304466
11
14.800593
21
-0.1043386
0
LINE
8
DEFAULT_255_1_234
10
13.8600765
20
-0.1147799
11
13.8600765
21
-0.0304466
0
LINE
8
DEFAULT_255_1_234
10
14.6471868
20
-0.1155831
11
14.6471868
21
-0.0288403
0
LINE
8
DEFAULT_255_1_234
10
14.0134827
20
-0.018399
11
14.0134827
21
-0.1043386
0
ARC
8
DEFAULT_255_1_234
10
13.9363957
20
-0.1082985
40
0.8642064
50
350.487711
51
0.2625388
0
ARC
8
DEFAULT_255_1_234
10
14.1657198
20
-0.1477422
40
0.631518
50
336.0277639
51
350.5787438
0
ARC
8
DEFAULT_255_1_234
10
14.3002021
20
-0.2085108
40
0.4839466
50
319.8877444
51
336.1328423
0
ARC
8
DEFAULT_255_1_234
10
14.3604662
20
-0.256742
40
0.4067874
50
302.4806467
51
319.6143626
0
ARC
8
DEFAULT_255_1_234
10
14.3489673
20
-0.2345798
40
0.4316636
50
275.8195682
51
302.1884709
0
ARC
8
DEFAULT_255_1_234
10
14.3323306
20
-0.1203335
40
0.5470306
50
269.9171439
51
276.3397983
0
ARC
8
DEFAULT_255_1_234
10
14.3278516
20
-0.1889319
40
0.4784458
50
252.5219675
51
270.4416499
0
ARC
8
DEFAULT_255_1_234
10
14.3134775
20
-0.2428408
40
0.422716
50
237.5352116
51
252.1857531
0
ARC
8
DEFAULT_255_1_234
10
14.322397
20
-0.2314637
40
0.4371052
50
209.063312
51
237.3492538
0
ARC
8
DEFAULT_255_1_234
10
14.4093818
20
-0.1768315
40
0.5397041
50
205.1183774
51
209.6470015
0
ARC
8
DEFAULT_255_1_234
10
14.4890855
20
-0.143017
40
0.6262326
50
188.7215458
51
204.8240747
0
ARC
8
DEFAULT_255_1_234
10
14.6888383
20
-0.1093933
40
0.8287794
50
180.3723947
51
188.9252049
0
ARC
8
DEFAULT_255_1_234
10
14.6861135
20
-0.0264598
40
0.8260467
50
169.5253763
51
180.2765336
0
ARC
8
DEFAULT_255_1_234
10
14.4958584
20
0.0085309
40
0.6326007
50
155.8315255
51
169.5089989
0
ARC
8
DEFAULT_255_1_234
10
14.3678085
20
0.0679348
40
0.4914567
50
139.6258461
51
156.0379525
0
ARC
8
DEFAULT_255_1_234
10
14.3088419
20
0.1153799
40
0.4158054
50
122.6416387
51
139.3430715
0
ARC
8
DEFAULT_255_1_234
10
14.3189038
20
0.0970451
40
0.4366739
50
93.0223692
51
122.455762
0
ARC
8
DEFAULT_255_1_234
10
14.3297035
20
0.0005709
40
0.5336137
50
89.975342
51
93.6341897
0
ARC
8
DEFAULT_255_1_234
10
14.3335815
20
0.0404242
40
0.4937738
50
73.746375
51
90.4233405
0
ARC
8
DEFAULT_255_1_234
10
14.3511393
20
0.1084287
40
0.4235786
50
57.662753
51
73.4518111
0
ARC
8
DEFAULT_255_1_234
10
14.3503399
20
0.1105832
40
0.4221899
50
29.1440151
51
57.414694
0
ARC
8
DEFAULT_255_1_234
10
14.2568594
20
0.0522005
40
0.5322966
50
24.0982783
51
29.7323517
0
ARC
8
DEFAULT_255_1_234
10
14.1534869
20
0.0093399
40
0.6441673
50
8.6655297
51
23.8241346
0
ARC
8
DEFAULT_255_1_234
10
13.9300607
20
-0.0271146
40
0.8705386
50
359.7806941
51
8.8218784
0
ARC
8
DEFAULT_255_1_234
10
13.8153606
20
-0.0245655
40
0.8318373
50
359.7055579
51
8.036044
0
ARC
8
DEFAULT_255_1_234
10
14.1153612
20
0.0191239
40
0.5286768
50
7.8928306
51
20.2962107
0
ARC
8
DEFAULT_255_1_234
10
14.2781182
20
0.0791395
40
0.3552073
50
20.3231126
51
36.4992797
0
ARC
8
DEFAULT_255_1_234
10
14.3466728
20
0.1319402
40
0.2686974
50
36.1437156
51
85.6627023
0
ARC
8
DEFAULT_255_1_234
10
14.3304274
20
0.0279221
40
0.373739
50
84.3852322
51
90.0757696
0
ARC
8
DEFAULT_255_1_234
10
14.3261946
20
0.0939839
40
0.3076997
50
89.3038458
51
109.9045693
0
ARC
8
DEFAULT_255_1_234
10
14.3169337
20
0.1322062
40
0.2686424
50
110.8228367
51
143.9179474
0
ARC
8
DEFAULT_255_1_234
10
14.4102998
20
0.0609236
40
0.3860887
50
143.5289163
51
163.2980757
0
ARC
8
DEFAULT_255_1_234
10
14.6010818
20
0.0009433
40
0.5860659
50
163.0418846
51
174.3140048
0
ARC
8
DEFAULT_255_1_234
10
14.841493
20
-0.0268146
40
0.8280531
50
174.0509143
51
179.4176892
0
ARC
8
DEFAULT_255_1_234
10
14.7910669
20
-0.1085046
40
0.7775954
50
179.6930361
51
188.7906598
0
ARC
8
DEFAULT_255_1_234
10
14.5247148
20
-0.1511065
40
0.5078633
50
188.6331305
51
202.5629587
0
ARC
8
DEFAULT_255_1_234
10
14.399274
20
-0.2015004
40
0.3726913
50
202.8081362
51
216.1193925
0
ARC
8
DEFAULT_255_1_234
10
14.318331
20
-0.2666324
40
0.2689577
50
215.0755913
51
264.6379694
0
ARC
8
DEFAULT_255_1_234
10
14.331026
20
-0.1835487
40
0.3528978
50
263.846392
51
270.0833719
0
ARC
8
DEFAULT_255_1_234
10
14.335165
20
-0.2093626
40
0.3271036
50
269.3649385
51
287.5152008
0
ARC
8
DEFAULT_255_1_234
10
14.3529808
20
-0.2740762
40
0.2600406
50
288.0630309
51
323.8113348
0
ARC
8
DEFAULT_255_1_234
10
14.265865
20
-0.2090951
40
0.3687189
50
323.6547608
51
342.6590488
0
ARC
8
DEFAULT_255_1_234
10
14.0627265
20
-0.1430048
40
0.5823286
50
342.4091907
51
353.6451149
0
ARC
8
DEFAULT_255_1_234
10
13.7795776
20
-0.107781
40
0.8676442
50
353.4029884
51
359.4847795
0
LINE
8
DEFAULT_255_1_234
10
15.0319071
20
0.5181211
11
15.2310942
21
0.5181211
0
LINE
8
DEFAULT_255_1_234
10
15.2310942
20
0.5181211
11
15.6134049
21
-0.4360494
0
LINE
8
DEFAULT_255_1_234
10
15.6134049
20
-0.4360494
11
15.9957157
21
0.5181211
0
LINE
8
DEFAULT_255_1_234
10
15.9957157
20
0.5181211
11
16.195706
21
0.5181211
0
LINE
8
DEFAULT_255_1_234
10
16.195706
20
0.5181211
11
16.195706
21
-0.6513
0
LINE
8
DEFAULT_255_1_234
10
16.195706
20
-0.6513
11
16.0414966
21
-0.6513
0
LINE
8
DEFAULT_255_1_234
10
16.0414966
20
-0.6513
11
16.0414966
21
-0.1959004
0
LINE
8
DEFAULT_255_1_234
10
16.0414966
20
-0.1959004
11
16.0559537
21
0.2956419
0
LINE
8
DEFAULT_255_1_234
10
16.0559537
20
0.2956419
11
15.6720366
21
-0.6513
0
LINE
8
DEFAULT_255_1_234
10
15.6720366
20
-0.6513
11
15.5539701
21
-0.6513
0
LINE
8
DEFAULT_255_1_234
10
15.5539701
20
-0.6513
11
15.1708562
21
0.2932324
0
LINE
8
DEFAULT_255_1_234
10
15.1708562
20
0.2932324
11
15.1861165
21
-0.1959004
0
LINE
8
DEFAULT_255_1_234
10
15.1861165
20
-0.1959004
11
15.1861165
21
-0.6513
0
LINE
8
DEFAULT_255_1_234
10
15.1861165
20
-0.6513
11
15.0319071
21
-0.6513
0
LINE
8
DEFAULT_255_1_234
10
15.0319071
20
-0.6513
11
15.0319071
21
0.5181211
0
LINE
8
DEFAULT_255_1_234
10
16.9177592
20
0.5237433
11
16.9177592
21
-0.6513
0
LINE
8
DEFAULT_255_1_234
10
16.9177592
20
-0.6513
11
16.7683689
21
-0.6513
0
LINE
8
DEFAULT_255_1_234
10
16.7683689
20
-0.6513
11
16.7683689
21
0.3390133
0
LINE
8
DEFAULT_255_1_234
10
16.7683689
20
0.3390133
11
16.4687851
21
0.2289785
0
LINE
8
DEFAULT_255_1_234
10
16.4687851
20
0.2289785
11
16.4687851
21
0.3639117
0
LINE
8
DEFAULT_255_1_234
10
16.4687851
20
0.3639117
11
16.8944672
21
0.5237433
0
LINE
8
DEFAULT_255_1_234
10
16.8944672
20
0.5237433
11
16.9177592
21
0.5237433
0
LINE
8
DEFAULT_255_1_234
10
18.0863771
20
0.0402327
11
18.0863771
21
-0.1525291
0
LINE
8
DEFAULT_255_1_234
10
17.3482604
20
-0.1726084
11
17.3482604
21
0.0257755
0
LINE
8
DEFAULT_255_1_234
10
17.93779
20
-0.1926877
11
17.93779
21
0.0506739
0
LINE
8
DEFAULT_255_1_234
10
17.4968476
20
0.0619184
11
17.4968476
21
-0.1758211
0
ARC
8
DEFAULT_255_1_234
10
16.8616661
20
-0.1574195
40
1.2247208
50
353.8441951
51
0.2287902
0
ARC
8
DEFAULT_255_1_234
10
17.3256165
20
-0.2092194
40
0.7578929
50
344.4934747
51
353.9765454
0
ARC
8
DEFAULT_255_1_234
10
17.6248755
20
-0.2943019
40
0.4467846
50
329.2803592
51
344.7472793
0
ARC
8
DEFAULT_255_1_234
10
17.724158
20
-0.3487982
40
0.3336173
50
324.9352394
51
328.6160465
0
ARC
8
DEFAULT_255_1_234
10
17.7618689
20
-0.3751573
40
0.2876076
50
280.580143
51
324.9173126
0
ARC
8
DEFAULT_255_1_234
10
17.7217481
20
-0.2080901
40
0.4592847
50
269.5977311
51
281.6734359
0
ARC
8
DEFAULT_255_1_234
10
17.7145387
20
-0.2200827
40
0.4472986
50
256.6228859
51
270.51044
0
ARC
8
DEFAULT_255_1_234
10
17.6743365
20
-0.3749123
40
0.2873874
50
215.8618325
51
257.2788573
0
ARC
8
DEFAULT_255_1_234
10
17.7764396
20
-0.3064023
40
0.4102928
50
197.9693508
51
215.2623606
0
ARC
8
DEFAULT_255_1_234
10
18.0249512
20
-0.2225291
40
0.6725652
50
187.8816417
51
198.2346507
0
ARC
8
DEFAULT_255_1_234
10
18.420772
20
-0.1653921
40
1.0724845
50
180.8976217
51
188.0055519
0
ARC
8
DEFAULT_255_1_234
10
18.7007908
20
-0.1550223
40
1.3526448
50
180.7449369
51
181.1510016
0
ARC
8
DEFAULT_255_1_234
10
18.5430637
20
0.0306042
40
1.1948131
50
173.7675579
51
180.231553
0
ARC
8
DEFAULT_255_1_234
10
18.0912784
20
0.0816666
40
0.7401564
50
164.3058563
51
173.9002247
0
ARC
8
DEFAULT_255_1_234
10
17.8000853
20
0.1655656
40
0.4371288
50
148.7922025
51
164.568378
0
ARC
8
DEFAULT_255_1_234
10
17.7049305
20
0.2186929
40
0.3282386
50
144.5883898
51
148.1176286
0
ARC
8
DEFAULT_255_1_234
10
17.6706203
20
0.2426315
40
0.2864044
50
101.6440918
51
144.514236
0
ARC
8
DEFAULT_255_1_234
10
17.713127
20
0.0737069
40
0.4604934
50
89.5284041
51
102.5819763
0
ARC
8
DEFAULT_255_1_234
10
17.7210357
20
0.0698018
40
0.464401
50
77.0437873
51
90.5081339
0
ARC
8
DEFAULT_255_1_234
10
17.7612359
20
0.2340615
40
0.2953195
50
48.2778575
51
77.4994676
0
ARC
8
DEFAULT_255_1_234
10
17.768499
20
0.2469746
40
0.2808655
50
36.3142134
51
47.6305865
0
ARC
8
DEFAULT_255_1_234
10
17.6816297
20
0.1884515
40
0.3855453
50
18.2931786
51
35.6769206
0
ARC
8
DEFAULT_255_1_234
10
17.4273056
20
0.1011593
40
0.654423
50
8.024666
51
18.5605216
0
ARC
8
DEFAULT_255_1_234
10
17.0109976
20
0.0396792
40
1.0752407
50
1.1274072
51
8.1718305
0
ARC
8
DEFAULT_255_1_234
10
16.6874167
20
0.0269885
40
1.3990231
50
0.5424119
51
1.3863029
0
ARC
8
DEFAULT_255_1_234
10
16.8695545
20
0.0542342
40
1.0682415
50
359.8090433
51
4.9407866
0
ARC
8
DEFAULT_255_1_234
10
17.2905559
20
0.0918113
40
0.6455691
50
4.8362157
51
12.2904523
0
ARC
8
DEFAULT_255_1_234
10
17.5660673
20
0.1531965
40
0.3633074
50
12.0805627
51
23.8173984
0
ARC
8
DEFAULT_255_1_234
10
17.6834379
20
0.2028919
40
0.2358723
50
24.2871213
51
31.3935614
0
ARC
8
DEFAULT_255_1_234
10
17.7359076
20
0.2372233
40
0.1732111
50
30.7407893
51
82.4657128
0
ARC
8
DEFAULT_255_1_234
10
17.717921
20
0.1488691
40
0.263235
50
81.1060089
51
90.2184952
0
ARC
8
DEFAULT_255_1_234
10
17.7143509
20
0.1746924
40
0.2374236
50
89.3806855
51
105.6762551
0
ARC
8
DEFAULT_255_1_234
10
17.696014
20
0.2413567
40
0.1682847
50
105.7981136
51
149.7388061
0
ARC
8
DEFAULT_255_1_234
10
17.8024218
20
0.177395
40
0.2924306
50
149.4208916
51
163.6286378
0
ARC
8
DEFAULT_255_1_234
10
18.0115106
20
0.113625
40
0.5110213
50
163.3763315
51
172.1410975
0
ARC
8
DEFAULT_255_1_234
10
18.3415825
20
0.0663518
40
0.8444586
50
172.0259487
51
178.0703232
0
ARC
8
DEFAULT_255_1_234
10
18.6445915
20
0.0519906
40
1.1477868
50
177.8631668
51
179.5044149
0
ARC
8
DEFAULT_255_1_234
10
18.5373319
20
-0.1794611
40
1.0404907
50
179.7995573
51
185.2460446
0
ARC
8
DEFAULT_255_1_234
10
18.1330358
20
-0.2177487
40
0.6343885
50
185.1411642
51
193.0079639
0
ARC
8
DEFAULT_255_1_234
10
17.8686831
20
-0.2802359
40
0.3627568
50
192.7897626
51
205.2507664
0
ARC
8
DEFAULT_255_1_234
10
17.7640378
20
-0.3269585
40
0.2481908
50
205.8005384
51
211.2537509
0
ARC
8
DEFAULT_255_1_234
10
17.7116818
20
-0.362042
40
0.1852521
50
210.3789793
51
238.4008143
0
ARC
8
DEFAULT_255_1_234
10
17.709734
20
-0.3573624
40
0.1882621
50
239.6520629
51
265.9793761
0
ARC
8
DEFAULT_255_1_234
10
17.718254
20
-0.2901573
40
0.2559272
50
265.1315437
51
270.060332
0
ARC
8
DEFAULT_255_1_234
10
17.7211319
20
-0.3225466
40
0.2235528
50
269.3314664
51
287.2178029
0
ARC
8
DEFAULT_255_1_234
10
17.7349171
20
-0.3728721
40
0.1714108
50
287.7958004
51
329.080874
0
ARC
8
DEFAULT_255_1_234
10
17.6391628
20
-0.313107
40
0.2842745
50
328.6634704
51
343.3325132
0
ARC
8
DEFAULT_255_1_234
10
17.4218648
20
-0.2454137
40
0.5118644
50
343.0499468
51
351.9393422
0
ARC
8
DEFAULT_255_1_234
10
17.0751948
20
-0.1943051
40
0.8622784
50
351.8069023
51
357.7959224
0
ARC
8
DEFAULT_255_1_234
10
16.7516504
20
-0.1775279
40
1.1862365
50
357.5871873
51
359.2677531
0
LINE
8
DEFAULT_255_1_234
10
19.0100271
20
0.0402327
11
19.0100271
21
-0.1525291
0
LINE
8
DEFAULT_255_1_234
10
18.2719103
20
-0.1726084
11
18.2719103
21
0.0257755
0
LINE
8
DEFAULT_255_1_234
10
18.8614399
20
-0.1926877
11
18.8614399
21
0.0506739
0
LINE
8
DEFAULT_255_1_234
10
18.4204975
20
0.0619184
11
18.4204975
21
-0.1758211
0
ARC
8
DEFAULT_255_1_234
10
17.785316
20
-0.1574195
40
1.2247208
50
353.8441951
51
0.2287902
0
ARC
8
DEFAULT_255_1_234
10
18.2492664
20
-0.2092194
40
0.7578929
50
344.4934747
51
353.9765454
0
ARC
8
DEFAULT_255_1_234
10
18.5485254
20
-0.2943019
40
0.4467846
50
329.2803592
51
344.7472793
0
ARC
8
DEFAULT_255_1_234
10
18.6478079
20
-0.3487982
40
0.3336173
50
324.9352394
51
328.6160465
0
ARC
8
DEFAULT_255_1_234
10
18.6855188
20
-0.3751573
40
0.2876076
50
280.580143
51
324.9173126
0
ARC
8
DEFAULT_255_1_234
10
18.645398
20
-0.2080901
40
0.4592847
50
269.5977311
51
281.6734359
0
ARC
8
DEFAULT_255_1_234
10
18.6381886
20
-0.2200827
40
0.4472986
50
256.6228859
51
270.51044
0
ARC
8
DEFAULT_255_1_234
10
18.5979864
20
-0.3749123
40
0.2873874
50
215.8618325
51
257.2788573
0
ARC
8
DEFAULT_255_1_234
10
18.7000895
20
-0.3064023
40
0.4102928
50
197.9693508
51
215.2623606
0
ARC
8
DEFAULT_255_1_234
10
18.9486011
20
-0.2225291
40
0.6725652
50
187.8816417
51
198.2346507
0
ARC
8
DEFAULT_255_1_234
10
19.3444219
20
-0.1653921
40
1.0724845
50
180.8976217
51
188.0055519
0
ARC
8
DEFAULT_255_1_234
10
19.6244407
20
-0.1550223
40
1.3526448
50
180.7449369
51
181.1510016
0
ARC
8
DEFAULT_255_1_234
10
19.4667136
20
0.0306042
40
1.1948131
50
173.7675579
51
180.231553
0
ARC
8
DEFAULT_255_1_234
10
19.0149283
20
0.0816666
40
0.7401564
50
164.3058563
51
173.9002247
0
ARC
8
DEFAULT_255_1_234
10
18.7237352
20
0.1655656
40
0.4371288
50
148.7922025
51
164.568378
0
ARC
8
DEFAULT_255_1_234
10
18.6285804
20
0.2186929
40
0.3282386
50
144.5883898
51
148.1176286
0
ARC
8
DEFAULT_255_1_234
10
18.5942702
20
0.2426315
40
0.2864044
50
101.6440918
51
144.514236
0
ARC
8
DEFAULT_255_1_234
10
18.6367769
20
0.0737069
40
0.4604934
50
89.5284041
51
102.5819763
0
ARC
8
DEFAULT_255_1_234
10
18.6446856
20
0.0698018
40
0.464401
50
77.0437873
51
90.5081339
0
ARC
8
DEFAULT_255_1_234
10
18.6848858
20
0.2340615
40
0.2953195
50
48.2778575
51
77.4994676
0
ARC
8
DEFAULT_255_1_234
10
18.6921489
20
0.2469746
40
0.2808655
50
36.3142134
51
47.6305865
0
ARC
8
DEFAULT_255_1_234
10
18.6052796
20
0.1884515
40
0.3855453
50
18.2931786
51
35.6769206
0
ARC
8
DEFAULT_255_1_234
10
18.3509555
20
0.1011593
40
0.654423
50
8.024666
51
18.5605216
0
ARC
8
DEFAULT_255_1_234
10
17.9346475
20
0.0396792
40
1.0752407
50
1.1274072
51
8.1718305
0
ARC
8
DEFAULT_255_1_234
10
17.6110666
20
0.0269885
40
1.3990231
50
0.5424119
51
1.3863029
0
ARC
8
DEFAULT_255_1_234
10
17.7932044
20
0.0542342
40
1.0682415
50
359.8090433
51
4.9407866
0
ARC
8
DEFAULT_255_1_234
10
18.2142058
20
0.0918113
40
0.6455691
50
4.8362157
51
12.2904523
0
ARC
8
DEFAULT_255_1_234
10
18.4897172
20
0.1531965
40
0.3633074
50
12.0805627
51
23.8173984
0
ARC
8
DEFAULT_255_1_234
10
18.6070878
20
0.2028919
40
0.2358723
50
24.2871213
51
31.3935614
0
ARC
8
DEFAULT_255_1_234
10
18.6595575
20
0.2372233
40
0.1732111
50
30.7407893
51
82.4657128
0
ARC
8
DEFAULT_255_1_234
10
18.6415709
20
0.1488691
40
0.263235
50
81.1060089
51
90.2184952
0
ARC
8
DEFAULT_255_1_234
10
18.6380008
20
0.1746924
40
0.2374236
50
89.3806855
51
105.6762551
0
ARC
8
DEFAULT_255_1_234
10
18.6196639
20
0.2413567
40
0.1682847
50
105.7981136
51
149.7388061
0
ARC
8
DEFAULT_255_1_234
10
18.7260717
20
0.177395
40
0.2924306
50
149.4208916
51
163.6286378
0
ARC
8
DEFAULT_255_1_234
10
18.9351605
20
0.113625
40
0.5110213
50
163.3763315
51
172.1410975
0
ARC
8
DEFAULT_255_1_234
10
19.2652324
20
0.0663518
40
0.8444586
50
172.0259487
51
178.0703232
0
ARC
8
DEFAULT_255_1_234
10
19.5682414
20
0.0519906
40
1.1477868
50
177.8631668
51
179.5044149
0
ARC
8
DEFAULT_255_1_234
10
19.4609818
20
-0.1794611
40
1.0404907
50
179.7995573
51
185.2460446
0
ARC
8
DEFAULT_255_1_234
10
19.0566857
20
-0.2177487
40
0.6343885
50
185.1411642
51
193.0079639
0
ARC
8
DEFAULT_255_1_234
10
18.792333
20
-0.2802359
40
0.3627568
50
192.7897626
51
205.2507664
0
ARC
8
DEFAULT_255_1_234
10
18.6876877
20
-0.3269585
40
0.2481908
50
205.8005384
51
211.2537509
0
ARC
8
DEFAULT_255_1_234
10
18.6353317
20
-0.362042
40
0.1852521
50
210.3789793
51
238.4008143
0
ARC
8
DEFAULT_255_1_234
10
18.6333839
20
-0.3573624
40
0.1882621
50
239.6520629
51
265.9793761
0
ARC
8
DEFAULT_255_1_234
10
18.6419039
20
-0.2901573
40
0.2559272
50
265.1315437
51
270.060332
0
ARC
8
DEFAULT_255_1_234
10
18.6447818
20
-0.3225466
40
0.2235528
50
269.3314664
51
287.2178029
0
ARC
8
DEFAULT_255_1_234
10
18.658567
20
-0.3728721
40
0.1714108
50
287.7958004
51
329.080874
0
ARC
8
DEFAULT_255_1_234
10
18.5628127
20
-0.313107
40
0.2842745
50
328.6634704
51
343.3325132
0
ARC
8
DEFAULT_255_1_234
10
18.3455147
20
-0.2454137
40
0.5118644
50
343.0499468
51
351.9393422
0
ARC
8
DEFAULT_255_1_234
10
17.9988447
20
-0.1943051
40
0.8622784
50
351.8069023
51
357.7959224
0
ARC
8
DEFAULT_255_1_234
10
17.6753003
20
-0.1775279
40
1.1862365
50
357.5871873
51
359.2677531
0
ARC
8
DEFAULT_255_2_778
10
13.4953021
20
26.2610533
40
2.3035416
50
339.8907409
51
346.994376
0
ARC
8
DEFAULT_255_2_778
10
14.4646357
20
25.9009276
40
1.2694939
50
328.7691853
51
340.1120733
0
ARC
8
DEFAULT_255_2_778
10
14.9922733
20
25.5742249
40
0.6489533
50
308.240385
51
329.2799976
0
ARC
8
DEFAULT_255_2_778
10
15.1335254
20
25.4053956
40
0.42897
50
290.2149747
51
307.3797345
0
ARC
8
DEFAULT_255_2_778
10
14.8550836
20
25.6680832
40
0.5085768
50
279.0582472
51
335.0254579
0
ARC
8
DEFAULT_255_2_778
10
14.4035606
20
25.9163036
40
1.0232605
50
333.100566
51
347.4967948
0
ARC
8
DEFAULT_255_2_778
10
13.9267879
20
26.0402273
40
1.515659
50
346.8251736
51
349.6433145
0
ARC
8
DEFAULT_255_2_778
10
16.7325297
20
26.3127541
40
0.6340004
50
90.2418805
51
180.4975197
0
ARC
8
DEFAULT_255_2_778
10
16.7271765
20
26.312754
40
0.6340006
50
359.5024881
51
89.7581009
0
ARC
8
DEFAULT_255_2_778
10
16.7271768
20
26.3017436
40
0.6340003
50
270.2418684
51
0.4975336
0
ARC
8
DEFAULT_255_2_778
10
16.7325299
20
26.3017437
40
0.6340005
50
179.5024805
51
269.758104
0
ARC
8
DEFAULT_255_2_778
10
17.1189581
20
26.3271235
40
0.5748535
50
158.6224664
51
180.7450103
0
ARC
8
DEFAULT_255_2_778
10
16.8143054
20
26.4541995
40
0.2449488
50
125.6968143
51
160.3264119
0
ARC
8
DEFAULT_255_2_778
10
16.7310393
20
26.5609868
40
0.1097683
50
90.6191325
51
122.9231799
0
ARC
8
DEFAULT_255_2_778
10
16.7161984
20
26.5228461
40
0.1485318
50
26.6299238
51
84.7252528
0
ARC
8
DEFAULT_255_2_778
10
16.4561415
20
26.357402
40
0.4562354
50
6.9672199
51
30.5675002
0
ARC
8
DEFAULT_255_2_778
10
16.261361
20
26.3204325
40
0.6541928
50
359.9313724
51
8.1119436
0
ARC
8
DEFAULT_255_2_778
10
16.3407903
20
26.3122075
40
0.5748111
50
338.6217917
51
0.7417631
0
ARC
8
DEFAULT_255_2_778
10
16.6452775
20
26.1851776
40
0.2450776
50
305.7107467
51
340.3279893
0
ARC
8
DEFAULT_255_2_778
10
16.7286626
20
26.0782757
40
0.1097331
50
270.6216799
51
302.9378787
0
ARC
8
DEFAULT_255_2_778
10
16.7435343
20
26.1164636
40
0.148546
50
206.6181959
51
264.7155805
0
ARC
8
DEFAULT_255_2_778
10
17.0037331
20
26.2819852
40
0.456409
50
186.9714802
51
210.5628916
0
ARC
8
DEFAULT_255_2_778
10
17.1979553
20
26.3188721
40
0.6538026
50
179.9319269
51
188.1143536
0
ARC
8
DEFAULT_255_2_778
10
14.2076298
20
26.3127541
40
0.6340005
50
90.2418914
51
180.4975151
0
ARC
8
DEFAULT_255_2_778
10
14.2022765
20
26.312754
40
0.6340006
50
359.5024881
51
89.7581009
0
ARC
8
DEFAULT_255_2_778
10
14.2022768
20
26.3017436
40
0.6340003
50
270.2418684
51
0.4975336
0
ARC
8
DEFAULT_255_2_778
10
14.2076299
20
26.3017437
40
0.6340005
50
179.5024805
51
269.758104
0
ARC
8
DEFAULT_255_2_778
10
14.5935296
20
26.3271068
40
0.5744248
50
158.6039448
51
180.7439081
0
ARC
8
DEFAULT_255_2_778
10
14.2894145
20
26.454083
40
0.2450547
50
125.6846154
51
160.3063409
0
ARC
8
DEFAULT_255_2_778
10
14.2061439
20
26.560937
40
0.1098183
50
90.6212609
51
122.9155624
0
ARC
8
DEFAULT_255_2_778
10
14.1912984
20
26.5228461
40
0.1485318
50
26.6299238
51
84.7252528
0
ARC
8
DEFAULT_255_2_778
10
13.9312415
20
26.357402
40
0.4562354
50
6.9672199
51
30.5675002
0
ARC
8
DEFAULT_255_2_778
10
13.736461
20
26.3204325
40
0.6541928
50
359.9313724
51
8.1119436
0
ARC
8
DEFAULT_255_2_778
10
13.8158903
20
26.3122075
40
0.5748111
50
338.6217917
51
0.7417631
0
ARC
8
DEFAULT_255_2_778
10
14.1203775
20
26.1851776
40
0.2450776
50
305.7107467
51
340.3279893
0
ARC
8
DEFAULT_255_2_778
10
14.2037626
20
26.0782757
40
0.1097331
50
270.6216799
51
302.9378787
0
ARC
8
DEFAULT_255_2_778
10
14.2183015
20
26.1157507
40
0.1478058
50
207.0367178
51
264.8185874
0
ARC
8
DEFAULT_255_2_778
10
14.4731143
20
26.2799943
40
0.4504617
50
187.4901111
51
210.9147812
0
ARC
8
DEFAULT_255_2_778
10
14.6699142
20
26.3187625
40
0.6507616
50
179.9219565
51
188.6157011
0
LINE
8
DEFAULT_255_2_778
10
14.8857532
20
26.9216489
11
15.3807532
21
26.9216489
0
LINE
8
DEFAULT_255_2_778
10
15.3807532
20
26.9216489
11
15.5540532
21
26.2569489
0
LINE
8
DEFAULT_255_2_778
10
15.5540532
20
26.2569489
11
15.7397532
21
26.9340489
0
LINE
8
DEFAULT_255_2_778
10
15.7397532
20
26.9340489
11
16.0369532
21
26.8462489
0
LINE
8
DEFAULT_255_2_778
10
16.0369532
20
26.8462489
11
15.7397532
21
25.7426489
0
LINE
8
DEFAULT_255_2_778
10
15.2817532
20
25.0028489
11
14.9351532
21
25.1658489
0
LINE
8
DEFAULT_255_2_778
10
15.4177532
20
25.7677489
11
15.2074532
21
25.7677489
0
LINE
8
DEFAULT_255_2_778
10
15.2074532
20
25.7677489
11
14.8857532
21
26.9216489
0
LINE
8
DEFAULT_255_2_778
10
16.0985532
20
26.3072489
11
16.0985532
21
26.3072489
0
LINE
8
DEFAULT_255_2_778
10
16.5441532
20
26.3196489
11
16.5441532
21
26.3196489
0
LINE
8
DEFAULT_255_2_778
10
13.5736532
20
26.3072489
11
13.5736532
21
26.3072489
0
LINE
8
DEFAULT_255_2_778
10
14.0191532
20
26.3196489
11
14.0191532
21
26.3196489
0
LINE
8
DEFAULT_255_2_778
10
12.0390532
20
27.6489489
11
12.5835532
21
27.6489489
0
LINE
8
DEFAULT_255_2_778
10
12.5835532
20
27.6489489
11
12.5835532
21
26.9216489
0
LINE
8
DEFAULT_255_2_778
10
12.5835532
20
26.9216489
11
13.0291532
21
27.6489489
0
LINE
8
DEFAULT_255_2_778
10
13.0291532
20
27.6489489
11
13.4995532
21
27.6489489
0
LINE
8
DEFAULT_255_2_778
10
13.4995532
20
27.6489489
11
12.9796532
21
26.7961489
0
LINE
8
DEFAULT_255_2_778
10
12.9796532
20
26.7961489
11
13.5985532
21
25.7428489
0
LINE
8
DEFAULT_255_2_778
10
13.5985532
20
25.7428489
11
13.0291532
21
25.7428489
0
LINE
8
DEFAULT_255_2_778
10
13.0291532
20
25.7428489
11
12.5586532
21
26.5453489
0
LINE
8
DEFAULT_255_2_778
10
12.5586532
20
26.5453489
11
12.5586532
21
25.7428489
0
LINE
8
DEFAULT_255_2_778
10
12.5586532
20
25.7428489
11
12.0390532
21
25.7428489
0
LINE
8
DEFAULT_255_2_778
10
12.0390532
20
25.7428489
11
12.0390532
21
27.6489489
0
LINE
8
DEFAULT_255_1_234
10
8.5810154
20
22.4997
11
8.2573364
21
22.4997
0
LINE
8
DEFAULT_255_1_234
10
8.2573364
20
22.4997
11
8.2573364
21
23.6691211
0
LINE
8
DEFAULT_255_1_234
10
8.2573364
20
23.6691211
11
8.5874408
21
23.6691211
0
LINE
8
DEFAULT_255_1_234
10
9.1030784
20
23.1237661
11
9.1030784
21
23.0490709
0
LINE
8
DEFAULT_255_1_234
10
8.5914567
20
23.5422196
11
8.4115458
21
23.5422196
0
LINE
8
DEFAULT_255_1_234
10
8.4115458
20
23.5422196
11
8.4115458
21
22.6257983
0
LINE
8
DEFAULT_255_1_234
10
8.4115458
20
22.6257983
11
8.5737869
21
22.6257983
0
LINE
8
DEFAULT_255_1_234
10
8.9504754
20
23.0522836
11
8.9504754
21
23.1205534
0
ARC
8
DEFAULT_255_1_234
10
8.5913351
20
23.0825894
40
0.5865446
50
75.4101064
51
90.3804066
0
ARC
8
DEFAULT_255_1_234
10
8.6142864
20
23.1782492
40
0.4881916
50
60.145586
51
75.1888407
0
ARC
8
DEFAULT_255_1_234
10
8.630164
20
23.2059199
40
0.4562893
50
26.5253612
51
60.1450928
0
ARC
8
DEFAULT_255_1_234
10
8.5181389
20
23.1465158
40
0.5830602
50
7.4030428
51
26.8320788
0
ARC
8
DEFAULT_255_1_234
10
8.3587146
20
23.1216804
40
0.7443669
50
0.1605367
51
7.7176192
0
ARC
8
DEFAULT_255_1_234
10
8.375105
20
23.0452434
40
0.7279835
50
348.7289388
51
0.3012466
0
ARC
8
DEFAULT_255_1_234
10
8.5407481
20
23.0123386
40
0.559104
50
333.0706509
51
348.7181832
0
ARC
8
DEFAULT_255_1_234
10
8.6374238
20
22.9598319
40
0.4491417
50
299.2531685
51
333.4571258
0
ARC
8
DEFAULT_255_1_234
10
8.6013378
20
23.0283828
40
0.5265881
50
278.107187
51
299.0339503
0
ARC
8
DEFAULT_255_1_234
10
8.5757457
20
23.1791216
40
0.679442
50
270.4443897
51
278.4511052
0
ARC
8
DEFAULT_255_1_234
10
8.5778287
20
23.0862213
40
0.4604407
50
269.4970433
51
284.0205042
0
ARC
8
DEFAULT_255_1_234
10
8.6133588
20
22.9496978
40
0.3193797
50
283.7700273
51
318.1555492
0
ARC
8
DEFAULT_255_1_234
10
8.5796346
20
22.9749367
40
0.3613588
50
318.7415601
51
343.6873628
0
ARC
8
DEFAULT_255_1_234
10
8.3992369
20
23.0312832
40
0.5503313
50
343.3325091
51
355.8548958
0
ARC
8
DEFAULT_255_1_234
10
8.1894054
20
23.0512319
40
0.7610708
50
355.4988528
51
0.0791727
0
ARC
8
DEFAULT_255_1_234
10
8.2676676
20
23.124778
40
0.6828208
50
359.6455037
51
9.8607896
0
ARC
8
DEFAULT_255_1_234
10
8.5037374
20
23.1674099
40
0.4429406
50
9.6571907
51
26.1932807
0
ARC
8
DEFAULT_255_1_234
10
8.5965363
20
23.2105118
40
0.3406537
50
26.5777228
51
40.1532208
0
ARC
8
DEFAULT_255_1_234
10
8.6221089
20
23.2304619
40
0.308246
50
40.3840491
51
80.1431104
0
ARC
8
DEFAULT_255_1_234
10
8.5894207
20
23.0855333
40
0.4566909
50
79.2152159
51
89.7445637
0
LINE
8
DEFAULT_255_1_234
10
9.4741447
20
23.3687341
11
9.4741447
21
22.4997
0
LINE
8
DEFAULT_255_1_234
10
9.4741447
20
22.4997
11
9.3255576
21
22.4997
0
LINE
8
DEFAULT_255_1_234
10
9.3255576
20
22.4997
11
9.3255576
21
23.3687341
0
LINE
8
DEFAULT_255_1_234
10
9.3255576
20
23.3687341
11
9.4741447
21
23.3687341
0
ARC
8
DEFAULT_255_1_234
10
9.4113724
20
23.6001889
40
0.097867
50
161.415052
51
180.5526306
0
ARC
8
DEFAULT_255_1_234
10
9.3989503
20
23.6036077
40
0.0850062
50
138.1827368
51
160.9307106
0
ARC
8
DEFAULT_255_1_234
10
9.3879448
20
23.6131588
40
0.0704362
50
104.6368899
51
138.0039868
0
ARC
8
DEFAULT_255_1_234
10
9.3986603
20
23.5764963
40
0.1086221
50
92.0600725
51
105.2189128
0
ARC
8
DEFAULT_255_1_234
10
9.4009951
20
23.5422117
40
0.1429728
50
89.9756393
51
92.5012496
0
ARC
8
DEFAULT_255_1_234
10
9.4019971
20
23.5647731
40
0.1204151
50
78.0235316
51
90.4478182
0
ARC
8
DEFAULT_255_1_234
10
9.4112062
20
23.6061295
40
0.0780493
50
55.051506
51
78.3369085
0
ARC
8
DEFAULT_255_1_234
10
9.4162337
20
23.6145711
40
0.0682538
50
42.0501187
51
54.4513741
0
ARC
8
DEFAULT_255_1_234
10
9.4027204
20
23.6021798
40
0.0865878
50
1.7497075
51
42.1496013
0
ARC
8
DEFAULT_255_1_234
10
9.3772537
20
23.5992738
40
0.1121515
50
359.9852656
51
2.8364544
0
ARC
8
DEFAULT_255_1_234
10
9.3938529
20
23.5983229
40
0.0955566
50
342.1070653
51
0.552888
0
ARC
8
DEFAULT_255_1_234
10
9.4081226
20
23.5943904
40
0.0807713
50
316.7107116
51
341.6516965
0
ARC
8
DEFAULT_255_1_234
10
9.4148263
20
23.5883823
40
0.0717724
50
285.4397031
51
316.5324284
0
ARC
8
DEFAULT_255_1_234
10
9.4038181
20
23.6249554
40
0.1099597
50
272.3547054
51
285.8953117
0
ARC
8
DEFAULT_255_1_234
10
9.4011338
20
23.6615048
40
0.1465932
50
269.9695369
51
272.8160237
0
ARC
8
DEFAULT_255_1_234
10
9.400152
20
23.6395863
40
0.1246779
50
258.8431134
51
270.4153935
0
ARC
8
DEFAULT_255_1_234
10
9.3911562
20
23.5960414
40
0.0802162
50
238.5431189
51
259.1288175
0
ARC
8
DEFAULT_255_1_234
10
9.3843447
20
23.5836856
40
0.0661247
50
222.5062634
51
237.9906969
0
ARC
8
DEFAULT_255_1_234
10
9.3971035
20
23.5952889
40
0.0833707
50
184.1069131
51
222.460413
0
ARC
8
DEFAULT_255_1_234
10
9.4240275
20
23.5991349
40
0.1105176
50
179.9429482
51
185.0960898
0
LINE
8
DEFAULT_255_1_234
10
10.1319441
20
23.3735531
11
10.1319441
21
23.2354072
0
LINE
8
DEFAULT_255_1_234
10
9.8604713
20
23.1165375
11
9.8604713
21
22.4997
0
LINE
8
DEFAULT_255_1_234
10
9.8604713
20
22.4997
11
9.7118842
21
22.4997
0
LINE
8
DEFAULT_255_1_234
10
9.7118842
20
22.4997
11
9.7118842
21
23.3687341
0
LINE
8
DEFAULT_255_1_234
10
9.7118842
20
23.3687341
11
9.8564555
21
23.3687341
0
LINE
8
DEFAULT_255_1_234
10
9.8564555
20
23.3687341
11
9.858865
21
23.2683374
0
ARC
8
DEFAULT_255_1_234
10
10.0652846
20
22.8294342
40
0.4114092
50
80.6754243
51
86.8932892
0
ARC
8
DEFAULT_255_1_234
10
10.0592381
20
22.73267
40
0.5083596
50
86.8038578
51
90.0431435
0
ARC
8
DEFAULT_255_1_234
10
10.0555362
20
22.9783866
40
0.2626638
50
89.2759698
51
106.6213787
0
ARC
8
DEFAULT_255_1_234
10
10.0350925
20
23.052683
40
0.1856317
50
107.1346045
51
157.6458115
0
ARC
8
DEFAULT_255_1_234
10
10.1042527
20
23.0143311
40
0.2643398
50
155.6586782
51
157.2539184
0
ARC
8
DEFAULT_255_1_234
10
10.0837729
20
23.1312157
40
0.2634121
50
127.8165941
51
148.6302098
0
ARC
8
DEFAULT_255_1_234
10
10.0584198
20
23.1572218
40
0.2273596
50
91.3329982
51
126.7875809
0
ARC
8
DEFAULT_255_1_234
10
10.0660139
20
23.0857195
40
0.299078
50
89.986594
51
92.4688449
0
ARC
8
DEFAULT_255_1_234
10
10.0668534
20
23.1132078
40
0.2715908
50
85.3589899
51
90.1623399
0
ARC
8
DEFAULT_255_1_234
10
10.0753049
20
23.2136164
40
0.1708278
50
78.401942
51
85.4594656
0
ARC
8
DEFAULT_255_1_234
10
10.0897933
20
23.2827236
40
0.1002194
50
67.7858312
51
78.5728455
0
ARC
8
DEFAULT_255_1_234
10
10.1005786
20
23.3106887
40
0.0702548
50
63.4835954
51
67.3062642
0
LINE
8
DEFAULT_255_1_234
10
10.2154742
20
22.9101218
11
10.2154742
21
22.9374297
0
LINE
8
DEFAULT_255_1_234
10
10.9527877
20
22.9534932
11
10.9527877
21
22.8916488
0
LINE
8
DEFAULT_255_1_234
10
10.9527877
20
22.8916488
11
10.3640613
21
22.8916488
0
LINE
8
DEFAULT_255_1_234
10
10.8507847
20
22.7221792
11
10.9415433
21
22.6514999
0
LINE
8
DEFAULT_255_1_234
10
10.3688804
20
23.0137313
11
10.8042006
21
23.0137313
0
LINE
8
DEFAULT_255_1_234
10
10.8042006
20
23.0137313
11
10.8042006
21
23.0249757
0
ARC
8
DEFAULT_255_1_234
10
10.6094107
20
22.9212332
40
0.4376191
50
252.3266134
51
270.5810217
0
ARC
8
DEFAULT_255_1_234
10
10.5889196
20
22.8471644
40
0.3608374
50
223.3000567
51
251.8561855
0
ARC
8
DEFAULT_255_1_234
10
10.6100556
20
22.8676937
40
0.3902993
50
190.9374509
51
223.3654032
0
ARC
8
DEFAULT_255_1_234
10
10.7825529
20
22.9066885
40
0.5670891
50
179.6531105
51
191.4989439
0
ARC
8
DEFAULT_255_1_234
10
10.7947541
20
22.9406417
40
0.5792888
50
167.4007466
51
180.3176909
0
ARC
8
DEFAULT_255_1_234
10
10.6895603
20
22.9628885
40
0.471777
50
154.1835823
51
167.250763
0
ARC
8
DEFAULT_255_1_234
10
10.626407
20
22.9961417
40
0.4004528
50
134.3149965
51
154.5315275
0
ARC
8
DEFAULT_255_1_234
10
10.6046565
20
23.0152228
40
0.371612
50
122.8616532
51
133.9707695
0
ARC
8
DEFAULT_255_1_234
10
10.5943139
20
23.0374703
40
0.3473289
50
89.8249009
51
123.4199222
0
ARC
8
DEFAULT_255_1_234
10
10.599318
20
22.9727967
40
0.4120197
50
74.7876118
51
90.5482747
0
ARC
8
DEFAULT_255_1_234
10
10.6286924
20
23.081303
40
0.2996077
50
39.8178249
51
74.7633718
0
ARC
8
DEFAULT_255_1_234
10
10.5774244
20
23.0413351
40
0.3645855
50
16.8990863
51
39.4829761
0
ARC
8
DEFAULT_255_1_234
10
10.387954
20
22.9806526
40
0.5635218
50
4.9636328
51
17.2026414
0
ARC
8
DEFAULT_255_1_234
10
10.146161
20
22.955134
40
0.8066286
50
359.8834553
51
5.2834307
0
ARC
8
DEFAULT_255_1_234
10
10.7499135
20
22.8982803
40
0.3859091
50
180.9846213
51
194.9401313
0
ARC
8
DEFAULT_255_1_234
10
10.6449413
20
22.8695849
40
0.2770883
50
194.80314
51
222.0412631
0
ARC
8
DEFAULT_255_1_234
10
10.6145294
20
22.8394116
40
0.2343055
50
221.5417084
51
268.8614402
0
ARC
8
DEFAULT_255_1_234
10
10.6218289
20
22.9070686
40
0.3021528
50
267.732405
51
270.0097136
0
ARC
8
DEFAULT_255_1_234
10
10.6236099
20
22.9272105
40
0.3222994
50
269.6924892
51
280.4117579
0
ARC
8
DEFAULT_255_1_234
10
10.6412506
20
22.8353193
40
0.2287344
50
280.2255091
51
298.6338936
0
ARC
8
DEFAULT_255_1_234
10
10.6529298
20
22.8109223
40
0.2017294
50
299.0430333
51
300.4643464
0
ARC
8
DEFAULT_255_1_234
10
10.5849303
20
22.9243038
40
0.3339357
50
300.6577328
51
322.0378878
0
ARC
8
DEFAULT_255_1_234
10
10.5498842
20
22.9547021
40
0.3802736
50
321.6750233
51
322.3046845
0
ARC
8
DEFAULT_255_1_234
10
10.6429804
20
22.838037
40
0.3520454
50
276.9728461
51
328.0035423
0
ARC
8
DEFAULT_255_1_234
10
10.6152857
20
22.9860841
40
0.5024498
50
269.8361028
51
278.0581756
0
ARC
8
DEFAULT_255_1_234
10
10.5925594
20
23.0605757
40
0.202159
50
89.2018686
51
117.2851756
0
ARC
8
DEFAULT_255_1_234
10
10.5978763
20
23.0563752
40
0.2083484
50
118.0551165
51
137.4540413
0
ARC
8
DEFAULT_255_1_234
10
10.6353503
20
23.0223304
40
0.2589774
50
137.5109581
51
158.8516286
0
ARC
8
DEFAULT_255_1_234
10
10.7491339
20
22.9764074
40
0.38167
50
158.5845963
51
170.1721436
0
ARC
8
DEFAULT_255_1_234
10
10.8660728
20
22.9531823
40
0.5008657
50
169.8376422
51
173.0566086
0
ARC
8
DEFAULT_255_1_234
10
10.3963802
20
23.0042509
40
0.4083467
50
2.9091802
51
12.8847116
0
ARC
8
DEFAULT_255_1_234
10
10.5334478
20
23.0365101
40
0.2675383
50
12.6957781
51
28.6404489
0
ARC
8
DEFAULT_255_1_234
10
10.5876149
20
23.0645458
40
0.2065654
50
29.0169854
51
41.1487595
0
ARC
8
DEFAULT_255_1_234
10
10.6078934
20
23.0822003
40
0.1796786
50
41.1646065
51
85.0013516
0
ARC
8
DEFAULT_255_1_234
10
10.5958031
20
23.0087431
40
0.2539726
50
83.7280015
51
90.0964893
0
LINE
8
DEFAULT_255_1_234
10
11.6780537
20
22.7735823
11
11.8186091
21
22.7735823
0
LINE
8
DEFAULT_255_1_234
10
11.0861146
20
22.9261853
11
11.0861146
21
22.9510837
0
LINE
8
DEFAULT_255_1_234
10
11.8186091
20
23.0699534
11
11.6780537
21
23.0699534
0
LINE
8
DEFAULT_255_1_234
10
11.2347018
20
22.9454615
11
11.2347018
21
22.9173504
0
ARC
8
DEFAULT_255_1_234
10
11.4768572
20
22.8189121
40
0.2140268
50
269.0327816
51
309.2224514
0
ARC
8
DEFAULT_255_1_234
10
11.4978327
20
22.7974108
40
0.1841255
50
308.396669
51
329.6984113
0
ARC
8
DEFAULT_255_1_234
10
11.5116182
20
22.786982
40
0.166974
50
330.401383
51
355.3970571
0
ARC
8
DEFAULT_255_1_234
10
11.5573048
20
22.7887082
40
0.2617417
50
329.2357853
51
356.6870514
0
ARC
8
DEFAULT_255_1_234
10
11.502307
20
22.8177971
40
0.3238945
50
324.8706984
51
329.7905871
0
ARC
8
DEFAULT_255_1_234
10
11.4944788
20
22.8245106
40
0.3341614
50
298.8769168
51
324.7016144
0
ARC
8
DEFAULT_255_1_234
10
11.461298
20
22.8773917
40
0.3965068
50
296.9023738
51
299.385174
0
ARC
8
DEFAULT_255_1_234
10
11.4742593
20
22.8486422
40
0.365007
50
269.8406811
51
297.1299281
0
ARC
8
DEFAULT_255_1_234
10
11.468925
20
22.9124407
40
0.4288259
50
253.315473
51
270.5771285
0
ARC
8
DEFAULT_255_1_234
10
11.4442285
20
22.8230739
40
0.3361372
50
221.1002312
51
252.9744583
0
ARC
8
DEFAULT_255_1_234
10
11.4902282
20
22.862559
40
0.3967576
50
194.5394537
51
221.0302238
0
ARC
8
DEFAULT_255_1_234
10
11.6751103
20
22.9140952
40
0.5886672
50
182.0499201
51
194.8773585
0
ARC
8
DEFAULT_255_1_234
10
11.8521302
20
22.925906
40
0.7660157
50
179.9791086
51
182.4591564
0
ARC
8
DEFAULT_255_1_234
10
11.6783346
20
22.9540498
40
0.5922274
50
168.614861
51
180.2869651
0
ARC
8
DEFAULT_255_1_234
10
11.5581491
20
22.9776269
40
0.4697532
50
154.9162259
51
168.5402336
0
ARC
8
DEFAULT_255_1_234
10
11.4659998
20
23.023163
40
0.3669966
50
133.5746694
51
155.2558665
0
ARC
8
DEFAULT_255_1_234
10
11.4497157
20
23.0370467
40
0.3457206
50
122.0165146
51
133.2055214
0
ARC
8
DEFAULT_255_1_234
10
11.4532996
20
23.0282361
40
0.355095
50
97.8731644
51
121.7531281
0
ARC
8
DEFAULT_255_1_234
10
11.4712078
20
22.9225159
40
0.4622833
50
89.8471353
51
98.2769494
0
ARC
8
DEFAULT_255_1_234
10
11.4760831
20
22.9835091
40
0.401305
50
73.3760412
51
90.5199766
0
ARC
8
DEFAULT_255_1_234
10
11.4957194
20
23.0557516
40
0.3264695
50
47.7085968
51
73.0509704
0
ARC
8
DEFAULT_255_1_234
10
11.5087065
20
23.0670128
40
0.309407
50
3.7443473
51
48.0843753
0
ARC
8
DEFAULT_255_1_234
10
11.4100014
20
23.0512614
40
0.4090351
50
2.6192045
51
5.0432185
0
ARC
8
DEFAULT_255_1_234
10
11.4556867
20
23.0552592
40
0.2228519
50
3.780656
51
23.9356886
0
ARC
8
DEFAULT_255_1_234
10
11.4785484
20
23.0633155
40
0.198697
50
24.4869552
51
46.9440088
0
ARC
8
DEFAULT_255_1_234
10
11.4786334
20
23.0656484
40
0.1969404
50
46.498716
51
89.3298174
0
ARC
8
DEFAULT_255_1_234
10
11.4724688
20
23.0061723
40
0.2565428
50
88.1083975
51
90.0061569
0
ARC
8
DEFAULT_255_1_234
10
11.4697118
20
23.0115759
40
0.251154
50
89.3773333
51
107.2071161
0
ARC
8
DEFAULT_255_1_234
10
11.4554241
20
23.063319
40
0.1975072
50
107.6883219
51
143.3583002
0
ARC
8
DEFAULT_255_1_234
10
11.5121625
20
23.0206873
40
0.2684762
50
143.2846717
51
162.935323
0
ARC
8
DEFAULT_255_1_234
10
11.6627226
20
22.9723652
40
0.4265927
50
162.6650068
51
174.0805419
0
ARC
8
DEFAULT_255_1_234
10
11.8770065
20
22.9474636
40
0.6423078
50
173.8423985
51
180.1785963
0
ARC
8
DEFAULT_255_1_234
10
11.8222165
20
22.9143039
40
0.5875227
50
179.7028978
51
188.2277152
0
ARC
8
DEFAULT_255_1_234
10
11.6120467
20
22.8828247
40
0.3750127
50
188.0629871
51
201.1160002
0
ARC
8
DEFAULT_255_1_234
10
11.5022666
20
22.8409238
40
0.2575093
50
201.2187293
51
216.9761968
0
ARC
8
DEFAULT_255_1_234
10
11.4571229
20
22.8070993
40
0.2010998
50
217.0135981
51
265.2056839
0
ARC
8
DEFAULT_255_1_234
10
11.4727088
20
22.8992695
40
0.2943543
50
263.681807
51
270.104251
0
LINE
8
DEFAULT_255_1_234
10
12.0386788
20
23.5791656
11
12.1872659
21
23.5791656
0
LINE
8
DEFAULT_255_1_234
10
12.1872659
20
23.5791656
11
12.1872659
21
23.3687341
0
LINE
8
DEFAULT_255_1_234
10
12.1872659
20
23.3687341
11
12.349507
21
23.3687341
0
LINE
8
DEFAULT_255_1_234
10
12.349507
20
23.3687341
11
12.349507
21
23.2538802
0
LINE
8
DEFAULT_255_1_234
10
12.349507
20
23.2538802
11
12.1872659
21
23.2538802
0
LINE
8
DEFAULT_255_1_234
10
12.1872659
20
23.2538802
11
12.1872659
21
22.7149506
0
LINE
8
DEFAULT_255_1_234
10
12.3535229
20
22.6201761
11
12.3535229
21
22.4997
0
LINE
8
DEFAULT_255_1_234
10
12.0386788
20
22.7149506
11
12.0386788
21
23.2538802
0
LINE
8
DEFAULT_255_1_234
10
12.0386788
20
23.2538802
11
11.8804535
21
23.2538802
0
LINE
8
DEFAULT_255_1_234
10
11.8804535
20
23.2538802
11
11.8804535
21
23.3687341
0
LINE
8
DEFAULT_255_1_234
10
11.8804535
20
23.3687341
11
12.0386788
21
23.3687341
0
LINE
8
DEFAULT_255_1_234
10
12.0386788
20
23.3687341
11
12.0386788
21
23.5791656
0
ARC
8
DEFAULT_255_1_234
10
12.3880162
20
22.7139084
40
0.200753
50
179.7025659
51
187.917967
0
ARC
8
DEFAULT_255_1_234
10
12.3134188
20
22.7031724
40
0.1253883
50
187.7545981
51
200.2447476
0
ARC
8
DEFAULT_255_1_234
10
12.2713509
20
22.6874859
40
0.0804913
50
200.130383
51
219.174133
0
ARC
8
DEFAULT_255_1_234
10
12.2577686
20
22.6782515
40
0.0641445
50
220.4434483
51
249.6172
0
ARC
8
DEFAULT_255_1_234
10
12.2732536
20
22.7171968
40
0.1060489
50
249.1032952
51
262.775154
0
ARC
8
DEFAULT_255_1_234
10
12.2820708
20
22.7800715
40
0.1695354
50
262.4913187
51
270.2611758
0
ARC
8
DEFAULT_255_1_234
10
12.2818125
20
22.8016103
40
0.191075
50
270.3091804
51
275.6625139
0
ARC
8
DEFAULT_255_1_234
10
12.267535
20
22.9517435
40
0.3418851
50
275.5610264
51
279.0879356
0
ARC
8
DEFAULT_255_1_234
10
12.2345227
20
23.1612699
40
0.5539959
50
279.0365489
51
281.5011378
0
ARC
8
DEFAULT_255_1_234
10
12.1988304
20
23.3416423
40
0.7378639
50
281.4243939
51
282.1017894
0
ARC
8
DEFAULT_255_1_234
10
12.2331551
20
22.9334858
40
0.4501761
50
275.2597045
51
285.5083879
0
ARC
8
DEFAULT_255_1_234
10
12.2392875
20
22.8778606
40
0.3942242
50
270.0268409
51
275.1132796
0
ARC
8
DEFAULT_255_1_234
10
12.237284
20
22.7451614
40
0.261534
50
257.3573315
51
270.479383
0
ARC
8
DEFAULT_255_1_234
10
12.2159731
20
22.6553406
40
0.1692304
50
230.8037497
51
257.741658
0
ARC
8
DEFAULT_255_1_234
10
12.2091635
20
22.6443777
40
0.1564393
50
219.974146
51
230.1990686
0
ARC
8
DEFAULT_255_1_234
10
12.2423581
20
22.6697579
40
0.1981916
50
196.5084186
51
219.4318458
0
ARC
8
DEFAULT_255_1_234
10
12.3439026
20
22.7016194
40
0.3046086
50
184.6404872
51
196.8269686
0
ARC
8
DEFAULT_255_1_234
10
12.4684091
20
22.7141908
40
0.4297309
50
179.8986958
51
184.9681077
0
LINE
8
DEFAULT_255_1_234
10
12.7012972
20
23.6691211
11
12.7012972
21
22.6257983
0
LINE
8
DEFAULT_255_1_234
10
12.7012972
20
22.6257983
11
13.2554871
21
22.6257983
0
LINE
8
DEFAULT_255_1_234
10
13.2554871
20
22.6257983
11
13.2554871
21
22.4997
0
LINE
8
DEFAULT_255_1_234
10
13.2554871
20
22.4997
11
12.5462846
21
22.4997
0
LINE
8
DEFAULT_255_1_234
10
12.5462846
20
22.4997
11
12.5462846
21
23.6691211
0
LINE
8
DEFAULT_255_1_234
10
12.5462846
20
23.6691211
11
12.7012972
21
23.6691211
0
LINE
8
DEFAULT_255_1_234
10
14.2787306
20
23.1205534
11
14.2787306
21
23.0466614
0
LINE
8
DEFAULT_255_1_234
10
13.338214
20
23.0362201
11
13.338214
21
23.1205534
0
LINE
8
DEFAULT_255_1_234
10
14.1253244
20
23.0354169
11
14.1253244
21
23.1221597
0
LINE
8
DEFAULT_255_1_234
10
13.4916202
20
23.132601
11
13.4916202
21
23.0466614
0
ARC
8
DEFAULT_255_1_234
10
13.4145332
20
23.0427015
40
0.8642064
50
350.487711
51
0.2625388
0
ARC
8
DEFAULT_255_1_234
10
13.6438573
20
23.0032578
40
0.631518
50
336.0277639
51
350.5787438
0
ARC
8
DEFAULT_255_1_234
10
13.7783397
20
22.9424892
40
0.4839466
50
319.8877444
51
336.1328423
0
ARC
8
DEFAULT_255_1_234
10
13.8386038
20
22.894258
40
0.4067874
50
302.4806467
51
319.6143626
0
ARC
8
DEFAULT_255_1_234
10
13.8271048
20
22.9164202
40
0.4316636
50
275.8195682
51
302.1884709
0
ARC
8
DEFAULT_255_1_234
10
13.8104681
20
23.0306665
40
0.5470306
50
269.9171439
51
276.3397983
0
ARC
8
DEFAULT_255_1_234
10
13.8059891
20
22.9620681
40
0.4784458
50
252.5219675
51
270.4416499
0
ARC
8
DEFAULT_255_1_234
10
13.791615
20
22.9081592
40
0.422716
50
237.5352116
51
252.1857531
0
ARC
8
DEFAULT_255_1_234
10
13.8005346
20
22.9195363
40
0.4371052
50
209.063312
51
237.3492538
0
ARC
8
DEFAULT_255_1_234
10
13.8875194
20
22.9741685
40
0.5397041
50
205.1183774
51
209.6470015
0
ARC
8
DEFAULT_255_1_234
10
13.9672231
20
23.007983
40
0.6262326
50
188.7215458
51
204.8240747
0
ARC
8
DEFAULT_255_1_234
10
14.1669759
20
23.0416067
40
0.8287794
50
180.3723947
51
188.9252049
0
ARC
8
DEFAULT_255_1_234
10
14.1642511
20
23.1245402
40
0.8260467
50
169.5253763
51
180.2765336
0
ARC
8
DEFAULT_255_1_234
10
13.9739959
20
23.1595309
40
0.6326007
50
155.8315255
51
169.5089989
0
ARC
8
DEFAULT_255_1_234
10
13.8459461
20
23.2189348
40
0.4914567
50
139.6258461
51
156.0379525
0
ARC
8
DEFAULT_255_1_234
10
13.7869794
20
23.2663799
40
0.4158054
50
122.6416387
51
139.3430715
0
ARC
8
DEFAULT_255_1_234
10
13.7970414
20
23.2480451
40
0.4366739
50
93.0223692
51
122.455762
0
ARC
8
DEFAULT_255_1_234
10
13.8078411
20
23.1515709
40
0.5336137
50
89.975342
51
93.6341897
0
ARC
8
DEFAULT_255_1_234
10
13.811719
20
23.1914242
40
0.4937738
50
73.746375
51
90.4233405
0
ARC
8
DEFAULT_255_1_234
10
13.8292769
20
23.2594287
40
0.4235786
50
57.662753
51
73.4518111
0
ARC
8
DEFAULT_255_1_234
10
13.8284775
20
23.2615832
40
0.4221899
50
29.1440151
51
57.414694
0
ARC
8
DEFAULT_255_1_234
10
13.7349969
20
23.2032005
40
0.5322966
50
24.0982783
51
29.7323517
0
ARC
8
DEFAULT_255_1_234
10
13.6316245
20
23.1603399
40
0.6441673
50
8.6655297
51
23.8241346
0
ARC
8
DEFAULT_255_1_234
10
13.4081983
20
23.1238854
40
0.8705386
50
359.7806941
51
8.8218784
0
ARC
8
DEFAULT_255_1_234
10
13.2934981
20
23.1264345
40
0.8318373
50
359.7055579
51
8.036044
0
ARC
8
DEFAULT_255_1_234
10
13.5934987
20
23.1701239
40
0.5286768
50
7.8928306
51
20.2962107
0
ARC
8
DEFAULT_255_1_234
10
13.7562557
20
23.2301395
40
0.3552073
50
20.3231126
51
36.4992797
0
ARC
8
DEFAULT_255_1_234
10
13.8248103
20
23.2829402
40
0.2686974
50
36.1437156
51
85.6627023
0
ARC
8
DEFAULT_255_1_234
10
13.8085649
20
23.1789221
40
0.373739
50
84.3852322
51
90.0757696
0
ARC
8
DEFAULT_255_1_234
10
13.8043322
20
23.2449839
40
0.3076997
50
89.3038458
51
109.9045693
0
ARC
8
DEFAULT_255_1_234
10
13.7950713
20
23.2832062
40
0.2686424
50
110.8228367
51
143.9179474
0
ARC
8
DEFAULT_255_1_234
10
13.8884373
20
23.2119236
40
0.3860887
50
143.5289163
51
163.2980757
0
ARC
8
DEFAULT_255_1_234
10
14.0792194
20
23.1519433
40
0.5860659
50
163.0418846
51
174.3140048
0
ARC
8
DEFAULT_255_1_234
10
14.3196306
20
23.1241854
40
0.8280531
50
174.0509143
51
179.4176892
0
ARC
8
DEFAULT_255_1_234
10
14.2692045
20
23.0424954
40
0.7775954
50
179.6930361
51
188.7906598
0
ARC
8
DEFAULT_255_1_234
10
14.0028524
20
22.9998935
40
0.5078633
50
188.6331305
51
202.5629587
0
ARC
8
DEFAULT_255_1_234
10
13.8774116
20
22.9494996
40
0.3726913
50
202.8081362
51
216.1193925
0
ARC
8
DEFAULT_255_1_234
10
13.7964686
20
22.8843676
40
0.2689577
50
215.0755913
51
264.6379694
0
ARC
8
DEFAULT_255_1_234
10
13.8091635
20
22.9674513
40
0.3528978
50
263.846392
51
270.0833719
0
ARC
8
DEFAULT_255_1_234
10
13.8133026
20
22.9416374
40
0.3271036
50
269.3649385
51
287.5152008
0
ARC
8
DEFAULT_255_1_234
10
13.8311183
20
22.8769238
40
0.2600406
50
288.0630309
51
323.8113348
0
ARC
8
DEFAULT_255_1_234
10
13.7440025
20
22.9419049
40
0.3687189
50
323.6547608
51
342.6590488
0
ARC
8
DEFAULT_255_1_234
10
13.540864
20
23.0079952
40
0.5823286
50
342.4091907
51
353.6451149
0
ARC
8
DEFAULT_255_1_234
10
13.2577151
20
23.043219
40
0.8676442
50
353.4029884
51
359.4847795
0
LINE
8
DEFAULT_255_1_234
10
15.3734565
20
23.082001
11
15.3734565
21
22.6531062
0
LINE
8
DEFAULT_255_1_234
10
14.4722955
20
23.0281884
11
14.4722955
21
23.1301915
0
LINE
8
DEFAULT_255_1_234
10
15.3734565
20
23.3261659
11
15.2192471
21
23.3261659
0
LINE
8
DEFAULT_255_1_234
10
14.627308
20
23.1342073
11
14.627308
21
23.0386296
0
LINE
8
DEFAULT_255_1_234
10
15.2200503
20
22.6940681
11
15.2200503
21
22.9567059
0
LINE
8
DEFAULT_255_1_234
10
15.2200503
20
22.9567059
11
14.9493807
21
22.9567059
0
LINE
8
DEFAULT_255_1_234
10
14.9493807
20
22.9567059
11
14.9493807
21
23.082001
0
LINE
8
DEFAULT_255_1_234
10
14.9493807
20
23.082001
11
15.3734565
21
23.082001
0
ARC
8
DEFAULT_255_1_234
10
15.0903071
20
22.8524396
40
0.3462765
50
295.8437914
51
324.8549609
0
ARC
8
DEFAULT_255_1_234
10
15.0487038
20
22.9277567
40
0.4322211
50
291.5695085
51
296.4549398
0
ARC
8
DEFAULT_255_1_234
10
14.997629
20
23.0642275
40
0.5779178
50
278.6622409
51
291.3045483
0
ARC
8
DEFAULT_255_1_234
10
14.9636781
20
23.2790408
40
0.7953952
50
270.020006
51
278.7494541
0
ARC
8
DEFAULT_255_1_234
10
14.9598705
20
23.4107036
40
0.927067
50
269.9969998
51
270.2524872
0
ARC
8
DEFAULT_255_1_234
10
14.9560418
20
23.0023589
40
0.5187361
50
253.5786322
51
270.4175299
0
ARC
8
DEFAULT_255_1_234
10
14.9387074
20
22.9352236
40
0.4494451
50
238.8203306
51
253.2788235
0
ARC
8
DEFAULT_255_1_234
10
14.9367448
20
22.9301231
40
0.4440665
50
206.7883783
51
238.6962764
0
ARC
8
DEFAULT_255_1_234
10
15.0141358
20
22.9765405
40
0.5341121
50
206.1129412
51
207.4916643
0
ARC
8
DEFAULT_255_1_234
10
15.0738273
20
23.0019488
40
0.5989041
50
188.6921119
51
205.7821245
0
ARC
8
DEFAULT_255_1_234
10
15.2594634
20
23.033523
40
0.7871862
50
180.3882829
51
188.9219216
0
ARC
8
DEFAULT_255_1_234
10
15.3822449
20
23.1358464
40
0.909967
50
170.2024264
51
180.3560651
0
ARC
8
DEFAULT_255_1_234
10
15.0658967
20
23.1924237
40
0.5886083
50
154.2857445
51
170.3893044
0
ARC
8
DEFAULT_255_1_234
10
14.937717
20
23.251095
40
0.4476743
50
139.8401567
51
153.9332699
0
ARC
8
DEFAULT_255_1_234
10
14.9017906
20
23.2798577
40
0.4016697
50
98.4190291
51
139.6707122
0
ARC
8
DEFAULT_255_1_234
10
14.9397423
20
23.0953328
40
0.5898566
50
89.7659205
51
99.4415478
0
ARC
8
DEFAULT_255_1_234
10
14.9462673
20
23.1018844
40
0.5833147
50
78.0551672
51
90.4042112
0
ARC
8
DEFAULT_255_1_234
10
14.9867183
20
23.2837644
40
0.3970055
50
54.6380464
51
78.3339173
0
ARC
8
DEFAULT_255_1_234
10
15.0057239
20
23.3157795
40
0.3599102
50
50.031736
51
54.1558201
0
ARC
8
DEFAULT_255_1_234
10
14.9950026
20
23.3061766
40
0.3741624
50
18.1092409
51
49.7180913
0
ARC
8
DEFAULT_255_1_234
10
14.8493226
20
23.2528089
40
0.5292424
50
7.9672797
51
18.6984571
0
ARC
8
DEFAULT_255_1_234
10
14.8643704
20
23.2651504
40
0.3600838
50
9.7557294
51
27.3215714
0
ARC
8
DEFAULT_255_1_234
10
14.9771176
20
23.3214912
40
0.2340608
50
27.7361077
51
84.5257964
0
ARC
8
DEFAULT_255_1_234
10
14.9443563
20
23.157164
40
0.4011215
50
82.106034
51
90.2001166
0
ARC
8
DEFAULT_255_1_234
10
14.939378
20
23.2079215
40
0.3503799
50
89.4150119
51
105.5823402
0
ARC
8
DEFAULT_255_1_234
10
14.9136778
20
23.3014867
40
0.2533503
50
105.6678618
51
144.2648758
0
ARC
8
DEFAULT_255_1_234
10
15.0030034
20
23.2379289
40
0.3629787
50
144.3561283
51
162.8564086
0
ARC
8
DEFAULT_255_1_234
10
15.2113943
20
23.1710017
40
0.5818441
50
162.6076014
51
173.6780284
0
ARC
8
DEFAULT_255_1_234
10
15.5175086
20
23.133789
40
0.8902007
50
173.4670142
51
179.9730753
0
ARC
8
DEFAULT_255_1_234
10
15.3266758
20
23.034426
40
0.6993804
50
179.6556203
51
190.0080463
0
ARC
8
DEFAULT_255_1_234
10
15.0950586
20
22.9919375
40
0.4639066
50
189.8116607
51
206.6796816
0
ARC
8
DEFAULT_255_1_234
10
15.0105739
20
22.9525503
40
0.3707421
50
207.1031645
51
217.7074368
0
ARC
8
DEFAULT_255_1_234
10
14.9471427
20
22.8973559
40
0.2868417
50
216.7345547
51
265.6812148
0
ARC
8
DEFAULT_255_1_234
10
14.9602218
20
22.9877855
40
0.3780509
50
264.7366618
51
270.0611241
0
ARC
8
DEFAULT_255_1_234
10
14.9625482
20
23.2718111
40
0.662079
50
269.8335834
51
276.0539546
0
ARC
8
DEFAULT_255_1_234
10
14.9832486
20
23.081656
40
0.4708016
50
275.9894168
51
284.4615085
0
ARC
8
DEFAULT_255_1_234
10
15.0030493
20
22.9983663
40
0.3852094
50
284.7034461
51
286.4953897
0
ARC
8
DEFAULT_255_1_234
10
15.0437507
20
22.8672965
40
0.2479842
50
286.0770838
51
304.2625829
0
ARC
8
DEFAULT_255_1_234
10
15.057092
20
22.8454594
40
0.2224291
50
304.5891602
51
317.1073298
0
LINE
8
DEFAULT_255_1_234
10
15.7959259
20
23.6691211
11
15.7959259
21
22.4997
0
LINE
8
DEFAULT_255_1_234
10
15.7959259
20
22.4997
11
15.6417166
21
22.4997
0
LINE
8
DEFAULT_255_1_234
10
15.6417166
20
22.4997
11
15.6417166
21
23.6691211
0
LINE
8
DEFAULT_255_1_234
10
15.6417166
20
23.6691211
11
15.7959259
21
23.6691211
0
LINE
8
DEFAULT_255_1_234
10
16.7830266
20
22.8707663
11
16.9380391
21
22.8707663
0
LINE
8
DEFAULT_255_1_234
10
16.0376813
20
23.0297947
11
16.0376813
21
23.1422391
0
LINE
8
DEFAULT_255_1_234
10
16.9380391
20
23.2932357
11
16.7830266
21
23.2932357
0
LINE
8
DEFAULT_255_1_234
10
16.1926938
20
23.1382232
11
16.1926938
21
23.0249757
0
ARC
8
DEFAULT_255_1_234
10
16.3899778
20
22.9304846
40
0.5513052
50
340.1774281
51
353.7814284
0
ARC
8
DEFAULT_255_1_234
10
16.547113
20
22.8719582
40
0.3836379
50
311.4558989
51
340.4421614
0
ARC
8
DEFAULT_255_1_234
10
16.5437799
20
22.8830528
40
0.3941894
50
282.4333181
51
310.7513653
0
ARC
8
DEFAULT_255_1_234
10
16.4998538
20
23.0645679
40
0.5809175
50
269.9358511
51
282.809604
0
ARC
8
DEFAULT_255_1_234
10
16.4946604
20
23.2103212
40
0.7266847
50
270.0021091
51
270.3581957
0
ARC
8
DEFAULT_255_1_234
10
16.4894021
20
22.9502585
40
0.4666519
50
250.7884749
51
270.6489167
0
ARC
8
DEFAULT_255_1_234
10
16.4725855
20
22.8865319
40
0.4009729
50
219.3627325
51
250.0611886
0
ARC
8
DEFAULT_255_1_234
10
16.5555067
20
22.9570042
40
0.5097822
50
193.5479632
51
219.5756669
0
ARC
8
DEFAULT_255_1_234
10
16.7926687
20
23.0185919
40
0.7547848
50
181.1218675
51
193.87563
0
ARC
8
DEFAULT_255_1_234
10
16.9996868
20
23.029658
40
0.9620055
50
179.9918545
51
181.5394234
0
ARC
8
DEFAULT_255_1_234
10
16.814597
20
23.1459788
40
0.7769248
50
169.5837241
51
180.2757934
0
ARC
8
DEFAULT_255_1_234
10
16.6308909
20
23.1799229
40
0.590109
50
155.0365899
51
169.6003176
0
ARC
8
DEFAULT_255_1_234
10
16.5173373
20
23.2346677
40
0.4640625
50
136.783148
51
155.2472683
0
ARC
8
DEFAULT_255_1_234
10
16.4783849
20
23.2677562
40
0.4130255
50
121.7633186
51
136.428115
0
ARC
8
DEFAULT_255_1_234
10
16.4918812
20
23.2428227
40
0.4413323
50
95.6459699
51
121.5490577
0
ARC
8
DEFAULT_255_1_234
10
16.5076093
20
23.1319949
40
0.55319
50
89.924208
51
96.1377933
0
ARC
8
DEFAULT_255_1_234
10
16.5126526
20
23.1438542
40
0.5413475
50
76.6779277
51
90.4563316
0
ARC
8
DEFAULT_255_1_234
10
16.552015
20
23.3029114
40
0.3775041
50
47.485847
51
76.9287264
0
ARC
8
DEFAULT_255_1_234
10
16.5373122
20
23.2929159
40
0.3948286
50
16.5424086
51
46.8933463
0
ARC
8
DEFAULT_255_1_234
10
16.3765279
20
23.2400861
40
0.564021
50
5.4072051
51
17.0365086
0
ARC
8
DEFAULT_255_1_234
10
16.2326297
20
23.2169679
40
0.5556559
50
7.8891745
51
15.9239216
0
ARC
8
DEFAULT_255_1_234
10
16.431331
20
23.2746631
40
0.3487515
50
15.7653144
51
27.9410532
0
ARC
8
DEFAULT_255_1_234
10
16.5417528
20
23.333779
40
0.2235026
50
27.8166557
51
46.4008329
0
ARC
8
DEFAULT_255_1_234
10
16.5467171
20
23.3332082
40
0.2205286
50
47.4371857
51
75.0698205
0
ARC
8
DEFAULT_255_1_234
10
16.5158565
20
23.2257765
40
0.3322915
50
74.7008593
51
87.8124495
0
ARC
8
DEFAULT_255_1_234
10
16.5085253
20
23.1201844
40
0.4380987
50
87.3814673
51
90.0240855
0
ARC
8
DEFAULT_255_1_234
10
16.5046796
20
23.2379291
40
0.3203749
50
89.3451631
51
108.5745436
0
ARC
8
DEFAULT_255_1_234
10
16.4909901
20
23.2892908
40
0.2673494
50
109.2998449
51
143.3037509
0
ARC
8
DEFAULT_255_1_234
10
16.5671974
20
23.2306881
40
0.3634757
50
143.0753173
51
163.1916937
0
ARC
8
DEFAULT_255_1_234
10
16.7623701
20
23.1690967
40
0.5681262
50
162.9373603
51
174.6208611
0
ARC
8
DEFAULT_255_1_234
10
17.0249744
20
23.140301
40
0.8322832
50
174.3419979
51
180.1430411
0
ARC
8
DEFAULT_255_1_234
10
16.93189
20
23.0208698
40
0.7392076
50
179.6817502
51
189.150529
0
ARC
8
DEFAULT_255_1_234
10
16.6818148
20
22.979219
40
0.4856932
50
188.9910863
51
203.5773039
0
ARC
8
DEFAULT_255_1_234
10
16.5738481
20
22.9344211
40
0.3688271
50
203.9077269
51
215.1312379
0
ARC
8
DEFAULT_255_1_234
10
16.4815574
20
22.8628941
40
0.2522457
50
213.9071664
51
263.8849284
0
ARC
8
DEFAULT_255_1_234
10
16.4940904
20
22.9413518
40
0.3316174
50
263.1758525
51
270.1031083
0
ARC
8
DEFAULT_255_1_234
10
16.4972995
20
23.0660365
40
0.4563091
50
269.6719807
51
279.0609165
0
ARC
8
DEFAULT_255_1_234
10
16.5239763
20
22.9047907
40
0.2928759
50
278.8750225
51
293.6346586
0
ARC
8
DEFAULT_255_1_234
10
16.5559972
20
22.82959
40
0.2111472
50
293.8553404
51
310.0518804
0
ARC
8
DEFAULT_255_1_234
10
16.5564825
20
22.8233516
40
0.2060917
50
311.0646779
51
332.0108348
0
ARC
8
DEFAULT_255_1_234
10
16.4372552
20
22.8890978
40
0.3422352
50
331.6588543
51
343.2878891
0
ARC
8
DEFAULT_255_1_234
10
16.2310067
20
22.9524798
40
0.5580003
50
343.1446044
51
351.010618
0
ARC
8
DEFAULT_255_1_234
10
16.0768714
20
22.9805871
40
0.7146438
50
350.7157277
51
351.1602153
0
LINE
8
DEFAULT_255_1_234
10
18.2833553
20
22.6209792
11
18.2833553
21
22.4997
0
LINE
8
DEFAULT_255_1_234
10
18.2833553
20
22.4997
11
17.5171274
21
22.4997
0
LINE
8
DEFAULT_255_1_234
10
17.5171274
20
22.4997
11
17.5171274
21
22.6065221
0
LINE
8
DEFAULT_255_1_234
10
17.5171274
20
22.6065221
11
17.9219271
21
23.0562995
0
LINE
8
DEFAULT_255_1_234
10
17.6432257
20
23.3245595
11
17.4946386
21
23.3245595
0
LINE
8
DEFAULT_255_1_234
10
18.009473
20
22.9607218
11
17.6962352
21
22.6209792
0
LINE
8
DEFAULT_255_1_234
10
17.6962352
20
22.6209792
11
18.2833553
21
22.6209792
0
ARC
8
DEFAULT_255_1_234
10
16.5729104
20
24.2492527
40
1.8008286
50
318.5132453
51
320.7828378
0
ARC
8
DEFAULT_255_1_234
10
17.1016078
20
23.8189426
40
1.1191493
50
320.7372736
51
323.9737074
0
ARC
8
DEFAULT_255_1_234
10
17.4935935
20
23.5349361
40
0.6350923
50
323.8961724
51
328.6421089
0
ARC
8
DEFAULT_255_1_234
10
17.698253
20
23.4087031
40
0.3946393
50
328.8299013
51
331.789948
0
ARC
8
DEFAULT_255_1_234
10
17.7979709
20
23.3572509
40
0.2824501
50
331.4255242
51
352.9364833
0
ARC
8
DEFAULT_255_1_234
10
17.8116209
20
23.3541976
40
0.2685315
50
353.2248685
51
0.0169286
0
ARC
8
DEFAULT_255_1_234
10
17.8326086
20
23.356495
40
0.2475536
50
359.4866256
51
15.9339782
0
ARC
8
DEFAULT_255_1_234
10
17.8833071
20
23.3701286
40
0.1950618
50
16.1714718
51
43.5284424
0
ARC
8
DEFAULT_255_1_234
10
17.891038
20
23.3778573
40
0.184134
50
43.4415429
51
83.1661404
0
ARC
8
DEFAULT_255_1_234
10
17.8776298
20
23.3041771
40
0.258926
50
82.160215
51
90.1505798
0
ARC
8
DEFAULT_255_1_234
10
17.8744725
20
23.2504865
40
0.3126255
50
89.5460705
51
102.5418777
0
ARC
8
DEFAULT_255_1_234
10
17.8501812
20
23.3535665
40
0.2067346
50
102.1739365
51
129.2061916
0
ARC
8
DEFAULT_255_1_234
10
17.8422883
20
23.3660094
40
0.1921118
50
129.7279328
51
135.7542026
0
ARC
8
DEFAULT_255_1_234
10
17.8544411
20
23.3563045
40
0.2075944
50
136.175737
51
166.3674722
0
ARC
8
DEFAULT_255_1_234
10
17.955133
20
23.3293182
40
0.3118201
50
165.9092917
51
178.8683903
0
ARC
8
DEFAULT_255_1_234
10
18.0416191
20
23.3246179
40
0.3983935
50
178.438168
51
180.0083905
0
ARC
8
DEFAULT_255_1_234
10
17.9014794
20
23.3285231
40
0.4068601
50
163.2878735
51
180.5581814
0
ARC
8
DEFAULT_255_1_234
10
17.8213055
20
23.350584
40
0.3237344
50
133.454115
51
162.9470031
0
ARC
8
DEFAULT_255_1_234
10
17.8391596
20
23.3316
40
0.349795
50
100.7869394
51
133.4384016
0
ARC
8
DEFAULT_255_1_234
10
17.8739368
20
23.1767319
40
0.5084616
50
89.6605301
51
101.3704185
0
ARC
8
DEFAULT_255_1_234
10
17.8805707
20
23.1828496
40
0.502348
50
78.2171172
51
90.4130393
0
ARC
8
DEFAULT_255_1_234
10
17.9160785
20
23.3452637
40
0.3361092
50
55.9268222
51
78.4888551
0
ARC
8
DEFAULT_255_1_234
10
17.9357225
20
23.3791324
40
0.2970617
50
47.9292255
51
55.4054003
0
ARC
8
DEFAULT_255_1_234
10
17.9458786
20
23.3894502
40
0.2825983
50
4.3347696
51
48.0560701
0
ARC
8
DEFAULT_255_1_234
10
17.8363179
20
23.3724601
40
0.393225
50
359.925209
51
5.5967654
0
ARC
8
DEFAULT_255_1_234
10
17.8792071
20
23.3780816
40
0.3503892
50
337.8914096
51
358.9967724
0
ARC
8
DEFAULT_255_1_234
10
17.6078483
20
23.4827706
40
0.6412172
50
326.9135351
51
338.3505194
0
ARC
8
DEFAULT_255_1_234
10
17.2092787
20
23.7382284
40
1.1146189
50
319.6472867
51
327.095818
0
ARC
8
DEFAULT_255_1_234
10
16.825979
20
24.0544
40
1.6114559
50
317.2586784
51
319.9046139
0
LINE
8
DEFAULT_255_1_234
10
19.174075
20
23.1912327
11
19.174075
21
22.9984709
0
LINE
8
DEFAULT_255_1_234
10
18.4359583
20
22.9783916
11
18.4359583
21
23.1767755
0
LINE
8
DEFAULT_255_1_234
10
19.0254879
20
22.9583123
11
19.0254879
21
23.2016739
0
LINE
8
DEFAULT_255_1_234
10
18.5845455
20
23.2129184
11
18.5845455
21
22.9751789
0
ARC
8
DEFAULT_255_1_234
10
17.949364
20
22.9935805
40
1.2247208
50
353.8441951
51
0.2287902
0
ARC
8
DEFAULT_255_1_234
10
18.4133144
20
22.9417806
40
0.7578929
50
344.4934747
51
353.9765454
0
ARC
8
DEFAULT_255_1_234
10
18.7125734
20
22.8566981
40
0.4467846
50
329.2803592
51
344.7472793
0
ARC
8
DEFAULT_255_1_234
10
18.8118559
20
22.8022018
40
0.3336173
50
324.9352394
51
328.6160465
0
ARC
8
DEFAULT_255_1_234
10
18.8495668
20
22.7758427
40
0.2876076
50
280.580143
51
324.9173126
0
ARC
8
DEFAULT_255_1_234
10
18.809446
20
22.9429099
40
0.4592847
50
269.5977311
51
281.6734359
0
ARC
8
DEFAULT_255_1_234
10
18.8022366
20
22.9309173
40
0.4472986
50
256.6228859
51
270.51044
0
ARC
8
DEFAULT_255_1_234
10
18.7620344
20
22.7760877
40
0.2873874
50
215.8618325
51
257.2788573
0
ARC
8
DEFAULT_255_1_234
10
18.8641375
20
22.8445977
40
0.4102928
50
197.9693508
51
215.2623606
0
ARC
8
DEFAULT_255_1_234
10
19.1126491
20
22.9284709
40
0.6725652
50
187.8816417
51
198.2346507
0
ARC
8
DEFAULT_255_1_234
10
19.5084699
20
22.9856079
40
1.0724845
50
180.8976217
51
188.0055519
0
ARC
8
DEFAULT_255_1_234
10
19.7884887
20
22.9959777
40
1.3526448
50
180.7449369
51
181.1510016
0
ARC
8
DEFAULT_255_1_234
10
19.6307616
20
23.1816042
40
1.1948131
50
173.7675579
51
180.231553
0
ARC
8
DEFAULT_255_1_234
10
19.1789763
20
23.2326666
40
0.7401564
50
164.3058563
51
173.9002247
0
ARC
8
DEFAULT_255_1_234
10
18.8877832
20
23.3165656
40
0.4371288
50
148.7922025
51
164.568378
0
ARC
8
DEFAULT_255_1_234
10
18.7926284
20
23.3696929
40
0.3282386
50
144.5883898
51
148.1176286
0
ARC
8
DEFAULT_255_1_234
10
18.7583182
20
23.3936315
40
0.2864044
50
101.6440918
51
144.514236
0
ARC
8
DEFAULT_255_1_234
10
18.8008249
20
23.2247069
40
0.4604934
50
89.5284041
51
102.5819763
0
ARC
8
DEFAULT_255_1_234
10
18.8087336
20
23.2208018
40
0.464401
50
77.0437873
51
90.5081339
0
ARC
8
DEFAULT_255_1_234
10
18.8489338
20
23.3850615
40
0.2953195
50
48.2778575
51
77.4994676
0
ARC
8
DEFAULT_255_1_234
10
18.8561969
20
23.3979746
40
0.2808655
50
36.3142134
51
47.6305865
0
ARC
8
DEFAULT_255_1_234
10
18.7693276
20
23.3394515
40
0.3855453
50
18.2931786
51
35.6769206
0
ARC
8
DEFAULT_255_1_234
10
18.5150035
20
23.2521593
40
0.654423
50
8.024666
51
18.5605216
0
ARC
8
DEFAULT_255_1_234
10
18.0986955
20
23.1906792
40
1.0752407
50
1.1274072
51
8.1718305
0
ARC
8
DEFAULT_255_1_234
10
17.7751146
20
23.1779885
40
1.3990231
50
0.5424119
51
1.3863029
0
ARC
8
DEFAULT_255_1_234
10
17.9572524
20
23.2052342
40
1.0682415
50
359.8090433
51
4.9407866
0
ARC
8
DEFAULT_255_1_234
10
18.3782538
20
23.2428113
40
0.6455691
50
4.8362157
51
12.2904523
0
ARC
8
DEFAULT_255_1_234
10
18.6537652
20
23.3041965
40
0.3633074
50
12.0805627
51
23.8173984
0
ARC
8
DEFAULT_255_1_234
10
18.7711358
20
23.3538919
40
0.2358723
50
24.2871213
51
31.3935614
0
ARC
8
DEFAULT_255_1_234
10
18.8236055
20
23.3882233
40
0.1732111
50
30.7407893
51
82.4657128
0
ARC
8
DEFAULT_255_1_234
10
18.8056189
20
23.2998691
40
0.263235
50
81.1060089
51
90.2184952
0
ARC
8
DEFAULT_255_1_234
10
18.8020488
20
23.3256924
40
0.2374236
50
89.3806855
51
105.6762551
0
ARC
8
DEFAULT_255_1_234
10
18.7837119
20
23.3923567
40
0.1682847
50
105.7981136
51
149.7388061
0
ARC
8
DEFAULT_255_1_234
10
18.8901197
20
23.328395
40
0.2924306
50
149.4208916
51
163.6286378
0
ARC
8
DEFAULT_255_1_234
10
19.0992085
20
23.264625
40
0.5110213
50
163.3763315
51
172.1410975
0
ARC
8
DEFAULT_255_1_234
10
19.4292804
20
23.2173518
40
0.8444586
50
172.0259487
51
178.0703232
0
ARC
8
DEFAULT_255_1_234
10
19.7322894
20
23.2029906
40
1.1477868
50
177.8631668
51
179.5044149
0
ARC
8
DEFAULT_255_1_234
10
19.6250298
20
22.9715389
40
1.0404907
50
179.7995573
51
185.2460446
0
ARC
8
DEFAULT_255_1_234
10
19.2207337
20
22.9332513
40
0.6343885
50
185.1411642
51
193.0079639
0
ARC
8
DEFAULT_255_1_234
10
18.956381
20
22.8707641
40
0.3627568
50
192.7897626
51
205.2507664
0
ARC
8
DEFAULT_255_1_234
10
18.8517357
20
22.8240415
40
0.2481908
50
205.8005384
51
211.2537509
0
ARC
8
DEFAULT_255_1_234
10
18.7993797
20
22.788958
40
0.1852521
50
210.3789793
51
238.4008143
0
ARC
8
DEFAULT_255_1_234
10
18.7974319
20
22.7936376
40
0.1882621
50
239.6520629
51
265.9793761
0
ARC
8
DEFAULT_255_1_234
10
18.8059519
20
22.8608427
40
0.2559272
50
265.1315437
51
270.060332
0
ARC
8
DEFAULT_255_1_234
10
18.8088298
20
22.8284534
40
0.2235528
50
269.3314664
51
287.2178029
0
ARC
8
DEFAULT_255_1_234
10
18.822615
20
22.7781279
40
0.1714108
50
287.7958004
51
329.080874
0
ARC
8
DEFAULT_255_1_234
10
18.7268607
20
22.837893
40
0.2842745
50
328.6634704
51
343.3325132
0
ARC
8
DEFAULT_255_1_234
10
18.5095627
20
22.9055863
40
0.5118644
50
343.0499468
51
351.9393422
0
ARC
8
DEFAULT_255_1_234
10
18.1628927
20
22.9566949
40
0.8622784
50
351.8069023
51
357.7959224
0
ARC
8
DEFAULT_255_1_234
10
17.8393483
20
22.9734721
40
1.1862365
50
357.5871873
51
359.2677531
0
LINE
8
DEFAULT_255_1_234
10
19.5515667
20
23.0554963
11
19.432697
21
23.0860169
0
LINE
8
DEFAULT_255_1_234
10
19.432697
20
23.0860169
11
19.4921319
21
23.6691211
0
LINE
8
DEFAULT_255_1_234
10
19.4921319
20
23.6691211
11
20.0912996
21
23.6691211
0
LINE
8
DEFAULT_255_1_234
10
20.0912996
20
23.6691211
11
20.0912996
21
23.5317784
0
LINE
8
DEFAULT_255_1_234
10
20.0912996
20
23.5317784
11
19.6182302
21
23.5317784
0
LINE
8
DEFAULT_255_1_234
10
19.6182302
20
23.5317784
11
19.5828905
21
23.2129184
0
LINE
8
DEFAULT_255_1_234
10
19.390932
20
22.8073156
11
19.5314874
21
22.8073156
0
LINE
8
DEFAULT_255_1_234
10
19.5909223
20
23.0876232
11
19.5515667
21
23.0554963
0
ARC
8
DEFAULT_255_1_234
10
19.7683689
20
22.894923
40
0.3681349
50
93.7182161
51
120.2538958
0
ARC
8
DEFAULT_255_1_234
10
19.7777952
20
22.8141394
40
0.449379
50
89.9660152
51
94.2496022
0
ARC
8
DEFAULT_255_1_234
10
19.7818686
20
22.8730549
40
0.390482
50
73.8043271
51
90.5585896
0
ARC
8
DEFAULT_255_1_234
10
19.8053583
20
22.9588602
40
0.3015334
50
41.3071453
51
73.5430202
0
ARC
8
DEFAULT_255_1_234
10
19.763741
20
22.9230324
40
0.3564457
50
13.5075983
51
41.2174222
0
ARC
8
DEFAULT_255_1_234
10
19.5995614
20
22.8800486
40
0.5261351
50
1.1331335
51
13.8829381
0
ARC
8
DEFAULT_255_1_234
10
19.4583983
20
22.8724665
40
0.6674378
50
359.9919444
51
1.544251
0
ARC
8
DEFAULT_255_1_234
10
19.5860809
20
22.868328
40
0.5397702
50
347.8572367
51
0.4293338
0
ARC
8
DEFAULT_255_1_234
10
19.7611127
20
22.8286736
40
0.3603188
50
323.673004
51
348.1672506
0
ARC
8
DEFAULT_255_1_234
10
19.7905635
20
22.8107168
40
0.3259678
50
316.8171152
51
323.1492751
0
ARC
8
DEFAULT_255_1_234
10
19.7966824
20
22.807046
40
0.3189975
50
281.8396411
51
316.5457803
0
ARC
8
DEFAULT_255_1_234
10
19.7591088
20
22.9625762
40
0.4789527
50
269.5770101
51
282.4214771
0
ARC
8
DEFAULT_255_1_234
10
19.75199
20
22.9412125
40
0.45759
50
256.2427136
51
270.4486331
0
ARC
8
DEFAULT_255_1_234
10
19.7220802
20
22.8212229
40
0.3339303
50
228.9023911
51
256.3314342
0
ARC
8
DEFAULT_255_1_234
10
19.7147034
20
22.8095746
40
0.32031
50
193.753695
51
228.5271154
0
ARC
8
DEFAULT_255_1_234
10
19.8384988
20
22.84588
40
0.4492253
50
184.924711
51
194.497588
0
ARC
8
DEFAULT_255_1_234
10
19.8577555
20
22.8494591
40
0.3289787
50
187.3600538
51
198.6732863
0
ARC
8
DEFAULT_255_1_234
10
19.7527849
20
22.8130674
40
0.217884
50
198.4451669
51
217.794479
0
ARC
8
DEFAULT_255_1_234
10
19.7232024
20
22.7921085
40
0.1816698
50
218.2887171
51
228.5612368
0
ARC
8
DEFAULT_255_1_234
10
19.7329811
20
22.8052963
40
0.1980329
50
228.9654866
51
258.1234728
0
ARC
8
DEFAULT_255_1_234
10
19.7535521
20
22.8933833
40
0.2884748
50
257.7258293
51
270.401361
0
ARC
8
DEFAULT_255_1_234
10
19.7580408
20
22.8488821
40
0.2439788
50
269.4204404
51
286.4209037
0
ARC
8
DEFAULT_255_1_234
10
19.7728895
20
22.7949657
40
0.1880666
50
286.7251356
51
320.600362
0
ARC
8
DEFAULT_255_1_234
10
19.734572
20
22.8260595
40
0.2374121
50
320.6712579
51
344.5441685
0
ARC
8
DEFAULT_255_1_234
10
19.6189046
20
22.8600045
40
0.3579479
50
344.2412205
51
356.7357071
0
ARC
8
DEFAULT_255_1_234
10
19.4940195
20
22.8703444
40
0.4832297
50
356.3548756
51
0.0500261
0
ARC
8
DEFAULT_255_1_234
10
19.6276704
20
22.873465
40
0.3495889
50
359.5576869
51
12.953486
0
ARC
8
DEFAULT_255_1_234
10
19.7331601
20
22.8990434
40
0.2410532
50
12.6490276
51
41.6081334
0
ARC
8
DEFAULT_255_1_234
10
19.7561972
20
22.9186321
40
0.2108218
50
41.7850273
51
85.9892764
0
ARC
8
DEFAULT_255_1_234
10
19.7438709
20
22.8373462
40
0.2928454
50
84.6957577
51
90.0676183
0
ARC
8
DEFAULT_255_1_234
10
19.7415193
20
22.7704716
40
0.3597255
50
89.6804936
51
99.1614436
0
ARC
8
DEFAULT_255_1_234
10
19.7209824
20
22.8932131
40
0.235281
50
98.9830931
51
113.8908934
0
ARC
8
DEFAULT_255_1_234
10
19.6980234
20
22.9473587
40
0.176479
50
114.1950727
51
127.3641004
0
LINE
8
DEFAULT_255_1_234
10
4.9274119
20
20.6366792
11
4.9274119
21
20.5154
0
LINE
8
DEFAULT_255_1_234
10
4.9274119
20
20.5154
11
4.161184
21
20.5154
0
LINE
8
DEFAULT_255_1_234
10
4.161184
20
20.5154
11
4.161184
21
20.6222221
0
LINE
8
DEFAULT_255_1_234
10
4.161184
20
20.6222221
11
4.5659836
21
21.0719995
0
LINE
8
DEFAULT_255_1_234
10
4.2872823
20
21.3402595
11
4.1386952
21
21.3402595
0
LINE
8
DEFAULT_255_1_234
10
4.6535296
20
20.9764218
11
4.3402918
21
20.6366792
0
LINE
8
DEFAULT_255_1_234
10
4.3402918
20
20.6366792
11
4.9274119
21
20.6366792
0
ARC
8
DEFAULT_255_1_234
10
3.216967
20
22.2649527
40
1.8008286
50
318.5132453
51
320.7828378
0
ARC
8
DEFAULT_255_1_234
10
3.7456644
20
21.8346426
40
1.1191493
50
320.7372736
51
323.9737074
0
ARC
8
DEFAULT_255_1_234
10
4.1376501
20
21.5506361
40
0.6350923
50
323.8961724
51
328.6421089
0
ARC
8
DEFAULT_255_1_234
10
4.3423096
20
21.4244031
40
0.3946393
50
328.8299013
51
331.789948
0
ARC
8
DEFAULT_255_1_234
10
4.4420274
20
21.3729509
40
0.2824501
50
331.4255242
51
352.9364833
0
ARC
8
DEFAULT_255_1_234
10
4.4556775
20
21.3698976
40
0.2685315
50
353.2248685
51
0.0169286
0
ARC
8
DEFAULT_255_1_234
10
4.4766652
20
21.372195
40
0.2475536
50
359.4866256
51
15.9339782
0
ARC
8
DEFAULT_255_1_234
10
4.5273637
20
21.3858286
40
0.1950618
50
16.1714718
51
43.5284424
0
ARC
8
DEFAULT_255_1_234
10
4.5350946
20
21.3935573
40
0.184134
50
43.4415429
51
83.1661404
0
ARC
8
DEFAULT_255_1_234
10
4.5216864
20
21.3198771
40
0.258926
50
82.160215
51
90.1505798
0
ARC
8
DEFAULT_255_1_234
10
4.5185291
20
21.2661865
40
0.3126255
50
89.5460705
51
102.5418777
0
ARC
8
DEFAULT_255_1_234
10
4.4942377
20
21.3692665
40
0.2067346
50
102.1739365
51
129.2061916
0
ARC
8
DEFAULT_255_1_234
10
4.4863449
20
21.3817094
40
0.1921118
50
129.7279328
51
135.7542026
0
ARC
8
DEFAULT_255_1_234
10
4.4984977
20
21.3720045
40
0.2075944
50
136.175737
51
166.3674722
0
ARC
8
DEFAULT_255_1_234
10
4.5991896
20
21.3450182
40
0.3118201
50
165.9092917
51
178.8683903
0
ARC
8
DEFAULT_255_1_234
10
4.6856757
20
21.3403179
40
0.3983935
50
178.438168
51
180.0083905
0
ARC
8
DEFAULT_255_1_234
10
4.5455359
20
21.3442231
40
0.4068601
50
163.2878735
51
180.5581814
0
ARC
8
DEFAULT_255_1_234
10
4.4653621
20
21.366284
40
0.3237344
50
133.454115
51
162.9470031
0
ARC
8
DEFAULT_255_1_234
10
4.4832162
20
21.3473
40
0.349795
50
100.7869394
51
133.4384016
0
ARC
8
DEFAULT_255_1_234
10
4.5179934
20
21.1924319
40
0.5084616
50
89.6605301
51
101.3704185
0
ARC
8
DEFAULT_255_1_234
10
4.5246273
20
21.1985496
40
0.502348
50
78.2171172
51
90.4130393
0
ARC
8
DEFAULT_255_1_234
10
4.5601351
20
21.3609637
40
0.3361092
50
55.9268222
51
78.4888551
0
ARC
8
DEFAULT_255_1_234
10
4.5797791
20
21.3948324
40
0.2970617
50
47.9292255
51
55.4054003
0
ARC
8
DEFAULT_255_1_234
10
4.5899352
20
21.4051502
40
0.2825983
50
4.3347696
51
48.0560701
0
ARC
8
DEFAULT_255_1_234
10
4.4803745
20
21.3881601
40
0.393225
50
359.925209
51
5.5967654
0
ARC
8
DEFAULT_255_1_234
10
4.5232637
20
21.3937816
40
0.3503892
50
337.8914096
51
358.9967724
0
ARC
8
DEFAULT_255_1_234
10
4.2519049
20
21.4984706
40
0.6412172
50
326.9135351
51
338.3505194
0
ARC
8
DEFAULT_255_1_234
10
3.8533353
20
21.7539284
40
1.1146189
50
319.6472867
51
327.095818
0
ARC
8
DEFAULT_255_1_234
10
3.4700356
20
22.0701
40
1.6114559
50
317.2586784
51
319.9046139
0
LINE
8
DEFAULT_255_1_234
10
5.7121127
20
21.6848211
11
5.7121127
21
20.908152
0
LINE
8
DEFAULT_255_1_234
10
5.7121127
20
20.908152
11
5.8743538
21
20.908152
0
LINE
8
DEFAULT_255_1_234
10
5.8743538
20
20.908152
11
5.8743538
21
20.7868728
0
LINE
8
DEFAULT_255_1_234
10
5.8743538
20
20.7868728
11
5.7121127
21
20.7868728
0
LINE
8
DEFAULT_255_1_234
10
5.7121127
20
20.7868728
11
5.7121127
21
20.5154
0
LINE
8
DEFAULT_255_1_234
10
5.7121127
20
20.5154
11
5.5627224
21
20.5154
0
LINE
8
DEFAULT_255_1_234
10
5.5627224
20
20.5154
11
5.5627224
21
20.7868728
0
LINE
8
DEFAULT_255_1_234
10
5.5627224
20
20.7868728
11
5.0302181
21
20.7868728
0
LINE
8
DEFAULT_255_1_234
10
5.0302181
20
20.7868728
11
5.0302181
21
20.8744187
0
LINE
8
DEFAULT_255_1_234
10
5.0302181
20
20.8744187
11
5.5538875
21
21.6848211
0
LINE
8
DEFAULT_255_1_234
10
5.5538875
20
21.6848211
11
5.7121127
21
21.6848211
0
LINE
8
DEFAULT_255_1_234
10
5.5450525
20
21.4494912
11
5.1988846
21
20.908152
0
LINE
8
DEFAULT_255_1_234
10
5.1988846
20
20.908152
11
5.5627224
21
20.908152
0
LINE
8
DEFAULT_255_1_234
10
5.5627224
20
20.908152
11
5.5627224
21
21.4816181
0
LINE
8
DEFAULT_255_1_234
10
5.5627224
20
21.4816181
11
5.5450525
21
21.4494912
0
LINE
8
DEFAULT_255_1_234
10
6.101652
20
21.6848211
11
6.434166
21
20.7202093
0
LINE
8
DEFAULT_255_1_234
10
6.434166
20
20.7202093
11
6.7682863
21
21.6848211
0
LINE
8
DEFAULT_255_1_234
10
6.7682863
20
21.6848211
11
6.9369528
21
21.6848211
0
LINE
8
DEFAULT_255_1_234
10
6.9369528
20
21.6848211
11
6.5032389
21
20.5154
0
LINE
8
DEFAULT_255_1_234
10
6.5032389
20
20.5154
11
6.3666994
21
20.5154
0
LINE
8
DEFAULT_255_1_234
10
6.3666994
20
20.5154
11
5.9337887
21
21.6848211
0
LINE
8
DEFAULT_255_1_234
10
5.9337887
20
21.6848211
11
6.101652
21
21.6848211
0
LINE
8
DEFAULT_255_1_234
10
4.8957484
20
5.3070343
11
4.8957484
21
5.180936
0
LINE
8
DEFAULT_255_1_234
10
4.8957484
20
5.180936
11
4.3889458
21
5.180936
0
LINE
8
DEFAULT_255_1_234
10
4.3889458
20
5.180936
11
4.3889458
21
4.7664983
0
LINE
8
DEFAULT_255_1_234
10
4.3889458
20
4.7664983
11
4.9776722
21
4.7664983
0
LINE
8
DEFAULT_255_1_234
10
4.9776722
20
4.7664983
11
4.9776722
21
4.6404
0
LINE
8
DEFAULT_255_1_234
10
4.9776722
20
4.6404
11
4.2347364
21
4.6404
0
LINE
8
DEFAULT_255_1_234
10
4.2347364
20
4.6404
11
4.2347364
21
5.8098211
0
LINE
8
DEFAULT_255_1_234
10
4.2347364
20
5.8098211
11
4.9696404
21
5.8098211
0
LINE
8
DEFAULT_255_1_234
10
4.9696404
20
5.8098211
11
4.9696404
21
5.6829196
0
LINE
8
DEFAULT_255_1_234
10
4.9696404
20
5.6829196
11
4.3889458
21
5.6829196
0
LINE
8
DEFAULT_255_1_234
10
4.3889458
20
5.6829196
11
4.3889458
21
5.3070343
0
LINE
8
DEFAULT_255_1_234
10
4.3889458
20
5.3070343
11
4.8957484
21
5.3070343
0
LINE
8
DEFAULT_255_1_234
10
5.9936871
20
5.8098211
11
5.9936871
21
5.6829196
0
LINE
8
DEFAULT_255_1_234
10
5.9936871
20
5.6829196
11
5.6178017
21
5.6829196
0
LINE
8
DEFAULT_255_1_234
10
5.6178017
20
5.6829196
11
5.6178017
21
4.6404
0
LINE
8
DEFAULT_255_1_234
10
5.6178017
20
4.6404
11
5.4643955
21
4.6404
0
LINE
8
DEFAULT_255_1_234
10
5.4643955
20
4.6404
11
5.4643955
21
5.6829196
0
LINE
8
DEFAULT_255_1_234
10
5.4643955
20
5.6829196
11
5.0893133
21
5.6829196
0
LINE
8
DEFAULT_255_1_234
10
5.0893133
20
5.6829196
11
5.0893133
21
5.8098211
0
LINE
8
DEFAULT_255_1_234
10
5.0893133
20
5.8098211
11
5.9936871
21
5.8098211
0
LINE
8
DEFAULT_255_1_234
10
7.0659241
20
5.8098211
11
7.0659241
21
4.6404
0
LINE
8
DEFAULT_255_1_234
10
7.0659241
20
4.6404
11
6.9109116
21
4.6404
0
LINE
8
DEFAULT_255_1_234
10
6.9109116
20
4.6404
11
6.9109116
21
5.180936
0
LINE
8
DEFAULT_255_1_234
10
6.9109116
20
5.180936
11
6.321382
21
5.180936
0
LINE
8
DEFAULT_255_1_234
10
6.321382
20
5.180936
11
6.321382
21
4.6404
0
LINE
8
DEFAULT_255_1_234
10
6.321382
20
4.6404
11
6.1671726
21
4.6404
0
LINE
8
DEFAULT_255_1_234
10
6.1671726
20
4.6404
11
6.1671726
21
5.8098211
0
LINE
8
DEFAULT_255_1_234
10
6.1671726
20
5.8098211
11
6.321382
21
5.8098211
0
LINE
8
DEFAULT_255_1_234
10
6.321382
20
5.8098211
11
6.321382
21
5.3070343
0
LINE
8
DEFAULT_255_1_234
10
6.321382
20
5.3070343
11
6.9109116
21
5.3070343
0
LINE
8
DEFAULT_255_1_234
10
6.9109116
20
5.3070343
11
6.9109116
21
5.8098211
0
LINE
8
DEFAULT_255_1_234
10
6.9109116
20
5.8098211
11
7.0659241
21
5.8098211
0
LINE
8
DEFAULT_255_1_234
10
8.0674819
20
4.7616792
11
8.0674819
21
4.6404
0
LINE
8
DEFAULT_255_1_234
10
8.0674819
20
4.6404
11
7.3012541
21
4.6404
0
LINE
8
DEFAULT_255_1_234
10
7.3012541
20
4.6404
11
7.3012541
21
4.7472221
0
LINE
8
DEFAULT_255_1_234
10
7.3012541
20
4.7472221
11
7.7060537
21
5.1969995
0
LINE
8
DEFAULT_255_1_234
10
7.4273523
20
5.4652595
11
7.2787652
21
5.4652595
0
LINE
8
DEFAULT_255_1_234
10
7.7935996
20
5.1014218
11
7.4803618
21
4.7616792
0
LINE
8
DEFAULT_255_1_234
10
7.4803618
20
4.7616792
11
8.0674819
21
4.7616792
0
ARC
8
DEFAULT_255_1_234
10
6.357037
20
6.3899527
40
1.8008286
50
318.5132453
51
320.7828378
0
ARC
8
DEFAULT_255_1_234
10
6.8857344
20
5.9596426
40
1.1191493
50
320.7372736
51
323.9737074
0
ARC
8
DEFAULT_255_1_234
10
7.2777201
20
5.6756361
40
0.6350923
50
323.8961724
51
328.6421089
0
ARC
8
DEFAULT_255_1_234
10
7.4823796
20
5.5494031
40
0.3946393
50
328.8299013
51
331.789948
0
ARC
8
DEFAULT_255_1_234
10
7.5820975
20
5.4979509
40
0.2824501
50
331.4255242
51
352.9364833
0
ARC
8
DEFAULT_255_1_234
10
7.5957475
20
5.4948976
40
0.2685315
50
353.2248685
51
0.0169286
0
ARC
8
DEFAULT_255_1_234
10
7.6167352
20
5.497195
40
0.2475536
50
359.4866256
51
15.9339782
0
ARC
8
DEFAULT_255_1_234
10
7.6674337
20
5.5108286
40
0.1950618
50
16.1714718
51
43.5284424
0
ARC
8
DEFAULT_255_1_234
10
7.6751646
20
5.5185573
40
0.184134
50
43.4415429
51
83.1661404
0
ARC
8
DEFAULT_255_1_234
10
7.6617564
20
5.4448771
40
0.258926
50
82.160215
51
90.1505798
0
ARC
8
DEFAULT_255_1_234
10
7.6585992
20
5.3911865
40
0.3126255
50
89.5460705
51
102.5418777
0
ARC
8
DEFAULT_255_1_234
10
7.6343078
20
5.4942665
40
0.2067346
50
102.1739365
51
129.2061916
0
ARC
8
DEFAULT_255_1_234
10
7.6264149
20
5.5067094
40
0.1921118
50
129.7279328
51
135.7542026
0
ARC
8
DEFAULT_255_1_234
10
7.6385677
20
5.4970045
40
0.2075944
50
136.175737
51
166.3674722
0
ARC
8
DEFAULT_255_1_234
10
7.7392596
20
5.4700182
40
0.3118201
50
165.9092917
51
178.8683903
0
ARC
8
DEFAULT_255_1_234
10
7.8257458
20
5.4653179
40
0.3983935
50
178.438168
51
180.0083905
0
ARC
8
DEFAULT_255_1_234
10
7.685606
20
5.4692231
40
0.4068601
50
163.2878735
51
180.5581814
0
ARC
8
DEFAULT_255_1_234
10
7.6054321
20
5.491284
40
0.3237344
50
133.454115
51
162.9470031
0
ARC
8
DEFAULT_255_1_234
10
7.6232863
20
5.4723
40
0.349795
50
100.7869394
51
133.4384016
0
ARC
8
DEFAULT_255_1_234
10
7.6580634
20
5.3174319
40
0.5084616
50
89.6605301
51
101.3704185
0
ARC
8
DEFAULT_255_1_234
10
7.6646973
20
5.3235496
40
0.502348
50
78.2171172
51
90.4130393
0
ARC
8
DEFAULT_255_1_234
10
7.7002051
20
5.4859637
40
0.3361092
50
55.9268222
51
78.4888551
0
ARC
8
DEFAULT_255_1_234
10
7.7198491
20
5.5198324
40
0.2970617
50
47.9292255
51
55.4054003
0
ARC
8
DEFAULT_255_1_234
10
7.7300052
20
5.5301502
40
0.2825983
50
4.3347696
51
48.0560701
0
ARC
8
DEFAULT_255_1_234
10
7.6204446
20
5.5131601
40
0.393225
50
359.925209
51
5.5967654
0
ARC
8
DEFAULT_255_1_234
10
7.6633337
20
5.5187816
40
0.3503892
50
337.8914096
51
358.9967724
0
ARC
8
DEFAULT_255_1_234
10
7.3919749
20
5.6234706
40
0.6412172
50
326.9135351
51
338.3505194
0
ARC
8
DEFAULT_255_1_234
10
6.9934053
20
5.8789284
40
1.1146189
50
319.6472867
51
327.095818
0
ARC
8
DEFAULT_255_1_234
10
6.6101056
20
6.1951
40
1.6114559
50
317.2586784
51
319.9046139
0
LINE
8
DEFAULT_255_1_234
10
4.8873484
20
13.2445343
11
4.8873484
21
13.118436
0
LINE
8
DEFAULT_255_1_234
10
4.8873484
20
13.118436
11
4.3805458
21
13.118436
0
LINE
8
DEFAULT_255_1_234
10
4.3805458
20
13.118436
11
4.3805458
21
12.7039983
0
LINE
8
DEFAULT_255_1_234
10
4.3805458
20
12.7039983
11
4.9692722
21
12.7039983
0
LINE
8
DEFAULT_255_1_234
10
4.9692722
20
12.7039983
11
4.9692722
21
12.5779
0
LINE
8
DEFAULT_255_1_234
10
4.9692722
20
12.5779
11
4.2263364
21
12.5779
0
LINE
8
DEFAULT_255_1_234
10
4.2263364
20
12.5779
11
4.2263364
21
13.7473211
0
LINE
8
DEFAULT_255_1_234
10
4.2263364
20
13.7473211
11
4.9612404
21
13.7473211
0
LINE
8
DEFAULT_255_1_234
10
4.9612404
20
13.7473211
11
4.9612404
21
13.6204196
0
LINE
8
DEFAULT_255_1_234
10
4.9612404
20
13.6204196
11
4.3805458
21
13.6204196
0
LINE
8
DEFAULT_255_1_234
10
4.3805458
20
13.6204196
11
4.3805458
21
13.2445343
0
LINE
8
DEFAULT_255_1_234
10
4.3805458
20
13.2445343
11
4.8873484
21
13.2445343
0
LINE
8
DEFAULT_255_1_234
10
5.9852871
20
13.7473211
11
5.9852871
21
13.6204196
0
LINE
8
DEFAULT_255_1_234
10
5.9852871
20
13.6204196
11
5.6094017
21
13.6204196
0
LINE
8
DEFAULT_255_1_234
10
5.6094017
20
13.6204196
11
5.6094017
21
12.5779
0
LINE
8
DEFAULT_255_1_234
10
5.6094017
20
12.5779
11
5.4559955
21
12.5779
0
LINE
8
DEFAULT_255_1_234
10
5.4559955
20
12.5779
11
5.4559955
21
13.6204196
0
LINE
8
DEFAULT_255_1_234
10
5.4559955
20
13.6204196
11
5.0809133
21
13.6204196
0
LINE
8
DEFAULT_255_1_234
10
5.0809133
20
13.6204196
11
5.0809133
21
13.7473211
0
LINE
8
DEFAULT_255_1_234
10
5.0809133
20
13.7473211
11
5.9852871
21
13.7473211
0
LINE
8
DEFAULT_255_1_234
10
7.0575241
20
13.7473211
11
7.0575241
21
12.5779
0
LINE
8
DEFAULT_255_1_234
10
7.0575241
20
12.5779
11
6.9025116
21
12.5779
0
LINE
8
DEFAULT_255_1_234
10
6.9025116
20
12.5779
11
6.9025116
21
13.118436
0
LINE
8
DEFAULT_255_1_234
10
6.9025116
20
13.118436
11
6.312982
21
13.118436
0
LINE
8
DEFAULT_255_1_234
10
6.312982
20
13.118436
11
6.312982
21
12.5779
0
LINE
8
DEFAULT_255_1_234
10
6.312982
20
12.5779
11
6.1587726
21
12.5779
0
LINE
8
DEFAULT_255_1_234
10
6.1587726
20
12.5779
11
6.1587726
21
13.7473211
0
LINE
8
DEFAULT_255_1_234
10
6.1587726
20
13.7473211
11
6.312982
21
13.7473211
0
LINE
8
DEFAULT_255_1_234
10
6.312982
20
13.7473211
11
6.312982
21
13.2445343
0
LINE
8
DEFAULT_255_1_234
10
6.312982
20
13.2445343
11
6.9025116
21
13.2445343
0
LINE
8
DEFAULT_255_1_234
10
6.9025116
20
13.2445343
11
6.9025116
21
13.7473211
0
LINE
8
DEFAULT_255_1_234
10
6.9025116
20
13.7473211
11
7.0575241
21
13.7473211
0
LINE
8
DEFAULT_255_1_234
10
7.7811837
20
13.7529433
11
7.7811837
21
12.5779
0
LINE
8
DEFAULT_255_1_234
10
7.7811837
20
12.5779
11
7.6317934
21
12.5779
0
LINE
8
DEFAULT_255_1_234
10
7.6317934
20
12.5779
11
7.6317934
21
13.5682133
0
LINE
8
DEFAULT_255_1_234
10
7.6317934
20
13.5682133
11
7.3322096
21
13.4581785
0
LINE
8
DEFAULT_255_1_234
10
7.3322096
20
13.4581785
11
7.3322096
21
13.5931117
0
LINE
8
DEFAULT_255_1_234
10
7.3322096
20
13.5931117
11
7.7578917
21
13.7529433
0
LINE
8
DEFAULT_255_1_234
10
7.7578917
20
13.7529433
11
7.7811837
21
13.7529433
0
LINE
8
DEFAULT_255_1_234
10
23.1659817
20
21.2069327
11
23.1659817
21
21.0141709
0
LINE
8
DEFAULT_255_1_234
10
22.427865
20
20.9940916
11
22.427865
21
21.1924755
0
LINE
8
DEFAULT_255_1_234
10
23.0173946
20
20.9740123
11
23.0173946
21
21.2173739
0
LINE
8
DEFAULT_255_1_234
10
22.5764521
20
21.2286184
11
22.5764521
21
20.9908789
0
ARC
8
DEFAULT_255_1_234
10
21.9412707
20
21.0092805
40
1.2247208
50
353.8441951
51
0.2287902
0
ARC
8
DEFAULT_255_1_234
10
22.4052211
20
20.9574806
40
0.7578929
50
344.4934747
51
353.9765454
0
ARC
8
DEFAULT_255_1_234
10
22.7044801
20
20.8723981
40
0.4467846
50
329.2803592
51
344.7472793
0
ARC
8
DEFAULT_255_1_234
10
22.8037626
20
20.8179018
40
0.3336173
50
324.9352394
51
328.6160465
0
ARC
8
DEFAULT_255_1_234
10
22.8414734
20
20.7915427
40
0.2876076
50
280.580143
51
324.9173126
0
ARC
8
DEFAULT_255_1_234
10
22.8013527
20
20.9586099
40
0.4592847
50
269.5977311
51
281.6734359
0
ARC
8
DEFAULT_255_1_234
10
22.7941433
20
20.9466173
40
0.4472986
50
256.6228859
51
270.51044
0
ARC
8
DEFAULT_255_1_234
10
22.753941
20
20.7917877
40
0.2873874
50
215.8618325
51
257.2788573
0
ARC
8
DEFAULT_255_1_234
10
22.8560442
20
20.8602977
40
0.4102928
50
197.9693508
51
215.2623606
0
ARC
8
DEFAULT_255_1_234
10
23.1045558
20
20.9441709
40
0.6725652
50
187.8816417
51
198.2346507
0
ARC
8
DEFAULT_255_1_234
10
23.5003766
20
21.0013079
40
1.0724845
50
180.8976217
51
188.0055519
0
ARC
8
DEFAULT_255_1_234
10
23.7803954
20
21.0116777
40
1.3526448
50
180.7449369
51
181.1510016
0
ARC
8
DEFAULT_255_1_234
10
23.6226683
20
21.1973042
40
1.1948131
50
173.7675579
51
180.231553
0
ARC
8
DEFAULT_255_1_234
10
23.170883
20
21.2483666
40
0.7401564
50
164.3058563
51
173.9002247
0
ARC
8
DEFAULT_255_1_234
10
22.8796899
20
21.3322656
40
0.4371288
50
148.7922025
51
164.568378
0
ARC
8
DEFAULT_255_1_234
10
22.7845351
20
21.3853929
40
0.3282386
50
144.5883898
51
148.1176286
0
ARC
8
DEFAULT_255_1_234
10
22.7502249
20
21.4093315
40
0.2864044
50
101.6440918
51
144.514236
0
ARC
8
DEFAULT_255_1_234
10
22.7927315
20
21.2404069
40
0.4604934
50
89.5284041
51
102.5819763
0
ARC
8
DEFAULT_255_1_234
10
22.8006403
20
21.2365018
40
0.464401
50
77.0437873
51
90.5081339
0
ARC
8
DEFAULT_255_1_234
10
22.8408405
20
21.4007615
40
0.2953195
50
48.2778575
51
77.4994676
0
ARC
8
DEFAULT_255_1_234
10
22.8481036
20
21.4136746
40
0.2808655
50
36.3142134
51
47.6305865
0
ARC
8
DEFAULT_255_1_234
10
22.7612343
20
21.3551515
40
0.3855453
50
18.2931786
51
35.6769206
0
ARC
8
DEFAULT_255_1_234
10
22.5069102
20
21.2678593
40
0.654423
50
8.024666
51
18.5605216
0
ARC
8
DEFAULT_255_1_234
10
22.0906022
20
21.2063792
40
1.0752407
50
1.1274072
51
8.1718305
0
ARC
8
DEFAULT_255_1_234
10
21.7670213
20
21.1936885
40
1.3990231
50
0.5424119
51
1.3863029
0
ARC
8
DEFAULT_255_1_234
10
21.949159
20
21.2209342
40
1.0682415
50
359.8090433
51
4.9407866
0
ARC
8
DEFAULT_255_1_234
10
22.3701604
20
21.2585113
40
0.6455691
50
4.8362157
51
12.2904523
0
ARC
8
DEFAULT_255_1_234
10
22.6456719
20
21.3198965
40
0.3633074
50
12.0805627
51
23.8173984
0
ARC
8
DEFAULT_255_1_234
10
22.7630425
20
21.3695919
40
0.2358723
50
24.2871213
51
31.3935614
0
ARC
8
DEFAULT_255_1_234
10
22.8155122
20
21.4039233
40
0.1732111
50
30.7407893
51
82.4657128
0
ARC
8
DEFAULT_255_1_234
10
22.7975256
20
21.3155691
40
0.263235
50
81.1060089
51
90.2184952
0
ARC
8
DEFAULT_255_1_234
10
22.7939555
20
21.3413924
40
0.2374236
50
89.3806855
51
105.6762551
0
ARC
8
DEFAULT_255_1_234
10
22.7756186
20
21.4080567
40
0.1682847
50
105.7981136
51
149.7388061
0
ARC
8
DEFAULT_255_1_234
10
22.8820264
20
21.344095
40
0.2924306
50
149.4208916
51
163.6286378
0
ARC
8
DEFAULT_255_1_234
10
23.0911152
20
21.280325
40
0.5110213
50
163.3763315
51
172.1410975
0
ARC
8
DEFAULT_255_1_234
10
23.4211871
20
21.2330518
40
0.8444586
50
172.0259487
51
178.0703232
0
ARC
8
DEFAULT_255_1_234
10
23.724196
20
21.2186906
40
1.1477868
50
177.8631668
51
179.5044149
0
ARC
8
DEFAULT_255_1_234
10
23.6169365
20
20.9872389
40
1.0404907
50
179.7995573
51
185.2460446
0
ARC
8
DEFAULT_255_1_234
10
23.2126404
20
20.9489513
40
0.6343885
50
185.1411642
51
193.0079639
0
ARC
8
DEFAULT_255_1_234
10
22.9482877
20
20.8864641
40
0.3627568
50
192.7897626
51
205.2507664
0
ARC
8
DEFAULT_255_1_234
10
22.8436424
20
20.8397415
40
0.2481908
50
205.8005384
51
211.2537509
0
ARC
8
DEFAULT_255_1_234
10
22.7912864
20
20.804658
40
0.1852521
50
210.3789793
51
238.4008143
0
ARC
8
DEFAULT_255_1_234
10
22.7893386
20
20.8093376
40
0.1882621
50
239.6520629
51
265.9793761
0
ARC
8
DEFAULT_255_1_234
10
22.7978586
20
20.8765427
40
0.2559272
50
265.1315437
51
270.060332
0
ARC
8
DEFAULT_255_1_234
10
22.8007365
20
20.8441534
40
0.2235528
50
269.3314664
51
287.2178029
0
ARC
8
DEFAULT_255_1_234
10
22.8145217
20
20.7938279
40
0.1714108
50
287.7958004
51
329.080874
0
ARC
8
DEFAULT_255_1_234
10
22.7187674
20
20.853593
40
0.2842745
50
328.6634704
51
343.3325132
0
ARC
8
DEFAULT_255_1_234
10
22.5014694
20
20.9212863
40
0.5118644
50
343.0499468
51
351.9393422
0
ARC
8
DEFAULT_255_1_234
10
22.1547994
20
20.9723949
40
0.8622784
50
351.8069023
51
357.7959224
0
ARC
8
DEFAULT_255_1_234
10
21.831255
20
20.9891721
40
1.1862365
50
357.5871873
51
359.2677531
0
LINE
8
DEFAULT_255_1_234
10
23.4495021
20
21.6848211
11
23.7820161
21
20.7202093
0
LINE
8
DEFAULT_255_1_234
10
23.7820161
20
20.7202093
11
24.1161364
21
21.6848211
0
LINE
8
DEFAULT_255_1_234
10
24.1161364
20
21.6848211
11
24.2848029
21
21.6848211
0
LINE
8
DEFAULT_255_1_234
10
24.2848029
20
21.6848211
11
23.851089
21
20.5154
0
LINE
8
DEFAULT_255_1_234
10
23.851089
20
20.5154
11
23.7145495
21
20.5154
0
LINE
8
DEFAULT_255_1_234
10
23.7145495
20
20.5154
11
23.2816388
21
21.6848211
0
LINE
8
DEFAULT_255_1_234
10
23.2816388
20
21.6848211
11
23.4495021
21
21.6848211
0
ENDSEC
0
EOF