0
SECTION
2
HEADER
9
$MEASUREMENT
70
1
0
ENDSEC
0
SECTION
2
TABLES
0
TABLE
2
LTYPE
0
LTYPE
72
65
70
64
2
CONTINUOUS
3
______
73
0
40
0
0
ENDTAB
0
TABLE
2
LAYER
0
LAYER
2
DEFAULT_255_2_778
70
0
62
255
6
CONTINUOUS
0
ENDTAB
0
ENDSEC
0
SECTION
2
ENTITIES
0
ARC
8
DEFAULT_255_2_778
10
3.5909565
20
74.4941265
40
0.0468936
50
58.401344
51
93.4227436
0
ARC
8
DEFAULT_255_2_778
10
3.453105
20
73.246221
40
1.3017399
50
84.0450105
51
87.878597
0
ARC
8
DEFAULT_255_2_778
10
3.2963319
20
69.6897988
40
4.8615922
50
87.5837537
51
89.5633757
0
ARC
8
DEFAULT_255_2_778
10
3.2664938
20
67.5132155
40
7.0383521
50
89.4555086
51
90.003799
0
ARC
8
DEFAULT_255_2_778
10
3.5277137
20
79.1011954
40
0.0933384
50
19.8116204
51
43.1270108
0
ARC
8
DEFAULT_255_2_778
10
2.4761484
20
78.2800178
40
1.4271997
50
38.3223567
51
42.2446665
0
ARC
8
DEFAULT_255_2_778
10
-0.191502
20
75.8917706
40
5.0076882
50
41.9531059
51
43.7928764
0
ARC
8
DEFAULT_255_2_778
10
-3.0536383
20
73.163327
40
8.9619464
50
43.7210525
51
44.9989837
0
ARC
8
DEFAULT_255_2_778
10
6.4495467
20
79.1001746
40
0.0950945
50
136.5384099
51
158.9016994
0
ARC
8
DEFAULT_255_2_778
10
7.3935963
20
78.3591765
40
1.2948414
50
138.2221028
51
141.4800431
0
ARC
8
DEFAULT_255_2_778
10
9.7119083
20
76.3036994
40
4.39315
50
136.5011781
51
138.3750363
0
ARC
8
DEFAULT_255_2_778
10
12.9504138
20
73.2428005
40
8.8492673
50
135.001005
51
136.558484
0
ARC
8
DEFAULT_255_2_778
10
6.7002434
20
71.7582121
40
2.7933737
50
89.7931686
51
89.9988526
0
ARC
8
DEFAULT_255_2_778
10
6.6997551
20
71.835482
40
2.7161039
50
89.9885207
51
94.9958486
0
ARC
8
DEFAULT_255_2_778
10
6.5099038
20
73.9793537
40
0.5638492
50
94.7485002
51
102.7589695
0
ARC
8
DEFAULT_255_2_778
10
6.392575
20
74.4802543
40
0.0495515
50
98.3518339
51
128.3690942
0
ARC
8
DEFAULT_255_2_778
10
6.3649658
20
74.5164137
40
0.0041415
50
139.4870411
51
177.8704882
0
LINE
8
DEFAULT_255_2_778
10
3.6155271
20
79.1343676
11
3.6155271
21
74.5340676
0
LINE
8
DEFAULT_255_2_778
10
3.2660271
20
74.5515676
11
3.2660271
21
79.5174676
0
LINE
8
DEFAULT_255_2_778
10
3.2660271
20
79.5174676
11
6.7103271
21
79.5174676
0
LINE
8
DEFAULT_255_2_778
10
3.6155271
20
72.8827676
11
6.3611271
21
72.8827676
0
LINE
8
DEFAULT_255_2_778
10
6.3611271
20
79.1327676
11
3.6155271
21
79.1327676
0
LINE
8
DEFAULT_255_2_778
10
3.2835271
20
79.5002676
11
3.2660271
21
79.5177676
0
LINE
8
DEFAULT_255_2_778
10
5.7190271
20
78.0064676
11
5.7190271
21
74.0064676
0
LINE
8
DEFAULT_255_2_778
10
5.7190271
20
74.0064676
11
4.2214271
21
74.0064676
0
LINE
8
DEFAULT_255_2_778
10
4.2214271
20
74.0064676
11
4.2214271
21
78.0061676
0
LINE
8
DEFAULT_255_2_778
10
4.2214271
20
78.0061676
11
5.7190271
21
78.0064676
0
LINE
8
DEFAULT_255_2_778
10
3.6155271
20
74.5343676
11
3.6155271
21
72.8830676
0
LINE
8
DEFAULT_255_2_778
10
3.6155271
20
72.8830676
11
3.2660271
21
72.5330676
0
LINE
8
DEFAULT_255_2_778
10
6.3608271
20
74.5171676
11
6.3608271
21
79.1343676
0
LINE
8
DEFAULT_255_2_778
10
6.6929271
20
79.5000676
11
6.7103271
21
79.5174676
0
LINE
8
DEFAULT_255_2_778
10
6.7103271
20
79.5174676
11
6.7103271
21
74.5515676
0
LINE
8
DEFAULT_255_2_778
10
6.3608271
20
74.5165676
11
6.3608271
21
72.8827676
0
LINE
8
DEFAULT_255_2_778
10
6.3608271
20
72.8827676
11
6.3674271
21
72.8761676
0
LINE
8
DEFAULT_255_2_778
10
6.3674271
20
72.8761676
11
6.3873271
21
72.8563676
0
LINE
8
DEFAULT_255_2_778
10
6.3873271
20
72.8563676
11
6.4196271
21
72.8240676
0
LINE
8
DEFAULT_255_2_778
10
6.4196271
20
72.8240676
11
6.4630271
21
72.7804676
0
LINE
8
DEFAULT_255_2_778
10
6.4630271
20
72.7804676
11
6.5159271
21
72.7274676
0
LINE
8
DEFAULT_255_2_778
10
6.5159271
20
72.7274676
11
6.7101271
21
72.5330676
0
ARC
8
DEFAULT_255_2_778
10
4.0591906
20
66.9007938
40
0.9634939
50
60.7152943
51
90.9578907
0
ARC
8
DEFAULT_255_2_778
10
4.1036287
20
66.9956167
40
0.8590864
50
27.4514742
51
60.2068345
0
ARC
8
DEFAULT_255_2_778
10
3.9198354
20
66.8998507
40
1.0663327
50
0.7266328
51
27.4651556
0
ARC
8
DEFAULT_255_2_778
10
3.6356463
20
66.8765852
40
1.3509371
50
359.994399
51
1.5604667
0
ARC
8
DEFAULT_255_2_778
10
3.8608688
20
66.7669832
40
1.125805
50
338.9201127
51
0.7262612
0
ARC
8
DEFAULT_255_2_778
10
4.0140478
20
66.7183948
40
0.9654503
50
332.2021105
51
338.3410675
0
ARC
8
DEFAULT_255_2_778
10
4.1137223
20
66.6577022
40
0.8490048
50
299.6622682
51
332.6883426
0
ARC
8
DEFAULT_255_2_778
10
4.0565253
20
66.7678234
40
0.9730133
50
269.4616717
51
299.3798746
0
ARC
8
DEFAULT_255_2_778
10
4.0525725
20
66.6715973
40
0.5343196
50
268.5319323
51
296.0023202
0
ARC
8
DEFAULT_255_2_778
10
4.0971128
20
66.5587529
40
0.4134787
50
297.3105514
51
321.4285617
0
ARC
8
DEFAULT_255_2_778
10
3.9582276
20
66.6590562
40
0.5846587
50
322.2295539
51
348.7229837
0
ARC
8
DEFAULT_255_2_778
10
3.4846308
20
66.767723
40
1.0704528
50
347.9759906
51
0.0444316
0
ARC
8
DEFAULT_255_2_778
10
3.4475759
20
66.8906606
40
1.1075792
50
359.3477941
51
12.2042792
0
ARC
8
DEFAULT_255_2_778
10
3.9733945
20
67.0108705
40
0.5682673
50
11.5654041
51
37.2349158
0
ARC
8
DEFAULT_255_2_778
10
4.0626318
20
67.0660465
40
0.4639431
50
38.4782736
51
38.7046837
0
ARC
8
DEFAULT_255_2_778
10
4.0854719
20
67.0778604
40
0.438761
50
39.3658132
51
87.3423916
0
ARC
8
DEFAULT_255_2_778
10
4.0440219
20
66.81142
40
0.7074335
50
84.988841
51
90.0760166
0
LINE
8
DEFAULT_255_2_778
10
4.0473834
20
65.7951531
11
3.4075834
21
65.7951531
0
LINE
8
DEFAULT_255_2_778
10
3.4075834
20
65.7951531
11
3.4075834
21
67.8641531
0
LINE
8
DEFAULT_255_2_778
10
3.4075834
20
67.8641531
11
4.0430834
21
67.8641531
0
LINE
8
DEFAULT_255_2_778
10
4.9865834
20
66.8764531
11
4.9865834
21
66.7812531
0
LINE
8
DEFAULT_255_2_778
10
4.0473834
20
65.7948531
11
4.0473834
21
65.7951531
0
LINE
8
DEFAULT_255_2_778
10
4.0430834
20
67.5188531
11
3.8329834
21
67.5188531
0
LINE
8
DEFAULT_255_2_778
10
3.8329834
20
67.5188531
11
3.8329834
21
66.1374531
0
LINE
8
DEFAULT_255_2_778
10
3.8329834
20
66.1374531
11
4.0388834
21
66.1374531
0
LINE
8
DEFAULT_255_2_778
10
4.5550834
20
66.7685531
11
4.5550834
21
66.8780531
0
LINE
8
DEFAULT_255_2_778
10
4.0430834
20
67.5188531
11
4.0430834
21
67.5188531
0
ARC
8
DEFAULT_255_2_778
10
4.3418194
20
68.2482238
40
2.1489844
50
317.256698
51
323.0038019
0
ARC
8
DEFAULT_255_2_778
10
5.1869053
20
67.6091823
40
1.0894857
50
323.1008878
51
329.2830533
0
ARC
8
DEFAULT_255_2_778
10
5.7547388
20
67.2846043
40
0.4356641
50
327.8352368
51
355.4589583
0
ARC
8
DEFAULT_255_2_778
10
5.8747038
20
67.2660178
40
0.3147337
50
357.1030856
51
359.9923994
0
ARC
8
DEFAULT_255_2_778
10
5.8477169
20
67.27935
40
0.3419822
50
357.7587537
51
30.130992
0
ARC
8
DEFAULT_255_2_778
10
5.9364773
20
67.3210157
40
0.2444485
50
32.1283688
51
41.4011488
0
ARC
8
DEFAULT_255_2_778
10
5.9367274
20
67.3108688
40
0.2510917
50
43.1759476
51
93.5597011
0
ARC
8
DEFAULT_255_2_778
10
5.908638
20
67.2919786
40
0.2697871
50
87.3444685
51
139.977376
0
ARC
8
DEFAULT_255_2_778
10
5.9924117
20
67.2358779
40
0.3701789
50
141.6666709
51
180.1465709
0
ARC
8
DEFAULT_255_2_778
10
6.2056599
20
67.2134147
40
0.5838225
50
177.8879418
51
180.0136141
0
ARC
8
DEFAULT_255_2_778
10
5.8891904
20
67.2204018
40
0.6787903
50
150.1189356
51
180.6014934
0
ARC
8
DEFAULT_255_2_778
10
5.8504145
20
67.2418039
40
0.6345071
50
117.703203
51
150.0501916
0
ARC
8
DEFAULT_255_2_778
10
5.9154278
20
67.120123
40
0.7724643
50
89.0275716
51
117.7768003
0
ARC
8
DEFAULT_255_2_778
10
5.9413738
20
66.9122649
40
0.9802951
50
75.0340218
51
90.7502704
0
ARC
8
DEFAULT_255_2_778
10
6.0435624
20
67.2913866
40
0.5876443
50
49.611384
51
75.113568
0
ARC
8
DEFAULT_255_2_778
10
6.0818405
20
67.3524058
40
0.5164695
50
3.5007351
51
48.4594073
0
ARC
8
DEFAULT_255_2_778
10
5.795427
20
67.3069017
40
0.8056116
50
359.912827
51
5.4875643
0
ARC
8
DEFAULT_255_2_778
10
5.902565
20
67.3162985
40
0.6985533
50
332.4198523
51
359.1287047
0
ARC
8
DEFAULT_255_2_778
10
5.452971
20
67.5415058
40
1.2013561
50
323.1187062
51
332.8272141
0
ARC
8
DEFAULT_255_2_778
10
4.4655939
20
68.2696652
40
2.4281727
50
317.4795209
51
323.3580383
0
ARC
8
DEFAULT_255_2_778
10
3.7558758
20
68.8973328
40
3.3755149
50
317.6174909
51
317.7689646
0
LINE
8
DEFAULT_255_2_778
10
6.6677375
20
66.126076
11
6.6677375
21
65.795076
0
LINE
8
DEFAULT_255_2_778
10
6.6677375
20
65.795076
11
5.2517375
21
65.795076
0
LINE
8
DEFAULT_255_2_778
10
5.2517375
20
65.795076
11
5.2517375
21
66.076376
0
LINE
8
DEFAULT_255_2_778
10
5.2517375
20
66.076376
11
5.9200375
21
66.789676
0
LINE
8
DEFAULT_255_2_778
10
5.6218375
20
67.213276
11
5.2104375
21
67.213276
0
LINE
8
DEFAULT_255_2_778
10
6.2492375
20
66.621976
11
5.7795375
21
66.126076
0
LINE
8
DEFAULT_255_2_778
10
5.7795375
20
66.126076
11
6.6677375
21
66.126076
0
LINE
8
DEFAULT_255_2_778
10
6.6677375
20
66.126076
11
6.6677375
21
66.126076
0
LINE
8
DEFAULT_255_2_778
10
7.7335115
20
66.8465969
11
7.7335115
21
66.5155969
0
LINE
8
DEFAULT_255_2_778
10
7.7335115
20
66.5155969
11
6.9347115
21
66.5155969
0
LINE
8
DEFAULT_255_2_778
10
6.9347115
20
66.5155969
11
6.9347115
21
66.8465969
0
LINE
8
DEFAULT_255_2_778
10
6.9347115
20
66.8465969
11
7.7335115
21
66.8465969
0
LINE
8
DEFAULT_255_2_778
10
7.7335115
20
66.8465969
11
7.7335115
21
66.8465969
0
LINE
8
DEFAULT_255_2_778
10
9.0416083
20
67.866876
11
9.0416083
21
65.794876
0
LINE
8
DEFAULT_255_2_778
10
9.0416083
20
65.794876
11
8.6315083
21
65.794876
0
LINE
8
DEFAULT_255_2_778
10
8.6315083
20
65.794876
11
8.6315083
21
67.377976
0
LINE
8
DEFAULT_255_2_778
10
8.6315083
20
67.377976
11
8.1420083
21
67.225776
0
LINE
8
DEFAULT_255_2_778
10
8.1420083
20
67.225776
11
8.1420083
21
67.559676
0
LINE
8
DEFAULT_255_2_778
10
8.1420083
20
67.559676
11
8.9974083
21
67.866576
0
LINE
8
DEFAULT_255_2_778
10
8.9974083
20
67.866576
11
9.0413083
21
67.866576
0
LINE
8
DEFAULT_255_2_778
10
9.0413083
20
67.866576
11
9.0416083
21
67.866876
0
ARC
8
DEFAULT_255_2_778
10
8.8027194
20
68.2482238
40
2.1489844
50
317.256698
51
323.0038019
0
ARC
8
DEFAULT_255_2_778
10
9.6478053
20
67.6091823
40
1.0894857
50
323.1008878
51
329.2830533
0
ARC
8
DEFAULT_255_2_778
10
10.2156388
20
67.2846043
40
0.4356641
50
327.8352368
51
355.4589583
0
ARC
8
DEFAULT_255_2_778
10
10.3356038
20
67.2660178
40
0.3147337
50
357.1030856
51
359.9923994
0
ARC
8
DEFAULT_255_2_778
10
10.3086169
20
67.27935
40
0.3419822
50
357.7587537
51
30.130992
0
ARC
8
DEFAULT_255_2_778
10
10.3973773
20
67.3210157
40
0.2444485
50
32.1283688
51
41.4011488
0
ARC
8
DEFAULT_255_2_778
10
10.3976274
20
67.3108688
40
0.2510917
50
43.1759476
51
93.5597011
0
ARC
8
DEFAULT_255_2_778
10
10.369538
20
67.2919786
40
0.2697871
50
87.3444685
51
139.977376
0
ARC
8
DEFAULT_255_2_778
10
10.4533117
20
67.2358779
40
0.3701789
50
141.6666709
51
180.1465709
0
ARC
8
DEFAULT_255_2_778
10
10.6665599
20
67.2134147
40
0.5838225
50
177.8879418
51
180.0136141
0
ARC
8
DEFAULT_255_2_778
10
10.3500904
20
67.2204018
40
0.6787903
50
150.1189356
51
180.6014934
0
ARC
8
DEFAULT_255_2_778
10
10.3113145
20
67.2418039
40
0.6345071
50
117.703203
51
150.0501916
0
ARC
8
DEFAULT_255_2_778
10
10.3763278
20
67.120123
40
0.7724643
50
89.0275716
51
117.7768003
0
ARC
8
DEFAULT_255_2_778
10
10.4022738
20
66.9122649
40
0.9802951
50
75.0340218
51
90.7502704
0
ARC
8
DEFAULT_255_2_778
10
10.5044624
20
67.2913866
40
0.5876443
50
49.611384
51
75.113568
0
ARC
8
DEFAULT_255_2_778
10
10.5427405
20
67.3524058
40
0.5164695
50
3.5007351
51
48.4594073
0
ARC
8
DEFAULT_255_2_778
10
10.256327
20
67.3069017
40
0.8056116
50
359.912827
51
5.4875643
0
ARC
8
DEFAULT_255_2_778
10
10.363465
20
67.3162985
40
0.6985533
50
332.4198523
51
359.1287047
0
ARC
8
DEFAULT_255_2_778
10
9.913871
20
67.5415058
40
1.2013561
50
323.1187062
51
332.8272141
0
ARC
8
DEFAULT_255_2_778
10
8.9264939
20
68.2696652
40
2.4281727
50
317.4795209
51
323.3580383
0
ARC
8
DEFAULT_255_2_778
10
8.2167758
20
68.8973328
40
3.3755149
50
317.6174909
51
317.7689646
0
LINE
8
DEFAULT_255_2_778
10
11.1286375
20
66.126076
11
11.1286375
21
65.795076
0
LINE
8
DEFAULT_255_2_778
10
11.1286375
20
65.795076
11
9.7126375
21
65.795076
0
LINE
8
DEFAULT_255_2_778
10
9.7126375
20
65.795076
11
9.7126375
21
66.076376
0
LINE
8
DEFAULT_255_2_778
10
9.7126375
20
66.076376
11
10.3809375
21
66.789676
0
LINE
8
DEFAULT_255_2_778
10
10.0827375
20
67.213276
11
9.6713375
21
67.213276
0
LINE
8
DEFAULT_255_2_778
10
10.7101375
20
66.621976
11
10.2404375
21
66.126076
0
LINE
8
DEFAULT_255_2_778
10
10.2404375
20
66.126076
11
11.1286375
21
66.126076
0
LINE
8
DEFAULT_255_2_778
10
11.1286375
20
66.126076
11
11.1286375
21
66.126076
0
LINE
8
DEFAULT_255_2_778
10
12.978525
20
67.8642208
11
12.978525
21
67.5189208
0
LINE
8
DEFAULT_255_2_778
10
12.978525
20
67.5189208
11
12.345725
21
67.5189208
0
LINE
8
DEFAULT_255_2_778
10
12.345725
20
67.5189208
11
12.345725
21
65.7952208
0
LINE
8
DEFAULT_255_2_778
10
12.345725
20
65.7952208
11
11.920025
21
65.7952208
0
LINE
8
DEFAULT_255_2_778
10
11.920025
20
65.7952208
11
11.920025
21
67.5189208
0
LINE
8
DEFAULT_255_2_778
10
11.920025
20
67.5189208
11
11.295825
21
67.5189208
0
LINE
8
DEFAULT_255_2_778
10
11.295825
20
67.5189208
11
11.295825
21
67.8642208
0
LINE
8
DEFAULT_255_2_778
10
11.295825
20
67.8642208
11
12.978525
21
67.8642208
0
LINE
8
DEFAULT_255_2_778
10
12.978525
20
67.8642208
11
12.978525
21
67.8642208
0
LINE
8
DEFAULT_255_2_778
10
14.3605573
20
65.7952208
11
14.2171573
21
66.2214208
0
LINE
8
DEFAULT_255_2_778
10
14.2171573
20
66.2214208
11
13.4707573
21
66.2214208
0
LINE
8
DEFAULT_255_2_778
10
13.4707573
20
66.2214208
11
13.3289573
21
65.7952208
0
LINE
8
DEFAULT_255_2_778
10
13.3289573
20
65.7952208
11
12.8762573
21
65.7952208
0
LINE
8
DEFAULT_255_2_778
10
12.8762573
20
65.7952208
11
13.6451573
21
67.8642208
0
LINE
8
DEFAULT_255_2_778
10
13.6451573
20
67.8642208
11
14.0396573
21
67.8642208
0
LINE
8
DEFAULT_255_2_778
10
14.0396573
20
67.8642208
11
14.8127573
21
65.7952208
0
LINE
8
DEFAULT_255_2_778
10
14.8127573
20
65.7952208
11
14.3600573
21
65.7952208
0
LINE
8
DEFAULT_255_2_778
10
14.3600573
20
65.7952208
11
14.3605573
21
65.7952208
0
LINE
8
DEFAULT_255_2_778
10
13.8427573
20
67.3414208
11
13.5858573
21
66.5669208
0
LINE
8
DEFAULT_255_2_778
10
13.5858573
20
66.5669208
11
14.1023573
21
66.5669208
0
LINE
8
DEFAULT_255_2_778
10
14.1023573
20
66.5669208
11
13.8427573
21
67.3414208
0
LINE
8
DEFAULT_255_2_778
10
13.8427573
20
67.3414208
11
13.8427573
21
67.3414208
0
ARC
8
DEFAULT_255_2_778
10
23.1018103
20
32.3021419
40
1.5001553
50
151.627056
51
180.1229452
0
ARC
8
DEFAULT_255_2_778
10
23.0960083
20
32.305048
40
1.4936693
50
98.0223741
51
151.619378
0
ARC
8
DEFAULT_255_2_778
10
23.0986556
20
32.2780542
40
1.5207687
50
89.9810565
51
97.9792018
0
ARC
8
DEFAULT_255_2_778
10
23.1022812
20
32.3046492
40
1.494177
50
61.54544
51
90.1197473
0
ARC
8
DEFAULT_255_2_778
10
23.1005035
20
32.3035512
40
1.4959895
50
8.8978902
51
61.5056163
0
ARC
8
DEFAULT_255_2_778
10
23.0709721
20
32.2995389
40
1.5257864
50
359.976869
51
8.8752216
0
ARC
8
DEFAULT_255_2_778
10
23.0965517
20
32.2956791
40
1.5002102
50
331.6273358
51
0.1238841
0
ARC
8
DEFAULT_255_2_778
10
23.1024511
20
32.2927875
40
1.4936452
50
278.0801525
51
331.6173969
0
ARC
8
DEFAULT_255_2_778
10
23.0996708
20
32.320167
40
1.5211441
50
269.9806999
51
278.0388824
0
ARC
8
DEFAULT_255_2_778
10
23.0960365
20
32.2930797
40
1.4940601
50
241.5459161
51
270.1197199
0
ARC
8
DEFAULT_255_2_778
10
23.0978422
20
32.2942039
40
1.4959092
50
188.8957752
51
241.5056255
0
ARC
8
DEFAULT_255_2_778
10
23.1277514
20
32.2983057
40
1.526093
50
179.9768281
51
188.8742774
0
LINE
8
DEFAULT_255_2_778
10
21.6016584
20
32.2989229
11
21.6016584
21
32.2989229
0
ARC
8
DEFAULT_255_2_778
10
23.1018103
20
36.3021419
40
1.5001553
50
151.627056
51
180.1229452
0
ARC
8
DEFAULT_255_2_778
10
23.0960083
20
36.305048
40
1.4936693
50
98.0223741
51
151.619378
0
ARC
8
DEFAULT_255_2_778
10
23.0986556
20
36.2780542
40
1.5207687
50
89.9810565
51
97.9792018
0
ARC
8
DEFAULT_255_2_778
10
23.1022812
20
36.3046492
40
1.494177
50
61.54544
51
90.1197473
0
ARC
8
DEFAULT_255_2_778
10
23.1005035
20
36.3035512
40
1.4959895
50
8.8978902
51
61.5056163
0
ARC
8
DEFAULT_255_2_778
10
23.0709721
20
36.2995389
40
1.5257864
50
359.976869
51
8.8752216
0
ARC
8
DEFAULT_255_2_778
10
23.0965517
20
36.2956791
40
1.5002102
50
331.6273358
51
0.1238841
0
ARC
8
DEFAULT_255_2_778
10
23.1024511
20
36.2927875
40
1.4936452
50
278.0801525
51
331.6173969
0
ARC
8
DEFAULT_255_2_778
10
23.0996708
20
36.320167
40
1.5211441
50
269.9806999
51
278.0388824
0
ARC
8
DEFAULT_255_2_778
10
23.0960365
20
36.2930797
40
1.4940601
50
241.5459161
51
270.1197199
0
ARC
8
DEFAULT_255_2_778
10
23.0978422
20
36.2942039
40
1.4959092
50
188.8957752
51
241.5056255
0
ARC
8
DEFAULT_255_2_778
10
23.1277514
20
36.2983057
40
1.526093
50
179.9768281
51
188.8742774
0
LINE
8
DEFAULT_255_2_778
10
21.6016584
20
36.2989229
11
21.6016584
21
36.2989229
0
ARC
8
DEFAULT_255_2_778
10
23.1018103
20
40.3018419
40
1.5001553
50
151.627056
51
180.1229452
0
ARC
8
DEFAULT_255_2_778
10
23.0960083
20
40.304748
40
1.4936693
50
98.0223741
51
151.619378
0
ARC
8
DEFAULT_255_2_778
10
23.0986556
20
40.2777542
40
1.5207687
50
89.9810565
51
97.9792018
0
ARC
8
DEFAULT_255_2_778
10
23.1022812
20
40.3043492
40
1.494177
50
61.54544
51
90.1197473
0
ARC
8
DEFAULT_255_2_778
10
23.1005035
20
40.3032512
40
1.4959895
50
8.8978902
51
61.5056163
0
ARC
8
DEFAULT_255_2_778
10
23.0709721
20
40.2992389
40
1.5257864
50
359.976869
51
8.8752216
0
ARC
8
DEFAULT_255_2_778
10
23.0965517
20
40.2953791
40
1.5002102
50
331.6273358
51
0.1238841
0
ARC
8
DEFAULT_255_2_778
10
23.1024511
20
40.2924875
40
1.4936452
50
278.0801525
51
331.6173969
0
ARC
8
DEFAULT_255_2_778
10
23.0996708
20
40.319867
40
1.5211441
50
269.9806999
51
278.0388824
0
ARC
8
DEFAULT_255_2_778
10
23.0960365
20
40.2927797
40
1.4940601
50
241.5459161
51
270.1197199
0
ARC
8
DEFAULT_255_2_778
10
23.0978422
20
40.2939039
40
1.4959092
50
188.8957752
51
241.5056255
0
ARC
8
DEFAULT_255_2_778
10
23.1277514
20
40.2980057
40
1.526093
50
179.9768281
51
188.8742774
0
LINE
8
DEFAULT_255_2_778
10
21.6016584
20
40.2986229
11
21.6016584
21
40.2986229
0
ARC
8
DEFAULT_255_2_778
10
23.1018103
20
20.3022419
40
1.5001553
50
151.627056
51
180.1229452
0
ARC
8
DEFAULT_255_2_778
10
23.0960083
20
20.305148
40
1.4936693
50
98.0223741
51
151.619378
0
ARC
8
DEFAULT_255_2_778
10
23.0986556
20
20.2781542
40
1.5207687
50
89.9810565
51
97.9792018
0
ARC
8
DEFAULT_255_2_778
10
23.1022812
20
20.3047492
40
1.494177
50
61.54544
51
90.1197473
0
ARC
8
DEFAULT_255_2_778
10
23.1005035
20
20.3036512
40
1.4959895
50
8.8978902
51
61.5056163
0
ARC
8
DEFAULT_255_2_778
10
23.0709721
20
20.2996389
40
1.5257864
50
359.976869
51
8.8752216
0
ARC
8
DEFAULT_255_2_778
10
23.0965517
20
20.2957791
40
1.5002102
50
331.6273358
51
0.1238841
0
ARC
8
DEFAULT_255_2_778
10
23.1024511
20
20.2928875
40
1.4936452
50
278.0801525
51
331.6173969
0
ARC
8
DEFAULT_255_2_778
10
23.0996708
20
20.320267
40
1.5211441
50
269.9806999
51
278.0388824
0
ARC
8
DEFAULT_255_2_778
10
23.0960365
20
20.2931797
40
1.4940601
50
241.5459161
51
270.1197199
0
ARC
8
DEFAULT_255_2_778
10
23.0978422
20
20.2943039
40
1.4959092
50
188.8957752
51
241.5056255
0
ARC
8
DEFAULT_255_2_778
10
23.1277514
20
20.2984057
40
1.526093
50
179.9768281
51
188.8742774
0
LINE
8
DEFAULT_255_2_778
10
21.6016584
20
20.2990229
11
21.6016584
21
20.2990229
0
ARC
8
DEFAULT_255_2_778
10
23.1018103
20
28.3021419
40
1.5001553
50
151.627056
51
180.1229452
0
ARC
8
DEFAULT_255_2_778
10
23.0960083
20
28.305048
40
1.4936693
50
98.0223741
51
151.619378
0
ARC
8
DEFAULT_255_2_778
10
23.0986556
20
28.2780542
40
1.5207687
50
89.9810565
51
97.9792018
0
ARC
8
DEFAULT_255_2_778
10
23.1022812
20
28.3046492
40
1.494177
50
61.54544
51
90.1197473
0
ARC
8
DEFAULT_255_2_778
10
23.1005035
20
28.3035512
40
1.4959895
50
8.8978902
51
61.5056163
0
ARC
8
DEFAULT_255_2_778
10
23.0709721
20
28.2995389
40
1.5257864
50
359.976869
51
8.8752216
0
ARC
8
DEFAULT_255_2_778
10
23.0965517
20
28.2956791
40
1.5002102
50
331.6273358
51
0.1238841
0
ARC
8
DEFAULT_255_2_778
10
23.1024511
20
28.2927875
40
1.4936452
50
278.0801525
51
331.6173969
0
ARC
8
DEFAULT_255_2_778
10
23.0996708
20
28.320167
40
1.5211441
50
269.9806999
51
278.0388824
0
ARC
8
DEFAULT_255_2_778
10
23.0960365
20
28.2930797
40
1.4940601
50
241.5459161
51
270.1197199
0
ARC
8
DEFAULT_255_2_778
10
23.0978422
20
28.2942039
40
1.4959092
50
188.8957752
51
241.5056255
0
ARC
8
DEFAULT_255_2_778
10
23.1277514
20
28.2983057
40
1.526093
50
179.9768281
51
188.8742774
0
LINE
8
DEFAULT_255_2_778
10
21.6016584
20
28.2989229
11
21.6016584
21
28.2989229
0
ARC
8
DEFAULT_255_2_778
10
23.1018103
20
24.3022419
40
1.5001553
50
151.627056
51
180.1229452
0
ARC
8
DEFAULT_255_2_778
10
23.0960083
20
24.305148
40
1.4936693
50
98.0223741
51
151.619378
0
ARC
8
DEFAULT_255_2_778
10
23.0986556
20
24.2781542
40
1.5207687
50
89.9810565
51
97.9792018
0
ARC
8
DEFAULT_255_2_778
10
23.1022812
20
24.3047492
40
1.494177
50
61.54544
51
90.1197473
0
ARC
8
DEFAULT_255_2_778
10
23.1005035
20
24.3036512
40
1.4959895
50
8.8978902
51
61.5056163
0
ARC
8
DEFAULT_255_2_778
10
23.0709721
20
24.2996389
40
1.5257864
50
359.976869
51
8.8752216
0
ARC
8
DEFAULT_255_2_778
10
23.0965517
20
24.2957791
40
1.5002102
50
331.6273358
51
0.1238841
0
ARC
8
DEFAULT_255_2_778
10
23.1024511
20
24.2928875
40
1.4936452
50
278.0801525
51
331.6173969
0
ARC
8
DEFAULT_255_2_778
10
23.0996708
20
24.320267
40
1.5211441
50
269.9806999
51
278.0388824
0
ARC
8
DEFAULT_255_2_778
10
23.0960365
20
24.2931797
40
1.4940601
50
241.5459161
51
270.1197199
0
ARC
8
DEFAULT_255_2_778
10
23.0978422
20
24.2943039
40
1.4959092
50
188.8957752
51
241.5056255
0
ARC
8
DEFAULT_255_2_778
10
23.1277514
20
24.2984057
40
1.526093
50
179.9768281
51
188.8742774
0
LINE
8
DEFAULT_255_2_778
10
21.6016584
20
24.2990229
11
21.6016584
21
24.2990229
0
ARC
8
DEFAULT_255_2_778
10
23.1018103
20
52.3017419
40
1.5001553
50
151.627056
51
180.1229452
0
ARC
8
DEFAULT_255_2_778
10
23.0960083
20
52.304648
40
1.4936693
50
98.0223741
51
151.619378
0
ARC
8
DEFAULT_255_2_778
10
23.0986556
20
52.2776542
40
1.5207687
50
89.9810565
51
97.9792018
0
ARC
8
DEFAULT_255_2_778
10
23.1022812
20
52.3042492
40
1.494177
50
61.54544
51
90.1197473
0
ARC
8
DEFAULT_255_2_778
10
23.1005035
20
52.3031512
40
1.4959895
50
8.8978902
51
61.5056163
0
ARC
8
DEFAULT_255_2_778
10
23.0709721
20
52.2991389
40
1.5257864
50
359.976869
51
8.8752216
0
ARC
8
DEFAULT_255_2_778
10
23.0965517
20
52.2952791
40
1.5002102
50
331.6273358
51
0.1238841
0
ARC
8
DEFAULT_255_2_778
10
23.1024511
20
52.2923875
40
1.4936452
50
278.0801525
51
331.6173969
0
ARC
8
DEFAULT_255_2_778
10
23.0996708
20
52.319767
40
1.5211441
50
269.9806999
51
278.0388824
0
ARC
8
DEFAULT_255_2_778
10
23.0960365
20
52.2926797
40
1.4940601
50
241.5459161
51
270.1197199
0
ARC
8
DEFAULT_255_2_778
10
23.0978422
20
52.2938039
40
1.4959092
50
188.8957752
51
241.5056255
0
ARC
8
DEFAULT_255_2_778
10
23.1277514
20
52.2979057
40
1.526093
50
179.9768281
51
188.8742774
0
LINE
8
DEFAULT_255_2_778
10
21.6016584
20
52.2985229
11
21.6016584
21
52.2985229
0
ARC
8
DEFAULT_255_2_778
10
23.1018103
20
48.3017419
40
1.5001553
50
151.627056
51
180.1229452
0
ARC
8
DEFAULT_255_2_778
10
23.0960083
20
48.304648
40
1.4936693
50
98.0223741
51
151.619378
0
ARC
8
DEFAULT_255_2_778
10
23.0986556
20
48.2776542
40
1.5207687
50
89.9810565
51
97.9792018
0
ARC
8
DEFAULT_255_2_778
10
23.1022812
20
48.3042492
40
1.494177
50
61.54544
51
90.1197473
0
ARC
8
DEFAULT_255_2_778
10
23.1005035
20
48.3031512
40
1.4959895
50
8.8978902
51
61.5056163
0
ARC
8
DEFAULT_255_2_778
10
23.0709721
20
48.2991389
40
1.5257864
50
359.976869
51
8.8752216
0
ARC
8
DEFAULT_255_2_778
10
23.0965517
20
48.2952791
40
1.5002102
50
331.6273358
51
0.1238841
0
ARC
8
DEFAULT_255_2_778
10
23.1024511
20
48.2923875
40
1.4936452
50
278.0801525
51
331.6173969
0
ARC
8
DEFAULT_255_2_778
10
23.0996708
20
48.319767
40
1.5211441
50
269.9806999
51
278.0388824
0
ARC
8
DEFAULT_255_2_778
10
23.0960365
20
48.2926797
40
1.4940601
50
241.5459161
51
270.1197199
0
ARC
8
DEFAULT_255_2_778
10
23.0978422
20
48.2938039
40
1.4959092
50
188.8957752
51
241.5056255
0
ARC
8
DEFAULT_255_2_778
10
23.1277514
20
48.2979057
40
1.526093
50
179.9768281
51
188.8742774
0
LINE
8
DEFAULT_255_2_778
10
21.6016584
20
48.2985229
11
21.6016584
21
48.2985229
0
ARC
8
DEFAULT_255_2_778
10
23.1018103
20
44.3018419
40
1.5001553
50
151.627056
51
180.1229452
0
ARC
8
DEFAULT_255_2_778
10
23.0960083
20
44.304748
40
1.4936693
50
98.0223741
51
151.619378
0
ARC
8
DEFAULT_255_2_778
10
23.0986556
20
44.2777542
40
1.5207687
50
89.9810565
51
97.9792018
0
ARC
8
DEFAULT_255_2_778
10
23.1022812
20
44.3043492
40
1.494177
50
61.54544
51
90.1197473
0
ARC
8
DEFAULT_255_2_778
10
23.1005035
20
44.3032512
40
1.4959895
50
8.8978902
51
61.5056163
0
ARC
8
DEFAULT_255_2_778
10
23.0709721
20
44.2992389
40
1.5257864
50
359.976869
51
8.8752216
0
ARC
8
DEFAULT_255_2_778
10
23.0965517
20
44.2953791
40
1.5002102
50
331.6273358
51
0.1238841
0
ARC
8
DEFAULT_255_2_778
10
23.1024511
20
44.2924875
40
1.4936452
50
278.0801525
51
331.6173969
0
ARC
8
DEFAULT_255_2_778
10
23.0996708
20
44.319867
40
1.5211441
50
269.9806999
51
278.0388824
0
ARC
8
DEFAULT_255_2_778
10
23.0960365
20
44.2927797
40
1.4940601
50
241.5459161
51
270.1197199
0
ARC
8
DEFAULT_255_2_778
10
23.0978422
20
44.2939039
40
1.4959092
50
188.8957752
51
241.5056255
0
ARC
8
DEFAULT_255_2_778
10
23.1277514
20
44.2980057
40
1.526093
50
179.9768281
51
188.8742774
0
LINE
8
DEFAULT_255_2_778
10
21.6016584
20
44.2986229
11
21.6016584
21
44.2986229
0
ARC
8
DEFAULT_255_2_778
10
23.1018103
20
16.3022419
40
1.5001553
50
151.627056
51
180.1229452
0
ARC
8
DEFAULT_255_2_778
10
23.0960083
20
16.305148
40
1.4936693
50
98.0223741
51
151.619378
0
ARC
8
DEFAULT_255_2_778
10
23.0986556
20
16.2781542
40
1.5207687
50
89.9810565
51
97.9792018
0
ARC
8
DEFAULT_255_2_778
10
23.1022812
20
16.3047492
40
1.494177
50
61.54544
51
90.1197473
0
ARC
8
DEFAULT_255_2_778
10
23.1005035
20
16.3036512
40
1.4959895
50
8.8978902
51
61.5056163
0
ARC
8
DEFAULT_255_2_778
10
23.0709721
20
16.2996389
40
1.5257864
50
359.976869
51
8.8752216
0
ARC
8
DEFAULT_255_2_778
10
23.0965517
20
16.2957791
40
1.5002102
50
331.6273358
51
0.1238841
0
ARC
8
DEFAULT_255_2_778
10
23.1024511
20
16.2928875
40
1.4936452
50
278.0801525
51
331.6173969
0
ARC
8
DEFAULT_255_2_778
10
23.0996708
20
16.320267
40
1.5211441
50
269.9806999
51
278.0388824
0
ARC
8
DEFAULT_255_2_778
10
23.0960365
20
16.2931797
40
1.4940601
50
241.5459161
51
270.1197199
0
ARC
8
DEFAULT_255_2_778
10
23.0978422
20
16.2943039
40
1.4959092
50
188.8957752
51
241.5056255
0
ARC
8
DEFAULT_255_2_778
10
23.1277514
20
16.2984057
40
1.526093
50
179.9768281
51
188.8742774
0
LINE
8
DEFAULT_255_2_778
10
21.6016584
20
16.2990229
11
21.6016584
21
16.2990229
0
ARC
8
DEFAULT_255_2_778
10
14.6621103
20
18.6663419
40
1.5001553
50
151.627056
51
180.1229452
0
ARC
8
DEFAULT_255_2_778
10
14.6563083
20
18.669248
40
1.4936693
50
98.0223741
51
151.619378
0
ARC
8
DEFAULT_255_2_778
10
14.6589556
20
18.6422542
40
1.5207687
50
89.9810565
51
97.9792018
0
ARC
8
DEFAULT_255_2_778
10
14.6625812
20
18.6688492
40
1.494177
50
61.54544
51
90.1197473
0
ARC
8
DEFAULT_255_2_778
10
14.6608035
20
18.6677512
40
1.4959895
50
8.8978902
51
61.5056163
0
ARC
8
DEFAULT_255_2_778
10
14.6312721
20
18.6637389
40
1.5257864
50
359.976869
51
8.8752216
0
ARC
8
DEFAULT_255_2_778
10
14.6568517
20
18.6598791
40
1.5002102
50
331.6273358
51
0.1238841
0
ARC
8
DEFAULT_255_2_778
10
14.6627511
20
18.6569875
40
1.4936452
50
278.0801525
51
331.6173969
0
ARC
8
DEFAULT_255_2_778
10
14.6599708
20
18.684367
40
1.5211441
50
269.9806999
51
278.0388824
0
ARC
8
DEFAULT_255_2_778
10
14.6563365
20
18.6572797
40
1.4940601
50
241.5459161
51
270.1197199
0
ARC
8
DEFAULT_255_2_778
10
14.6581422
20
18.6584039
40
1.4959092
50
188.8957752
51
241.5056255
0
ARC
8
DEFAULT_255_2_778
10
14.6880514
20
18.6625057
40
1.526093
50
179.9768281
51
188.8742774
0
LINE
8
DEFAULT_255_2_778
10
13.1619584
20
18.6631229
11
13.1619584
21
18.6631229
0
ARC
8
DEFAULT_255_2_778
10
14.6621103
20
46.6658419
40
1.5001553
50
151.627056
51
180.1229452
0
ARC
8
DEFAULT_255_2_778
10
14.6563083
20
46.668748
40
1.4936693
50
98.0223741
51
151.619378
0
ARC
8
DEFAULT_255_2_778
10
14.6589556
20
46.6417542
40
1.5207687
50
89.9810565
51
97.9792018
0
ARC
8
DEFAULT_255_2_778
10
14.6625812
20
46.6683492
40
1.494177
50
61.54544
51
90.1197473
0
ARC
8
DEFAULT_255_2_778
10
14.6608035
20
46.6672512
40
1.4959895
50
8.8978902
51
61.5056163
0
ARC
8
DEFAULT_255_2_778
10
14.6312721
20
46.6632389
40
1.5257864
50
359.976869
51
8.8752216
0
ARC
8
DEFAULT_255_2_778
10
14.6568517
20
46.6593791
40
1.5002102
50
331.6273358
51
0.1238841
0
ARC
8
DEFAULT_255_2_778
10
14.6627511
20
46.6564875
40
1.4936452
50
278.0801525
51
331.6173969
0
ARC
8
DEFAULT_255_2_778
10
14.6599708
20
46.683867
40
1.5211441
50
269.9806999
51
278.0388824
0
ARC
8
DEFAULT_255_2_778
10
14.6563365
20
46.6567797
40
1.4940601
50
241.5459161
51
270.1197199
0
ARC
8
DEFAULT_255_2_778
10
14.6581422
20
46.6579039
40
1.4959092
50
188.8957752
51
241.5056255
0
ARC
8
DEFAULT_255_2_778
10
14.6880514
20
46.6620057
40
1.526093
50
179.9768281
51
188.8742774
0
LINE
8
DEFAULT_255_2_778
10
13.1619584
20
46.6626229
11
13.1619584
21
46.6626229
0
ARC
8
DEFAULT_255_2_778
10
14.6621103
20
50.6658419
40
1.5001553
50
151.627056
51
180.1229452
0
ARC
8
DEFAULT_255_2_778
10
14.6563083
20
50.668748
40
1.4936693
50
98.0223741
51
151.619378
0
ARC
8
DEFAULT_255_2_778
10
14.6589556
20
50.6417542
40
1.5207687
50
89.9810565
51
97.9792018
0
ARC
8
DEFAULT_255_2_778
10
14.6625812
20
50.6683492
40
1.494177
50
61.54544
51
90.1197473
0
ARC
8
DEFAULT_255_2_778
10
14.6608035
20
50.6672512
40
1.4959895
50
8.8978902
51
61.5056163
0
ARC
8
DEFAULT_255_2_778
10
14.6312721
20
50.6632389
40
1.5257864
50
359.976869
51
8.8752216
0
ARC
8
DEFAULT_255_2_778
10
14.6568517
20
50.6593791
40
1.5002102
50
331.6273358
51
0.1238841
0
ARC
8
DEFAULT_255_2_778
10
14.6627511
20
50.6564875
40
1.4936452
50
278.0801525
51
331.6173969
0
ARC
8
DEFAULT_255_2_778
10
14.6599708
20
50.683867
40
1.5211441
50
269.9806999
51
278.0388824
0
ARC
8
DEFAULT_255_2_778
10
14.6563365
20
50.6567797
40
1.4940601
50
241.5459161
51
270.1197199
0
ARC
8
DEFAULT_255_2_778
10
14.6581422
20
50.6579039
40
1.4959092
50
188.8957752
51
241.5056255
0
ARC
8
DEFAULT_255_2_778
10
14.6880514
20
50.6620057
40
1.526093
50
179.9768281
51
188.8742774
0
LINE
8
DEFAULT_255_2_778
10
13.1619584
20
50.6626229
11
13.1619584
21
50.6626229
0
ARC
8
DEFAULT_255_2_778
10
14.6621103
20
38.6659419
40
1.5001553
50
151.627056
51
180.1229452
0
ARC
8
DEFAULT_255_2_778
10
14.6563083
20
38.668848
40
1.4936693
50
98.0223741
51
151.619378
0
ARC
8
DEFAULT_255_2_778
10
14.6589556
20
38.6418542
40
1.5207687
50
89.9810565
51
97.9792018
0
ARC
8
DEFAULT_255_2_778
10
14.6625812
20
38.6684492
40
1.494177
50
61.54544
51
90.1197473
0
ARC
8
DEFAULT_255_2_778
10
14.6608035
20
38.6673512
40
1.4959895
50
8.8978902
51
61.5056163
0
ARC
8
DEFAULT_255_2_778
10
14.6312721
20
38.6633389
40
1.5257864
50
359.976869
51
8.8752216
0
ARC
8
DEFAULT_255_2_778
10
14.6568517
20
38.6594791
40
1.5002102
50
331.6273358
51
0.1238841
0
ARC
8
DEFAULT_255_2_778
10
14.6627511
20
38.6565875
40
1.4936452
50
278.0801525
51
331.6173969
0
ARC
8
DEFAULT_255_2_778
10
14.6599708
20
38.683967
40
1.5211441
50
269.9806999
51
278.0388824
0
ARC
8
DEFAULT_255_2_778
10
14.6563365
20
38.6568797
40
1.4940601
50
241.5459161
51
270.1197199
0
ARC
8
DEFAULT_255_2_778
10
14.6581422
20
38.6580039
40
1.4959092
50
188.8957752
51
241.5056255
0
ARC
8
DEFAULT_255_2_778
10
14.6880514
20
38.6621057
40
1.526093
50
179.9768281
51
188.8742774
0
LINE
8
DEFAULT_255_2_778
10
13.1619584
20
38.6627229
11
13.1619584
21
38.6627229
0
ARC
8
DEFAULT_255_2_778
10
14.6621103
20
42.6658419
40
1.5001553
50
151.627056
51
180.1229452
0
ARC
8
DEFAULT_255_2_778
10
14.6563083
20
42.668748
40
1.4936693
50
98.0223741
51
151.619378
0
ARC
8
DEFAULT_255_2_778
10
14.6589556
20
42.6417542
40
1.5207687
50
89.9810565
51
97.9792018
0
ARC
8
DEFAULT_255_2_778
10
14.6625812
20
42.6683492
40
1.494177
50
61.54544
51
90.1197473
0
ARC
8
DEFAULT_255_2_778
10
14.6608035
20
42.6672512
40
1.4959895
50
8.8978902
51
61.5056163
0
ARC
8
DEFAULT_255_2_778
10
14.6312721
20
42.6632389
40
1.5257864
50
359.976869
51
8.8752216
0
ARC
8
DEFAULT_255_2_778
10
14.6568517
20
42.6593791
40
1.5002102
50
331.6273358
51
0.1238841
0
ARC
8
DEFAULT_255_2_778
10
14.6627511
20
42.6564875
40
1.4936452
50
278.0801525
51
331.6173969
0
ARC
8
DEFAULT_255_2_778
10
14.6599708
20
42.683867
40
1.5211441
50
269.9806999
51
278.0388824
0
ARC
8
DEFAULT_255_2_778
10
14.6563365
20
42.6567797
40
1.4940601
50
241.5459161
51
270.1197199
0
ARC
8
DEFAULT_255_2_778
10
14.6581422
20
42.6579039
40
1.4959092
50
188.8957752
51
241.5056255
0
ARC
8
DEFAULT_255_2_778
10
14.6880514
20
42.6620057
40
1.526093
50
179.9768281
51
188.8742774
0
LINE
8
DEFAULT_255_2_778
10
13.1619584
20
42.6626229
11
13.1619584
21
42.6626229
0
ARC
8
DEFAULT_255_2_778
10
14.6621103
20
30.6662419
40
1.5001553
50
151.627056
51
180.1229452
0
ARC
8
DEFAULT_255_2_778
10
14.6563083
20
30.669148
40
1.4936693
50
98.0223741
51
151.619378
0
ARC
8
DEFAULT_255_2_778
10
14.6589556
20
30.6421542
40
1.5207687
50
89.9810565
51
97.9792018
0
ARC
8
DEFAULT_255_2_778
10
14.6625812
20
30.6687492
40
1.494177
50
61.54544
51
90.1197473
0
ARC
8
DEFAULT_255_2_778
10
14.6608035
20
30.6676512
40
1.4959895
50
8.8978902
51
61.5056163
0
ARC
8
DEFAULT_255_2_778
10
14.6312721
20
30.6636389
40
1.5257864
50
359.976869
51
8.8752216
0
ARC
8
DEFAULT_255_2_778
10
14.6568517
20
30.6597791
40
1.5002102
50
331.6273358
51
0.1238841
0
ARC
8
DEFAULT_255_2_778
10
14.6627511
20
30.6568875
40
1.4936452
50
278.0801525
51
331.6173969
0
ARC
8
DEFAULT_255_2_778
10
14.6599708
20
30.684267
40
1.5211441
50
269.9806999
51
278.0388824
0
ARC
8
DEFAULT_255_2_778
10
14.6563365
20
30.6571797
40
1.4940601
50
241.5459161
51
270.1197199
0
ARC
8
DEFAULT_255_2_778
10
14.6581422
20
30.6583039
40
1.4959092
50
188.8957752
51
241.5056255
0
ARC
8
DEFAULT_255_2_778
10
14.6880514
20
30.6624057
40
1.526093
50
179.9768281
51
188.8742774
0
LINE
8
DEFAULT_255_2_778
10
13.1619584
20
30.6630229
11
13.1619584
21
30.6630229
0
ARC
8
DEFAULT_255_2_778
10
14.6621103
20
34.6662419
40
1.5001553
50
151.627056
51
180.1229452
0
ARC
8
DEFAULT_255_2_778
10
14.6563083
20
34.669148
40
1.4936693
50
98.0223741
51
151.619378
0
ARC
8
DEFAULT_255_2_778
10
14.6589556
20
34.6421542
40
1.5207687
50
89.9810565
51
97.9792018
0
ARC
8
DEFAULT_255_2_778
10
14.6625812
20
34.6687492
40
1.494177
50
61.54544
51
90.1197473
0
ARC
8
DEFAULT_255_2_778
10
14.6608035
20
34.6676512
40
1.4959895
50
8.8978902
51
61.5056163
0
ARC
8
DEFAULT_255_2_778
10
14.6312721
20
34.6636389
40
1.5257864
50
359.976869
51
8.8752216
0
ARC
8
DEFAULT_255_2_778
10
14.6568517
20
34.6597791
40
1.5002102
50
331.6273358
51
0.1238841
0
ARC
8
DEFAULT_255_2_778
10
14.6627511
20
34.6568875
40
1.4936452
50
278.0801525
51
331.6173969
0
ARC
8
DEFAULT_255_2_778
10
14.6599708
20
34.684267
40
1.5211441
50
269.9806999
51
278.0388824
0
ARC
8
DEFAULT_255_2_778
10
14.6563365
20
34.6571797
40
1.4940601
50
241.5459161
51
270.1197199
0
ARC
8
DEFAULT_255_2_778
10
14.6581422
20
34.6583039
40
1.4959092
50
188.8957752
51
241.5056255
0
ARC
8
DEFAULT_255_2_778
10
14.6880514
20
34.6624057
40
1.526093
50
179.9768281
51
188.8742774
0
LINE
8
DEFAULT_255_2_778
10
13.1619584
20
34.6630229
11
13.1619584
21
34.6630229
0
ARC
8
DEFAULT_255_2_778
10
14.6621103
20
22.6662419
40
1.5001553
50
151.627056
51
180.1229452
0
ARC
8
DEFAULT_255_2_778
10
14.6563083
20
22.669148
40
1.4936693
50
98.0223741
51
151.619378
0
ARC
8
DEFAULT_255_2_778
10
14.6589556
20
22.6421542
40
1.5207687
50
89.9810565
51
97.9792018
0
ARC
8
DEFAULT_255_2_778
10
14.6625812
20
22.6687492
40
1.494177
50
61.54544
51
90.1197473
0
ARC
8
DEFAULT_255_2_778
10
14.6608035
20
22.6676512
40
1.4959895
50
8.8978902
51
61.5056163
0
ARC
8
DEFAULT_255_2_778
10
14.6312721
20
22.6636389
40
1.5257864
50
359.976869
51
8.8752216
0
ARC
8
DEFAULT_255_2_778
10
14.6568517
20
22.6597791
40
1.5002102
50
331.6273358
51
0.1238841
0
ARC
8
DEFAULT_255_2_778
10
14.6627511
20
22.6568875
40
1.4936452
50
278.0801525
51
331.6173969
0
ARC
8
DEFAULT_255_2_778
10
14.6599708
20
22.684267
40
1.5211441
50
269.9806999
51
278.0388824
0
ARC
8
DEFAULT_255_2_778
10
14.6563365
20
22.6571797
40
1.4940601
50
241.5459161
51
270.1197199
0
ARC
8
DEFAULT_255_2_778
10
14.6581422
20
22.6583039
40
1.4959092
50
188.8957752
51
241.5056255
0
ARC
8
DEFAULT_255_2_778
10
14.6880514
20
22.6624057
40
1.526093
50
179.9768281
51
188.8742774
0
LINE
8
DEFAULT_255_2_778
10
13.1619584
20
22.6630229
11
13.1619584
21
22.6630229
0
ARC
8
DEFAULT_255_2_778
10
14.6621103
20
26.6662419
40
1.5001553
50
151.627056
51
180.1229452
0
ARC
8
DEFAULT_255_2_778
10
14.6563083
20
26.669148
40
1.4936693
50
98.0223741
51
151.619378
0
ARC
8
DEFAULT_255_2_778
10
14.6589556
20
26.6421542
40
1.5207687
50
89.9810565
51
97.9792018
0
ARC
8
DEFAULT_255_2_778
10
14.6625812
20
26.6687492
40
1.494177
50
61.54544
51
90.1197473
0
ARC
8
DEFAULT_255_2_778
10
14.6608035
20
26.6676512
40
1.4959895
50
8.8978902
51
61.5056163
0
ARC
8
DEFAULT_255_2_778
10
14.6312721
20
26.6636389
40
1.5257864
50
359.976869
51
8.8752216
0
ARC
8
DEFAULT_255_2_778
10
14.6568517
20
26.6597791
40
1.5002102
50
331.6273358
51
0.1238841
0
ARC
8
DEFAULT_255_2_778
10
14.6627511
20
26.6568875
40
1.4936452
50
278.0801525
51
331.6173969
0
ARC
8
DEFAULT_255_2_778
10
14.6599708
20
26.684267
40
1.5211441
50
269.9806999
51
278.0388824
0
ARC
8
DEFAULT_255_2_778
10
14.6563365
20
26.6571797
40
1.4940601
50
241.5459161
51
270.1197199
0
ARC
8
DEFAULT_255_2_778
10
14.6581422
20
26.6583039
40
1.4959092
50
188.8957752
51
241.5056255
0
ARC
8
DEFAULT_255_2_778
10
14.6880514
20
26.6624057
40
1.526093
50
179.9768281
51
188.8742774
0
LINE
8
DEFAULT_255_2_778
10
13.1619584
20
26.6630229
11
13.1619584
21
26.6630229
0
ARC
8
DEFAULT_255_2_778
10
12.2070672
20
56.5115076
40
0.993754
50
89.9238023
51
132.3445465
0
ARC
8
DEFAULT_255_2_778
10
12.2080709
20
56.5067511
40
0.9979486
50
132.2031917
51
178.1118664
0
ARC
8
DEFAULT_255_2_778
10
12.2295108
20
56.5053853
40
1.0194221
50
178.0748466
51
180.0013795
0
ARC
8
DEFAULT_255_2_778
10
27.4973408
20
56.5075665
40
0.9344505
50
359.8647521
51
0.0050003
0
ARC
8
DEFAULT_255_2_778
10
27.4405086
20
56.5074434
40
0.9912828
50
0.0118307
51
22.2793222
0
ARC
8
DEFAULT_255_2_778
10
27.185133
20
12.4999793
40
0.9938195
50
269.9225059
51
312.2960962
0
ARC
8
DEFAULT_255_2_778
10
27.1842657
20
12.5045527
40
0.997789
50
312.156203
51
358.1107871
0
ARC
8
DEFAULT_255_2_778
10
27.1629576
20
12.5059299
40
1.0191312
50
358.0728958
51
0.0017343
0
ARC
8
DEFAULT_255_2_778
10
27.4329976
20
12.2541704
40
0.9983097
50
270.0167096
51
337.8738969
0
ARC
8
DEFAULT_255_2_778
10
27.6538401
20
12.2335831
40
1.1484534
50
333.4618098
51
359.8342487
0
ARC
8
DEFAULT_255_2_778
10
29.1126859
20
13.0160709
40
1.3655436
50
236.4394436
51
251.583878
0
ARC
8
DEFAULT_255_2_778
10
27.4410078
20
12.2538798
40
0.9907836
50
337.7149926
51
359.9880649
0
ARC
8
DEFAULT_255_2_778
10
27.4975785
20
12.2537551
40
0.9342129
50
359.994991
51
0.1352743
0
ARC
8
DEFAULT_255_2_778
10
12.4583239
20
12.2536636
40
0.9976029
50
214.7340985
51
269.9922377
0
ARC
8
DEFAULT_255_2_778
10
27.1852312
20
56.5067416
40
0.9968588
50
359.9091369
51
41.2479059
0
ARC
8
DEFAULT_255_2_778
10
27.1847775
20
56.5096675
40
0.995274
50
41.1040433
51
88.396026
0
ARC
8
DEFAULT_255_2_778
10
27.1838008
20
56.4892712
40
1.0156897
50
88.3731566
51
90.0006775
0
ARC
8
DEFAULT_255_2_778
10
12.2066464
20
12.5043799
40
0.9968588
50
179.9091369
51
221.2479059
0
ARC
8
DEFAULT_255_2_778
10
12.2071001
20
12.501454
40
0.995274
50
221.1040433
51
268.396026
0
ARC
8
DEFAULT_255_2_778
10
12.2080768
20
12.5218503
40
1.0156897
50
268.3731566
51
270.0006775
0
ARC
8
DEFAULT_255_2_778
10
28.706208
20
13.5475056
40
1.3204181
50
257.9960565
51
270.0080383
0
ARC
8
DEFAULT_255_2_778
10
28.7064046
20
13.5519617
40
1.3248741
50
269.9995119
51
270.9237886
0
ARC
8
DEFAULT_255_2_778
10
28.7063733
20
13.5531223
40
1.3260349
50
270.9243313
51
274.1479724
0
ARC
8
DEFAULT_255_2_778
10
28.7740697
20
22.7860764
40
8.0851188
50
268.6627345
51
270.049741
0
ARC
8
DEFAULT_255_2_778
10
28.6497395
20
17.7166721
40
3.0141995
50
266.7489605
51
268.7765744
0
ARC
8
DEFAULT_255_2_778
10
28.4868181
20
14.9904531
40
0.283243
50
259.254711
51
268.3781465
0
ARC
8
DEFAULT_255_2_778
10
28.4341618
20
14.7151408
40
0.0029683
50
209.9091886
51
267.0550623
0
LINE
8
DEFAULT_255_2_778
10
12.4578888
20
57.5052607
11
12.4578888
21
57.8552607
0
LINE
8
DEFAULT_255_2_778
10
11.2100888
20
56.5053607
11
11.1103888
21
56.5053607
0
LINE
8
DEFAULT_255_2_778
10
28.1822888
20
55.5055607
11
28.4317888
21
55.5055607
0
LINE
8
DEFAULT_255_2_778
10
28.8024888
20
56.5053607
11
28.4317888
21
56.5053607
0
LINE
8
DEFAULT_255_2_778
10
13.7058888
20
57.8555607
11
13.7058888
21
57.5055607
0
LINE
8
DEFAULT_255_2_778
10
14.2051888
20
59.5054607
11
14.2051888
21
57.5055607
0
LINE
8
DEFAULT_255_2_778
10
22.1921888
20
59.5054607
11
22.1921888
21
57.5055607
0
LINE
8
DEFAULT_255_2_778
10
22.1921888
20
60.5053607
11
22.1921888
21
59.5054607
0
LINE
8
DEFAULT_255_2_778
10
22.1921888
20
59.5054607
11
14.2048888
21
59.5054607
0
LINE
8
DEFAULT_255_2_778
10
14.2048888
20
59.5054607
11
14.2048888
21
60.5053607
0
LINE
8
DEFAULT_255_2_778
10
22.6911888
20
57.5052607
11
22.6911888
21
57.8552607
0
LINE
8
DEFAULT_255_2_778
10
28.4315888
20
13.0060607
11
28.1820888
21
13.0060607
0
LINE
8
DEFAULT_255_2_778
10
22.6911888
20
10.8803607
11
22.6911888
21
11.2558607
0
LINE
8
DEFAULT_255_2_778
10
22.6911888
20
11.2558607
11
27.4332888
21
11.2558607
0
LINE
8
DEFAULT_255_2_778
10
27.4332888
20
10.8803607
11
27.4332888
21
11.2558607
0
LINE
8
DEFAULT_255_2_778
10
11.1100888
20
12.2305607
11
11.2478888
21
12.2326607
0
LINE
8
DEFAULT_255_2_778
10
12.4578888
20
11.2560607
11
13.7058888
21
11.2560607
0
LINE
8
DEFAULT_255_2_778
10
13.7058888
20
11.2560607
11
13.7058888
21
10.8806607
0
LINE
8
DEFAULT_255_2_778
10
12.4581888
20
11.2560607
11
12.4581888
21
10.8806607
0
LINE
8
DEFAULT_255_2_778
10
22.1921888
20
9.5061607
11
22.1921888
21
11.5061607
0
LINE
8
DEFAULT_255_2_778
10
22.1921888
20
8.5062607
11
22.1921888
21
8.2562607
0
LINE
8
DEFAULT_255_2_778
10
14.2051888
20
8.5062607
11
14.2051888
21
8.2562607
0
LINE
8
DEFAULT_255_2_778
10
14.2051888
20
11.5061607
11
14.2051888
21
8.5062607
0
LINE
8
DEFAULT_255_2_778
10
14.2051888
20
8.5062607
11
22.1921888
21
8.5062607
0
LINE
8
DEFAULT_255_2_778
10
22.1921888
20
8.5062607
11
22.1921888
21
9.5061607
0
LINE
8
DEFAULT_255_2_778
10
22.1921888
20
9.5061607
11
14.2048888
21
9.5061607
0
LINE
8
DEFAULT_255_2_778
10
22.1918888
20
11.2560607
11
22.6911888
21
11.2560607
0
LINE
8
DEFAULT_255_2_778
10
13.7058888
20
11.2560607
11
14.2051888
21
11.2560607
0
LINE
8
DEFAULT_255_2_778
10
12.2083888
20
15.2679607
11
18.1985888
21
15.2679607
0
LINE
8
DEFAULT_255_2_778
10
18.1985888
20
15.2679607
11
18.1985888
21
53.7672607
0
LINE
8
DEFAULT_255_2_778
10
18.1985888
20
53.7672607
11
12.2083888
21
53.7672607
0
LINE
8
DEFAULT_255_2_778
10
12.2083888
20
53.7672607
11
12.2083888
21
56.5053607
0
LINE
8
DEFAULT_255_2_778
10
12.2083888
20
56.5053607
11
11.2100888
21
56.5053607
0
LINE
8
DEFAULT_255_2_778
10
11.2100888
20
56.5053607
11
11.2100888
21
53.7672607
0
LINE
8
DEFAULT_255_2_778
10
11.2100888
20
53.7672607
11
12.2083888
21
53.7672607
0
LINE
8
DEFAULT_255_2_778
10
28.1820888
20
56.5053607
11
28.1820888
21
12.5062607
0
LINE
8
DEFAULT_255_2_778
10
28.1820888
20
12.5062607
11
27.1837888
21
12.5062607
0
LINE
8
DEFAULT_255_2_778
10
27.1837888
20
12.5062607
11
27.1837888
21
56.5051607
0
LINE
8
DEFAULT_255_2_778
10
27.1837888
20
56.5051607
11
28.1820888
21
56.5051607
0
LINE
8
DEFAULT_255_2_778
10
27.1837888
20
57.5049607
11
27.1837888
21
56.5051607
0
LINE
8
DEFAULT_255_2_778
10
27.1837888
20
56.5051607
11
12.2083888
21
56.5051607
0
LINE
8
DEFAULT_255_2_778
10
12.2083888
20
56.5051607
11
12.2083888
21
57.5049607
0
LINE
8
DEFAULT_255_2_778
10
12.2083888
20
57.5049607
11
27.4332888
21
57.5049607
0
LINE
8
DEFAULT_255_2_778
10
27.4332888
20
57.5049607
11
27.4332888
21
57.8550607
0
LINE
8
DEFAULT_255_2_778
10
12.2080888
20
11.5061607
11
12.2080888
21
12.5059607
0
LINE
8
DEFAULT_255_2_778
10
12.2080888
20
12.5059607
11
27.1834888
21
12.5059607
0
LINE
8
DEFAULT_255_2_778
10
27.1834888
20
12.5059607
11
27.1834888
21
11.5061607
0
LINE
8
DEFAULT_255_2_778
10
27.1834888
20
11.5061607
11
12.2080888
21
11.5061607
0
LINE
8
DEFAULT_255_2_778
10
11.2097888
20
53.7672607
11
11.2097888
21
15.2679607
0
LINE
8
DEFAULT_255_2_778
10
11.2097888
20
15.2679607
11
12.2080888
21
15.2679607
0
LINE
8
DEFAULT_255_2_778
10
12.2080888
20
15.2679607
11
12.2080888
21
12.5062607
0
LINE
8
DEFAULT_255_2_778
10
12.2080888
20
12.5062607
11
11.2097888
21
12.5062607
0
LINE
8
DEFAULT_255_2_778
10
11.2097888
20
12.5062607
11
11.2097888
21
15.2679607
0
LINE
8
DEFAULT_255_2_778
10
28.4315888
20
14.7136607
11
28.4315888
21
12.2559607
0
LINE
8
DEFAULT_255_2_778
10
28.8022888
20
12.2305607
11
28.8022888
21
14.7009607
0
LINE
8
DEFAULT_255_2_778
10
28.8022888
20
14.7009607
11
28.7810888
21
14.7009607
0
LINE
8
DEFAULT_255_2_778
10
28.4315888
20
14.7136607
11
28.4315888
21
56.5051607
0
LINE
8
DEFAULT_255_2_778
10
13.5562042
20
74.5515
11
16.8508042
21
74.5515
0
ARC
8
DEFAULT_255_2_778
10
17.1115353
20
72.1890185
40
0.0951347
50
21.0970782
51
43.449368
0
ARC
8
DEFAULT_255_2_778
10
16.168332
20
71.4489487
40
1.2936429
50
38.5103909
51
41.7710304
0
ARC
8
DEFAULT_255_2_778
10
13.8622547
20
69.4048234
40
4.3752659
50
41.6181952
51
43.4992821
0
ARC
8
DEFAULT_255_2_778
10
10.6735933
20
66.391088
40
8.7627621
50
43.441819
51
45.0139519
0
ARC
8
DEFAULT_255_2_778
10
20.5336349
20
72.1890011
40
0.0951266
50
136.5316649
51
158.8898547
0
ARC
8
DEFAULT_255_2_778
10
21.4776606
20
71.4478492
40
1.2949494
50
138.2153871
51
141.4734472
0
ARC
8
DEFAULT_255_2_778
10
23.7909992
20
69.3963241
40
4.3869149
50
136.4920643
51
138.3684858
0
ARC
8
DEFAULT_255_2_778
10
27.00597
20
66.3567788
40
8.8112604
50
134.9859797
51
136.5495751
0
ARC
8
DEFAULT_255_2_778
10
20.4152098
20
70.6382703
40
0.0888471
50
46.639146
51
69.3436187
0
ARC
8
DEFAULT_255_2_778
10
19.5950639
20
69.5983049
40
1.4129673
50
47.6912187
51
51.4193967
0
ARC
8
DEFAULT_255_2_778
10
17.2203531
20
66.9534259
40
4.9674672
50
46.212885
51
47.9700194
0
ARC
8
DEFAULT_255_2_778
10
14.5208713
20
64.1219121
40
8.8795778
50
45.050972
51
46.2809886
0
LINE
8
DEFAULT_255_2_778
10
17.2002928
20
70.7214052
11
17.2002928
21
72.2232052
0
LINE
8
DEFAULT_255_2_778
10
16.8682928
20
72.5888052
11
16.8507928
21
72.6063052
0
LINE
8
DEFAULT_255_2_778
10
16.8507928
20
72.6063052
11
20.7943928
21
72.6063052
0
LINE
8
DEFAULT_255_2_778
10
20.7943928
20
72.6063052
11
20.7943928
21
70.4063052
0
LINE
8
DEFAULT_255_2_778
10
20.7943928
20
70.4063052
11
16.8507928
21
70.4063052
0
LINE
8
DEFAULT_255_2_778
10
16.8507928
20
70.4063052
11
16.8507928
21
72.6063052
0
LINE
8
DEFAULT_255_2_778
10
20.4448928
20
70.7214052
11
20.4448928
21
72.2232052
0
LINE
8
DEFAULT_255_2_778
10
20.7769928
20
72.5888052
11
20.7943928
21
72.6063052
0
LINE
8
DEFAULT_255_2_778
10
20.4448928
20
72.2213052
11
17.2002928
21
72.2213052
0
LINE
8
DEFAULT_255_2_778
10
16.8507928
20
70.4063052
11
17.1984928
21
70.7214052
0
LINE
8
DEFAULT_255_2_778
10
17.1984928
20
70.7214052
11
20.4464928
21
70.7214052
0
ARC
8
DEFAULT_255_2_778
10
17.1115353
20
78.2239185
40
0.0951347
50
21.0970782
51
43.449368
0
ARC
8
DEFAULT_255_2_778
10
16.168332
20
77.4838487
40
1.2936429
50
38.5103909
51
41.7710304
0
ARC
8
DEFAULT_255_2_778
10
13.8622547
20
75.4397234
40
4.3752659
50
41.6181952
51
43.4992821
0
ARC
8
DEFAULT_255_2_778
10
10.6735933
20
72.425988
40
8.7627621
50
43.441819
51
45.0139519
0
ARC
8
DEFAULT_255_2_778
10
20.5336349
20
78.2239011
40
0.0951266
50
136.5316649
51
158.8898547
0
ARC
8
DEFAULT_255_2_778
10
21.4776606
20
77.4827492
40
1.2949494
50
138.2153871
51
141.4734472
0
ARC
8
DEFAULT_255_2_778
10
23.7909992
20
75.4312241
40
4.3869149
50
136.4920643
51
138.3684858
0
ARC
8
DEFAULT_255_2_778
10
27.00597
20
72.3916788
40
8.8112604
50
134.9859797
51
136.5495751
0
ARC
8
DEFAULT_255_2_778
10
20.4152098
20
76.6731703
40
0.0888471
50
46.639146
51
69.3436187
0
ARC
8
DEFAULT_255_2_778
10
19.5950639
20
75.6332049
40
1.4129673
50
47.6912187
51
51.4193967
0
ARC
8
DEFAULT_255_2_778
10
17.2203531
20
72.9883259
40
4.9674672
50
46.212885
51
47.9700194
0
ARC
8
DEFAULT_255_2_778
10
14.5208713
20
70.1568121
40
8.8795778
50
45.050972
51
46.2809886
0
LINE
8
DEFAULT_255_2_778
10
17.2002928
20
76.7563052
11
17.2002928
21
78.2581052
0
LINE
8
DEFAULT_255_2_778
10
16.8682928
20
78.6237052
11
16.8507928
21
78.6412052
0
LINE
8
DEFAULT_255_2_778
10
16.8507928
20
78.6412052
11
20.7943928
21
78.6412052
0
LINE
8
DEFAULT_255_2_778
10
20.7943928
20
78.6412052
11
20.7943928
21
76.4412052
0
LINE
8
DEFAULT_255_2_778
10
20.7943928
20
76.4412052
11
16.8507928
21
76.4412052
0
LINE
8
DEFAULT_255_2_778
10
16.8507928
20
76.4412052
11
16.8507928
21
78.6412052
0
LINE
8
DEFAULT_255_2_778
10
20.4448928
20
76.7563052
11
20.4448928
21
78.2581052
0
LINE
8
DEFAULT_255_2_778
10
20.7769928
20
78.6237052
11
20.7943928
21
78.6412052
0
LINE
8
DEFAULT_255_2_778
10
20.4448928
20
78.2562052
11
17.2002928
21
78.2562052
0
LINE
8
DEFAULT_255_2_778
10
16.8507928
20
76.4412052
11
17.1984928
21
76.7563052
0
LINE
8
DEFAULT_255_2_778
10
17.1984928
20
76.7563052
11
20.4464928
21
76.7563052
0
ARC
8
DEFAULT_255_2_778
10
17.1115353
20
81.2237185
40
0.0951347
50
21.0970782
51
43.449368
0
ARC
8
DEFAULT_255_2_778
10
16.168332
20
80.4836487
40
1.2936429
50
38.5103909
51
41.7710304
0
ARC
8
DEFAULT_255_2_778
10
13.8622547
20
78.4395234
40
4.3752659
50
41.6181952
51
43.4992821
0
ARC
8
DEFAULT_255_2_778
10
10.6735933
20
75.425788
40
8.7627621
50
43.441819
51
45.0139519
0
ARC
8
DEFAULT_255_2_778
10
20.5336349
20
81.2237011
40
0.0951266
50
136.5316649
51
158.8898547
0
ARC
8
DEFAULT_255_2_778
10
21.4776606
20
80.4825492
40
1.2949494
50
138.2153871
51
141.4734472
0
ARC
8
DEFAULT_255_2_778
10
23.7909992
20
78.4310241
40
4.3869149
50
136.4920643
51
138.3684858
0
ARC
8
DEFAULT_255_2_778
10
27.00597
20
75.3914788
40
8.8112604
50
134.9859797
51
136.5495751
0
ARC
8
DEFAULT_255_2_778
10
20.4152098
20
79.6729703
40
0.0888471
50
46.639146
51
69.3436187
0
ARC
8
DEFAULT_255_2_778
10
19.5950639
20
78.6330049
40
1.4129673
50
47.6912187
51
51.4193967
0
ARC
8
DEFAULT_255_2_778
10
17.2203531
20
75.9881259
40
4.9674672
50
46.212885
51
47.9700194
0
ARC
8
DEFAULT_255_2_778
10
14.5208713
20
73.1566121
40
8.8795778
50
45.050972
51
46.2809886
0
LINE
8
DEFAULT_255_2_778
10
17.2002928
20
79.7561052
11
17.2002928
21
81.2579052
0
LINE
8
DEFAULT_255_2_778
10
16.8682928
20
81.6235052
11
16.8507928
21
81.6410052
0
LINE
8
DEFAULT_255_2_778
10
16.8507928
20
81.6410052
11
20.7943928
21
81.6410052
0
LINE
8
DEFAULT_255_2_778
10
20.7943928
20
81.6410052
11
20.7943928
21
79.4410052
0
LINE
8
DEFAULT_255_2_778
10
20.7943928
20
79.4410052
11
16.8507928
21
79.4410052
0
LINE
8
DEFAULT_255_2_778
10
16.8507928
20
79.4410052
11
16.8507928
21
81.6410052
0
LINE
8
DEFAULT_255_2_778
10
20.4448928
20
79.7561052
11
20.4448928
21
81.2579052
0
LINE
8
DEFAULT_255_2_778
10
20.7769928
20
81.6235052
11
20.7943928
21
81.6410052
0
LINE
8
DEFAULT_255_2_778
10
20.4448928
20
81.2560052
11
17.2002928
21
81.2560052
0
LINE
8
DEFAULT_255_2_778
10
16.8507928
20
79.4410052
11
17.1984928
21
79.7561052
0
LINE
8
DEFAULT_255_2_778
10
17.1984928
20
79.7561052
11
20.4464928
21
79.7561052
0
ARC
8
DEFAULT_255_2_778
10
17.2297023
20
73.6730659
40
0.0887621
50
110.6265712
51
133.3937484
0
ARC
8
DEFAULT_255_2_778
10
18.0523665
20
72.6307853
40
1.4162587
50
128.6036023
51
132.3259314
0
ARC
8
DEFAULT_255_2_778
10
20.4747531
20
69.9344852
40
5.0408717
50
132.0461883
51
133.778046
0
ARC
8
DEFAULT_255_2_778
10
23.3169976
20
66.9525955
40
9.1603322
50
133.7098872
51
134.90165
0
ARC
8
DEFAULT_255_2_778
10
20.532692
20
75.2247478
40
0.093331
50
136.8541566
51
160.1753797
0
ARC
8
DEFAULT_255_2_778
10
21.5853152
20
74.4022591
40
1.4288327
50
137.7428431
51
141.6615021
0
ARC
8
DEFAULT_255_2_778
10
24.2631066
20
72.0038347
40
5.0236651
50
136.2000324
51
138.0342452
0
ARC
8
DEFAULT_255_2_778
10
27.1496486
20
69.2513794
40
9.0121565
50
135.0008888
51
136.2717797
0
LINE
8
DEFAULT_255_2_778
10
20.4448928
20
75.2579375
11
20.4448928
21
74.5515375
0
LINE
8
DEFAULT_255_2_778
10
20.4448928
20
74.5515375
11
20.4448928
21
73.7561375
0
LINE
8
DEFAULT_255_2_778
10
20.7943928
20
73.4410375
11
20.4467928
21
73.7561375
0
LINE
8
DEFAULT_255_2_778
10
20.4467928
20
73.7561375
11
17.1984928
21
73.7561375
0
LINE
8
DEFAULT_255_2_778
10
16.8507928
20
75.6410375
11
16.8507928
21
74.5515375
0
LINE
8
DEFAULT_255_2_778
10
16.8507928
20
74.5515375
11
16.8507928
21
73.4410375
0
LINE
8
DEFAULT_255_2_778
10
16.8507928
20
73.4410375
11
20.7943928
21
73.4410375
0
LINE
8
DEFAULT_255_2_778
10
20.7943928
20
73.4410375
11
20.7943928
21
74.5515375
0
LINE
8
DEFAULT_255_2_778
10
20.7943928
20
74.5515375
11
20.7943928
21
75.6410375
0
LINE
8
DEFAULT_255_2_778
10
20.7943928
20
75.6410375
11
16.8507928
21
75.6410375
0
LINE
8
DEFAULT_255_2_778
10
16.8507928
20
75.6410375
11
16.8682928
21
75.6236375
0
LINE
8
DEFAULT_255_2_778
10
16.8682928
20
75.6236375
11
17.2002928
21
75.2579375
0
LINE
8
DEFAULT_255_2_778
10
17.2002928
20
73.7561375
11
17.2002928
21
74.5515375
0
LINE
8
DEFAULT_255_2_778
10
17.2002928
20
74.5515375
11
17.2002928
21
75.2563375
0
LINE
8
DEFAULT_255_2_778
10
17.2002928
20
75.2563375
11
20.4448928
21
75.2563375
0
LINE
8
DEFAULT_255_2_778
10
20.7769928
20
75.6238375
11
20.7943928
21
75.6413375
0
ARC
8
DEFAULT_255_2_778
10
9.8733353
20
72.1890185
40
0.0951347
50
21.0970782
51
43.449368
0
ARC
8
DEFAULT_255_2_778
10
8.930132
20
71.4489487
40
1.2936429
50
38.5103909
51
41.7710304
0
ARC
8
DEFAULT_255_2_778
10
6.6240547
20
69.4048234
40
4.3752659
50
41.6181952
51
43.4992821
0
ARC
8
DEFAULT_255_2_778
10
3.4353933
20
66.391088
40
8.7627621
50
43.441819
51
45.0139519
0
ARC
8
DEFAULT_255_2_778
10
13.2954349
20
72.1890011
40
0.0951266
50
136.5316649
51
158.8898547
0
ARC
8
DEFAULT_255_2_778
10
14.2394606
20
71.4478492
40
1.2949494
50
138.2153871
51
141.4734472
0
ARC
8
DEFAULT_255_2_778
10
16.5527992
20
69.3963241
40
4.3869149
50
136.4920643
51
138.3684858
0
ARC
8
DEFAULT_255_2_778
10
19.76777
20
66.3567788
40
8.8112604
50
134.9859797
51
136.5495751
0
ARC
8
DEFAULT_255_2_778
10
13.1773098
20
70.6382703
40
0.0888471
50
46.639146
51
69.3436187
0
ARC
8
DEFAULT_255_2_778
10
12.3571639
20
69.5983049
40
1.4129673
50
47.6912187
51
51.4193967
0
ARC
8
DEFAULT_255_2_778
10
9.9824531
20
66.9534259
40
4.9674672
50
46.212885
51
47.9700194
0
ARC
8
DEFAULT_255_2_778
10
7.2829713
20
64.1219121
40
8.8795778
50
45.050972
51
46.2809886
0
LINE
8
DEFAULT_255_2_778
10
9.9620928
20
70.7214052
11
9.9620928
21
72.2232052
0
LINE
8
DEFAULT_255_2_778
10
9.6300928
20
72.5888052
11
9.6125928
21
72.6063052
0
LINE
8
DEFAULT_255_2_778
10
9.6125928
20
72.6063052
11
13.5561928
21
72.6063052
0
LINE
8
DEFAULT_255_2_778
10
13.5561928
20
72.6063052
11
13.5561928
21
70.4063052
0
LINE
8
DEFAULT_255_2_778
10
13.5561928
20
70.4063052
11
9.6125928
21
70.4063052
0
LINE
8
DEFAULT_255_2_778
10
9.6125928
20
70.4063052
11
9.6125928
21
72.6063052
0
LINE
8
DEFAULT_255_2_778
10
13.2066928
20
70.7214052
11
13.2066928
21
72.2232052
0
LINE
8
DEFAULT_255_2_778
10
13.5387928
20
72.5888052
11
13.5561928
21
72.6063052
0
LINE
8
DEFAULT_255_2_778
10
13.2066928
20
72.2213052
11
9.9620928
21
72.2213052
0
LINE
8
DEFAULT_255_2_778
10
9.6125928
20
70.4063052
11
9.9602928
21
70.7214052
0
LINE
8
DEFAULT_255_2_778
10
9.9602928
20
70.7214052
11
13.2085928
21
70.7214052
0
ARC
8
DEFAULT_255_2_778
10
9.8733353
20
81.2237185
40
0.0951347
50
21.0970782
51
43.449368
0
ARC
8
DEFAULT_255_2_778
10
8.930132
20
80.4836487
40
1.2936429
50
38.5103909
51
41.7710304
0
ARC
8
DEFAULT_255_2_778
10
6.6240547
20
78.4395234
40
4.3752659
50
41.6181952
51
43.4992821
0
ARC
8
DEFAULT_255_2_778
10
3.4353933
20
75.425788
40
8.7627621
50
43.441819
51
45.0139519
0
ARC
8
DEFAULT_255_2_778
10
13.2954349
20
81.2237011
40
0.0951266
50
136.5316649
51
158.8898547
0
ARC
8
DEFAULT_255_2_778
10
14.2394606
20
80.4825492
40
1.2949494
50
138.2153871
51
141.4734472
0
ARC
8
DEFAULT_255_2_778
10
16.5527992
20
78.4310241
40
4.3869149
50
136.4920643
51
138.3684858
0
ARC
8
DEFAULT_255_2_778
10
19.76777
20
75.3914788
40
8.8112604
50
134.9859797
51
136.5495751
0
ARC
8
DEFAULT_255_2_778
10
13.1773098
20
79.6729703
40
0.0888471
50
46.639146
51
69.3436187
0
ARC
8
DEFAULT_255_2_778
10
12.3571639
20
78.6330049
40
1.4129673
50
47.6912187
51
51.4193967
0
ARC
8
DEFAULT_255_2_778
10
9.9824531
20
75.9881259
40
4.9674672
50
46.212885
51
47.9700194
0
ARC
8
DEFAULT_255_2_778
10
7.2829713
20
73.1566121
40
8.8795778
50
45.050972
51
46.2809886
0
LINE
8
DEFAULT_255_2_778
10
9.9620928
20
79.7561052
11
9.9620928
21
81.2579052
0
LINE
8
DEFAULT_255_2_778
10
9.6300928
20
81.6235052
11
9.6125928
21
81.6410052
0
LINE
8
DEFAULT_255_2_778
10
9.6125928
20
81.6410052
11
13.5561928
21
81.6410052
0
LINE
8
DEFAULT_255_2_778
10
13.5561928
20
81.6410052
11
13.5561928
21
79.4410052
0
LINE
8
DEFAULT_255_2_778
10
13.5561928
20
79.4410052
11
9.6125928
21
79.4410052
0
LINE
8
DEFAULT_255_2_778
10
9.6125928
20
79.4410052
11
9.6125928
21
81.6410052
0
LINE
8
DEFAULT_255_2_778
10
13.2066928
20
79.7561052
11
13.2066928
21
81.2579052
0
LINE
8
DEFAULT_255_2_778
10
13.5387928
20
81.6235052
11
13.5561928
21
81.6410052
0
LINE
8
DEFAULT_255_2_778
10
13.2066928
20
81.2560052
11
9.9620928
21
81.2560052
0
LINE
8
DEFAULT_255_2_778
10
9.6125928
20
79.4410052
11
9.9602928
21
79.7561052
0
LINE
8
DEFAULT_255_2_778
10
9.9602928
20
79.7561052
11
13.2085928
21
79.7561052
0
ARC
8
DEFAULT_255_2_778
10
9.8733353
20
78.2239185
40
0.0951347
50
21.0970782
51
43.449368
0
ARC
8
DEFAULT_255_2_778
10
8.930132
20
77.4838487
40
1.2936429
50
38.5103909
51
41.7710304
0
ARC
8
DEFAULT_255_2_778
10
6.6240547
20
75.4397234
40
4.3752659
50
41.6181952
51
43.4992821
0
ARC
8
DEFAULT_255_2_778
10
3.4353933
20
72.425988
40
8.7627621
50
43.441819
51
45.0139519
0
ARC
8
DEFAULT_255_2_778
10
13.2954349
20
78.2239011
40
0.0951266
50
136.5316649
51
158.8898547
0
ARC
8
DEFAULT_255_2_778
10
14.2394606
20
77.4827492
40
1.2949494
50
138.2153871
51
141.4734472
0
ARC
8
DEFAULT_255_2_778
10
16.5527992
20
75.4312241
40
4.3869149
50
136.4920643
51
138.3684858
0
ARC
8
DEFAULT_255_2_778
10
19.76777
20
72.3916788
40
8.8112604
50
134.9859797
51
136.5495751
0
ARC
8
DEFAULT_255_2_778
10
13.1773098
20
76.6731703
40
0.0888471
50
46.639146
51
69.3436187
0
ARC
8
DEFAULT_255_2_778
10
12.3571639
20
75.6332049
40
1.4129673
50
47.6912187
51
51.4193967
0
ARC
8
DEFAULT_255_2_778
10
9.9824531
20
72.9883259
40
4.9674672
50
46.212885
51
47.9700194
0
ARC
8
DEFAULT_255_2_778
10
7.2829713
20
70.1568121
40
8.8795778
50
45.050972
51
46.2809886
0
LINE
8
DEFAULT_255_2_778
10
9.9620928
20
76.7563052
11
9.9620928
21
78.2581052
0
LINE
8
DEFAULT_255_2_778
10
9.6300928
20
78.6237052
11
9.6125928
21
78.6412052
0
LINE
8
DEFAULT_255_2_778
10
9.6125928
20
78.6412052
11
13.5561928
21
78.6412052
0
LINE
8
DEFAULT_255_2_778
10
13.5561928
20
78.6412052
11
13.5561928
21
76.4412052
0
LINE
8
DEFAULT_255_2_778
10
13.5561928
20
76.4412052
11
9.6125928
21
76.4412052
0
LINE
8
DEFAULT_255_2_778
10
9.6125928
20
76.4412052
11
9.6125928
21
78.6412052
0
LINE
8
DEFAULT_255_2_778
10
13.2066928
20
76.7563052
11
13.2066928
21
78.2581052
0
LINE
8
DEFAULT_255_2_778
10
13.5387928
20
78.6237052
11
13.5561928
21
78.6412052
0
LINE
8
DEFAULT_255_2_778
10
13.2066928
20
78.2562052
11
9.9620928
21
78.2562052
0
LINE
8
DEFAULT_255_2_778
10
9.6125928
20
76.4412052
11
9.9602928
21
76.7563052
0
LINE
8
DEFAULT_255_2_778
10
9.9602928
20
76.7563052
11
13.2085928
21
76.7563052
0
ARC
8
DEFAULT_255_2_778
10
9.991434
20
73.673057
40
0.0887464
50
110.5833496
51
133.3430521
0
ARC
8
DEFAULT_255_2_778
10
10.80779
20
72.6370766
40
1.4073906
50
128.5597003
51
132.303651
0
ARC
8
DEFAULT_255_2_778
10
13.1758381
20
69.9990154
40
4.9523661
50
132.023762
51
133.7863693
0
ARC
8
DEFAULT_255_2_778
10
15.8787408
20
67.1637921
40
8.869522
50
133.7178897
51
134.9493098
0
ARC
8
DEFAULT_255_2_778
10
13.294492
20
75.2247478
40
0.093331
50
136.8541566
51
160.1753797
0
ARC
8
DEFAULT_255_2_778
10
14.3471152
20
74.4022591
40
1.4288327
50
137.7428431
51
141.6615021
0
ARC
8
DEFAULT_255_2_778
10
17.0249066
20
72.0038347
40
5.0236651
50
136.2000324
51
138.0342452
0
ARC
8
DEFAULT_255_2_778
10
19.9114486
20
69.2513794
40
9.0121565
50
135.0008888
51
136.2717797
0
LINE
8
DEFAULT_255_2_778
10
13.2066928
20
75.2579375
11
13.2066928
21
74.5515375
0
LINE
8
DEFAULT_255_2_778
10
13.2066928
20
74.5515375
11
13.2066928
21
73.7561375
0
LINE
8
DEFAULT_255_2_778
10
13.5561928
20
73.4410375
11
13.2085928
21
73.7561375
0
LINE
8
DEFAULT_255_2_778
10
13.2085928
20
73.7561375
11
9.9602928
21
73.7561375
0
LINE
8
DEFAULT_255_2_778
10
9.6125928
20
75.6410375
11
9.6125928
21
74.5515375
0
LINE
8
DEFAULT_255_2_778
10
9.6125928
20
74.5515375
11
9.6125928
21
73.4410375
0
LINE
8
DEFAULT_255_2_778
10
9.6125928
20
73.4410375
11
13.5561928
21
73.4410375
0
LINE
8
DEFAULT_255_2_778
10
13.5561928
20
73.4410375
11
13.5561928
21
74.5515375
0
LINE
8
DEFAULT_255_2_778
10
13.5561928
20
74.5515375
11
13.5561928
21
75.6410375
0
LINE
8
DEFAULT_255_2_778
10
13.5561928
20
75.6410375
11
9.6125928
21
75.6410375
0
LINE
8
DEFAULT_255_2_778
10
9.6125928
20
75.6410375
11
9.6300928
21
75.6236375
0
LINE
8
DEFAULT_255_2_778
10
9.6300928
20
75.6236375
11
9.9620928
21
75.2579375
0
LINE
8
DEFAULT_255_2_778
10
9.9620928
20
73.7561375
11
9.9620928
21
74.5515375
0
LINE
8
DEFAULT_255_2_778
10
9.9620928
20
74.5515375
11
9.9620928
21
75.2563375
0
LINE
8
DEFAULT_255_2_778
10
9.9620928
20
75.2563375
11
13.2066928
21
75.2563375
0
LINE
8
DEFAULT_255_2_778
10
13.5387928
20
75.6238375
11
13.5561928
21
75.6413375
0
ARC
8
DEFAULT_255_2_778
10
3.084227
20
87.7564247
40
2.8561816
50
180.007581
51
180.0379042
0
ARC
8
DEFAULT_255_2_778
10
2.2307801
20
87.7560773
40
2.0027346
50
135.0763888
51
180.0008714
0
ARC
8
DEFAULT_255_2_778
10
2.2249712
20
87.7609651
40
1.9951702
50
90.0035945
51
135.0579745
0
ARC
8
DEFAULT_255_2_778
10
29.5872726
20
8.7889104
40
4.522656
50
276.4221542
51
279.4181745
0
ARC
8
DEFAULT_255_2_778
10
29.9912391
20
6.3877331
40
2.0877488
50
279.2646218
51
284.0953556
0
ARC
8
DEFAULT_255_2_778
10
30.2186716
20
5.4491755
40
1.1220899
50
284.5032394
51
285.8664219
0
ARC
8
DEFAULT_255_2_778
10
30.3909534
20
4.8837532
40
0.531225
50
284.6654444
51
296.834391
0
ARC
8
DEFAULT_255_2_778
10
30.6029445
20
4.4839035
40
0.079213
50
290.5540119
51
340.2332472
0
ARC
8
DEFAULT_255_2_778
10
30.6488032
20
4.4616464
40
0.0290427
50
351.0223112
51
359.9779424
0
ARC
8
DEFAULT_255_2_778
10
28.6559572
20
1.7598384
40
2.0218921
50
337.6116459
51
359.8978937
0
ARC
8
DEFAULT_255_2_778
10
28.6656899
20
1.7628914
40
2.0140664
50
315.1327621
51
337.4258844
0
ARC
8
DEFAULT_255_2_778
10
28.6688816
20
1.7658776
40
2.0139156
50
303.825063
51
315.0084895
0
ARC
8
DEFAULT_255_2_778
10
28.6795763
20
1.7531739
40
1.9974097
50
292.5619286
51
303.7730612
0
ARC
8
DEFAULT_255_2_778
10
28.6798727
20
1.7551798
40
1.9991486
50
281.278017
51
292.532025
0
ARC
8
DEFAULT_255_2_778
10
28.6820082
20
1.7441159
40
1.9878807
50
269.9895595
51
281.2800199
0
ARC
8
DEFAULT_255_2_778
10
29.1754183
20
80.8926426
40
5.1810962
50
73.1361527
51
89.9988662
0
ARC
8
DEFAULT_255_2_778
10
29.1755251
20
80.8946333
40
5.1791054
50
90.0000473
51
91.8887586
0
ARC
8
DEFAULT_255_2_778
10
29.1755165
20
80.8951359
40
5.1786027
50
91.8888474
51
95.4724734
0
ARC
8
DEFAULT_255_2_778
10
1.73098
20
80.8952012
40
5.1785372
50
84.5275077
51
88.1415061
0
ARC
8
DEFAULT_255_2_778
10
1.7309615
20
80.8947144
40
5.1790244
50
88.1414758
51
90.0000424
0
ARC
8
DEFAULT_255_2_778
10
1.7309865
20
80.8932304
40
5.1805083
50
90.0003192
51
106.8648101
0
ARC
8
DEFAULT_255_2_778
10
12.4617679
20
12.2306355
40
1.3517219
50
180.0042524
51
224.9334146
0
ARC
8
DEFAULT_255_2_778
10
12.4582131
20
12.2279289
40
1.3472939
50
224.9587007
51
269.984388
0
ARC
8
DEFAULT_255_2_778
10
27.4326409
20
12.2287079
40
1.3480729
50
270.0299699
51
337.8635296
0
ARC
8
DEFAULT_255_2_778
10
2.2244091
20
1.7433599
40
1.9871247
50
258.7178268
51
270.0125966
0
ARC
8
DEFAULT_255_2_778
10
2.2260555
20
1.7539963
40
1.9978777
50
247.4672555
51
258.7312027
0
ARC
8
DEFAULT_255_2_778
10
2.2266481
20
1.7522576
40
1.9964993
50
236.2187056
51
247.4324247
0
ARC
8
DEFAULT_255_2_778
10
2.2267978
20
1.7527215
40
1.996968
50
224.9438933
51
236.2225359
0
ARC
8
DEFAULT_255_2_778
10
2.2408753
20
1.7632279
40
2.0143556
50
202.5810635
51
224.8725541
0
ARC
8
DEFAULT_255_2_778
10
2.2528835
20
1.7616468
40
2.0248451
50
180.1587883
51
202.4092779
0
ARC
8
DEFAULT_255_2_778
10
27.4331527
20
56.5065741
40
0.9984612
50
22.1319471
51
89.9774296
0
ARC
8
DEFAULT_255_2_778
10
27.4328469
20
56.5070684
40
1.3477669
50
22.1277243
51
89.9787827
0
ARC
8
DEFAULT_255_2_778
10
12.457937
20
56.5074831
40
1.3473521
50
90.0123721
51
135.0402587
0
ARC
8
DEFAULT_255_2_778
10
12.4618932
20
56.5048007
40
1.3520472
50
135.0782891
51
179.9942987
0
ARC
8
DEFAULT_255_2_778
10
1.3225756
20
8.8190271
40
4.553456
50
260.6031717
51
263.5789719
0
ARC
8
DEFAULT_255_2_778
10
0.9144657
20
6.3873855
40
2.087819
50
255.9252198
51
260.7572951
0
ARC
8
DEFAULT_255_2_778
10
0.6872059
20
5.447913
40
1.1213121
50
254.1496121
51
255.5148432
0
ARC
8
DEFAULT_255_2_778
10
0.5156052
20
4.882011
40
0.5301624
50
243.0214565
51
255.2858935
0
ARC
8
DEFAULT_255_2_778
10
0.3032862
20
4.4839178
40
0.0795391
50
199.6982766
51
249.2401608
0
ARC
8
DEFAULT_255_2_778
10
0.2572084
20
4.461648
40
0.0291624
50
180.0251889
51
188.9567669
0
ARC
8
DEFAULT_255_2_778
10
30.6505324
20
14.7984768
40
0.0374333
50
268.5427976
51
318.2183338
0
ARC
8
DEFAULT_255_2_778
10
30.4856601
20
15.6181166
40
0.8725959
50
275.1701613
51
280.8275551
0
ARC
8
DEFAULT_255_2_778
10
30.2123591
20
18.262753
40
3.5312631
50
273.8121853
51
275.7197274
0
ARC
8
DEFAULT_255_2_778
10
29.9164574
20
22.5294103
40
7.8081617
50
272.9248261
51
273.8971115
0
ARC
8
DEFAULT_255_2_778
10
29.5798292
20
29.1167549
40
14.4041019
50
272.0816952
51
272.9250886
0
ARC
8
DEFAULT_255_2_778
10
29.2184632
20
38.9225229
40
24.2165254
50
271.447115
51
272.0933795
0
ARC
8
DEFAULT_255_2_778
10
28.9213956
20
50.5547654
40
35.8525603
50
270.8872874
51
271.452244
0
ARC
8
DEFAULT_255_2_778
10
28.7585804
20
60.6427584
40
45.9418656
50
270.489364
51
270.8954915
0
ARC
8
DEFAULT_255_2_778
10
28.7001509
20
67.2622445
40
52.5616093
50
270.1118358
51
270.4914252
0
ARC
8
DEFAULT_255_2_778
10
27.6502467
20
56.5011545
40
1.1525061
50
0.197896
51
26.4797233
0
ARC
8
DEFAULT_255_2_778
10
2.2220968
20
68.9361255
40
54.2356904
50
269.5767395
51
270.0029044
0
ARC
8
DEFAULT_255_2_778
10
2.1732834
20
62.4534689
40
47.75285
50
269.1816643
51
269.5778471
0
ARC
8
DEFAULT_255_2_778
10
2.0181974
20
52.0655251
40
37.3637513
50
268.5910242
51
269.1919505
0
ARC
8
DEFAULT_255_2_778
10
1.7162195
20
39.8241658
40
25.1186678
50
267.9631223
51
268.593046
0
ARC
8
DEFAULT_255_2_778
10
1.3342389
20
29.2499769
40
14.5375848
50
267.0342811
51
267.9863903
0
ARC
8
DEFAULT_255_2_778
10
0.9473285
20
21.8045611
40
7.0821228
50
265.8314832
51
267.0438102
0
ARC
8
DEFAULT_255_2_778
10
0.6151522
20
17.3487484
40
2.6139622
50
263.3019058
51
265.9937675
0
ARC
8
DEFAULT_255_2_778
10
0.3548797
20
15.2005294
40
0.450118
50
255.5113388
51
264.311722
0
ARC
8
DEFAULT_255_2_778
10
0.2431954
20
14.7821088
40
0.0174074
50
209.5070568
51
266.9370794
0
ARC
8
DEFAULT_255_2_778
10
30.6318196
20
74.4044447
40
0.0676884
50
47.7328213
51
84.2682305
0
ARC
8
DEFAULT_255_2_778
10
30.440213
20
73.5980666
40
0.8959632
50
77.2086977
51
83.3830005
0
ARC
8
DEFAULT_255_2_778
10
30.1461809
20
71.3140828
40
3.1987448
50
82.8655941
51
85.1723526
0
ARC
8
DEFAULT_255_2_778
10
29.8361832
20
67.7767964
40
6.7495805
50
85.0772385
51
86.2913303
0
ARC
8
DEFAULT_255_2_778
10
29.4935895
20
62.4893339
40
12.0481302
50
86.2919691
51
87.3695776
0
ARC
8
DEFAULT_255_2_778
10
29.1389577
20
54.8745962
40
19.6711203
50
87.3556203
51
88.198979
0
ARC
8
DEFAULT_255_2_778
10
28.8624637
20
46.1814908
40
28.3686213
50
88.192626
51
88.9443298
0
ARC
8
DEFAULT_255_2_778
10
28.7064166
20
37.7972934
40
36.7542706
50
88.9419117
51
89.7525179
0
ARC
8
DEFAULT_255_2_778
10
28.6818306
20
33.9551266
40
40.5965085
50
89.7412412
51
90.0006839
0
ARC
8
DEFAULT_255_2_778
10
2.2221019
20
34.7358977
40
39.8159376
50
89.9960511
51
90.5765605
0
ARC
8
DEFAULT_255_2_778
10
2.1731281
20
39.5099154
40
35.0416688
50
90.5750371
51
91.1149611
0
ARC
8
DEFAULT_255_2_778
10
2.0180861
20
47.1308657
40
27.4191453
50
91.1009182
51
91.9199281
0
ARC
8
DEFAULT_255_2_778
10
1.7162994
20
56.1075583
40
18.4373813
50
91.9172153
51
92.7757451
0
ARC
8
DEFAULT_255_2_778
10
1.3347091
20
63.8567687
40
10.678785
50
92.7442394
51
94.0414581
0
ARC
8
DEFAULT_255_2_778
10
0.9180596
20
69.6816237
40
4.8390526
50
93.9812176
51
96.0428081
0
ARC
8
DEFAULT_255_2_778
10
0.562989
20
72.971666
40
1.5299274
50
95.7900226
51
100.1413908
0
ARC
8
DEFAULT_255_2_778
10
0.3232855
20
74.2662847
40
0.2134793
50
97.9924918
51
114.2365776
0
ARC
8
DEFAULT_255_2_778
10
0.2397816
20
74.4496949
40
0.0119867
50
110.1566136
51
168.2531912
0
ARC
8
DEFAULT_255_2_778
10
28.6810358
20
87.7612418
40
1.9948934
50
44.938731
51
89.9910893
0
ARC
8
DEFAULT_255_2_778
10
28.6759834
20
87.7564385
40
2.0018626
50
359.9913195
51
44.9339043
0
LINE
8
DEFAULT_255_2_778
10
21.942446
20
4.6389352
11
13.456446
21
4.6389352
0
LINE
8
DEFAULT_255_2_778
10
13.456446
20
4.6389352
11
13.456446
21
4.2134352
0
LINE
8
DEFAULT_255_2_778
10
13.456446
20
4.2134352
11
21.942446
21
4.2134352
0
LINE
8
DEFAULT_255_2_778
10
21.942446
20
4.2134352
11
21.942446
21
4.6389352
0
LINE
8
DEFAULT_255_2_778
10
21.942446
20
4.2134352
11
21.942446
21
-0.2320648
0
LINE
8
DEFAULT_255_2_778
10
21.942446
20
-0.2320648
11
13.456446
21
-0.2320648
0
LINE
8
DEFAULT_255_2_778
10
13.456446
20
-0.2320648
11
13.456446
21
4.2134352
0
LINE
8
DEFAULT_255_2_778
10
13.206946
20
-0.2437648
11
22.192146
21
-0.2437648
0
LINE
8
DEFAULT_255_2_778
10
21.942646
20
4.1092352
11
22.192146
21
4.1092352
0
LINE
8
DEFAULT_255_2_778
10
22.192146
20
3.6091352
11
21.942646
21
3.6091352
0
LINE
8
DEFAULT_255_2_778
10
21.942646
20
1.2562352
11
22.192146
21
1.2562352
0
LINE
8
DEFAULT_255_2_778
10
13.206946
20
1.2562352
11
13.456446
21
1.2562352
0
LINE
8
DEFAULT_255_2_778
10
18.834346
20
4.7561352
11
18.834346
21
4.6389352
0
LINE
8
DEFAULT_255_2_778
10
18.198546
20
4.6389352
11
18.198546
21
4.7550352
0
LINE
8
DEFAULT_255_2_778
10
18.198546
20
4.7550352
11
13.206646
21
4.7550352
0
LINE
8
DEFAULT_255_2_778
10
21.193646
20
65.0049352
11
2.224846
21
65.0049352
0
LINE
8
DEFAULT_255_2_778
10
2.224846
20
65.0049352
11
2.224846
21
74.5516352
0
LINE
8
DEFAULT_255_2_778
10
2.224846
20
74.5516352
11
3.265946
21
74.5516352
0
LINE
8
DEFAULT_255_2_778
10
3.265946
20
74.5516352
11
3.265946
21
72.5328352
0
LINE
8
DEFAULT_255_2_778
10
3.265946
20
72.5328352
11
6.710346
21
72.5328352
0
LINE
8
DEFAULT_255_2_778
10
6.710346
20
72.5328352
11
6.710346
21
74.5516352
0
LINE
8
DEFAULT_255_2_778
10
6.710346
20
74.5516352
11
9.612546
21
74.5516352
0
LINE
8
DEFAULT_255_2_778
10
28.681346
20
72.4656352
11
28.681346
21
74.5516352
0
LINE
8
DEFAULT_255_2_778
10
28.681346
20
74.5516352
11
20.794346
21
74.5516352
0
LINE
8
DEFAULT_255_2_778
10
18.198546
20
89.7545352
11
17.949046
21
89.7545352
0
LINE
8
DEFAULT_255_2_778
10
18.198546
20
88.2546352
11
17.949046
21
88.2546352
0
LINE
8
DEFAULT_255_2_778
10
9.462846
20
89.7545352
11
9.213246
21
89.7545352
0
LINE
8
DEFAULT_255_2_778
10
9.462846
20
88.2546352
11
9.213246
21
88.2546352
0
LINE
8
DEFAULT_255_2_778
10
9.462846
20
84.8703352
11
17.948746
21
84.8703352
0
LINE
8
DEFAULT_255_2_778
10
17.948746
20
84.8703352
11
17.948746
21
86.0501352
0
LINE
8
DEFAULT_255_2_778
10
17.948746
20
86.0501352
11
9.462846
21
86.0501352
0
LINE
8
DEFAULT_255_2_778
10
9.462846
20
86.0501352
11
9.462846
21
84.8703352
0
LINE
8
DEFAULT_255_2_778
10
17.948746
20
86.0501352
11
17.948746
21
89.7561352
0
LINE
8
DEFAULT_255_2_778
10
17.948746
20
89.7561352
11
9.462846
21
89.7561352
0
LINE
8
DEFAULT_255_2_778
10
9.462846
20
89.7561352
11
9.462846
21
86.0501352
0
LINE
8
DEFAULT_255_2_778
10
0.228046
20
85.8509352
11
0.228046
21
87.7545352
0
LINE
8
DEFAULT_255_2_778
10
2.224846
20
89.7561352
11
9.213246
21
89.7561352
0
LINE
8
DEFAULT_255_2_778
10
9.213246
20
89.7561352
11
9.213246
21
86.0501352
0
LINE
8
DEFAULT_255_2_778
10
28.930846
20
64.2566352
11
28.930846
21
65.0051352
0
LINE
8
DEFAULT_255_2_778
10
29.929146
20
65.0051352
11
29.929146
21
64.2566352
0
LINE
8
DEFAULT_255_2_778
10
30.677846
20
64.2561352
11
30.677846
21
65.0049352
0
LINE
8
DEFAULT_255_2_778
10
0.976846
20
64.2566352
11
0.976846
21
65.0051352
0
LINE
8
DEFAULT_255_2_778
10
22.192146
20
4.2285352
11
22.192146
21
-0.2437648
0
LINE
8
DEFAULT_255_2_778
10
22.192146
20
-0.2437648
11
28.681646
21
-0.2437648
0
LINE
8
DEFAULT_255_2_778
10
28.681646
20
-0.2437648
11
28.681646
21
4.2285352
0
LINE
8
DEFAULT_255_2_778
10
28.681646
20
4.2285352
11
29.070846
21
4.2327352
0
LINE
8
DEFAULT_255_2_778
10
29.070846
20
4.2327352
11
29.445946
21
4.2454352
0
LINE
8
DEFAULT_255_2_778
10
29.445946
20
4.2454352
11
29.789946
21
4.2663352
0
LINE
8
DEFAULT_255_2_778
10
29.789946
20
4.2663352
11
30.093146
21
4.2946352
0
LINE
8
DEFAULT_255_2_778
10
30.677846
20
14.7737352
11
30.677846
21
1.7562352
0
LINE
8
DEFAULT_255_2_778
10
30.678446
20
74.4552352
11
30.678446
21
85.8509352
0
LINE
8
DEFAULT_255_2_778
10
28.681646
20
86.0501352
11
28.681646
21
89.7561352
0
LINE
8
DEFAULT_255_2_778
10
2.224846
20
89.7561352
11
2.224846
21
86.0501352
0
LINE
8
DEFAULT_255_2_778
10
0.228046
20
85.8509352
11
0.228046
21
84.0046352
0
LINE
8
DEFAULT_255_2_778
10
0.228046
20
84.0046352
11
0.228046
21
82.0046352
0
LINE
8
DEFAULT_255_2_778
10
0.228046
20
82.0046352
11
0.228046
21
74.4518352
0
LINE
8
DEFAULT_255_2_778
10
11.210146
20
14.7012352
11
11.110046
21
14.7007352
0
LINE
8
DEFAULT_255_2_778
10
11.110046
20
14.7007352
11
11.110046
21
12.2305352
0
LINE
8
DEFAULT_255_2_778
10
12.457846
20
10.8806352
11
13.705946
21
10.8806352
0
LINE
8
DEFAULT_255_2_778
10
13.705946
20
10.8806352
11
13.705946
21
8.2562352
0
LINE
8
DEFAULT_255_2_778
10
13.705946
20
8.2562352
11
22.691146
21
8.2562352
0
LINE
8
DEFAULT_255_2_778
10
22.691146
20
8.2562352
11
22.691146
21
10.8806352
0
LINE
8
DEFAULT_255_2_778
10
22.691146
20
10.8806352
11
27.433346
21
10.8806352
0
LINE
8
DEFAULT_255_2_778
10
28.681346
20
11.7207352
11
28.681346
21
4.2285352
0
LINE
8
DEFAULT_255_2_778
10
28.681346
20
4.2285352
11
22.192146
21
4.2285352
0
LINE
8
DEFAULT_255_2_778
10
22.192146
20
4.2285352
11
22.192146
21
4.7563352
0
LINE
8
DEFAULT_255_2_778
10
22.192146
20
4.7563352
11
13.206946
21
4.7563352
0
LINE
8
DEFAULT_255_2_778
10
13.206946
20
4.7563352
11
13.206946
21
4.2285352
0
LINE
8
DEFAULT_255_2_778
10
13.206946
20
4.2285352
11
2.224846
21
4.2285352
0
LINE
8
DEFAULT_255_2_778
10
2.224846
20
4.2285352
11
2.224846
21
-0.2437648
0
LINE
8
DEFAULT_255_2_778
10
2.224846
20
-0.2437648
11
13.206946
21
-0.2437648
0
LINE
8
DEFAULT_255_2_778
10
13.206946
20
-0.2437648
11
13.206946
21
4.2285352
0
LINE
8
DEFAULT_255_2_778
10
0.228046
20
1.7560352
11
0.228046
21
14.7735352
0
LINE
8
DEFAULT_255_2_778
10
28.358046
20
56.8827352
11
28.364146
21
56.8853352
0
LINE
8
DEFAULT_255_2_778
10
28.364146
20
56.8853352
11
28.382646
21
56.8927352
0
LINE
8
DEFAULT_255_2_778
10
28.382646
20
56.8927352
11
28.412546
21
56.9049352
0
LINE
8
DEFAULT_255_2_778
10
28.412546
20
56.9049352
11
28.452746
21
56.9213352
0
LINE
8
DEFAULT_255_2_778
10
28.452746
20
56.9213352
11
28.501646
21
56.9414352
0
LINE
8
DEFAULT_255_2_778
10
28.501646
20
56.9414352
11
28.557546
21
56.9642352
0
LINE
8
DEFAULT_255_2_778
10
28.557546
20
56.9642352
11
28.618146
21
56.9890352
0
LINE
8
DEFAULT_255_2_778
10
28.618146
20
56.9890352
11
28.681346
21
57.0147352
0
LINE
8
DEFAULT_255_2_778
10
27.433346
20
57.8548352
11
22.691146
21
57.8548352
0
LINE
8
DEFAULT_255_2_778
10
22.691146
20
57.8548352
11
22.691146
21
60.5048352
0
LINE
8
DEFAULT_255_2_778
10
22.691146
20
60.5048352
11
22.191946
21
60.5048352
0
LINE
8
DEFAULT_255_2_778
10
22.191946
20
60.5048352
11
14.204946
21
60.5048352
0
LINE
8
DEFAULT_255_2_778
10
14.204946
20
60.5048352
11
13.705646
21
60.5048352
0
LINE
8
DEFAULT_255_2_778
10
13.705646
20
60.5048352
11
13.705646
21
57.8548352
0
LINE
8
DEFAULT_255_2_778
10
13.705646
20
57.8548352
11
12.457646
21
57.8548352
0
LINE
8
DEFAULT_255_2_778
10
11.109846
20
56.5049352
11
11.109846
21
14.7004352
0
LINE
8
DEFAULT_255_2_778
10
11.109846
20
14.7004352
11
2.224846
21
14.7004352
0
LINE
8
DEFAULT_255_2_778
10
2.224846
20
14.7004352
11
2.224846
21
4.2280352
0
LINE
8
DEFAULT_255_2_778
10
2.224846
20
4.2280352
11
1.835646
21
4.2322352
0
LINE
8
DEFAULT_255_2_778
10
1.835646
20
4.2322352
11
1.460446
21
4.2449352
0
LINE
8
DEFAULT_255_2_778
10
1.460446
20
4.2449352
11
1.116546
21
4.2658352
0
LINE
8
DEFAULT_255_2_778
10
1.116546
20
4.2658352
11
0.813346
21
4.2941352
0
LINE
8
DEFAULT_255_2_778
10
2.224846
20
64.2566352
11
28.681646
21
64.2566352
0
LINE
8
DEFAULT_255_2_778
10
28.681646
20
64.2566352
11
30.240246
21
64.2566352
0
LINE
8
DEFAULT_255_2_778
10
30.240246
20
64.2566352
11
30.240246
21
64.2561352
0
LINE
8
DEFAULT_255_2_778
10
30.240246
20
64.2561352
11
30.678446
21
64.2561352
0
LINE
8
DEFAULT_255_2_778
10
30.678446
20
64.2561352
11
30.678446
21
14.7735352
0
LINE
8
DEFAULT_255_2_778
10
30.678446
20
14.7735352
11
30.678446
21
14.7735352
0
LINE
8
DEFAULT_255_2_778
10
28.802746
20
14.7007352
11
28.802746
21
56.5051352
0
LINE
8
DEFAULT_255_2_778
10
28.681846
20
57.0150352
11
28.681846
21
64.2566352
0
LINE
8
DEFAULT_255_2_778
10
0.228046
20
65.0049352
11
0.228046
21
64.2564352
0
LINE
8
DEFAULT_255_2_778
10
0.228046
20
64.2564352
11
2.224846
21
64.2564352
0
LINE
8
DEFAULT_255_2_778
10
2.224846
20
64.2564352
11
2.224846
21
14.7004352
0
LINE
8
DEFAULT_255_2_778
10
2.224846
20
14.7004352
11
2.224846
21
14.7004352
0
LINE
8
DEFAULT_255_2_778
10
0.228046
20
14.7735352
11
0.228046
21
64.2566352
0
LINE
8
DEFAULT_255_2_778
10
28.681346
20
74.5516352
11
28.681346
21
86.0501352
0
LINE
8
DEFAULT_255_2_778
10
28.681346
20
86.0501352
11
18.198546
21
86.0501352
0
LINE
8
DEFAULT_255_2_778
10
18.198546
20
86.0501352
11
18.198546
21
84.7547352
0
LINE
8
DEFAULT_255_2_778
10
18.198546
20
84.7547352
11
9.213246
21
84.7547352
0
LINE
8
DEFAULT_255_2_778
10
9.213246
20
84.7547352
11
9.213246
21
86.0501352
0
LINE
8
DEFAULT_255_2_778
10
9.213246
20
86.0501352
11
2.224846
21
86.0501352
0
LINE
8
DEFAULT_255_2_778
10
2.224846
20
86.0501352
11
2.224846
21
74.5518352
0
LINE
8
DEFAULT_255_2_778
10
0.228046
20
74.4521352
11
0.228046
21
74.4521352
0
LINE
8
DEFAULT_255_2_778
10
0.228046
20
74.4521352
11
0.228046
21
65.0054352
0
LINE
8
DEFAULT_255_2_778
10
0.228046
20
65.0054352
11
2.224846
21
65.0054352
0
LINE
8
DEFAULT_255_2_778
10
28.731346
20
72.5159352
11
21.193646
21
65.0049352
0
LINE
8
DEFAULT_255_2_778
10
21.193646
20
65.0049352
11
28.731346
21
65.0049352
0
LINE
8
DEFAULT_255_2_778
10
30.728146
20
65.0049352
11
28.731346
21
65.0049352
0
LINE
8
DEFAULT_255_2_778
10
28.731346
20
65.0049352
11
28.731346
21
72.5153352
0
LINE
8
DEFAULT_255_2_778
10
28.731346
20
72.5153352
11
30.728146
21
74.5047352
0
LINE
8
DEFAULT_255_2_778
10
30.728146
20
74.5047352
11
30.728146
21
65.0049352
0
LINE
8
DEFAULT_255_2_778
10
18.198546
20
86.0501352
11
18.198546
21
89.7561352
0
LINE
8
DEFAULT_255_2_778
10
18.198546
20
89.7561352
11
28.681346
21
89.7561352
0
LINE
8
DEFAULT_255_2_778
10
30.677846
20
87.7561352
11
30.677846
21
85.8509352
0
ENDSEC
0
EOF