0
SECTION
2
HEADER
9
$MEASUREMENT
70
1
0
ENDSEC
0
SECTION
2
TABLES
0
TABLE
2
LTYPE
0
LTYPE
72
65
70
64
2
CONTINUOUS
3
______
73
0
40
0
0
ENDTAB
0
TABLE
2
LAYER
0
LAYER
2
DEFAULT_255_2_778
70
0
62
255
6
CONTINUOUS
0
ENDTAB
0
ENDSEC
0
SECTION
2
ENTITIES
0
ARC
8
DEFAULT_255_2_778
10
2.220838
20
1.7537114
40
1.9927989
50
179.9263778
51
204.3121238
0
ARC
8
DEFAULT_255_2_778
10
2.2297123
20
1.7588154
40
2.0029878
50
204.3406647
51
260.1993716
0
ARC
8
DEFAULT_255_2_778
10
2.2274247
20
1.769728
40
2.013356
50
260.3163836
51
270.017533
0
LINE
8
DEFAULT_255_2_778
10
0.2280408
20
62.814472
11
0.2280408
21
1.756272
0
LINE
8
DEFAULT_255_2_778
10
2.2280408
20
-0.243628
11
11.6175408
21
-0.243628
0
ARC
8
DEFAULT_255_2_778
10
4.3261396
20
66.926198
40
0.9662889
50
60.7587263
51
90.9534516
0
ARC
8
DEFAULT_255_2_778
10
4.3730225
20
67.0241582
40
0.8579381
50
27.4656102
51
60.2949916
0
ARC
8
DEFAULT_255_2_778
10
4.1901268
20
66.9278555
40
1.0646361
50
0.6784894
51
27.5244766
0
ARC
8
DEFAULT_255_2_778
10
3.9065792
20
66.9047779
40
1.3485811
50
359.9946982
51
1.5162713
0
ARC
8
DEFAULT_255_2_778
10
4.1302949
20
66.79519
40
1.124956
50
338.9030721
51
0.7264608
0
ARC
8
DEFAULT_255_2_778
10
4.2830055
20
66.7467211
40
0.9650842
50
332.1821716
51
338.3243679
0
ARC
8
DEFAULT_255_2_778
10
4.3830982
20
66.6856413
40
0.8480865
50
299.5888774
51
332.6761461
0
ARC
8
DEFAULT_255_2_778
10
4.3238055
20
66.7986769
40
0.9756676
50
269.4570788
51
299.3390882
0
ARC
8
DEFAULT_255_2_778
10
4.3195752
20
66.7010752
40
0.5355977
50
268.5326969
51
296.0603882
0
ARC
8
DEFAULT_255_2_778
10
4.3638307
20
66.5890039
40
0.4155865
50
297.3673156
51
321.2985191
0
ARC
8
DEFAULT_255_2_778
10
4.2266181
20
66.6873683
40
0.5842427
50
322.1840134
51
348.7036364
0
ARC
8
DEFAULT_255_2_778
10
3.7541923
20
66.7959109
40
1.0688684
50
347.9585644
51
0.0451476
0
ARC
8
DEFAULT_255_2_778
10
3.7179905
20
66.9188559
40
1.1051418
50
359.3465991
51
12.231861
0
ARC
8
DEFAULT_255_2_778
10
4.2425707
20
67.0391213
40
0.5670261
50
11.5858314
51
37.4150277
0
ARC
8
DEFAULT_255_2_778
10
4.2887094
20
67.0600998
40
0.5177589
50
38.6734423
51
38.7749516
0
ARC
8
DEFAULT_255_2_778
10
4.3530361
20
67.1055462
40
0.4391745
50
39.4083463
51
87.1648102
0
ARC
8
DEFAULT_255_2_778
10
4.3110571
20
66.8387818
40
0.7082719
50
84.8398374
51
90.0806211
0
LINE
8
DEFAULT_255_2_778
10
4.3142604
20
65.8233531
11
3.6734604
21
65.8233531
0
LINE
8
DEFAULT_255_2_778
10
3.6734604
20
65.8233531
11
3.6734604
21
67.8923531
0
LINE
8
DEFAULT_255_2_778
10
3.6734604
20
67.8923531
11
4.3100604
21
67.8923531
0
LINE
8
DEFAULT_255_2_778
10
5.2551604
20
66.9046531
11
5.2551604
21
66.8094531
0
LINE
8
DEFAULT_255_2_778
10
4.3145604
20
65.8230531
11
4.3142604
21
65.8233531
0
LINE
8
DEFAULT_255_2_778
10
4.3100604
20
67.5470531
11
4.0996604
21
67.5470531
0
LINE
8
DEFAULT_255_2_778
10
4.0996604
20
67.5470531
11
4.0996604
21
66.1656531
0
LINE
8
DEFAULT_255_2_778
10
4.0996604
20
66.1656531
11
4.3058604
21
66.1656531
0
LINE
8
DEFAULT_255_2_778
10
4.8230604
20
66.7967531
11
4.8230604
21
66.9062531
0
LINE
8
DEFAULT_255_2_778
10
4.3100604
20
67.5470531
11
4.3100604
21
67.5470531
0
ARC
8
DEFAULT_255_2_778
10
4.6103414
20
68.2812607
40
2.1537463
50
317.194904
51
322.9347753
0
ARC
8
DEFAULT_255_2_778
10
5.4567998
20
67.6395827
40
1.091562
50
323.0316869
51
329.2073225
0
ARC
8
DEFAULT_255_2_778
10
6.0267192
20
67.3128025
40
0.4348376
50
327.7514237
51
355.4241633
0
ARC
8
DEFAULT_255_2_778
10
6.1468618
20
67.2941182
40
0.3137175
50
357.0753976
51
359.9922894
0
ARC
8
DEFAULT_255_2_778
10
6.1183193
20
67.3074358
40
0.3425205
50
357.7646538
51
30.0475397
0
ARC
8
DEFAULT_255_2_778
10
6.2076229
20
67.3492638
40
0.2444225
50
32.0425979
51
41.3602083
0
ARC
8
DEFAULT_255_2_778
10
6.2078001
20
67.3386019
40
0.2514661
50
43.2105662
51
93.5842934
0
ARC
8
DEFAULT_255_2_778
10
6.1797501
20
67.3186113
40
0.271245
50
87.3947964
51
139.831106
0
ARC
8
DEFAULT_255_2_778
10
6.2628534
20
67.2639779
40
0.3701789
50
141.6666709
51
180.1465709
0
ARC
8
DEFAULT_255_2_778
10
6.4761016
20
67.2415147
40
0.5838225
50
177.8879418
51
180.0136141
0
ARC
8
DEFAULT_255_2_778
10
6.1588321
20
67.2485018
40
0.6787903
50
150.1189356
51
180.6014934
0
ARC
8
DEFAULT_255_2_778
10
6.1195807
20
67.2700381
40
0.6340282
50
117.6467886
51
150.0392393
0
ARC
8
DEFAULT_255_2_778
10
6.1859221
20
67.1460056
40
0.7746838
50
89.0194519
51
117.7365307
0
ARC
8
DEFAULT_255_2_778
10
6.2120096
20
66.9373117
40
0.983348
50
75.0574838
51
90.7475984
0
ARC
8
DEFAULT_255_2_778
10
6.3142495
20
67.3172164
40
0.5899278
50
49.6910379
51
75.1375399
0
ARC
8
DEFAULT_255_2_778
10
6.3537464
20
67.380203
40
0.5164548
50
3.420851
51
48.5119239
0
ARC
8
DEFAULT_255_2_778
10
6.0675584
20
67.3349679
40
0.8053217
50
359.9152021
51
5.4188901
0
ARC
8
DEFAULT_255_2_778
10
6.1772082
20
67.3444762
40
0.6957532
50
332.2921123
51
359.1187995
0
ARC
8
DEFAULT_255_2_778
10
5.7214497
20
67.5724378
40
1.2052859
50
323.0905655
51
332.7717734
0
ARC
8
DEFAULT_255_2_778
10
4.7321061
20
68.3028365
40
2.4350144
50
317.4652446
51
323.3290601
0
ARC
8
DEFAULT_255_2_778
10
4.0248509
20
68.9286175
40
3.3792621
50
317.6023659
51
317.7537076
0
LINE
8
DEFAULT_255_2_778
10
6.9392792
20
66.154176
11
6.9392792
21
65.823176
0
LINE
8
DEFAULT_255_2_778
10
6.9392792
20
65.823176
11
5.5210792
21
65.823176
0
LINE
8
DEFAULT_255_2_778
10
5.5210792
20
65.823176
11
5.5210792
21
66.104476
0
LINE
8
DEFAULT_255_2_778
10
5.5210792
20
66.104476
11
6.1904792
21
66.817776
0
LINE
8
DEFAULT_255_2_778
10
5.8922792
20
67.241376
11
5.4800792
21
67.241376
0
LINE
8
DEFAULT_255_2_778
10
6.5203792
20
66.650076
11
6.0499792
21
66.154176
0
LINE
8
DEFAULT_255_2_778
10
6.0499792
20
66.154176
11
6.9394792
21
66.154176
0
LINE
8
DEFAULT_255_2_778
10
6.9394792
20
66.154176
11
6.9392792
21
66.154176
0
LINE
8
DEFAULT_255_2_778
10
8.00655
20
66.8746969
11
8.00655
21
66.5436969
0
LINE
8
DEFAULT_255_2_778
10
8.00655
20
66.5436969
11
7.20645
21
66.5436969
0
LINE
8
DEFAULT_255_2_778
10
7.20645
20
66.5436969
11
7.20645
21
66.8746969
0
LINE
8
DEFAULT_255_2_778
10
7.20645
20
66.8746969
11
8.00655
21
66.8746969
0
LINE
8
DEFAULT_255_2_778
10
8.00655
20
66.8746969
11
8.00655
21
66.8746969
0
ARC
8
DEFAULT_255_2_778
10
8.1212192
20
66.6661253
40
1.5905688
50
349.825982
51
0.4516574
0
ARC
8
DEFAULT_255_2_778
10
8.785818
20
66.541438
40
0.9144113
50
331.8235886
51
350.1601439
0
ARC
8
DEFAULT_255_2_778
10
9.0086887
20
66.4315063
40
0.6660949
50
322.0923045
51
331.1068484
0
ARC
8
DEFAULT_255_2_778
10
9.0739276
20
66.3854258
40
0.5863216
50
274.7069129
51
321.7283328
0
ARC
8
DEFAULT_255_2_778
10
9.0160695
20
66.7154239
40
0.9204628
50
269.8735788
51
276.6109971
0
ARC
8
DEFAULT_255_2_778
10
9.0008553
20
66.5552532
40
0.760404
50
249.2947405
51
270.9933973
0
ARC
8
DEFAULT_255_2_778
10
8.9379953
20
66.3682819
40
0.5633313
50
218.4527528
51
248.5516599
0
ARC
8
DEFAULT_255_2_778
10
9.1070429
20
66.4926762
40
0.7731116
50
194.0886581
51
217.8813747
0
ARC
8
DEFAULT_255_2_778
10
9.6429492
20
66.63858
40
1.3284604
50
182.3291276
51
194.5658101
0
ARC
8
DEFAULT_255_2_778
10
10.1561457
20
66.6753073
40
1.8427935
50
180.5548049
51
182.8216541
0
ARC
8
DEFAULT_255_2_778
10
9.9086037
20
67.0509513
40
1.5952156
50
169.8843904
51
180.4557168
0
ARC
8
DEFAULT_255_2_778
10
9.2367475
20
67.1758803
40
0.9118749
50
152.2910481
51
170.1976509
0
ARC
8
DEFAULT_255_2_778
10
9.0041609
20
67.2893152
40
0.6532618
50
141.4682353
51
151.6137661
0
ARC
8
DEFAULT_255_2_778
10
8.9550789
20
67.3236815
40
0.5934697
50
94.4274006
51
141.1117827
0
ARC
8
DEFAULT_255_2_778
10
9.0093582
20
67.0048779
40
0.9159874
50
89.8886363
51
96.2734082
0
ARC
8
DEFAULT_255_2_778
10
9.0243264
20
67.1588792
40
0.7620984
50
69.341486
51
90.9915356
0
ARC
8
DEFAULT_255_2_778
10
9.0876043
20
67.3472117
40
0.5635978
50
38.5394951
51
68.6060354
0
ARC
8
DEFAULT_255_2_778
10
8.9235481
20
67.2263618
40
0.7672536
50
14.4186222
51
37.9652496
0
ARC
8
DEFAULT_255_2_778
10
8.3925375
20
67.0796722
40
1.3181017
50
2.3476205
51
14.8465752
0
ARC
8
DEFAULT_255_2_778
10
7.8717706
20
67.0418569
40
1.8400542
50
0.5544741
51
2.8599068
0
ARC
8
DEFAULT_255_2_778
10
8.0110388
20
67.1080617
40
1.2901546
50
359.4715938
51
8.3050769
0
ARC
8
DEFAULT_255_2_778
10
8.7548111
20
67.2226712
40
0.5376608
50
7.6684243
51
24.8806021
0
ARC
8
DEFAULT_255_2_778
10
8.967787
20
67.3130163
40
0.3065365
50
26.3097377
51
30.9279018
0
ARC
8
DEFAULT_255_2_778
10
9.0254733
20
67.3502883
40
0.2379075
50
30.3681761
51
93.4543541
0
ARC
8
DEFAULT_255_2_778
10
8.9966808
20
67.3549739
40
0.2332381
50
86.4461201
51
148.7235943
0
ARC
8
DEFAULT_255_2_778
10
9.1945527
20
67.2477779
40
0.4581412
50
150.1132967
51
170.3225488
0
ARC
8
DEFAULT_255_2_778
10
9.8595204
20
67.1184458
40
1.1354958
50
169.5298347
51
179.4710358
0
ARC
8
DEFAULT_255_2_778
10
10.5992336
20
67.0915029
40
1.8755341
50
178.8566001
51
178.9105374
0
ARC
8
DEFAULT_255_2_778
10
10.0052816
20
66.6119235
40
1.2813015
50
179.4526554
51
188.6802478
0
ARC
8
DEFAULT_255_2_778
10
9.2741435
20
66.4940548
40
0.5407846
50
188.0259719
51
206.046136
0
ARC
8
DEFAULT_255_2_778
10
9.081938
20
66.4098109
40
0.3312226
50
207.5526967
51
209.2113525
0
ARC
8
DEFAULT_255_2_778
10
8.9993452
20
66.3591633
40
0.2344482
50
208.2585576
51
273.5442223
0
ARC
8
DEFAULT_255_2_778
10
9.0295842
20
66.3554201
40
0.2307943
50
266.0880298
51
330.8962679
0
ARC
8
DEFAULT_255_2_778
10
8.7881753
20
66.4775122
40
0.5012228
50
332.124372
51
350.8789675
0
ARC
8
DEFAULT_255_2_778
10
8.0930847
20
66.6040507
40
1.2076736
50
350.1790481
51
359.6530924
0
ARC
8
DEFAULT_255_2_778
10
7.4881716
20
66.6257413
40
1.8127965
50
359.0832957
51
359.3148282
0
LINE
8
DEFAULT_255_2_778
10
9.7117386
20
67.0593635
11
9.7117386
21
66.6786635
0
LINE
8
DEFAULT_255_2_778
10
8.3134386
20
66.6574635
11
8.3134386
21
67.0382635
0
LINE
8
DEFAULT_255_2_778
10
9.7117386
20
67.0596635
11
9.7117386
21
67.0593635
0
LINE
8
DEFAULT_255_2_778
10
9.3011386
20
66.6045635
11
9.3011386
21
67.0961635
0
LINE
8
DEFAULT_255_2_778
10
8.7240386
20
67.1271635
11
8.7240386
21
66.6241635
0
LINE
8
DEFAULT_255_2_778
10
9.3008386
20
66.6040635
11
9.3011386
21
66.6045635
0
LINE
8
DEFAULT_255_2_778
10
11.2040531
20
67.8922531
11
11.2040531
21
66.6019531
0
LINE
8
DEFAULT_255_2_778
10
11.2040531
20
66.6019531
11
11.4384531
21
66.6019531
0
LINE
8
DEFAULT_255_2_778
10
11.4384531
20
66.6019531
11
11.4384531
21
66.2709531
0
LINE
8
DEFAULT_255_2_778
10
11.4384531
20
66.2709531
11
11.2040531
21
66.2709531
0
LINE
8
DEFAULT_255_2_778
10
11.2040531
20
66.2709531
11
11.2040531
21
65.8232531
0
LINE
8
DEFAULT_255_2_778
10
11.2040531
20
65.8232531
11
10.7933531
21
65.8232531
0
LINE
8
DEFAULT_255_2_778
10
10.7933531
20
65.8232531
11
10.7933531
21
66.2709531
0
LINE
8
DEFAULT_255_2_778
10
10.7933531
20
66.2709531
11
9.9448531
21
66.2709531
0
LINE
8
DEFAULT_255_2_778
10
9.9448531
20
66.2709531
11
9.9263531
21
66.5296531
0
LINE
8
DEFAULT_255_2_778
10
9.9263531
20
66.5296531
11
10.7888531
21
67.8925531
0
LINE
8
DEFAULT_255_2_778
10
10.7888531
20
67.8925531
11
11.2037531
21
67.8925531
0
LINE
8
DEFAULT_255_2_778
10
11.2037531
20
67.8925531
11
11.2040531
21
67.8922531
0
LINE
8
DEFAULT_255_2_778
10
10.7664531
20
67.2855531
11
10.3359531
21
66.6021531
0
LINE
8
DEFAULT_255_2_778
10
10.3359531
20
66.6021531
11
10.7933531
21
66.6021531
0
LINE
8
DEFAULT_255_2_778
10
10.7933531
20
66.6021531
11
10.7933531
21
67.3326531
0
LINE
8
DEFAULT_255_2_778
10
10.7933531
20
67.3326531
11
10.7664531
21
67.2858531
0
LINE
8
DEFAULT_255_2_778
10
10.7664531
20
67.2858531
11
10.7664531
21
67.2855531
0
LINE
8
DEFAULT_255_2_778
10
13.2601021
20
67.8923208
11
13.2601021
21
67.5470208
0
LINE
8
DEFAULT_255_2_778
10
13.2601021
20
67.5470208
11
12.6265021
21
67.5470208
0
LINE
8
DEFAULT_255_2_778
10
12.6265021
20
67.5470208
11
12.6265021
21
65.8233208
0
LINE
8
DEFAULT_255_2_778
10
12.6265021
20
65.8233208
11
12.2002021
21
65.8233208
0
LINE
8
DEFAULT_255_2_778
10
12.2002021
20
65.8233208
11
12.2002021
21
67.5470208
0
LINE
8
DEFAULT_255_2_778
10
12.2002021
20
67.5470208
11
11.5750021
21
67.5470208
0
LINE
8
DEFAULT_255_2_778
10
11.5750021
20
67.5470208
11
11.5750021
21
67.8923208
0
LINE
8
DEFAULT_255_2_778
10
11.5750021
20
67.8923208
11
13.2604021
21
67.8923208
0
LINE
8
DEFAULT_255_2_778
10
13.2604021
20
67.8923208
11
13.2601021
21
67.8923208
0
ARC
8
DEFAULT_255_2_778
10
14.2849906
20
66.6580084
40
1.2344112
50
77.5239133
51
90.594659
0
ARC
8
DEFAULT_255_2_778
10
14.4075261
20
67.1835519
40
0.6948329
50
52.4876425
51
78.0275606
0
ARC
8
DEFAULT_255_2_778
10
14.4759693
20
67.2883833
40
0.570081
50
50.591934
51
51.5283246
0
ARC
8
DEFAULT_255_2_778
10
14.4893543
20
67.309261
40
0.5454605
50
2.2352086
51
50.2860313
0
ARC
8
DEFAULT_255_2_778
10
14.203811
20
67.2676156
40
0.8329685
50
359.9475525
51
4.3320402
0
ARC
8
DEFAULT_255_2_778
10
14.326711
20
67.2536372
40
0.7101911
50
339.4116444
51
1.0662715
0
ARC
8
DEFAULT_255_2_778
10
14.5115484
20
67.192986
40
0.5158965
50
327.2175025
51
338.4985945
0
ARC
8
DEFAULT_255_2_778
10
14.447138
20
67.2489684
40
0.600484
50
296.2314761
51
326.0541983
0
ARC
8
DEFAULT_255_2_778
10
14.3128244
20
67.4766689
40
0.8643289
50
294.2251866
51
297.5466432
0
ARC
8
DEFAULT_255_2_778
10
14.2865518
20
67.3311907
40
0.4053484
50
268.151867
51
295.8797691
0
ARC
8
DEFAULT_255_2_778
10
14.338419
20
67.2063202
40
0.2704754
50
297.5404521
51
312.7965222
0
ARC
8
DEFAULT_255_2_778
10
14.318509
20
67.2173632
40
0.2921917
50
314.1902318
51
3.0781169
0
ARC
8
DEFAULT_255_2_778
10
14.2840083
20
67.2473379
40
0.3265835
50
357.4930716
51
35.7941564
0
ARC
8
DEFAULT_255_2_778
10
14.3388095
20
67.276225
40
0.2653776
50
37.6557481
51
44.7799057
0
ARC
8
DEFAULT_255_2_778
10
14.3253134
20
67.2481828
40
0.2948932
50
46.8006832
51
84.6875529
0
ARC
8
DEFAULT_255_2_778
10
14.2747042
20
66.9662261
40
0.5808325
50
82.2911486
51
90.2490822
0
LINE
8
DEFAULT_255_2_778
10
14.6570792
20
65.8233531
11
14.2692792
21
66.5808531
0
LINE
8
DEFAULT_255_2_778
10
14.2692792
20
66.5808531
11
13.9294792
21
66.5808531
0
LINE
8
DEFAULT_255_2_778
10
13.9294792
20
66.5808531
11
13.9294792
21
65.8233531
0
LINE
8
DEFAULT_255_2_778
10
13.9294792
20
65.8233531
11
13.5032792
21
65.8233531
0
LINE
8
DEFAULT_255_2_778
10
13.5032792
20
65.8233531
11
13.5032792
21
67.8923531
0
LINE
8
DEFAULT_255_2_778
10
13.5032792
20
67.8923531
11
14.2721792
21
67.8923531
0
LINE
8
DEFAULT_255_2_778
10
14.6674792
20
66.6884531
11
15.1150792
21
65.8428531
0
LINE
8
DEFAULT_255_2_778
10
15.1150792
20
65.8428531
11
15.1150792
21
65.8230531
0
LINE
8
DEFAULT_255_2_778
10
15.1150792
20
65.8230531
11
14.6576792
21
65.8230531
0
LINE
8
DEFAULT_255_2_778
10
14.6576792
20
65.8230531
11
14.6570792
21
65.8233531
0
LINE
8
DEFAULT_255_2_778
10
13.9294792
20
67.5470531
11
13.9294792
21
66.9260531
0
LINE
8
DEFAULT_255_2_778
10
13.9294792
20
66.9260531
11
14.2734792
21
66.9260531
0
LINE
8
DEFAULT_255_2_778
10
14.2721792
20
67.5470531
11
13.9297792
21
67.5470531
0
LINE
8
DEFAULT_255_2_778
10
13.9297792
20
67.5470531
11
13.9294792
21
67.5470531
0
ARC
8
DEFAULT_255_2_778
10
16.2150873
20
66.3779399
40
0.2187907
50
356.8621111
51
52.4764501
0
ARC
8
DEFAULT_255_2_778
10
16.016424
20
66.0904681
40
0.5680595
50
54.2453513
51
65.9802094
0
ARC
8
DEFAULT_255_2_778
10
15.5835443
20
65.1584706
40
1.5956358
50
65.4048524
51
71.0760303
0
ARC
8
DEFAULT_255_2_778
10
15.1944528
20
64.0749864
40
2.7467955
50
70.728248
51
72.0418678
0
ARC
8
DEFAULT_255_2_778
10
16.9382422
20
69.5005718
40
2.9521486
50
247.8775353
51
252.3134165
0
ARC
8
DEFAULT_255_2_778
10
16.3812317
20
68.1327387
40
1.4752509
50
242.0750453
51
247.9123012
0
ARC
8
DEFAULT_255_2_778
10
16.070192
20
67.5592436
40
0.8228917
50
224.4256518
51
242.5099805
0
ARC
8
DEFAULT_255_2_778
10
15.8422263
20
67.336834
40
0.5044055
50
179.3832516
51
224.5092883
0
ARC
8
DEFAULT_255_2_778
10
15.837854
20
67.3489624
40
0.5000489
50
144.1867711
51
180.7675893
0
ARC
8
DEFAULT_255_2_778
10
15.9167535
20
67.2811955
40
0.6037481
50
112.8869151
51
143.3529006
0
ARC
8
DEFAULT_255_2_778
10
16.0277858
20
67.0694271
40
0.8422628
50
112.6263911
51
114.2429066
0
ARC
8
DEFAULT_255_2_778
10
16.0836105
20
66.9050938
40
1.0154921
50
89.8440201
51
111.9665599
0
ARC
8
DEFAULT_255_2_778
10
16.1009443
20
66.6167912
40
1.3038723
50
89.9997477
51
90.6402284
0
ARC
8
DEFAULT_255_2_778
10
16.1149026
20
66.9680777
40
0.9526879
50
68.9261443
51
90.8391537
0
ARC
8
DEFAULT_255_2_778
10
16.1637089
20
67.1223651
40
0.7912328
50
65.1715282
51
68.2066786
0
ARC
8
DEFAULT_255_2_778
10
16.2421934
20
67.2654893
40
0.6284806
50
33.6523798
51
66.1864228
0
ARC
8
DEFAULT_255_2_778
10
16.2687672
20
67.2902778
40
0.5926529
50
359.118821
51
33.0811608
0
ARC
8
DEFAULT_255_2_778
10
16.1567729
20
67.296957
40
0.2788248
50
356.752859
51
47.3588557
0
ARC
8
DEFAULT_255_2_778
10
16.1321502
20
67.2438251
40
0.3350661
50
50.4175994
51
86.9479557
0
ARC
8
DEFAULT_255_2_778
10
16.09515
20
66.9896318
40
0.5913327
50
84.6787487
51
90.1065777
0
ARC
8
DEFAULT_255_2_778
10
16.0816435
20
67.1064214
40
0.4747043
50
88.5023931
51
110.4944683
0
ARC
8
DEFAULT_255_2_778
10
16.0179601
20
67.2945223
40
0.2762821
50
111.7813087
51
127.140187
0
ARC
8
DEFAULT_255_2_778
10
15.9726801
20
67.3454853
40
0.2083859
50
125.6757411
51
181.3258709
0
ARC
8
DEFAULT_255_2_778
10
15.9638202
20
67.3455416
40
0.1995298
50
181.4008912
51
240.626284
0
ARC
8
DEFAULT_255_2_778
10
16.3036088
20
67.8484785
40
0.8059924
50
237.1114881
51
248.6866942
0
ARC
8
DEFAULT_255_2_778
10
16.6624768
20
68.7232486
40
1.7514477
50
248.1510591
51
253.5072051
0
ARC
8
DEFAULT_255_2_778
10
15.5912022
20
65.0949882
40
2.0316609
50
65.8080079
51
73.5874851
0
ARC
8
DEFAULT_255_2_778
10
15.9811539
20
65.9510165
40
1.0910217
50
53.4158291
51
66.0657818
0
ARC
8
DEFAULT_255_2_778
10
16.2126276
20
66.2747972
40
0.6931089
50
45.8793935
51
52.8284825
0
ARC
8
DEFAULT_255_2_778
10
16.3211762
20
66.3823467
40
0.540342
50
358.5701476
51
46.2029772
0
ARC
8
DEFAULT_255_2_778
10
16.3632459
20
66.3492633
40
0.4984896
50
306.2702985
51
2.2534056
0
ARC
8
DEFAULT_255_2_778
10
16.2207483
20
66.5488998
40
0.7437514
50
280.2967653
51
306.0224366
0
ARC
8
DEFAULT_255_2_778
10
16.1199476
20
67.0257107
40
1.2309802
50
269.5812033
51
280.9460308
0
ARC
8
DEFAULT_255_2_778
10
16.0971952
20
66.853156
40
1.0584819
50
246.5545001
51
270.7445728
0
ARC
8
DEFAULT_255_2_778
10
15.9525214
20
66.538247
40
0.7120486
50
220.2962639
51
247.152728
0
ARC
8
DEFAULT_255_2_778
10
15.8713343
20
66.4570692
40
0.5976995
50
214.1592916
51
219.3943535
0
ARC
8
DEFAULT_255_2_778
10
15.8880583
20
66.461991
40
0.614325
50
178.8833018
51
213.6633205
0
ARC
8
DEFAULT_255_2_778
10
16.0661568
20
66.4606159
40
0.3647511
50
177.9028663
51
209.1405336
0
ARC
8
DEFAULT_255_2_778
10
16.000014
20
66.4444118
40
0.299634
50
212.5951529
51
258.1892822
0
ARC
8
DEFAULT_255_2_778
10
16.1010406
20
66.8127131
40
0.6812215
50
256.2120194
51
270.8334883
0
ARC
8
DEFAULT_255_2_778
10
16.1234527
20
66.609377
40
0.477977
50
268.5011187
51
290.2076368
0
ARC
8
DEFAULT_255_2_778
10
16.1872978
20
66.4173865
40
0.2758248
50
291.5377653
51
305.7248369
0
ARC
8
DEFAULT_255_2_778
10
16.2322816
20
66.3580959
40
0.2014341
50
305.1844457
51
2.3238384
0
LINE
8
DEFAULT_255_2_778
10
16.86135
20
67.2811635
11
16.43515
21
67.2811635
0
LINE
8
DEFAULT_255_2_778
10
15.27385
20
66.4739635
11
15.70165
21
66.4739635
0
LINE
8
DEFAULT_255_2_778
10
16.43355
20
66.3662635
11
16.43355
21
66.3659635
0
LINE
8
DEFAULT_255_2_778
10
25.8780698
20
13.006113
11
28.4781698
21
13.006113
0
LINE
8
DEFAULT_255_2_778
10
28.4781698
20
13.006113
11
28.4781698
21
55.505313
0
LINE
8
DEFAULT_255_2_778
10
28.4781698
20
55.505313
11
28.3780698
21
55.505313
0
LINE
8
DEFAULT_255_2_778
10
26.9781961
20
35.8745442
11
19.1782961
21
35.8745442
0
LINE
8
DEFAULT_255_2_778
10
19.1782961
20
35.8745442
11
19.1782961
21
37.0530442
0
LINE
8
DEFAULT_255_2_778
10
19.1782961
20
37.0530442
11
26.9781961
21
37.0530442
0
LINE
8
DEFAULT_255_2_778
10
26.9781961
20
37.0530442
11
26.9781961
21
43.4228442
0
LINE
8
DEFAULT_255_2_778
10
26.9781961
20
43.4228442
11
19.1782961
21
43.4228442
0
LINE
8
DEFAULT_255_2_778
10
19.1782961
20
43.4228442
11
19.1782961
21
44.6013442
0
LINE
8
DEFAULT_255_2_778
10
19.1782961
20
44.6013442
11
26.9781961
21
44.6013442
0
LINE
8
DEFAULT_255_2_778
10
26.9781961
20
44.6013442
11
26.9781961
21
50.9711442
0
LINE
8
DEFAULT_255_2_778
10
26.9781961
20
50.9711442
11
19.1782961
21
50.9711442
0
LINE
8
DEFAULT_255_2_778
10
19.1782961
20
50.9711442
11
19.1782961
21
52.3567442
0
LINE
8
DEFAULT_255_2_778
10
19.1782961
20
52.3567442
11
26.9781961
21
52.3567442
0
LINE
8
DEFAULT_255_2_778
10
26.9781961
20
52.3567442
11
26.9781961
21
55.1068442
0
LINE
8
DEFAULT_255_2_778
10
26.9781961
20
55.1068442
11
11.3780961
21
55.1068442
0
LINE
8
DEFAULT_255_2_778
10
11.3780961
20
55.1068442
11
11.3780961
21
56.2567442
0
LINE
8
DEFAULT_255_2_778
10
11.3780961
20
56.2567442
11
28.3780961
21
56.2567442
0
LINE
8
DEFAULT_255_2_778
10
28.3780961
20
56.2567442
11
28.3780961
21
13.2574442
0
LINE
8
DEFAULT_255_2_778
10
28.3780961
20
13.2574442
11
11.3780961
21
13.2574442
0
LINE
8
DEFAULT_255_2_778
10
11.3780961
20
13.2574442
11
11.3780961
21
14.4073442
0
LINE
8
DEFAULT_255_2_778
10
11.3780961
20
14.4073442
11
26.9781961
21
14.4073442
0
LINE
8
DEFAULT_255_2_778
10
26.9781961
20
14.4073442
11
26.9781961
21
20.7771442
0
LINE
8
DEFAULT_255_2_778
10
26.9781961
20
20.7771442
11
19.1782961
21
20.7771442
0
LINE
8
DEFAULT_255_2_778
10
19.1782961
20
20.7771442
11
19.1782961
21
21.9556442
0
LINE
8
DEFAULT_255_2_778
10
19.1782961
20
21.9556442
11
26.9781961
21
21.9556442
0
LINE
8
DEFAULT_255_2_778
10
26.9781961
20
21.9556442
11
26.9781961
21
28.3254442
0
LINE
8
DEFAULT_255_2_778
10
26.9781961
20
28.3254442
11
19.1782961
21
28.3254442
0
LINE
8
DEFAULT_255_2_778
10
19.1782961
20
28.3254442
11
19.1782961
21
29.5039442
0
LINE
8
DEFAULT_255_2_778
10
19.1782961
20
29.5039442
11
26.9781961
21
29.5039442
0
LINE
8
DEFAULT_255_2_778
10
26.9781961
20
29.5039442
11
26.9781961
21
35.8737442
0
LINE
8
DEFAULT_255_2_778
10
19.1781
20
55.1068395
11
19.1781
21
52.3567395
0
LINE
8
DEFAULT_255_2_778
10
19.1781
20
20.7774218
11
19.1781
21
14.4076218
0
LINE
8
DEFAULT_255_2_778
10
19.1780418
20
17.4077583
11
11.3781418
21
17.4077583
0
LINE
8
DEFAULT_255_2_778
10
11.3781418
20
17.4077583
11
11.3781418
21
18.8576583
0
LINE
8
DEFAULT_255_2_778
10
11.3781418
20
18.8576583
11
19.1780418
21
18.8576583
0
LINE
8
DEFAULT_255_2_778
10
11.3781
20
17.4074229
11
11.3781
21
14.4076229
0
LINE
8
DEFAULT_255_2_778
10
18.1282
20
18.8572937
11
18.1282
21
25.1072937
0
LINE
8
DEFAULT_255_2_778
10
18.1282
20
26.3571937
11
18.1282
21
32.6071937
0
LINE
8
DEFAULT_255_2_778
10
18.1282
20
33.8570937
11
18.1282
21
40.1070937
0
LINE
8
DEFAULT_255_2_778
10
18.1282
20
41.3569937
11
18.1282
21
47.6069937
0
LINE
8
DEFAULT_255_2_778
10
18.1282
20
48.8568937
11
18.1282
21
55.1068937
0
LINE
8
DEFAULT_255_2_778
10
19.7587793
20
20.7774593
11
19.7587793
21
14.7219593
0
LINE
8
DEFAULT_255_2_778
10
19.7587793
20
14.7219593
11
26.1203793
21
14.7219593
0
LINE
8
DEFAULT_255_2_778
10
26.1203793
20
14.7219593
11
26.1203793
21
20.7774593
0
LINE
8
DEFAULT_255_2_778
10
26.1205
20
21.9562218
11
26.1205
21
28.3260218
0
LINE
8
DEFAULT_255_2_778
10
26.1205
20
29.5047218
11
26.1205
21
35.8745218
0
LINE
8
DEFAULT_255_2_778
10
26.1205
20
37.0530218
11
26.1205
21
43.4228218
0
LINE
8
DEFAULT_255_2_778
10
19.1780418
20
41.3572458
11
11.3781418
21
41.3572458
0
LINE
8
DEFAULT_255_2_778
10
11.3781418
20
41.3572458
11
11.3781418
21
40.1073458
0
LINE
8
DEFAULT_255_2_778
10
11.3781418
20
40.1073458
11
19.1780418
21
40.1073458
0
ARC
8
DEFAULT_255_2_778
10
15.0513567
20
21.9217839
40
2.2467878
50
79.859086
51
89.9989481
0
ARC
8
DEFAULT_255_2_778
10
15.0514392
20
21.9217839
40
2.2467877
50
90.0010517
51
100.1409141
0
LINE
8
DEFAULT_255_2_778
10
19.1780418
20
26.3574458
11
11.3781418
21
26.3574458
0
LINE
8
DEFAULT_255_2_778
10
11.3781418
20
26.3574458
11
11.3781418
21
25.1075458
0
LINE
8
DEFAULT_255_2_778
10
11.3781418
20
25.1075458
11
19.1780418
21
25.1075458
0
LINE
8
DEFAULT_255_2_778
10
19.1780418
20
33.8573458
11
11.3781418
21
33.8573458
0
LINE
8
DEFAULT_255_2_778
10
11.3781418
20
33.8573458
11
11.3781418
21
32.6074458
0
LINE
8
DEFAULT_255_2_778
10
11.3781418
20
32.6074458
11
19.1780418
21
32.6074458
0
LINE
8
DEFAULT_255_2_778
10
19.1780418
20
48.8571458
11
11.3781418
21
48.8571458
0
LINE
8
DEFAULT_255_2_778
10
11.3781418
20
48.8571458
11
11.3781418
21
47.6072458
0
LINE
8
DEFAULT_255_2_778
10
11.3781418
20
47.6072458
11
19.1780418
21
47.6072458
0
LINE
8
DEFAULT_255_2_778
10
11.8782
20
55.1068937
11
11.8782
21
48.8568937
0
LINE
8
DEFAULT_255_2_778
10
11.3781
20
55.1068937
11
11.3781
21
48.8568937
0
LINE
8
DEFAULT_255_2_778
10
11.8782
20
47.6069937
11
11.8782
21
41.3569937
0
LINE
8
DEFAULT_255_2_778
10
11.3781
20
47.6069937
11
11.3781
21
41.3569937
0
LINE
8
DEFAULT_255_2_778
10
11.8782
20
40.1070937
11
11.8782
21
33.8570937
0
LINE
8
DEFAULT_255_2_778
10
11.3781
20
40.1070937
11
11.3781
21
33.8570937
0
LINE
8
DEFAULT_255_2_778
10
11.8782
20
32.6071937
11
11.8782
21
26.3571937
0
LINE
8
DEFAULT_255_2_778
10
11.3781
20
32.6071937
11
11.3781
21
26.3571937
0
LINE
8
DEFAULT_255_2_778
10
11.8782
20
25.1072937
11
11.8782
21
18.8572937
0
LINE
8
DEFAULT_255_2_778
10
11.3781
20
25.1072937
11
11.3781
21
18.8572937
0
LINE
8
DEFAULT_255_2_778
10
19.7588
20
50.9714218
11
19.7588
21
44.6016218
0
LINE
8
DEFAULT_255_2_778
10
26.1205
20
44.6016218
11
26.1205
21
50.9714218
0
LINE
8
DEFAULT_255_2_778
10
19.1781
20
50.9714218
11
19.1781
21
44.6016218
0
LINE
8
DEFAULT_255_2_778
10
19.7588
20
43.4228218
11
19.7588
21
37.0530218
0
LINE
8
DEFAULT_255_2_778
10
19.1781
20
43.4228218
11
19.1781
21
37.0530218
0
LINE
8
DEFAULT_255_2_778
10
19.7588
20
35.8745218
11
19.7588
21
29.5047218
0
LINE
8
DEFAULT_255_2_778
10
19.1781
20
35.8745218
11
19.1781
21
29.5047218
0
LINE
8
DEFAULT_255_2_778
10
19.7588
20
28.3260218
11
19.7588
21
21.9562218
0
LINE
8
DEFAULT_255_2_778
10
19.1781
20
28.3260218
11
19.1781
21
21.9562218
0
LINE
8
DEFAULT_255_2_778
10
17.6280439
20
58.0070322
11
17.6280439
21
58.2168322
0
LINE
8
DEFAULT_255_2_778
10
22.1281439
20
58.0070322
11
22.1281439
21
58.2168322
0
LINE
8
DEFAULT_255_2_778
10
22.3781439
20
60.7568322
11
22.3781439
21
61.0068322
0
LINE
8
DEFAULT_255_2_778
10
22.3781439
20
61.0068322
11
17.3780439
21
61.0068322
0
LINE
8
DEFAULT_255_2_778
10
17.3780439
20
61.0068322
11
17.3780439
21
60.7568322
0
LINE
8
DEFAULT_255_2_778
10
17.3780439
20
58.2567322
11
17.3780439
21
58.0067322
0
LINE
8
DEFAULT_255_2_778
10
17.3780439
20
58.0067322
11
22.3781439
21
58.0067322
0
LINE
8
DEFAULT_255_2_778
10
22.3781439
20
58.0067322
11
22.3781439
21
58.2567322
0
LINE
8
DEFAULT_255_2_778
10
13.8781439
20
56.2567322
11
13.8781439
21
58.7925322
0
LINE
8
DEFAULT_255_2_778
10
13.8781439
20
58.7925322
11
25.8780439
21
58.7925322
0
LINE
8
DEFAULT_255_2_778
10
25.8780439
20
58.7925322
11
25.8780439
21
58.2567322
0
LINE
8
DEFAULT_255_2_778
10
25.8780439
20
58.2567322
11
13.8781439
21
58.2567322
0
LINE
8
DEFAULT_255_2_778
10
13.8781439
20
58.7925322
11
13.8781439
21
60.7565322
0
LINE
8
DEFAULT_255_2_778
10
13.8781439
20
60.7565322
11
25.8780439
21
60.7565322
0
LINE
8
DEFAULT_255_2_778
10
25.8780439
20
60.7565322
11
25.8780439
21
58.7925322
0
LINE
8
DEFAULT_255_2_778
10
22.8779439
20
58.2567322
11
22.8779439
21
56.2567322
0
LINE
8
DEFAULT_255_2_778
10
25.8780439
20
58.2567322
11
25.8780439
21
56.2567322
0
LINE
8
DEFAULT_255_2_778
10
16.8779439
20
58.2567322
11
16.8779439
21
56.2567322
0
ARC
8
DEFAULT_255_2_778
10
15.0511069
20
51.9146476
40
2.2467872
50
259.8590853
51
269.9989501
0
ARC
8
DEFAULT_255_2_778
10
15.0510244
20
51.9146482
40
2.2467878
50
270.0010519
51
280.140914
0
ARC
8
DEFAULT_255_2_778
10
15.048234
20
51.9235406
40
2.2437028
50
100.072701
51
125.6577346
0
ARC
8
DEFAULT_255_2_778
10
15.052092
20
51.9173411
40
2.250989
50
125.6455362
51
172.0861473
0
ARC
8
DEFAULT_255_2_778
10
15.0621347
20
51.9181995
40
2.2608189
50
172.1427349
51
180.011128
0
ARC
8
DEFAULT_255_2_778
10
15.0447555
20
51.915831
40
2.2434407
50
179.9507256
51
205.5360977
0
ARC
8
DEFAULT_255_2_778
10
15.0517998
20
51.9186577
40
2.2510154
50
205.5237259
51
251.9636963
0
ARC
8
DEFAULT_255_2_778
10
15.0527422
20
51.9287435
40
2.2608984
50
252.0201237
51
259.888668
0
ARC
8
DEFAULT_255_2_778
10
15.0511069
20
51.9209732
40
2.2467872
50
90.0010499
51
100.1409147
0
ARC
8
DEFAULT_255_2_778
10
15.0510244
20
51.9209727
40
2.2467877
50
79.8590859
51
89.9989483
0
ARC
8
DEFAULT_255_2_778
10
15.0541879
20
51.9121177
40
2.2437414
50
280.0727711
51
305.6573246
0
ARC
8
DEFAULT_255_2_778
10
15.0504024
20
51.9182528
40
2.250933
50
305.6445836
51
352.0847411
0
ARC
8
DEFAULT_255_2_778
10
15.0406588
20
51.9173226
40
2.2604568
50
352.1421046
51
0.011097
0
ARC
8
DEFAULT_255_2_778
10
15.0574309
20
51.9197023
40
2.2436856
50
359.950409
51
25.5346789
0
ARC
8
DEFAULT_255_2_778
10
15.0506392
20
51.916998
40
2.2509796
50
25.5222731
51
71.9636056
0
ARC
8
DEFAULT_255_2_778
10
15.0496891
20
51.9068771
40
2.2608985
50
72.0201235
51
79.8886679
0
LINE
8
DEFAULT_255_2_778
10
13.6059157
20
52.4186604
11
14.6558157
21
52.4186604
0
LINE
8
DEFAULT_255_2_778
10
14.6558157
20
52.4186604
11
14.6558157
21
54.1326604
0
LINE
8
DEFAULT_255_2_778
10
14.6558157
20
49.7029604
11
14.6558157
21
51.4169604
0
LINE
8
DEFAULT_255_2_778
10
14.6558157
20
51.4169604
11
13.6059157
21
51.4169604
0
LINE
8
DEFAULT_255_2_778
10
13.6059157
20
51.4169604
11
13.6059157
21
52.4186604
0
LINE
8
DEFAULT_255_2_778
10
15.4466157
20
54.1326604
11
15.4466157
21
52.4186604
0
LINE
8
DEFAULT_255_2_778
10
15.4466157
20
52.4186604
11
16.4965157
21
52.4186604
0
LINE
8
DEFAULT_255_2_778
10
16.4965157
20
52.4186604
11
16.4965157
21
51.4169604
0
LINE
8
DEFAULT_255_2_778
10
16.4965157
20
51.4169604
11
15.4466157
21
51.4169604
0
LINE
8
DEFAULT_255_2_778
10
15.4466157
20
51.4169604
11
15.4466157
21
49.7029604
0
ARC
8
DEFAULT_255_2_778
10
22.9368715
20
47.7918811
40
2.2446036
50
99.9407428
51
125.2560063
0
ARC
8
DEFAULT_255_2_778
10
22.9406471
20
47.78575
40
2.2517896
50
125.2444046
51
172.0242995
0
ARC
8
DEFAULT_255_2_778
10
22.9503574
20
47.7867329
40
2.2612709
50
172.0830999
51
180.0113201
0
ARC
8
DEFAULT_255_2_778
10
22.9330336
20
47.7843532
40
2.2439479
50
179.9506475
51
205.2730813
0
ARC
8
DEFAULT_255_2_778
10
22.9404914
20
47.7874569
40
2.2520169
50
205.2634798
51
252.0373553
0
ARC
8
DEFAULT_255_2_778
10
22.94128
20
47.7972497
40
2.2615766
50
252.0948636
51
260.0212289
0
ARC
8
DEFAULT_255_2_778
10
22.9428087
20
47.7801378
40
2.2438196
50
280.2008191
51
305.746481
0
ARC
8
DEFAULT_255_2_778
10
22.9387245
20
47.7864767
40
2.2513504
50
305.7365977
51
352.1046054
0
ARC
8
DEFAULT_255_2_778
10
22.9278298
20
47.7858511
40
2.2620567
50
352.1582061
51
0.0110177
0
ARC
8
DEFAULT_255_2_778
10
22.9452929
20
47.7882495
40
2.2445945
50
359.9498813
51
25.4875519
0
ARC
8
DEFAULT_255_2_778
10
22.9389385
20
47.7856973
40
2.2514287
50
25.4765931
51
71.842773
0
ARC
8
DEFAULT_255_2_778
10
22.9376848
20
47.775
40
2.2619851
50
71.8970373
51
79.7501004
0
ARC
8
DEFAULT_255_2_778
10
22.9397033
20
47.7913706
40
2.2555654
50
260.0272895
51
269.9966666
0
ARC
8
DEFAULT_255_2_778
10
22.9400406
20
46.9983215
40
1.4625163
50
269.9816458
51
270.055047
0
ARC
8
DEFAULT_255_2_778
10
22.9396978
20
47.7826469
40
2.2468415
50
270.0445716
51
280.2675637
0
ARC
8
DEFAULT_255_2_778
10
22.9399493
20
47.7925174
40
2.2440493
50
79.7260464
51
90.0048316
0
ARC
8
DEFAULT_255_2_778
10
22.9397298
20
47.7884933
40
2.2480736
50
89.9992289
51
90.3751944
0
ARC
8
DEFAULT_255_2_778
10
22.940047
20
47.7771687
40
2.2593999
50
90.3813589
51
99.9644629
0
LINE
8
DEFAULT_255_2_778
10
21.4994865
20
48.2337861
11
22.5493865
21
48.2337861
0
LINE
8
DEFAULT_255_2_778
10
22.5493865
20
48.2337861
11
22.5493865
21
50.0027861
0
LINE
8
DEFAULT_255_2_778
10
22.5493865
20
45.5698861
11
22.5493865
21
47.2319861
0
LINE
8
DEFAULT_255_2_778
10
22.5493865
20
47.2319861
11
21.4994865
21
47.2319861
0
LINE
8
DEFAULT_255_2_778
10
21.4994865
20
47.2319861
11
21.4994865
21
48.2337861
0
LINE
8
DEFAULT_255_2_778
10
23.3401865
20
48.2337861
11
24.3900865
21
48.2337861
0
LINE
8
DEFAULT_255_2_778
10
24.3900865
20
48.2337861
11
24.3900865
21
47.2319861
0
LINE
8
DEFAULT_255_2_778
10
24.3900865
20
47.2319861
11
23.3401865
21
47.2319861
0
LINE
8
DEFAULT_255_2_778
10
23.3401865
20
47.2319861
11
23.3401865
21
45.5717861
0
LINE
8
DEFAULT_255_2_778
10
23.3401865
20
50.0008861
11
23.3401865
21
48.2337861
0
ARC
8
DEFAULT_255_2_778
10
15.0510947
20
44.4210291
40
2.2471116
50
79.859793
51
89.9168326
0
ARC
8
DEFAULT_255_2_778
10
15.0511282
20
44.4968222
40
2.1713184
50
89.9148124
51
90
0
ARC
8
DEFAULT_255_2_778
10
15.0511228
20
44.4223012
40
2.2458394
50
89.999862
51
100.1430607
0
ARC
8
DEFAULT_255_2_778
10
15.0539974
20
44.4124603
40
2.2437028
50
280.072701
51
305.6577346
0
ARC
8
DEFAULT_255_2_778
10
15.0501394
20
44.4186598
40
2.250989
50
305.6455362
51
352.0861473
0
ARC
8
DEFAULT_255_2_778
10
15.0400967
20
44.4178014
40
2.2608189
50
352.1427349
51
0.011128
0
ARC
8
DEFAULT_255_2_778
10
15.0574758
20
44.4201699
40
2.2434407
50
359.9507256
51
25.5360977
0
ARC
8
DEFAULT_255_2_778
10
15.0504316
20
44.4173432
40
2.2510154
50
25.5237259
51
71.9636963
0
ARC
8
DEFAULT_255_2_778
10
15.0494891
20
44.4072574
40
2.2608984
50
72.0201237
51
79.888668
0
ARC
8
DEFAULT_255_2_778
10
15.0480435
20
44.4238832
40
2.2437414
50
100.0727711
51
125.6573246
0
ARC
8
DEFAULT_255_2_778
10
15.051829
20
44.4177481
40
2.250933
50
125.6445836
51
172.0847411
0
ARC
8
DEFAULT_255_2_778
10
15.0615726
20
44.4186783
40
2.2604568
50
172.1421046
51
180.011097
0
ARC
8
DEFAULT_255_2_778
10
15.0448005
20
44.4162986
40
2.2436856
50
179.950409
51
205.5346789
0
ARC
8
DEFAULT_255_2_778
10
15.0515922
20
44.4190029
40
2.2509796
50
205.5222731
51
251.9636056
0
ARC
8
DEFAULT_255_2_778
10
15.0525423
20
44.4291238
40
2.2608985
50
252.0201235
51
259.8886679
0
ARC
8
DEFAULT_255_2_778
10
15.0511228
20
44.4140799
40
2.2458394
50
259.8569393
51
270.000138
0
ARC
8
DEFAULT_255_2_778
10
15.0511282
20
44.3395588
40
2.1713183
50
270
51
270.0851876
0
ARC
8
DEFAULT_255_2_778
10
15.0510947
20
44.4153519
40
2.2471114
50
270.0831674
51
280.140207
0
LINE
8
DEFAULT_255_2_778
10
16.4963157
20
43.9173405
11
15.4464157
21
43.9173405
0
LINE
8
DEFAULT_255_2_778
10
15.4464157
20
43.9173405
11
15.4464157
21
42.2033405
0
LINE
8
DEFAULT_255_2_778
10
15.4464157
20
46.6330405
11
15.4464157
21
44.9190405
0
LINE
8
DEFAULT_255_2_778
10
15.4464157
20
44.9190405
11
16.4963157
21
44.9190405
0
LINE
8
DEFAULT_255_2_778
10
16.4963157
20
44.9190405
11
16.4963157
21
43.9173405
0
LINE
8
DEFAULT_255_2_778
10
14.6556157
20
44.9190405
11
14.6556157
21
46.6330405
0
LINE
8
DEFAULT_255_2_778
10
14.6556157
20
42.2033405
11
14.6556157
21
43.9173405
0
LINE
8
DEFAULT_255_2_778
10
14.6556157
20
43.9173405
11
13.6057157
21
43.9173405
0
LINE
8
DEFAULT_255_2_778
10
13.6057157
20
43.9173405
11
13.6057157
21
44.9190405
0
LINE
8
DEFAULT_255_2_778
10
13.6057157
20
44.9190405
11
14.6556157
21
44.9190405
0
ARC
8
DEFAULT_255_2_778
10
22.9399437
20
40.2914563
40
2.255251
50
260.0265909
51
269.996421
0
ARC
8
DEFAULT_255_2_778
10
22.9398878
20
40.2050084
40
2.1688031
50
269.9977539
51
270.132525
0
ARC
8
DEFAULT_255_2_778
10
22.9398813
20
40.2840029
40
2.2477974
50
270.128034
51
280.265334
0
ARC
8
DEFAULT_255_2_778
10
22.9401884
20
40.2926014
40
2.2443653
50
79.7267682
51
90.005072
0
ARC
8
DEFAULT_255_2_778
10
22.9399898
20
40.2964715
40
2.2404954
50
90.0000008
51
90.282326
0
ARC
8
DEFAULT_255_2_778
10
22.940217
20
40.2786555
40
2.2583124
50
90.2858622
51
99.9667909
0
ARC
8
DEFAULT_255_2_778
10
22.9365749
20
40.2923862
40
2.2441591
50
99.9358827
51
125.2557685
0
ARC
8
DEFAULT_255_2_778
10
22.9406156
20
40.2858909
40
2.2517955
50
125.2443265
51
172.0234106
0
ARC
8
DEFAULT_255_2_778
10
22.9500179
20
40.2869304
40
2.2609637
50
172.0825612
51
180.0112583
0
ARC
8
DEFAULT_255_2_778
10
22.933224
20
40.2845387
40
2.2441707
50
179.9502802
51
205.2718051
0
ARC
8
DEFAULT_255_2_778
10
22.9402367
20
40.2874093
40
2.2517375
50
205.26168
51
252.0410022
0
ARC
8
DEFAULT_255_2_778
10
22.9409868
20
40.2971474
40
2.2612336
50
252.0990022
51
260.0264113
0
ARC
8
DEFAULT_255_2_778
10
22.9430388
20
40.2800654
40
2.2436565
50
280.2025446
51
305.7492677
0
ARC
8
DEFAULT_255_2_778
10
22.93872
20
40.286784
40
2.2516326
50
305.7385753
51
352.1027768
0
ARC
8
DEFAULT_255_2_778
10
22.9283366
20
40.286051
40
2.2618178
50
352.1573097
51
0.0110225
0
ARC
8
DEFAULT_255_2_778
10
22.9458453
20
40.288447
40
2.2443098
50
359.9499407
51
25.4904176
0
ARC
8
DEFAULT_255_2_778
10
22.9391562
20
40.2857037
40
2.2515283
50
25.4801767
51
71.8428993
0
ARC
8
DEFAULT_255_2_778
10
22.9378985
20
40.2750299
40
2.2620636
50
71.8968781
51
79.7490719
0
LINE
8
DEFAULT_255_2_778
10
22.5493542
20
40.7338861
11
22.5493542
21
42.5028861
0
LINE
8
DEFAULT_255_2_778
10
22.5493542
20
38.0700861
11
22.5493542
21
39.7321861
0
LINE
8
DEFAULT_255_2_778
10
22.5493542
20
39.7321861
11
21.4994542
21
39.7321861
0
LINE
8
DEFAULT_255_2_778
10
21.4994542
20
39.7321861
11
21.4994542
21
40.7338861
0
LINE
8
DEFAULT_255_2_778
10
21.4994542
20
40.7338861
11
22.5493542
21
40.7338861
0
LINE
8
DEFAULT_255_2_778
10
23.3404542
20
40.7338861
11
24.3903542
21
40.7338861
0
LINE
8
DEFAULT_255_2_778
10
24.3903542
20
40.7338861
11
24.3903542
21
39.7321861
0
LINE
8
DEFAULT_255_2_778
10
24.3903542
20
39.7321861
11
23.3404542
21
39.7321861
0
LINE
8
DEFAULT_255_2_778
10
23.3404542
20
39.7321861
11
23.3404542
21
38.0718861
0
LINE
8
DEFAULT_255_2_778
10
23.3404542
20
42.5009861
11
23.3404542
21
40.7338861
0
ARC
8
DEFAULT_255_2_778
10
15.0510947
20
36.9211813
40
2.2471116
50
79.859793
51
89.9168326
0
ARC
8
DEFAULT_255_2_778
10
15.0511282
20
36.9969744
40
2.1713184
50
89.9148124
51
90
0
ARC
8
DEFAULT_255_2_778
10
15.0511228
20
36.9224533
40
2.2458394
50
89.999862
51
100.1430607
0
ARC
8
DEFAULT_255_2_778
10
15.048034
20
36.9240729
40
2.2437028
50
100.072701
51
125.6577346
0
ARC
8
DEFAULT_255_2_778
10
15.051892
20
36.9178734
40
2.250989
50
125.6455362
51
172.0861473
0
ARC
8
DEFAULT_255_2_778
10
15.0619347
20
36.9187318
40
2.2608189
50
172.1427349
51
180.011128
0
ARC
8
DEFAULT_255_2_778
10
15.0445555
20
36.9163633
40
2.2434407
50
179.9507256
51
205.5360977
0
ARC
8
DEFAULT_255_2_778
10
15.0515998
20
36.91919
40
2.2510154
50
205.5237259
51
251.9636963
0
ARC
8
DEFAULT_255_2_778
10
15.0525422
20
36.9292758
40
2.2608984
50
252.0201237
51
259.888668
0
ARC
8
DEFAULT_255_2_778
10
15.0539879
20
36.91265
40
2.2437414
50
280.0727711
51
305.6573246
0
ARC
8
DEFAULT_255_2_778
10
15.0502024
20
36.9187851
40
2.250933
50
305.6445836
51
352.0847411
0
ARC
8
DEFAULT_255_2_778
10
15.0404588
20
36.9178549
40
2.2604568
50
352.1421046
51
0.011097
0
ARC
8
DEFAULT_255_2_778
10
15.0572309
20
36.9202346
40
2.2436856
50
359.950409
51
25.5346789
0
ARC
8
DEFAULT_255_2_778
10
15.0504392
20
36.9175303
40
2.2509796
50
25.5222731
51
71.9636056
0
ARC
8
DEFAULT_255_2_778
10
15.0494891
20
36.9074094
40
2.2608985
50
72.0201235
51
79.8886679
0
ARC
8
DEFAULT_255_2_778
10
15.0509069
20
36.9148799
40
2.2467872
50
259.8590853
51
269.9989501
0
ARC
8
DEFAULT_255_2_778
10
15.0508244
20
36.9148804
40
2.2467878
50
270.0010519
51
280.140914
0
LINE
8
DEFAULT_255_2_778
10
13.6057157
20
37.4191927
11
14.6556157
21
37.4191927
0
LINE
8
DEFAULT_255_2_778
10
14.6556157
20
37.4191927
11
14.6556157
21
39.1331927
0
LINE
8
DEFAULT_255_2_778
10
14.6556157
20
34.7034927
11
14.6556157
21
36.4174927
0
LINE
8
DEFAULT_255_2_778
10
14.6556157
20
36.4174927
11
13.6057157
21
36.4174927
0
LINE
8
DEFAULT_255_2_778
10
13.6057157
20
36.4174927
11
13.6057157
21
37.4191927
0
LINE
8
DEFAULT_255_2_778
10
15.4464157
20
36.4174927
11
15.4464157
21
34.7034927
0
LINE
8
DEFAULT_255_2_778
10
15.4464157
20
39.1331927
11
15.4464157
21
37.4191927
0
LINE
8
DEFAULT_255_2_778
10
15.4464157
20
37.4191927
11
16.4963157
21
37.4191927
0
LINE
8
DEFAULT_255_2_778
10
16.4963157
20
37.4191927
11
16.4963157
21
36.4174927
0
LINE
8
DEFAULT_255_2_778
10
16.4963157
20
36.4174927
11
15.4464157
21
36.4174927
0
ARC
8
DEFAULT_255_2_778
10
22.9399207
20
32.7927337
40
2.2443653
50
79.7267682
51
90.005072
0
ARC
8
DEFAULT_255_2_778
10
22.9397221
20
32.7966038
40
2.2404954
50
90.0000008
51
90.282326
0
ARC
8
DEFAULT_255_2_778
10
22.9399493
20
32.7787878
40
2.2583124
50
90.2858622
51
99.9667909
0
ARC
8
DEFAULT_255_2_778
10
22.9363072
20
32.7925184
40
2.2441591
50
99.9358827
51
125.2557685
0
ARC
8
DEFAULT_255_2_778
10
22.9403479
20
32.7860232
40
2.2517955
50
125.2443265
51
172.0234106
0
ARC
8
DEFAULT_255_2_778
10
22.9497502
20
32.7870627
40
2.2609637
50
172.0825612
51
180.0112583
0
ARC
8
DEFAULT_255_2_778
10
22.9329563
20
32.784671
40
2.2441707
50
179.9502802
51
205.2718051
0
ARC
8
DEFAULT_255_2_778
10
22.9399689
20
32.7875415
40
2.2517375
50
205.26168
51
252.0410022
0
ARC
8
DEFAULT_255_2_778
10
22.9407191
20
32.7972797
40
2.2612336
50
252.0990022
51
260.0264113
0
ARC
8
DEFAULT_255_2_778
10
22.9425262
20
32.7802181
40
2.2436669
50
280.2010684
51
305.748741
0
ARC
8
DEFAULT_255_2_778
10
22.938237
20
32.7868306
40
2.2515394
50
305.7390152
51
352.1046502
0
ARC
8
DEFAULT_255_2_778
10
22.9274713
20
32.7861848
40
2.2621152
50
352.1583086
51
0.0109827
0
ARC
8
DEFAULT_255_2_778
10
22.9451427
20
32.7885919
40
2.2444447
50
359.9496197
51
25.4884178
0
ARC
8
DEFAULT_255_2_778
10
22.9387291
20
32.7859742
40
2.2513605
50
25.4783155
51
71.8446321
0
ARC
8
DEFAULT_255_2_778
10
22.9373333
20
32.7749547
40
2.2622674
50
71.8980021
51
79.7500675
0
ARC
8
DEFAULT_255_2_778
10
22.9395439
20
32.7865742
40
2.2504866
50
260.0086737
51
270.0243573
0
ARC
8
DEFAULT_255_2_778
10
22.9396734
20
32.6743592
40
2.1382715
50
270.0221648
51
270.1329881
0
ARC
8
DEFAULT_255_2_778
10
22.9394656
20
32.7885802
40
2.2524927
50
270.1315305
51
280.2475281
0
LINE
8
DEFAULT_255_2_778
10
21.4991865
20
33.2340184
11
22.5490865
21
33.2340184
0
LINE
8
DEFAULT_255_2_778
10
22.5490865
20
33.2340184
11
22.5490865
21
35.0030184
0
LINE
8
DEFAULT_255_2_778
10
22.5490865
20
30.5702184
11
22.5490865
21
32.2323184
0
LINE
8
DEFAULT_255_2_778
10
22.5490865
20
32.2323184
11
21.4991865
21
32.2323184
0
LINE
8
DEFAULT_255_2_778
10
21.4991865
20
32.2323184
11
21.4991865
21
33.2340184
0
LINE
8
DEFAULT_255_2_778
10
24.3897865
20
32.2323184
11
23.3398865
21
32.2323184
0
LINE
8
DEFAULT_255_2_778
10
23.3398865
20
32.2323184
11
23.3398865
21
30.5720184
0
LINE
8
DEFAULT_255_2_778
10
23.3398865
20
35.0011184
11
23.3398865
21
33.2340184
0
LINE
8
DEFAULT_255_2_778
10
23.3398865
20
33.2340184
11
24.3897865
21
33.2340184
0
LINE
8
DEFAULT_255_2_778
10
24.3897865
20
33.2340184
11
24.3897865
21
32.2323184
0
ARC
8
DEFAULT_255_2_778
10
15.0510947
20
29.4213291
40
2.2471116
50
79.859793
51
89.9168326
0
ARC
8
DEFAULT_255_2_778
10
15.0511282
20
29.4971222
40
2.1713184
50
89.9148124
51
90
0
ARC
8
DEFAULT_255_2_778
10
15.0511228
20
29.4226012
40
2.2458394
50
89.999862
51
100.1430607
0
ARC
8
DEFAULT_255_2_778
10
15.048034
20
29.4242208
40
2.2437028
50
100.072701
51
125.6577346
0
ARC
8
DEFAULT_255_2_778
10
15.051892
20
29.4180213
40
2.250989
50
125.6455362
51
172.0861473
0
ARC
8
DEFAULT_255_2_778
10
15.0619347
20
29.4188796
40
2.2608189
50
172.1427349
51
180.011128
0
ARC
8
DEFAULT_255_2_778
10
15.0445555
20
29.4165112
40
2.2434407
50
179.9507256
51
205.5360977
0
ARC
8
DEFAULT_255_2_778
10
15.0515998
20
29.4193379
40
2.2510154
50
205.5237259
51
251.9636963
0
ARC
8
DEFAULT_255_2_778
10
15.0525422
20
29.4294236
40
2.2608984
50
252.0201237
51
259.888668
0
ARC
8
DEFAULT_255_2_778
10
15.0539879
20
29.4127978
40
2.2437414
50
280.0727711
51
305.6573246
0
ARC
8
DEFAULT_255_2_778
10
15.0502024
20
29.4189329
40
2.250933
50
305.6445836
51
352.0847411
0
ARC
8
DEFAULT_255_2_778
10
15.0404588
20
29.4180027
40
2.2604568
50
352.1421046
51
0.011097
0
ARC
8
DEFAULT_255_2_778
10
15.0572309
20
29.4203825
40
2.2436856
50
359.950409
51
25.5346789
0
ARC
8
DEFAULT_255_2_778
10
15.0504392
20
29.4176781
40
2.2509796
50
25.5222731
51
71.9636056
0
ARC
8
DEFAULT_255_2_778
10
15.0494891
20
29.4075573
40
2.2608985
50
72.0201235
51
79.8886679
0
ARC
8
DEFAULT_255_2_778
10
15.0509069
20
29.4153277
40
2.2467872
50
259.8590853
51
269.9989501
0
ARC
8
DEFAULT_255_2_778
10
15.0508244
20
29.4153283
40
2.2467878
50
270.0010519
51
280.140914
0
LINE
8
DEFAULT_255_2_778
10
13.6057157
20
29.9193405
11
14.6556157
21
29.9193405
0
LINE
8
DEFAULT_255_2_778
10
14.6556157
20
29.9193405
11
14.6556157
21
31.6333405
0
LINE
8
DEFAULT_255_2_778
10
14.6556157
20
27.2036405
11
14.6556157
21
28.9176405
0
LINE
8
DEFAULT_255_2_778
10
14.6556157
20
28.9176405
11
13.6057157
21
28.9176405
0
LINE
8
DEFAULT_255_2_778
10
13.6057157
20
28.9176405
11
13.6057157
21
29.9193405
0
LINE
8
DEFAULT_255_2_778
10
15.4464157
20
29.9193405
11
16.4963157
21
29.9193405
0
LINE
8
DEFAULT_255_2_778
10
16.4963157
20
29.9193405
11
16.4963157
21
28.9176405
0
LINE
8
DEFAULT_255_2_778
10
16.4963157
20
28.9176405
11
15.4464157
21
28.9176405
0
LINE
8
DEFAULT_255_2_778
10
15.4464157
20
28.9176405
11
15.4464157
21
27.2036405
0
LINE
8
DEFAULT_255_2_778
10
15.4464157
20
31.6333405
11
15.4464157
21
29.9193405
0
ARC
8
DEFAULT_255_2_778
10
22.9398714
20
25.2872882
40
2.2508007
50
260.0093724
51
270.0245993
0
LINE
8
DEFAULT_255_2_778
10
22.9408377
20
23.0364878
11
22.9417457
21
23.0364884
0
ARC
8
DEFAULT_255_2_778
10
22.9398522
20
25.2880217
40
2.2515341
50
270.0481839
51
280.2496983
0
ARC
8
DEFAULT_255_2_778
10
22.9400033
20
25.2819338
40
2.2555654
50
90.0033334
51
99.9727105
0
ARC
8
DEFAULT_255_2_778
10
22.9403404
20
26.0746707
40
1.4628285
50
89.9449569
51
90.0183425
0
ARC
8
DEFAULT_255_2_778
10
22.9399978
20
25.2906576
40
2.2468415
50
79.7324363
51
89.9554284
0
ARC
8
DEFAULT_255_2_778
10
22.9431262
20
25.2806181
40
2.2436669
50
280.2010684
51
305.748741
0
ARC
8
DEFAULT_255_2_778
10
22.938837
20
25.2872306
40
2.2515394
50
305.7390152
51
352.1046502
0
ARC
8
DEFAULT_255_2_778
10
22.9280713
20
25.2865848
40
2.2621152
50
352.1583086
51
0.0109827
0
ARC
8
DEFAULT_255_2_778
10
22.9457427
20
25.2889919
40
2.2444447
50
359.9496197
51
25.4884178
0
ARC
8
DEFAULT_255_2_778
10
22.9393291
20
25.2863742
40
2.2513605
50
25.4783155
51
71.8446321
0
ARC
8
DEFAULT_255_2_778
10
22.9379333
20
25.2753547
40
2.2622674
50
71.8980021
51
79.7500675
0
ARC
8
DEFAULT_255_2_778
10
22.9369072
20
25.2929184
40
2.2441591
50
99.9358827
51
125.2557685
0
ARC
8
DEFAULT_255_2_778
10
22.9409479
20
25.2864232
40
2.2517955
50
125.2443265
51
172.0234106
0
ARC
8
DEFAULT_255_2_778
10
22.9503502
20
25.2874627
40
2.2609637
50
172.0825612
51
180.0112583
0
ARC
8
DEFAULT_255_2_778
10
22.9335563
20
25.285071
40
2.2441707
50
179.9502802
51
205.2718051
0
ARC
8
DEFAULT_255_2_778
10
22.9405689
20
25.2879415
40
2.2517375
50
205.26168
51
252.0410022
0
ARC
8
DEFAULT_255_2_778
10
22.9413191
20
25.2976797
40
2.2612336
50
252.0990022
51
260.0264113
0
LINE
8
DEFAULT_255_2_778
10
23.3404865
20
27.5015184
11
23.3404865
21
25.7344184
0
LINE
8
DEFAULT_255_2_778
10
23.3404865
20
25.7344184
11
24.3903865
21
25.7344184
0
LINE
8
DEFAULT_255_2_778
10
24.3903865
20
25.7344184
11
24.3903865
21
24.7327184
0
LINE
8
DEFAULT_255_2_778
10
24.3903865
20
24.7327184
11
23.3404865
21
24.7327184
0
LINE
8
DEFAULT_255_2_778
10
23.3404865
20
24.7327184
11
23.3404865
21
23.0724184
0
LINE
8
DEFAULT_255_2_778
10
21.4997865
20
25.7344184
11
22.5496865
21
25.7344184
0
LINE
8
DEFAULT_255_2_778
10
22.5496865
20
25.7344184
11
22.5496865
21
27.5034184
0
LINE
8
DEFAULT_255_2_778
10
22.5496865
20
23.0706184
11
22.5496865
21
24.7327184
0
LINE
8
DEFAULT_255_2_778
10
22.5496865
20
24.7327184
11
21.4997865
21
24.7327184
0
LINE
8
DEFAULT_255_2_778
10
21.4997865
20
24.7327184
11
21.4997865
21
25.7344184
0
ARC
8
DEFAULT_255_2_778
10
15.0541974
20
21.9128085
40
2.2437028
50
280.072701
51
305.6577346
0
ARC
8
DEFAULT_255_2_778
10
15.0503394
20
21.919008
40
2.250989
50
305.6455362
51
352.0861473
0
ARC
8
DEFAULT_255_2_778
10
15.0402967
20
21.9181496
40
2.2608189
50
352.1427349
51
0.011128
0
ARC
8
DEFAULT_255_2_778
10
15.0575803
20
21.9205408
40
2.2435362
50
359.9501473
51
25.5355451
0
ARC
8
DEFAULT_255_2_778
10
15.0507296
20
21.9177708
40
2.2509118
50
25.5239962
51
71.9654638
0
ARC
8
DEFAULT_255_2_778
10
15.0496384
20
21.9073286
40
2.2611799
50
72.0210876
51
79.888635
0
ARC
8
DEFAULT_255_2_778
10
15.0482492
20
21.9241204
40
2.2438517
50
100.0724202
51
125.6554863
0
ARC
8
DEFAULT_255_2_778
10
15.0519046
20
21.9181914
40
2.2508
50
125.6431164
51
172.0861078
0
ARC
8
DEFAULT_255_2_778
10
15.0620763
20
21.9190292
40
2.2607605
50
172.1426323
51
180.011163
0
ARC
8
DEFAULT_255_2_778
10
15.0450005
20
21.9166468
40
2.2436856
50
179.950409
51
205.5346789
0
ARC
8
DEFAULT_255_2_778
10
15.0517922
20
21.9193511
40
2.2509796
50
205.5222731
51
251.9636056
0
ARC
8
DEFAULT_255_2_778
10
15.0527423
20
21.929472
40
2.2608985
50
252.0201235
51
259.8886679
0
ARC
8
DEFAULT_255_2_778
10
15.0513228
20
21.9144281
40
2.2458394
50
259.8569393
51
270.000138
0
ARC
8
DEFAULT_255_2_778
10
15.0513282
20
21.839907
40
2.1713183
50
270
51
270.0851876
0
ARC
8
DEFAULT_255_2_778
10
15.0512947
20
21.9157001
40
2.2471114
50
270.0831674
51
280.140207
0
LINE
8
DEFAULT_255_2_778
10
15.4466157
20
22.4193887
11
16.4965157
21
22.4193887
0
LINE
8
DEFAULT_255_2_778
10
16.4965157
20
22.4193887
11
16.4965157
21
21.4176887
0
LINE
8
DEFAULT_255_2_778
10
16.4965157
20
21.4176887
11
15.4466157
21
21.4176887
0
LINE
8
DEFAULT_255_2_778
10
15.4466157
20
21.4176887
11
15.4466157
21
19.7036887
0
LINE
8
DEFAULT_255_2_778
10
15.4466157
20
24.1333887
11
15.4466157
21
22.4193887
0
LINE
8
DEFAULT_255_2_778
10
13.6059157
20
22.4193887
11
14.6558157
21
22.4193887
0
LINE
8
DEFAULT_255_2_778
10
14.6558157
20
22.4193887
11
14.6558157
21
24.1333887
0
LINE
8
DEFAULT_255_2_778
10
14.6558157
20
19.7036887
11
14.6558157
21
21.4176887
0
LINE
8
DEFAULT_255_2_778
10
14.6558157
20
21.4176887
11
13.6059157
21
21.4176887
0
LINE
8
DEFAULT_255_2_778
10
13.6059157
20
21.4176887
11
13.6059157
21
22.4193887
0
ARC
8
DEFAULT_255_2_778
10
22.9399207
20
17.7929337
40
2.2443653
50
79.7267682
51
90.005072
0
ARC
8
DEFAULT_255_2_778
10
22.9397221
20
17.7968038
40
2.2404954
50
90.0000008
51
90.282326
0
ARC
8
DEFAULT_255_2_778
10
22.9399493
20
17.7789878
40
2.2583124
50
90.2858622
51
99.9667909
0
ARC
8
DEFAULT_255_2_778
10
22.9363072
20
17.7927184
40
2.2441591
50
99.9358827
51
125.2557685
0
ARC
8
DEFAULT_255_2_778
10
22.9403479
20
17.7862232
40
2.2517955
50
125.2443265
51
172.0234106
0
ARC
8
DEFAULT_255_2_778
10
22.9497502
20
17.7872627
40
2.2609637
50
172.0825612
51
180.0112583
0
ARC
8
DEFAULT_255_2_778
10
22.9329563
20
17.784871
40
2.2441707
50
179.9502802
51
205.2718051
0
ARC
8
DEFAULT_255_2_778
10
22.9399689
20
17.7877415
40
2.2517375
50
205.26168
51
252.0410022
0
ARC
8
DEFAULT_255_2_778
10
22.9407191
20
17.7974797
40
2.2612336
50
252.0990022
51
260.0264113
0
ARC
8
DEFAULT_255_2_778
10
22.9425262
20
17.7804181
40
2.2436669
50
280.2010684
51
305.748741
0
ARC
8
DEFAULT_255_2_778
10
22.938237
20
17.7870306
40
2.2515394
50
305.7390152
51
352.1046502
0
ARC
8
DEFAULT_255_2_778
10
22.9274713
20
17.7863848
40
2.2621152
50
352.1583086
51
0.0109827
0
ARC
8
DEFAULT_255_2_778
10
22.9451427
20
17.7887919
40
2.2444447
50
359.9496197
51
25.4884178
0
ARC
8
DEFAULT_255_2_778
10
22.9387291
20
17.7861742
40
2.2513605
50
25.4783155
51
71.8446321
0
ARC
8
DEFAULT_255_2_778
10
22.9373333
20
17.7751547
40
2.2622674
50
71.8980021
51
79.7500675
0
ARC
8
DEFAULT_255_2_778
10
22.9392439
20
17.7867742
40
2.2504866
50
260.0086737
51
270.0243573
0
ARC
8
DEFAULT_255_2_778
10
22.9393734
20
17.6745592
40
2.1382715
50
270.0221648
51
270.1329881
0
ARC
8
DEFAULT_255_2_778
10
22.9391657
20
17.7887795
40
2.2524921
50
270.1315284
51
280.2475288
0
LINE
8
DEFAULT_255_2_778
10
21.4991865
20
18.2342184
11
22.5490865
21
18.2342184
0
LINE
8
DEFAULT_255_2_778
10
22.5490865
20
18.2342184
11
22.5490865
21
20.0032184
0
LINE
8
DEFAULT_255_2_778
10
22.5490865
20
15.5704184
11
22.5490865
21
17.2325184
0
LINE
8
DEFAULT_255_2_778
10
22.5490865
20
17.2325184
11
21.4991865
21
17.2325184
0
LINE
8
DEFAULT_255_2_778
10
21.4991865
20
17.2325184
11
21.4991865
21
18.2342184
0
LINE
8
DEFAULT_255_2_778
10
23.3398865
20
18.2342184
11
24.3897865
21
18.2342184
0
LINE
8
DEFAULT_255_2_778
10
24.3897865
20
18.2342184
11
24.3897865
21
17.2325184
0
LINE
8
DEFAULT_255_2_778
10
24.3897865
20
17.2325184
11
23.3398865
21
17.2325184
0
LINE
8
DEFAULT_255_2_778
10
23.3398865
20
17.2325184
11
23.3398865
21
15.5722184
0
LINE
8
DEFAULT_255_2_778
10
23.3398865
20
20.0013184
11
23.3398865
21
18.2342184
0
LINE
8
DEFAULT_255_2_778
10
17.6280689
20
11.5077322
11
17.6280689
21
11.2979322
0
LINE
8
DEFAULT_255_2_778
10
22.1281689
20
11.5077322
11
22.1281689
21
11.2979322
0
LINE
8
DEFAULT_255_2_778
10
22.3781689
20
11.2579322
11
22.3781689
21
11.5079322
0
LINE
8
DEFAULT_255_2_778
10
22.3781689
20
11.5079322
11
17.3780689
21
11.5079322
0
LINE
8
DEFAULT_255_2_778
10
17.3780689
20
11.5079322
11
17.3780689
21
11.2579322
0
LINE
8
DEFAULT_255_2_778
10
17.3780689
20
8.7579322
11
17.3780689
21
8.5078322
0
LINE
8
DEFAULT_255_2_778
10
17.3780689
20
8.5078322
11
22.3781689
21
8.5078322
0
LINE
8
DEFAULT_255_2_778
10
22.3781689
20
8.5078322
11
22.3781689
21
8.7579322
0
LINE
8
DEFAULT_255_2_778
10
13.8781689
20
8.7579322
11
13.8781689
21
11.2579322
0
LINE
8
DEFAULT_255_2_778
10
13.8781689
20
11.2579322
11
25.8780689
21
11.2579322
0
LINE
8
DEFAULT_255_2_778
10
25.8780689
20
11.2579322
11
25.8780689
21
8.7579322
0
LINE
8
DEFAULT_255_2_778
10
25.8780689
20
8.7579322
11
13.8781689
21
8.7579322
0
LINE
8
DEFAULT_255_2_778
10
16.8782689
20
11.2579322
11
16.8782689
21
13.2579322
0
LINE
8
DEFAULT_255_2_778
10
13.8781689
20
11.2579322
11
13.8781689
21
13.2579322
0
LINE
8
DEFAULT_255_2_778
10
22.8782689
20
11.2579322
11
22.8782689
21
13.2579322
0
LINE
8
DEFAULT_255_2_778
10
25.8783689
20
11.2579322
11
25.8783689
21
13.2579322
0
LINE
8
DEFAULT_255_2_778
10
21.9783689
20
13.2579322
11
21.9783689
21
13.0063322
0
LINE
8
DEFAULT_255_2_778
10
21.9783689
20
13.0063322
11
22.8784689
21
13.0063322
0
LINE
8
DEFAULT_255_2_778
10
26.0114689
20
13.2579322
11
26.0114689
21
13.0063322
0
ARC
8
DEFAULT_255_2_778
10
17.1393435
20
75.2240795
40
0.0951031
50
21.1393776
51
43.5121399
0
ARC
8
DEFAULT_255_2_778
10
16.1957416
20
74.4822123
40
1.2950341
50
38.5661086
51
41.8258993
0
ARC
8
DEFAULT_255_2_778
10
13.8845418
20
72.4295965
40
4.3861238
50
41.6729165
51
43.5509484
0
ARC
8
DEFAULT_255_2_778
10
10.677743
20
69.3932254
40
8.8023517
50
43.4934351
51
45.0597972
0
ARC
8
DEFAULT_255_2_778
10
1.7329495
20
80.8805851
40
5.1934526
50
89.998044
51
106.8441467
0
ARC
8
DEFAULT_255_2_778
10
1.7331217
20
80.8767588
40
5.1972788
50
88.1027888
51
89.9999438
0
ARC
8
DEFAULT_255_2_778
10
1.7330706
20
80.8755382
40
5.1985004
50
84.5363008
51
88.102671
0
ARC
8
DEFAULT_255_2_778
10
2.2254934
20
87.7635063
40
1.9929158
50
89.926605
51
114.3113989
0
ARC
8
DEFAULT_255_2_778
10
2.2305465
20
87.754663
40
2.0030556
50
114.3389823
51
170.1972101
0
ARC
8
DEFAULT_255_2_778
10
2.2412078
20
87.7570355
40
2.0131615
50
170.3154071
51
180.0175033
0
ARC
8
DEFAULT_255_2_778
10
28.7352321
20
87.7589734
40
1.9929158
50
359.926605
51
24.3113989
0
ARC
8
DEFAULT_255_2_778
10
28.7263888
20
87.7539202
40
2.0030556
50
24.3389823
51
80.1972101
0
ARC
8
DEFAULT_255_2_778
10
28.7287613
20
87.743259
40
2.0131615
50
80.3154071
51
90.0175033
0
ARC
8
DEFAULT_255_2_778
10
30.6907474
20
74.4181403
40
0.0520285
50
44.8297666
51
82.0669911
0
ARC
8
DEFAULT_255_2_778
10
30.5302122
20
73.8148668
40
0.6759416
50
75.6335943
51
82.8891899
0
ARC
8
DEFAULT_255_2_778
10
30.2519372
20
71.8248767
40
2.6852385
50
82.2534026
51
84.9177314
0
ARC
8
DEFAULT_255_2_778
10
29.9394227
20
68.4587953
40
6.0657848
50
84.7940105
51
86.1320751
0
ARC
8
DEFAULT_255_2_778
10
29.586015
20
63.2352091
40
11.3013127
50
86.1308759
51
87.2839001
0
ARC
8
DEFAULT_255_2_778
10
29.2140792
20
55.5117095
40
19.0337615
50
87.2672734
51
88.1503637
0
ARC
8
DEFAULT_255_2_778
10
28.9210792
20
46.5485119
40
28.0017463
50
88.1431092
51
88.9195587
0
ARC
8
DEFAULT_255_2_778
10
28.7740857
20
39.1189816
40
35.4327282
50
88.9084414
51
89.4726172
0
ARC
8
DEFAULT_255_2_778
10
28.7303836
20
34.5998587
40
39.9520619
50
89.4695994
51
90.0032085
0
ARC
8
DEFAULT_255_2_778
10
2.2252927
20
34.6021935
40
39.9499271
50
89.9960509
51
90.5755929
0
ARC
8
DEFAULT_255_2_778
10
2.1761957
20
39.3964802
40
35.155389
50
90.5740739
51
91.1131396
0
ARC
8
DEFAULT_255_2_778
10
2.020851
20
47.0448783
40
27.5054174
50
91.0991163
51
91.9168718
0
ARC
8
DEFAULT_255_2_778
10
1.7185413
20
56.0515051
40
18.4937183
50
91.9141657
51
92.771426
0
ARC
8
DEFAULT_255_2_778
10
1.3363581
20
63.8248701
40
10.7109676
50
92.7399656
51
94.0352789
0
ARC
8
DEFAULT_255_2_778
10
0.9190685
20
69.6676443
40
4.8533158
50
93.9751297
51
96.0337617
0
ARC
8
DEFAULT_255_2_778
10
0.5634696
20
72.9675573
40
1.5343203
50
95.7813125
51
100.1265943
0
ARC
8
DEFAULT_255_2_778
10
0.3234109
20
74.2660236
40
0.2140243
50
97.9796492
51
114.2043593
0
ARC
8
DEFAULT_255_2_778
10
0.2397841
20
74.449973
40
0.0119904
50
110.1046546
51
168.2218649
0
LINE
8
DEFAULT_255_2_778
10
16.8954463
20
75.6239205
11
16.8780463
21
75.6414205
0
LINE
8
DEFAULT_255_2_778
10
16.8780463
20
75.6414205
11
16.8780463
21
74.5519205
0
LINE
8
DEFAULT_255_2_778
10
16.8780463
20
74.5519205
11
13.5781463
21
74.5519205
0
LINE
8
DEFAULT_255_2_778
10
13.5781463
20
74.5519205
11
13.5781463
21
73.4067205
0
LINE
8
DEFAULT_255_2_778
10
13.5781463
20
73.4067205
11
9.6281463
21
73.4067205
0
LINE
8
DEFAULT_255_2_778
10
9.6281463
20
73.4067205
11
9.6281463
21
74.5519205
0
LINE
8
DEFAULT_255_2_778
10
9.6281463
20
74.5519205
11
2.2280463
21
74.5519205
0
LINE
8
DEFAULT_255_2_778
10
2.2280463
20
74.5519205
11
2.2280463
21
65.0052205
0
LINE
8
DEFAULT_255_2_778
10
2.2280463
20
65.0052205
11
21.2280463
21
65.0052205
0
LINE
8
DEFAULT_255_2_778
10
0.2280463
20
74.4521205
11
0.2280463
21
85.8512205
0
LINE
8
DEFAULT_255_2_778
10
2.2280463
20
86.0504205
11
2.2280463
21
89.7564205
0
LINE
8
DEFAULT_255_2_778
10
18.2279463
20
89.7548205
11
17.9778463
21
89.7548205
0
LINE
8
DEFAULT_255_2_778
10
17.9778463
20
88.5361205
11
18.2279463
21
88.5361205
0
LINE
8
DEFAULT_255_2_778
10
9.4781463
20
89.7548205
11
9.2281463
21
89.7548205
0
LINE
8
DEFAULT_255_2_778
10
9.2281463
20
88.5361205
11
9.4781463
21
88.5361205
0
LINE
8
DEFAULT_255_2_778
10
9.4781463
20
84.8706205
11
17.9781463
21
84.8706205
0
LINE
8
DEFAULT_255_2_778
10
17.9781463
20
84.8706205
11
17.9781463
21
86.0504205
0
LINE
8
DEFAULT_255_2_778
10
17.9781463
20
86.0504205
11
9.4781463
21
86.0504205
0
LINE
8
DEFAULT_255_2_778
10
9.4781463
20
86.0504205
11
9.4781463
21
84.8706205
0
LINE
8
DEFAULT_255_2_778
10
17.9781463
20
86.0504205
11
17.9781463
21
89.7564205
0
LINE
8
DEFAULT_255_2_778
10
17.9781463
20
89.7564205
11
9.4781463
21
89.7564205
0
LINE
8
DEFAULT_255_2_778
10
9.4781463
20
89.7564205
11
9.4781463
21
86.0504205
0
LINE
8
DEFAULT_255_2_778
10
9.2281463
20
86.0504205
11
9.2281463
21
89.7564205
0
LINE
8
DEFAULT_255_2_778
10
9.2281463
20
89.7564205
11
2.2280463
21
89.7564205
0
LINE
8
DEFAULT_255_2_778
10
0.2280463
20
87.7564205
11
0.2280463
21
85.8512205
0
LINE
8
DEFAULT_255_2_778
10
30.7281463
20
85.8512205
11
30.7281463
21
87.7564205
0
LINE
8
DEFAULT_255_2_778
10
28.7281463
20
89.7564205
11
18.2281463
21
89.7564205
0
LINE
8
DEFAULT_255_2_778
10
18.2281463
20
89.7564205
11
18.2281463
21
86.0504205
0
LINE
8
DEFAULT_255_2_778
10
28.7281463
20
74.5519205
11
28.7281463
21
86.0504205
0
LINE
8
DEFAULT_255_2_778
10
28.7281463
20
86.0504205
11
18.2281463
21
86.0504205
0
LINE
8
DEFAULT_255_2_778
10
18.2281463
20
86.0504205
11
18.2281463
21
84.7550205
0
LINE
8
DEFAULT_255_2_778
10
18.2281463
20
84.7550205
11
9.2281463
21
84.7550205
0
LINE
8
DEFAULT_255_2_778
10
9.2281463
20
84.7550205
11
9.2281463
21
86.0504205
0
LINE
8
DEFAULT_255_2_778
10
9.2281463
20
86.0504205
11
2.2280463
21
86.0504205
0
LINE
8
DEFAULT_255_2_778
10
2.2280463
20
86.0504205
11
2.2280463
21
74.5521205
0
LINE
8
DEFAULT_255_2_778
10
0.2280463
20
74.4524205
11
0.2280463
21
74.4524205
0
LINE
8
DEFAULT_255_2_778
10
0.2280463
20
74.4524205
11
0.2280463
21
65.0057205
0
LINE
8
DEFAULT_255_2_778
10
0.2280463
20
65.0057205
11
2.2280463
21
65.0057205
0
ARC
8
DEFAULT_255_2_778
10
29.2229701
20
80.8799954
40
5.1940423
50
73.1568178
51
90.0011437
0
ARC
8
DEFAULT_255_2_778
10
29.2228737
20
80.8769757
40
5.1970618
50
90.0000797
51
91.927906
0
ARC
8
DEFAULT_255_2_778
10
29.2229324
20
80.8756176
40
5.1984212
50
91.9280489
51
95.46374
0
LINE
8
DEFAULT_255_2_778
10
30.7279606
20
74.4553205
11
30.7279606
21
85.8512205
0
LINE
8
DEFAULT_255_2_778
10
28.7279606
20
86.0504205
11
28.7279606
21
89.7564205
0
LINE
8
DEFAULT_255_2_778
10
30.7210606
20
65.0052205
11
28.7366606
21
65.0052205
0
LINE
8
DEFAULT_255_2_778
10
28.7366606
20
65.0052205
11
28.7366606
21
72.5156205
0
LINE
8
DEFAULT_255_2_778
10
28.7366606
20
72.5156205
11
30.7210606
21
74.5050205
0
LINE
8
DEFAULT_255_2_778
10
30.7210606
20
74.5050205
11
30.7210606
21
65.0052205
0
LINE
8
DEFAULT_255_2_778
10
28.7448606
20
72.5156205
11
21.2280606
21
65.0052205
0
LINE
8
DEFAULT_255_2_778
10
21.2280606
20
65.0052205
11
28.7779606
21
65.0052205
0
LINE
8
DEFAULT_255_2_778
10
28.7279606
20
72.4659205
11
28.7279606
21
74.5519205
0
LINE
8
DEFAULT_255_2_778
10
28.7279606
20
74.5519205
11
20.8280606
21
74.5519205
0
LINE
8
DEFAULT_255_2_778
10
20.8280606
20
74.5519205
11
20.8280606
21
73.4067205
0
LINE
8
DEFAULT_255_2_778
10
20.8280606
20
73.4067205
11
16.8780606
21
73.4067205
0
ARC
8
DEFAULT_255_2_778
10
28.7306992
20
1.7494612
40
1.9929158
50
269.926605
51
294.3113989
0
ARC
8
DEFAULT_255_2_778
10
28.725646
20
1.7583045
40
2.0030556
50
294.3389823
51
350.1972101
0
ARC
8
DEFAULT_255_2_778
10
28.7149848
20
1.755932
40
2.0131615
50
350.3154071
51
0.0175033
0
LINE
8
DEFAULT_255_2_778
10
29.2279463
20
65.005147
11
29.2279463
21
1.050547
0
LINE
8
DEFAULT_255_2_778
10
29.2279463
20
1.050547
11
23.2507463
21
1.050547
0
LINE
8
DEFAULT_255_2_778
10
23.2507463
20
1.050547
11
23.2507463
21
6.253647
0
LINE
8
DEFAULT_255_2_778
10
23.2507463
20
6.253647
11
11.6175463
21
6.253647
0
LINE
8
DEFAULT_255_2_778
10
11.6175463
20
6.253647
11
11.6175463
21
-0.243453
0
LINE
8
DEFAULT_255_2_778
10
11.6175463
20
-0.243453
11
13.2278463
21
-0.243453
0
LINE
8
DEFAULT_255_2_778
10
13.2278463
20
-0.243453
11
13.2278463
21
4.756347
0
LINE
8
DEFAULT_255_2_778
10
13.2278463
20
4.756347
11
22.2281463
21
4.756347
0
LINE
8
DEFAULT_255_2_778
10
22.2281463
20
4.756347
11
22.2281463
21
-0.243453
0
LINE
8
DEFAULT_255_2_778
10
22.2281463
20
-0.243453
11
28.7281463
21
-0.243453
0
LINE
8
DEFAULT_255_2_778
10
30.7281463
20
1.756547
11
30.7281463
21
65.005147
0
LINE
8
DEFAULT_255_2_778
10
29.2282463
20
62.814447
11
0.2280463
21
62.814447
0
LINE
8
DEFAULT_255_2_778
10
0.2280463
20
62.814447
11
0.2280463
21
65.005147
0
LINE
8
DEFAULT_255_2_778
10
13.2280463
20
-0.243753
11
22.2281463
21
-0.243753
0
LINE
8
DEFAULT_255_2_778
10
21.9781463
20
4.638847
11
21.9781463
21
4.213447
0
LINE
8
DEFAULT_255_2_778
10
21.9781463
20
4.213447
11
13.4781463
21
4.213447
0
LINE
8
DEFAULT_255_2_778
10
13.4781463
20
4.213447
11
13.4781463
21
4.638847
0
LINE
8
DEFAULT_255_2_778
10
13.4781463
20
4.638847
11
21.9781463
21
4.638847
0
LINE
8
DEFAULT_255_2_778
10
21.9781463
20
4.213447
11
21.9781463
21
-0.232153
0
LINE
8
DEFAULT_255_2_778
10
21.9781463
20
-0.232153
11
13.4781463
21
-0.232153
0
LINE
8
DEFAULT_255_2_778
10
13.4781463
20
-0.232153
11
13.4781463
21
4.213447
0
ARC
8
DEFAULT_255_2_778
10
20.4487007
20
79.6731417
40
0.0891083
50
46.6439998
51
69.3149143
0
ARC
8
DEFAULT_255_2_778
10
19.6211558
20
78.6237409
40
1.4252183
50
47.7211317
51
51.4228424
0
ARC
8
DEFAULT_255_2_778
10
17.1943783
20
75.9182541
40
5.059601
50
46.2723215
51
47.9993227
0
ARC
8
DEFAULT_255_2_778
10
14.3710192
20
72.9509933
40
9.1554437
50
45.1465317
51
46.3399781
0
ARC
8
DEFAULT_255_2_778
10
17.139611
20
81.2240639
40
0.0951069
50
21.13868
51
43.510182
0
ARC
8
DEFAULT_255_2_778
10
16.1951251
20
80.4815487
40
1.2961334
50
38.5640149
51
41.8208666
0
ARC
8
DEFAULT_255_2_778
10
13.8780154
20
78.4240135
40
4.3949086
50
41.6681486
51
43.5422228
0
ARC
8
DEFAULT_255_2_778
10
10.651596
20
75.369958
40
8.8375428
50
43.4847761
51
45.0445846
0
LINE
8
DEFAULT_255_2_778
10
20.4782178
20
81.2564052
11
17.2283178
21
81.2564052
0
LINE
8
DEFAULT_255_2_778
10
20.8283178
20
81.6414052
11
20.8108178
21
81.6239052
0
LINE
8
DEFAULT_255_2_778
10
20.8108178
20
81.6239052
11
20.4782178
21
81.2583052
0
LINE
8
DEFAULT_255_2_778
10
20.4782178
20
81.2583052
11
20.4801178
21
79.7565052
0
LINE
8
DEFAULT_255_2_778
10
20.4801178
20
79.7565052
11
17.2283178
21
79.7565052
0
LINE
8
DEFAULT_255_2_778
10
17.2283178
20
79.7565052
11
17.2283178
21
81.2583052
0
LINE
8
DEFAULT_255_2_778
10
16.8958178
20
81.6239052
11
16.8783178
21
81.6414052
0
LINE
8
DEFAULT_255_2_778
10
16.8783178
20
81.6414052
11
20.8283178
21
81.6414052
0
LINE
8
DEFAULT_255_2_778
10
20.8283178
20
81.6414052
11
20.8283178
21
79.4414052
0
LINE
8
DEFAULT_255_2_778
10
20.8283178
20
79.4414052
11
16.8783178
21
79.4414052
0
LINE
8
DEFAULT_255_2_778
10
16.8783178
20
79.4414052
11
16.8783178
21
81.6414052
0
LINE
8
DEFAULT_255_2_778
10
16.8783178
20
79.4414052
11
17.2265178
21
79.7565052
0
ARC
8
DEFAULT_255_2_778
10
20.4487007
20
76.6732417
40
0.0891083
50
46.6439998
51
69.3149143
0
ARC
8
DEFAULT_255_2_778
10
19.6211558
20
75.6238409
40
1.4252183
50
47.7211317
51
51.4228424
0
ARC
8
DEFAULT_255_2_778
10
17.1943783
20
72.9183541
40
5.059601
50
46.2723215
51
47.9993227
0
ARC
8
DEFAULT_255_2_778
10
14.3710192
20
69.9510933
40
9.1554437
50
45.1465317
51
46.3399781
0
ARC
8
DEFAULT_255_2_778
10
20.5670166
20
78.2240144
40
0.0952397
50
136.4914442
51
158.8079986
0
ARC
8
DEFAULT_255_2_778
10
21.5135102
20
77.4797654
40
1.2989164
50
138.1816437
51
141.4310085
0
ARC
8
DEFAULT_255_2_778
10
23.8235464
20
75.4286719
40
4.3881252
50
136.4566722
51
138.3339257
0
ARC
8
DEFAULT_255_2_778
10
27.0019356
20
72.4200466
40
8.7646474
50
134.9406444
51
136.5141253
0
LINE
8
DEFAULT_255_2_778
10
20.4782178
20
78.2565052
11
17.2283178
21
78.2565052
0
LINE
8
DEFAULT_255_2_778
10
20.8283178
20
76.4415052
11
16.8783178
21
76.4415052
0
LINE
8
DEFAULT_255_2_778
10
16.8783178
20
76.4415052
11
16.8783178
21
78.6415052
0
LINE
8
DEFAULT_255_2_778
10
16.8783178
20
78.6415052
11
20.8283178
21
78.6415052
0
LINE
8
DEFAULT_255_2_778
10
20.8283178
20
78.6415052
11
20.8283178
21
76.4415052
0
LINE
8
DEFAULT_255_2_778
10
16.8783178
20
78.6415052
11
16.8958178
21
78.6240052
0
LINE
8
DEFAULT_255_2_778
10
16.8958178
20
78.6240052
11
17.2283178
21
78.2584052
0
LINE
8
DEFAULT_255_2_778
10
17.2283178
20
78.2584052
11
17.2283178
21
76.7566052
0
LINE
8
DEFAULT_255_2_778
10
17.2283178
20
76.7566052
11
20.4801178
21
76.7566052
0
LINE
8
DEFAULT_255_2_778
10
20.4801178
20
76.7566052
11
20.4782178
21
78.2584052
0
LINE
8
DEFAULT_255_2_778
10
20.8108178
20
78.6240052
11
20.8283178
21
78.6415052
0
LINE
8
DEFAULT_255_2_778
10
16.8783178
20
76.4415052
11
17.2265178
21
76.7566052
0
ARC
8
DEFAULT_255_2_778
10
20.56689
20
75.2238431
40
0.0950617
50
136.493571
51
158.8736922
0
ARC
8
DEFAULT_255_2_778
10
21.5105249
20
74.4821232
40
1.2949276
50
138.1808094
51
141.4404767
0
ARC
8
DEFAULT_255_2_778
10
23.8263273
20
72.4258838
40
4.3918649
50
136.4580002
51
138.3336765
0
ARC
8
DEFAULT_255_2_778
10
27.0558918
20
69.3688998
40
8.8387965
50
134.9551084
51
136.5156113
0
LINE
8
DEFAULT_255_2_778
10
16.8783178
20
75.6414677
11
20.8283178
21
75.6414677
0
LINE
8
DEFAULT_255_2_778
10
20.8283178
20
75.6414677
11
20.8283178
21
74.5518677
0
LINE
8
DEFAULT_255_2_778
10
20.8283178
20
74.5518677
11
20.5809178
21
74.5518677
0
LINE
8
DEFAULT_255_2_778
10
20.5809178
20
74.5518677
11
20.4785178
21
74.5518677
0
LINE
8
DEFAULT_255_2_778
10
17.2286178
20
73.7565677
11
20.4785178
21
73.7565677
0
LINE
8
DEFAULT_255_2_778
10
20.4785178
20
75.2564677
11
17.2283178
21
75.2564677
0
LINE
8
DEFAULT_255_2_778
10
17.2283178
20
75.2564677
11
17.2283178
21
74.5516677
0
LINE
8
DEFAULT_255_2_778
10
20.8283178
20
73.4065677
11
20.4782178
21
73.7565677
0
LINE
8
DEFAULT_255_2_778
10
20.4782178
20
73.7565677
11
20.4782178
21
74.5516677
0
LINE
8
DEFAULT_255_2_778
10
20.4782178
20
74.5516677
11
20.4782178
21
75.2580677
0
LINE
8
DEFAULT_255_2_778
10
20.8108178
20
75.6237677
11
20.8283178
21
75.6411677
0
LINE
8
DEFAULT_255_2_778
10
17.2283178
20
74.5516677
11
17.2283178
21
73.7565677
0
LINE
8
DEFAULT_255_2_778
10
17.2283178
20
73.7565677
11
17.2217178
21
73.7499677
0
LINE
8
DEFAULT_255_2_778
10
17.2217178
20
73.7499677
11
17.2019178
21
73.7301677
0
LINE
8
DEFAULT_255_2_778
10
17.2019178
20
73.7301677
11
17.1696178
21
73.6978677
0
LINE
8
DEFAULT_255_2_778
10
17.1696178
20
73.6978677
11
17.1259178
21
73.6541677
0
LINE
8
DEFAULT_255_2_778
10
17.1259178
20
73.6541677
11
17.0730178
21
73.6012677
0
LINE
8
DEFAULT_255_2_778
10
17.0730178
20
73.6012677
11
17.0124178
21
73.5406677
0
LINE
8
DEFAULT_255_2_778
10
17.0124178
20
73.5406677
11
16.9468178
21
73.4750677
0
LINE
8
DEFAULT_255_2_778
10
16.9468178
20
73.4750677
11
16.8786178
21
73.4067677
0
LINE
8
DEFAULT_255_2_778
10
16.8786178
20
73.4067677
11
16.8786178
21
74.5518677
0
LINE
8
DEFAULT_255_2_778
10
16.8786178
20
74.5518677
11
17.1259178
21
74.5518677
0
LINE
8
DEFAULT_255_2_778
10
17.1259178
20
74.5518677
11
17.2283178
21
74.5516677
0
LINE
8
DEFAULT_255_2_778
10
20.8283178
20
70.4067052
11
20.8283178
21
72.6067052
0
LINE
8
DEFAULT_255_2_778
10
20.8283178
20
72.6067052
11
16.8783178
21
72.6067052
0
LINE
8
DEFAULT_255_2_778
10
16.8783178
20
72.6067052
11
16.8783178
21
70.4067052
0
LINE
8
DEFAULT_255_2_778
10
16.8783178
20
70.4067052
11
20.8283178
21
70.4067052
0
LINE
8
DEFAULT_255_2_778
10
20.8283178
20
70.4067052
11
20.4782178
21
70.7567052
0
LINE
8
DEFAULT_255_2_778
10
20.4782178
20
70.7567052
11
20.4782178
21
72.2567052
0
LINE
8
DEFAULT_255_2_778
10
20.4782178
20
72.2567052
11
20.8283178
21
72.6067052
0
LINE
8
DEFAULT_255_2_778
10
20.4782178
20
72.2567052
11
17.2283178
21
72.2567052
0
LINE
8
DEFAULT_255_2_778
10
17.2283178
20
70.7567052
11
20.4782178
21
70.7567052
0
LINE
8
DEFAULT_255_2_778
10
16.8783178
20
72.6067052
11
17.2283178
21
72.2567052
0
LINE
8
DEFAULT_255_2_778
10
17.2283178
20
72.2567052
11
17.2283178
21
70.7567052
0
LINE
8
DEFAULT_255_2_778
10
17.2283178
20
70.7567052
11
16.8783178
21
70.4067052
0
LINE
8
DEFAULT_255_2_778
10
13.5782178
20
70.4067052
11
13.2281178
21
70.7567052
0
LINE
8
DEFAULT_255_2_778
10
13.2281178
20
70.7567052
11
13.2281178
21
72.2567052
0
LINE
8
DEFAULT_255_2_778
10
13.2281178
20
72.2567052
11
13.5782178
21
72.6067052
0
LINE
8
DEFAULT_255_2_778
10
13.5782178
20
72.6067052
11
13.5782178
21
70.4067052
0
LINE
8
DEFAULT_255_2_778
10
13.5782178
20
70.4067052
11
9.6282178
21
70.4067052
0
LINE
8
DEFAULT_255_2_778
10
9.6282178
20
70.4067052
11
9.6282178
21
72.6067052
0
LINE
8
DEFAULT_255_2_778
10
9.6282178
20
72.6067052
11
13.5782178
21
72.6067052
0
LINE
8
DEFAULT_255_2_778
10
13.2281178
20
72.2567052
11
9.9782178
21
72.2567052
0
LINE
8
DEFAULT_255_2_778
10
9.6282178
20
72.6067052
11
9.9782178
21
72.2567052
0
LINE
8
DEFAULT_255_2_778
10
9.9782178
20
72.2567052
11
9.9782178
21
70.7567052
0
LINE
8
DEFAULT_255_2_778
10
9.6282178
20
70.4067052
11
9.9782178
21
70.7567052
0
LINE
8
DEFAULT_255_2_778
10
9.9782178
20
70.7567052
11
13.2281178
21
70.7567052
0
ARC
8
DEFAULT_255_2_778
10
13.3169166
20
75.2239769
40
0.0952397
50
136.4914442
51
158.8079986
0
ARC
8
DEFAULT_255_2_778
10
14.2634102
20
74.4797279
40
1.2989164
50
138.1816437
51
141.4310085
0
ARC
8
DEFAULT_255_2_778
10
16.5734464
20
72.4286344
40
4.3881252
50
136.4566722
51
138.3339257
0
ARC
8
DEFAULT_255_2_778
10
19.7518356
20
69.4200091
40
8.7646474
50
134.9406444
51
136.5141253
0
LINE
8
DEFAULT_255_2_778
10
9.9782178
20
74.5518677
11
9.6282178
21
74.5518677
0
LINE
8
DEFAULT_255_2_778
10
9.6282178
20
74.5518677
11
9.6282178
21
75.6414677
0
LINE
8
DEFAULT_255_2_778
10
9.6282178
20
75.6414677
11
13.5782178
21
75.6414677
0
LINE
8
DEFAULT_255_2_778
10
13.5782178
20
75.6414677
11
13.5782178
21
74.5518677
0
LINE
8
DEFAULT_255_2_778
10
13.5782178
20
74.5518677
11
13.3308178
21
74.5518677
0
LINE
8
DEFAULT_255_2_778
10
13.3308178
20
74.5518677
11
13.2284178
21
74.5518677
0
LINE
8
DEFAULT_255_2_778
10
9.9785178
20
73.7565677
11
13.2284178
21
73.7565677
0
LINE
8
DEFAULT_255_2_778
10
13.2284178
20
75.2564677
11
9.9782178
21
75.2564677
0
LINE
8
DEFAULT_255_2_778
10
9.6282178
20
75.6414677
11
9.6457178
21
75.6239677
0
LINE
8
DEFAULT_255_2_778
10
9.6457178
20
75.6239677
11
9.9782178
21
75.2583677
0
LINE
8
DEFAULT_255_2_778
10
9.9782178
20
75.2583677
11
9.9782178
21
74.5516677
0
LINE
8
DEFAULT_255_2_778
10
9.9782178
20
74.5516677
11
9.9782178
21
73.7565677
0
LINE
8
DEFAULT_255_2_778
10
9.9782178
20
73.7565677
11
9.6282178
21
73.4065677
0
LINE
8
DEFAULT_255_2_778
10
13.5782178
20
73.4065677
11
13.2281178
21
73.7565677
0
LINE
8
DEFAULT_255_2_778
10
13.2281178
20
73.7565677
11
13.2281178
21
74.5516677
0
LINE
8
DEFAULT_255_2_778
10
13.2281178
20
74.5516677
11
13.2281178
21
75.2583677
0
LINE
8
DEFAULT_255_2_778
10
13.5607178
20
75.6239677
11
13.5782178
21
75.6414677
0
ARC
8
DEFAULT_255_2_778
10
13.1986704
20
76.673235
40
0.08909
50
46.6941834
51
69.3582948
0
ARC
8
DEFAULT_255_2_778
10
12.3774958
20
75.6302079
40
1.4162519
50
47.7434084
51
51.4667346
0
ARC
8
DEFAULT_255_2_778
10
10.0053212
20
72.9833432
40
4.9705365
50
46.2639996
51
48.0217459
0
ARC
8
DEFAULT_255_2_778
10
7.3212908
20
70.1629561
40
8.8639334
50
45.098828
51
46.3321056
0
ARC
8
DEFAULT_255_2_778
10
13.3169166
20
78.2240144
40
0.0952397
50
136.4914442
51
158.8079986
0
ARC
8
DEFAULT_255_2_778
10
14.2634102
20
77.4797654
40
1.2989164
50
138.1816437
51
141.4310085
0
ARC
8
DEFAULT_255_2_778
10
16.5734464
20
75.4286719
40
4.3881252
50
136.4566722
51
138.3339257
0
ARC
8
DEFAULT_255_2_778
10
19.7518356
20
72.4200466
40
8.7646474
50
134.9406444
51
136.5141253
0
LINE
8
DEFAULT_255_2_778
10
13.2281178
20
78.2565052
11
9.9782178
21
78.2565052
0
LINE
8
DEFAULT_255_2_778
10
9.6282178
20
76.4415052
11
9.9764178
21
76.7566052
0
LINE
8
DEFAULT_255_2_778
10
9.9764178
20
76.7566052
11
13.2300178
21
76.7566052
0
LINE
8
DEFAULT_255_2_778
10
13.5782178
20
76.4415052
11
9.6282178
21
76.4415052
0
LINE
8
DEFAULT_255_2_778
10
9.6282178
20
76.4415052
11
9.6282178
21
78.6415052
0
LINE
8
DEFAULT_255_2_778
10
9.6282178
20
78.6415052
11
13.5782178
21
78.6415052
0
LINE
8
DEFAULT_255_2_778
10
13.5782178
20
78.6415052
11
13.5782178
21
76.4415052
0
LINE
8
DEFAULT_255_2_778
10
13.2281178
20
76.7566052
11
13.2281178
21
78.2584052
0
LINE
8
DEFAULT_255_2_778
10
13.5607178
20
78.6240052
11
13.5782178
21
78.6415052
0
LINE
8
DEFAULT_255_2_778
10
9.6282178
20
78.6415052
11
9.6457178
21
78.6240052
0
LINE
8
DEFAULT_255_2_778
10
9.6457178
20
78.6240052
11
9.9782178
21
78.2584052
0
LINE
8
DEFAULT_255_2_778
10
9.9782178
20
78.2584052
11
9.9782178
21
76.7566052
0
ARC
8
DEFAULT_255_2_778
10
9.889511
20
81.2240639
40
0.0951069
50
21.13868
51
43.510182
0
ARC
8
DEFAULT_255_2_778
10
8.9450251
20
80.4815487
40
1.2961334
50
38.5640149
51
41.8208666
0
ARC
8
DEFAULT_255_2_778
10
6.6279154
20
78.4240135
40
4.3949086
50
41.6681486
51
43.5422228
0
ARC
8
DEFAULT_255_2_778
10
3.401496
20
75.369958
40
8.8375428
50
43.4847761
51
45.0445846
0
ARC
8
DEFAULT_255_2_778
10
13.1986704
20
79.673135
40
0.08909
50
46.6941834
51
69.3582948
0
ARC
8
DEFAULT_255_2_778
10
12.3774958
20
78.6301079
40
1.4162519
50
47.7434084
51
51.4667346
0
ARC
8
DEFAULT_255_2_778
10
10.0053212
20
75.9832432
40
4.9705365
50
46.2639996
51
48.0217459
0
ARC
8
DEFAULT_255_2_778
10
7.3212908
20
73.1628561
40
8.8639334
50
45.098828
51
46.3321056
0
ARC
8
DEFAULT_255_2_778
10
13.3169166
20
81.2239144
40
0.0952397
50
136.4914442
51
158.8079986
0
ARC
8
DEFAULT_255_2_778
10
14.2634102
20
80.4796654
40
1.2989164
50
138.1816437
51
141.4310085
0
ARC
8
DEFAULT_255_2_778
10
16.5734464
20
78.4285719
40
4.3881252
50
136.4566722
51
138.3339257
0
ARC
8
DEFAULT_255_2_778
10
19.7518356
20
75.4199466
40
8.7646474
50
134.9406444
51
136.5141253
0
LINE
8
DEFAULT_255_2_778
10
13.2281178
20
81.2564052
11
9.9782178
21
81.2564052
0
LINE
8
DEFAULT_255_2_778
10
9.9782178
20
79.7565052
11
9.9782178
21
81.2583052
0
LINE
8
DEFAULT_255_2_778
10
9.6457178
20
81.6239052
11
9.6282178
21
81.6414052
0
LINE
8
DEFAULT_255_2_778
10
9.6282178
20
81.6414052
11
13.5782178
21
81.6414052
0
LINE
8
DEFAULT_255_2_778
10
13.5782178
20
81.6414052
11
13.5782178
21
79.4414052
0
LINE
8
DEFAULT_255_2_778
10
13.5782178
20
79.4414052
11
9.6282178
21
79.4414052
0
LINE
8
DEFAULT_255_2_778
10
9.6282178
20
79.4414052
11
9.6282178
21
81.6414052
0
LINE
8
DEFAULT_255_2_778
10
9.6282178
20
79.4414052
11
9.9764178
21
79.7565052
0
LINE
8
DEFAULT_255_2_778
10
9.9764178
20
79.7565052
11
13.2300178
21
79.7565052
0
LINE
8
DEFAULT_255_2_778
10
13.2281178
20
79.7565052
11
13.2281178
21
81.2583052
0
LINE
8
DEFAULT_255_2_778
10
13.5607178
20
81.6239052
11
13.5782178
21
81.6414052
0
ENDSEC
0
EOF