0
SECTION
2
HEADER
9
$MEASUREMENT
70
1
0
ENDSEC
0
SECTION
2
TABLES
0
TABLE
2
LTYPE
0
LTYPE
72
65
70
64
2
CONTINUOUS
3
______
73
0
40
0
0
ENDTAB
0
TABLE
2
LAYER
0
LAYER
2
DEFAULT_255_2_778
70
0
62
255
6
CONTINUOUS
0
ENDTAB
0
ENDSEC
0
SECTION
2
ENTITIES
0
ARC
8
DEFAULT_255_2_778
10
28.6763368
20
87.7567283
40
2.0018623
50
359.9913179
51
44.9339089
0
ARC
8
DEFAULT_255_2_778
10
28.6812739
20
87.7612545
40
1.9951705
50
44.9420319
51
89.9964047
0
LINE
8
DEFAULT_255_2_778
10
30.6781991
20
85.8512249
11
30.6781991
21
87.7564249
0
LINE
8
DEFAULT_255_2_778
10
28.6813991
20
89.7564249
11
18.1985991
21
89.7564249
0
LINE
8
DEFAULT_255_2_778
10
18.1985991
20
89.7564249
11
18.1985991
21
86.0504249
0
ARC
8
DEFAULT_255_2_778
10
2.2250004
20
87.7612541
40
1.9951709
50
90.0035985
51
135.0579628
0
ARC
8
DEFAULT_255_2_778
10
2.2299369
20
87.7567285
40
2.0018618
50
135.0660833
51
180.008687
0
LINE
8
DEFAULT_255_2_778
10
9.2132751
20
86.0504249
11
9.2132751
21
89.7564249
0
LINE
8
DEFAULT_255_2_778
10
9.2132751
20
89.7564249
11
2.2248751
21
89.7564249
0
LINE
8
DEFAULT_255_2_778
10
0.2280751
20
87.7564249
11
0.2280751
21
85.8512249
0
LINE
8
DEFAULT_255_2_778
10
30.7281948
20
65.0051322
11
28.7313948
21
65.0051322
0
LINE
8
DEFAULT_255_2_778
10
28.7313948
20
65.0051322
11
28.7313948
21
72.5156322
0
LINE
8
DEFAULT_255_2_778
10
28.7313948
20
72.5156322
11
30.7281948
21
74.5050322
0
LINE
8
DEFAULT_255_2_778
10
30.7281948
20
74.5050322
11
30.7281948
21
65.0051322
0
LINE
8
DEFAULT_255_2_778
10
28.7313428
20
72.5156311
11
21.1936428
21
65.0051311
0
LINE
8
DEFAULT_255_2_778
10
21.1936428
20
65.0051311
11
28.7313428
21
65.0051311
0
LINE
8
DEFAULT_255_2_778
10
9.6129275
20
75.6417311
11
13.5565275
21
75.6417311
0
LINE
8
DEFAULT_255_2_778
10
13.5565275
20
75.6417311
11
13.5565275
21
74.5521311
0
LINE
8
DEFAULT_255_2_778
10
13.5565275
20
74.5521311
11
16.8511275
21
74.5521311
0
LINE
8
DEFAULT_255_2_778
10
16.8511275
20
74.5521311
11
16.8511275
21
75.6417311
0
LINE
8
DEFAULT_255_2_778
10
16.8511275
20
75.6417311
11
20.7947275
21
75.6417311
0
LINE
8
DEFAULT_255_2_778
10
20.7947275
20
75.6417311
11
20.7947275
21
74.5521311
0
LINE
8
DEFAULT_255_2_778
10
20.7947275
20
74.5521311
11
28.6816275
21
74.5521311
0
LINE
8
DEFAULT_255_2_778
10
28.6816275
20
74.5521311
11
28.6816275
21
86.0504311
0
LINE
8
DEFAULT_255_2_778
10
28.6816275
20
86.0504311
11
18.1986275
21
86.0504311
0
LINE
8
DEFAULT_255_2_778
10
18.1986275
20
86.0504311
11
18.1986275
21
84.7550311
0
LINE
8
DEFAULT_255_2_778
10
18.1986275
20
84.7550311
11
9.2133275
21
84.7550311
0
LINE
8
DEFAULT_255_2_778
10
9.2133275
20
84.7550311
11
9.2133275
21
86.0504311
0
LINE
8
DEFAULT_255_2_778
10
9.2133275
20
86.0504311
11
2.2249275
21
86.0504311
0
LINE
8
DEFAULT_255_2_778
10
2.2249275
20
86.0504311
11
2.2249275
21
74.5521311
0
LINE
8
DEFAULT_255_2_778
10
2.2249275
20
74.5521311
11
9.6129275
21
74.5521311
0
LINE
8
DEFAULT_255_2_778
10
9.6129275
20
74.5521311
11
9.6129275
21
75.6417311
0
LINE
8
DEFAULT_255_2_778
10
9.6129275
20
75.6417311
11
9.6303275
21
75.6242311
0
LINE
8
DEFAULT_255_2_778
10
9.6303275
20
75.6242311
11
9.9624275
21
75.2586311
0
LINE
8
DEFAULT_255_2_778
10
28.6813917
20
72.4658875
11
28.6813917
21
74.5518875
0
LINE
8
DEFAULT_255_2_778
10
28.6813917
20
74.5518875
11
30.6773917
21
74.4547875
0
ARC
8
DEFAULT_255_2_778
10
0.2602653
20
74.4318424
40
0.0380311
50
91.6234715
51
147.7295436
0
ARC
8
DEFAULT_255_2_778
10
0.4326713
20
73.7846269
40
0.706851
50
96.9400238
51
104.2073285
0
ARC
8
DEFAULT_255_2_778
10
0.7168636
20
71.7172546
40
2.7936019
50
95.0238714
51
97.6026815
0
ARC
8
DEFAULT_255_2_778
10
1.0279151
20
68.322714
40
6.2023533
50
93.8297863
51
95.1402119
0
ARC
8
DEFAULT_255_2_778
10
1.3779174
20
63.0965526
40
11.4402217
50
92.6938106
51
93.8305457
0
ARC
8
DEFAULT_255_2_778
10
1.7450899
20
55.4061676
40
19.1393658
50
91.8354214
51
92.7097663
0
ARC
8
DEFAULT_255_2_778
10
2.0340589
20
46.4962672
40
28.0539505
50
91.0721054
51
91.8424644
0
ARC
8
DEFAULT_255_2_778
10
2.1794048
20
39.0891486
40
35.4624924
50
90.5231781
51
91.082976
0
ARC
8
DEFAULT_255_2_778
10
2.222701
20
34.5670304
40
39.9848175
50
89.9968366
51
90.5260479
0
LINE
8
DEFAULT_255_2_778
10
2.2249086
20
65.0051478
11
0.2281086
21
65.0051478
0
LINE
8
DEFAULT_255_2_778
10
0.2281086
20
65.0051478
11
0.2281086
21
74.4521478
0
LINE
8
DEFAULT_255_2_778
10
0.2281086
20
74.4521478
11
0.2281086
21
74.4521478
0
LINE
8
DEFAULT_255_2_778
10
2.2249086
20
74.5518478
11
2.2249086
21
65.0051478
0
LINE
8
DEFAULT_255_2_778
10
2.2249086
20
65.0051478
11
21.1937086
21
65.0051478
0
ARC
8
DEFAULT_255_2_778
10
1.7310353
20
80.8935419
40
5.1805084
50
90.0003192
51
106.8648101
0
ARC
8
DEFAULT_255_2_778
10
1.7310103
20
80.8950258
40
5.1790243
50
88.1414758
51
90.0000424
0
ARC
8
DEFAULT_255_2_778
10
1.7310288
20
80.8955127
40
5.1785371
50
84.5275077
51
88.1415061
0
LINE
8
DEFAULT_255_2_778
10
0.2280948
20
74.4521467
11
0.2280948
21
85.8512467
0
LINE
8
DEFAULT_255_2_778
10
2.2248948
20
86.0504467
11
2.2248948
21
89.7564467
0
ARC
8
DEFAULT_255_2_778
10
29.1752543
20
80.8935544
40
5.1805084
50
73.1351899
51
89.9996808
0
ARC
8
DEFAULT_255_2_778
10
29.1752793
20
80.8950383
40
5.1790243
50
89.9999576
51
91.8585242
0
ARC
8
DEFAULT_255_2_778
10
29.1752608
20
80.8955252
40
5.1785371
50
91.8584939
51
95.4724923
0
LINE
8
DEFAULT_255_2_778
10
30.6781948
20
74.4553592
11
30.6781948
21
85.8512592
0
LINE
8
DEFAULT_255_2_778
10
28.6813948
20
86.0504592
11
28.6813948
21
89.7564592
0
LINE
8
DEFAULT_255_2_778
10
29.1807202
20
62.814475
11
0.2281202
21
62.814475
0
LINE
8
DEFAULT_255_2_778
10
0.2281202
20
62.814475
11
0.2281202
21
65.005175
0
ARC
8
DEFAULT_255_2_778
10
2.2300701
20
1.7560408
40
2.0020367
50
179.9933818
51
224.9318455
0
ARC
8
DEFAULT_255_2_778
10
2.2247047
20
1.75117
40
1.9947981
50
224.9416443
51
269.9950836
0
LINE
8
DEFAULT_255_2_778
10
0.2280335
20
62.814472
11
0.2280335
21
1.756272
0
LINE
8
DEFAULT_255_2_778
10
2.2245335
20
-0.243628
11
11.5987335
21
-0.243628
0
ARC
8
DEFAULT_255_2_778
10
20.415442
20
79.6733795
40
0.0888624
50
46.5886642
51
69.3007456
0
ARC
8
DEFAULT_255_2_778
10
19.588936
20
78.6270615
40
1.4219085
50
47.6689393
51
51.3754888
0
ARC
8
DEFAULT_255_2_778
10
17.1595576
20
75.9235972
40
5.0565238
50
46.2212085
51
47.9475927
0
ARC
8
DEFAULT_255_2_778
10
14.3206432
20
72.9453287
40
9.1710656
50
45.0986318
51
46.2889911
0
ARC
8
DEFAULT_255_2_778
10
17.1115353
20
81.2241185
40
0.0951347
50
21.0970782
51
43.449368
0
ARC
8
DEFAULT_255_2_778
10
16.168332
20
80.4840487
40
1.2936429
50
38.5103909
51
41.7710304
0
ARC
8
DEFAULT_255_2_778
10
13.8622547
20
78.4399234
40
4.3752659
50
41.6181952
51
43.4992821
0
ARC
8
DEFAULT_255_2_778
10
10.6735933
20
75.426188
40
8.7627621
50
43.441819
51
45.0139519
0
ARC
8
DEFAULT_255_2_778
10
20.5334368
20
81.2239471
40
0.0952701
50
136.5358237
51
158.8361512
0
ARC
8
DEFAULT_255_2_778
10
21.4803495
20
80.4804205
40
1.2988307
50
138.2229364
51
141.4705775
0
ARC
8
DEFAULT_255_2_778
10
23.7925385
20
78.4304037
40
4.3889354
50
136.4996953
51
138.3753316
0
ARC
8
DEFAULT_255_2_778
10
26.9789512
20
75.4187033
40
8.7733996
50
134.9864077
51
136.5571311
0
LINE
8
DEFAULT_255_2_778
10
20.4448928
20
81.2564052
11
17.2002928
21
81.2564052
0
LINE
8
DEFAULT_255_2_778
10
17.2002928
20
79.7565052
11
17.2002928
21
81.2583052
0
LINE
8
DEFAULT_255_2_778
10
16.8682928
20
81.6239052
11
16.8507928
21
81.6414052
0
LINE
8
DEFAULT_255_2_778
10
16.8507928
20
81.6414052
11
20.7943928
21
81.6414052
0
LINE
8
DEFAULT_255_2_778
10
20.7943928
20
81.6414052
11
20.7943928
21
79.4414052
0
LINE
8
DEFAULT_255_2_778
10
20.7943928
20
79.4414052
11
16.8507928
21
79.4414052
0
LINE
8
DEFAULT_255_2_778
10
16.8507928
20
79.4414052
11
16.8507928
21
81.6414052
0
LINE
8
DEFAULT_255_2_778
10
16.8507928
20
79.4414052
11
17.1984928
21
79.7565052
0
LINE
8
DEFAULT_255_2_778
10
17.1984928
20
79.7565052
11
20.4464928
21
79.7565052
0
LINE
8
DEFAULT_255_2_778
10
20.4464928
20
79.7565052
11
20.4445928
21
81.2583052
0
LINE
8
DEFAULT_255_2_778
10
20.7766928
20
81.6239052
11
20.7940928
21
81.6414052
0
ARC
8
DEFAULT_255_2_778
10
20.4153928
20
76.6734122
40
0.0889314
50
46.6047449
51
69.3058342
0
ARC
8
DEFAULT_255_2_778
10
19.5892702
20
75.6270602
40
1.4217666
50
47.6812807
51
51.3891873
0
ARC
8
DEFAULT_255_2_778
10
17.1693228
20
72.9329157
40
5.0431463
50
46.2284392
51
47.9597174
0
ARC
8
DEFAULT_255_2_778
10
14.3585443
20
69.983347
40
9.117501
50
45.0988339
51
46.2962664
0
ARC
8
DEFAULT_255_2_778
10
20.5334026
20
78.2242011
40
0.0951266
50
136.5316649
51
158.8898547
0
ARC
8
DEFAULT_255_2_778
10
21.4774283
20
77.4830492
40
1.2949494
50
138.2153871
51
141.4734472
0
ARC
8
DEFAULT_255_2_778
10
23.790767
20
75.4315241
40
4.3869149
50
136.4920643
51
138.3684858
0
ARC
8
DEFAULT_255_2_778
10
27.0057377
20
72.3919788
40
8.8112604
50
134.9859797
51
136.5495751
0
LINE
8
DEFAULT_255_2_778
10
20.4449605
20
78.2565052
11
17.2003605
21
78.2565052
0
LINE
8
DEFAULT_255_2_778
10
20.7944605
20
76.4415052
11
16.8508605
21
76.4415052
0
LINE
8
DEFAULT_255_2_778
10
16.8508605
20
76.4415052
11
16.8508605
21
78.6415052
0
LINE
8
DEFAULT_255_2_778
10
16.8508605
20
78.6415052
11
20.7944605
21
78.6415052
0
LINE
8
DEFAULT_255_2_778
10
20.7944605
20
78.6415052
11
20.7944605
21
76.4415052
0
LINE
8
DEFAULT_255_2_778
10
16.8508605
20
76.4415052
11
17.1984605
21
76.7566052
0
LINE
8
DEFAULT_255_2_778
10
17.1984605
20
76.7566052
11
20.4465605
21
76.7566052
0
LINE
8
DEFAULT_255_2_778
10
20.4465605
20
76.7566052
11
20.4446605
21
78.2584052
0
LINE
8
DEFAULT_255_2_778
10
20.7767605
20
78.6240052
11
20.7941605
21
78.6415052
0
LINE
8
DEFAULT_255_2_778
10
16.8505605
20
78.6415052
11
16.8680605
21
78.6240052
0
LINE
8
DEFAULT_255_2_778
10
16.8680605
20
78.6240052
11
17.2000605
21
78.2584052
0
LINE
8
DEFAULT_255_2_778
10
17.2000605
20
78.2584052
11
17.2000605
21
76.7566052
0
LINE
8
DEFAULT_255_2_778
10
16.8507928
20
75.6414031
11
16.8682928
21
75.6239031
0
LINE
8
DEFAULT_255_2_778
10
16.8682928
20
75.6239031
11
17.2002928
21
75.2583031
0
LINE
8
DEFAULT_255_2_778
10
17.2002928
20
75.2564031
11
17.2002928
21
75.2583031
0
LINE
8
DEFAULT_255_2_778
10
20.7943928
20
75.6414031
11
20.7769928
21
75.6239031
0
LINE
8
DEFAULT_255_2_778
10
20.7769928
20
75.6239031
11
20.4448928
21
75.2583031
0
LINE
8
DEFAULT_255_2_778
10
20.4448928
20
75.2583031
11
20.4448928
21
75.2567031
0
LINE
8
DEFAULT_255_2_778
10
17.2002928
20
73.7568031
11
20.4448928
21
73.7568031
0
LINE
8
DEFAULT_255_2_778
10
16.8507928
20
74.5521031
11
16.8507928
21
73.4070031
0
LINE
8
DEFAULT_255_2_778
10
20.7943928
20
74.5521031
11
20.7943928
21
73.4070031
0
LINE
8
DEFAULT_255_2_778
10
20.7943928
20
73.4070031
11
16.8507928
21
73.4070031
0
LINE
8
DEFAULT_255_2_778
10
16.8507928
20
73.4070031
11
17.2002928
21
73.7570031
0
LINE
8
DEFAULT_255_2_778
10
17.2002928
20
73.7570031
11
17.2002928
21
74.5524031
0
LINE
8
DEFAULT_255_2_778
10
17.2002928
20
74.5524031
11
17.2002928
21
75.2572031
0
LINE
8
DEFAULT_255_2_778
10
17.2002928
20
75.2572031
11
20.4448928
21
75.2572031
0
LINE
8
DEFAULT_255_2_778
10
20.4448928
20
75.2572031
11
20.4448928
21
74.5524031
0
LINE
8
DEFAULT_255_2_778
10
20.4448928
20
74.5524031
11
20.4448928
21
73.7570031
0
LINE
8
DEFAULT_255_2_778
10
20.4448928
20
73.7570031
11
20.7943928
21
73.4070031
0
LINE
8
DEFAULT_255_2_778
10
20.7943928
20
70.4067052
11
20.7943928
21
72.6067052
0
LINE
8
DEFAULT_255_2_778
10
20.7943928
20
72.6067052
11
16.8507928
21
72.6067052
0
LINE
8
DEFAULT_255_2_778
10
16.8507928
20
72.6067052
11
16.8507928
21
70.4067052
0
LINE
8
DEFAULT_255_2_778
10
16.8507928
20
70.4067052
11
20.7943928
21
70.4067052
0
LINE
8
DEFAULT_255_2_778
10
20.7943928
20
70.4067052
11
20.4448928
21
70.7567052
0
LINE
8
DEFAULT_255_2_778
10
20.4448928
20
70.7567052
11
20.4448928
21
72.2567052
0
LINE
8
DEFAULT_255_2_778
10
20.4448928
20
72.2567052
11
20.7943928
21
72.6067052
0
LINE
8
DEFAULT_255_2_778
10
17.2002928
20
70.7567052
11
20.4448928
21
70.7567052
0
LINE
8
DEFAULT_255_2_778
10
17.2002928
20
72.2567052
11
17.2002928
21
70.7567052
0
LINE
8
DEFAULT_255_2_778
10
17.2002928
20
70.7567052
11
16.8507928
21
70.4067052
0
LINE
8
DEFAULT_255_2_778
10
20.4448928
20
72.2567052
11
17.2002928
21
72.2567052
0
LINE
8
DEFAULT_255_2_778
10
17.2002928
20
72.2567052
11
16.8507928
21
72.6067052
0
LINE
8
DEFAULT_255_2_778
10
9.6125928
20
70.4067052
11
9.9620928
21
70.7567052
0
LINE
8
DEFAULT_255_2_778
10
9.9620928
20
70.7567052
11
13.2066928
21
70.7567052
0
LINE
8
DEFAULT_255_2_778
10
13.2066928
20
70.7567052
11
13.5561928
21
70.4067052
0
LINE
8
DEFAULT_255_2_778
10
13.2066928
20
70.7567052
11
13.2066928
21
72.2567052
0
LINE
8
DEFAULT_255_2_778
10
13.2066928
20
72.2567052
11
13.5561928
21
72.6067052
0
LINE
8
DEFAULT_255_2_778
10
13.5561928
20
72.6067052
11
13.5561928
21
70.4067052
0
LINE
8
DEFAULT_255_2_778
10
13.5561928
20
70.4067052
11
9.6125928
21
70.4067052
0
LINE
8
DEFAULT_255_2_778
10
9.6125928
20
70.4067052
11
9.6125928
21
72.6067052
0
LINE
8
DEFAULT_255_2_778
10
9.6125928
20
72.6067052
11
13.5561928
21
72.6067052
0
LINE
8
DEFAULT_255_2_778
10
9.9620928
20
72.2567052
11
9.9620928
21
70.7567052
0
LINE
8
DEFAULT_255_2_778
10
13.2066928
20
72.2567052
11
9.9620928
21
72.2567052
0
LINE
8
DEFAULT_255_2_778
10
9.9620928
20
72.2567052
11
9.6125928
21
72.6067052
0
LINE
8
DEFAULT_255_2_778
10
13.5561928
20
75.6414323
11
13.5387928
21
75.6239323
0
LINE
8
DEFAULT_255_2_778
10
13.5387928
20
75.6239323
11
13.2066928
21
75.2583323
0
LINE
8
DEFAULT_255_2_778
10
9.9620928
20
73.7565323
11
9.9620928
21
74.5516323
0
LINE
8
DEFAULT_255_2_778
10
9.9620928
20
74.5516323
11
9.9620928
21
75.2564323
0
LINE
8
DEFAULT_255_2_778
10
9.9620928
20
75.2564323
11
13.2066928
21
75.2564323
0
LINE
8
DEFAULT_255_2_778
10
9.6125928
20
74.5516323
11
9.6125928
21
73.4065323
0
LINE
8
DEFAULT_255_2_778
10
13.5561928
20
74.5516323
11
13.5561928
21
73.4065323
0
LINE
8
DEFAULT_255_2_778
10
13.5561928
20
73.4065323
11
9.6125928
21
73.4065323
0
LINE
8
DEFAULT_255_2_778
10
9.6125928
20
73.4065323
11
9.6808928
21
73.4747323
0
LINE
8
DEFAULT_255_2_778
10
9.6808928
20
73.4747323
11
9.7464928
21
73.5403323
0
LINE
8
DEFAULT_255_2_778
10
9.7464928
20
73.5403323
11
9.8067928
21
73.6009323
0
LINE
8
DEFAULT_255_2_778
10
9.8067928
20
73.6009323
11
9.8596928
21
73.6539323
0
LINE
8
DEFAULT_255_2_778
10
9.8596928
20
73.6539323
11
9.9030928
21
73.6972323
0
LINE
8
DEFAULT_255_2_778
10
9.9030928
20
73.6972323
11
9.9353928
21
73.7295323
0
LINE
8
DEFAULT_255_2_778
10
9.9353928
20
73.7295323
11
9.9551928
21
73.7494323
0
LINE
8
DEFAULT_255_2_778
10
9.9551928
20
73.7494323
11
9.9617928
21
73.7560323
0
LINE
8
DEFAULT_255_2_778
10
9.9617928
20
73.7560323
11
13.2063928
21
73.7560323
0
LINE
8
DEFAULT_255_2_778
10
13.5558928
20
73.4059323
11
13.2063928
21
73.7560323
0
LINE
8
DEFAULT_255_2_778
10
13.2063928
20
73.7560323
11
13.2063928
21
75.2559323
0
ARC
8
DEFAULT_255_2_778
10
13.2954349
20
78.2242011
40
0.0951266
50
136.5316649
51
158.8898547
0
ARC
8
DEFAULT_255_2_778
10
14.2394606
20
77.4830492
40
1.2949494
50
138.2153871
51
141.4734472
0
ARC
8
DEFAULT_255_2_778
10
16.5527992
20
75.4315241
40
4.3869149
50
136.4920643
51
138.3684858
0
ARC
8
DEFAULT_255_2_778
10
19.76777
20
72.3919788
40
8.8112604
50
134.9859797
51
136.5495751
0
ARC
8
DEFAULT_255_2_778
10
13.177242
20
76.6734795
40
0.0888624
50
46.5886642
51
69.3007456
0
ARC
8
DEFAULT_255_2_778
10
12.350736
20
75.6271615
40
1.4219085
50
47.6689393
51
51.3754888
0
ARC
8
DEFAULT_255_2_778
10
9.9213576
20
72.9236972
40
5.0565238
50
46.2212085
51
47.9475927
0
ARC
8
DEFAULT_255_2_778
10
7.0824432
20
69.9454287
40
9.1710656
50
45.0986318
51
46.2889911
0
LINE
8
DEFAULT_255_2_778
10
13.2066928
20
78.2565052
11
9.9620928
21
78.2565052
0
LINE
8
DEFAULT_255_2_778
10
13.2066928
20
76.7566052
11
13.2066928
21
78.2584052
0
LINE
8
DEFAULT_255_2_778
10
13.5387928
20
78.6240052
11
13.5561928
21
78.6415052
0
LINE
8
DEFAULT_255_2_778
10
9.6125928
20
76.4415052
11
9.9602928
21
76.7566052
0
LINE
8
DEFAULT_255_2_778
10
9.9602928
20
76.7566052
11
13.2085928
21
76.7566052
0
LINE
8
DEFAULT_255_2_778
10
13.5561928
20
76.4415052
11
9.6125928
21
76.4415052
0
LINE
8
DEFAULT_255_2_778
10
9.6125928
20
76.4415052
11
9.6125928
21
78.6415052
0
LINE
8
DEFAULT_255_2_778
10
9.6125928
20
78.6415052
11
13.5561928
21
78.6415052
0
LINE
8
DEFAULT_255_2_778
10
13.5561928
20
78.6415052
11
13.5561928
21
76.4415052
0
LINE
8
DEFAULT_255_2_778
10
9.6125928
20
78.6415052
11
9.6300928
21
78.6240052
0
LINE
8
DEFAULT_255_2_778
10
9.6300928
20
78.6240052
11
9.9620928
21
78.2584052
0
LINE
8
DEFAULT_255_2_778
10
9.9620928
20
78.2584052
11
9.9620928
21
76.7566052
0
ARC
8
DEFAULT_255_2_778
10
9.8733353
20
81.2241185
40
0.0951347
50
21.0970782
51
43.449368
0
ARC
8
DEFAULT_255_2_778
10
8.930132
20
80.4840487
40
1.2936429
50
38.5103909
51
41.7710304
0
ARC
8
DEFAULT_255_2_778
10
6.6240547
20
78.4399234
40
4.3752659
50
41.6181952
51
43.4992821
0
ARC
8
DEFAULT_255_2_778
10
3.4353933
20
75.426188
40
8.7627621
50
43.441819
51
45.0139519
0
ARC
8
DEFAULT_255_2_778
10
13.2954349
20
81.2241011
40
0.0951266
50
136.5316649
51
158.8898547
0
ARC
8
DEFAULT_255_2_778
10
14.2394606
20
80.4829492
40
1.2949494
50
138.2153871
51
141.4734472
0
ARC
8
DEFAULT_255_2_778
10
16.5527992
20
78.4314241
40
4.3869149
50
136.4920643
51
138.3684858
0
ARC
8
DEFAULT_255_2_778
10
19.76777
20
75.3918788
40
8.8112604
50
134.9859797
51
136.5495751
0
ARC
8
DEFAULT_255_2_778
10
13.177242
20
79.6733795
40
0.0888624
50
46.5886642
51
69.3007456
0
ARC
8
DEFAULT_255_2_778
10
12.350736
20
78.6270615
40
1.4219085
50
47.6689393
51
51.3754888
0
ARC
8
DEFAULT_255_2_778
10
9.9213576
20
75.9235972
40
5.0565238
50
46.2212085
51
47.9475927
0
ARC
8
DEFAULT_255_2_778
10
7.0824432
20
72.9453287
40
9.1710656
50
45.0986318
51
46.2889911
0
LINE
8
DEFAULT_255_2_778
10
13.2066928
20
81.2564052
11
9.9620928
21
81.2564052
0
LINE
8
DEFAULT_255_2_778
10
9.9620928
20
79.7565052
11
9.9620928
21
81.2583052
0
LINE
8
DEFAULT_255_2_778
10
9.6300928
20
81.6239052
11
9.6125928
21
81.6414052
0
LINE
8
DEFAULT_255_2_778
10
9.6125928
20
81.6414052
11
13.5561928
21
81.6414052
0
LINE
8
DEFAULT_255_2_778
10
13.5561928
20
81.6414052
11
13.5561928
21
79.4414052
0
LINE
8
DEFAULT_255_2_778
10
13.5561928
20
79.4414052
11
9.6125928
21
79.4414052
0
LINE
8
DEFAULT_255_2_778
10
9.6125928
20
79.4414052
11
9.6125928
21
81.6414052
0
LINE
8
DEFAULT_255_2_778
10
13.2066928
20
79.7565052
11
13.2066928
21
81.2583052
0
LINE
8
DEFAULT_255_2_778
10
13.5387928
20
81.6239052
11
13.5561928
21
81.6414052
0
LINE
8
DEFAULT_255_2_778
10
9.6125928
20
79.4414052
11
9.9602928
21
79.7565052
0
LINE
8
DEFAULT_255_2_778
10
9.9602928
20
79.7565052
11
13.2085928
21
79.7565052
0
LINE
8
DEFAULT_255_2_778
10
18.1984751
20
89.7547978
11
17.9489751
21
89.7547978
0
LINE
8
DEFAULT_255_2_778
10
17.9489751
20
88.5360978
11
18.1984751
21
88.5360978
0
LINE
8
DEFAULT_255_2_778
10
9.4627751
20
89.7547978
11
9.2132751
21
89.7547978
0
LINE
8
DEFAULT_255_2_778
10
9.2132751
20
88.5360978
11
9.4627751
21
88.5360978
0
LINE
8
DEFAULT_255_2_778
10
17.9487751
20
86.0503978
11
9.4627751
21
86.0503978
0
LINE
8
DEFAULT_255_2_778
10
9.4627751
20
86.0503978
11
9.4627751
21
84.8705978
0
LINE
8
DEFAULT_255_2_778
10
9.4627751
20
84.8705978
11
17.9487751
21
84.8705978
0
LINE
8
DEFAULT_255_2_778
10
17.9487751
20
84.8705978
11
17.9487751
21
89.7563978
0
LINE
8
DEFAULT_255_2_778
10
17.9487751
20
89.7563978
11
9.4627751
21
89.7563978
0
LINE
8
DEFAULT_255_2_778
10
9.4627751
20
89.7563978
11
9.4627751
21
86.0503978
0
LINE
8
DEFAULT_255_2_778
10
19.1471
20
21.0274218
11
19.1471
21
14.6576218
0
LINE
8
DEFAULT_255_2_778
10
19.1470918
20
34.1071458
11
11.3598918
21
34.1071458
0
LINE
8
DEFAULT_255_2_778
10
11.3598918
20
34.1071458
11
11.3598918
21
32.8572458
0
LINE
8
DEFAULT_255_2_778
10
11.3598918
20
32.8572458
11
19.1470918
21
32.8572458
0
LINE
8
DEFAULT_255_2_778
10
19.1470918
20
41.6070458
11
11.3598918
21
41.6070458
0
LINE
8
DEFAULT_255_2_778
10
11.3598918
20
41.6070458
11
11.3598918
21
40.3571458
0
LINE
8
DEFAULT_255_2_778
10
11.3598918
20
40.3571458
11
19.1470918
21
40.3571458
0
LINE
8
DEFAULT_255_2_778
10
19.1470918
20
17.6577583
11
11.3598918
21
17.6577583
0
LINE
8
DEFAULT_255_2_778
10
11.3598918
20
17.6577583
11
11.3598918
21
19.1076583
0
LINE
8
DEFAULT_255_2_778
10
11.3598918
20
19.1076583
11
19.1470918
21
19.1076583
0
LINE
8
DEFAULT_255_2_778
10
19.1470918
20
26.6072458
11
11.3598918
21
26.6072458
0
LINE
8
DEFAULT_255_2_778
10
11.3598918
20
26.6072458
11
11.3598918
21
25.3573458
0
LINE
8
DEFAULT_255_2_778
10
11.3598918
20
25.3573458
11
19.1470918
21
25.3573458
0
LINE
8
DEFAULT_255_2_778
10
19.1470918
20
49.1068458
11
11.3598918
21
49.1068458
0
LINE
8
DEFAULT_255_2_778
10
11.3598918
20
49.1068458
11
11.3598918
21
47.8569458
0
LINE
8
DEFAULT_255_2_778
10
11.3598918
20
47.8569458
11
19.1470918
21
47.8569458
0
LINE
8
DEFAULT_255_2_778
10
11.3599
20
17.6574229
11
11.3599
21
14.6576229
0
LINE
8
DEFAULT_255_2_778
10
26.0781
20
22.2062218
11
26.0781
21
28.5760218
0
LINE
8
DEFAULT_255_2_778
10
26.0781
20
29.7545218
11
26.0781
21
36.1243218
0
LINE
8
DEFAULT_255_2_778
10
26.0781
20
37.3031218
11
26.0781
21
43.6729218
0
LINE
8
DEFAULT_255_2_778
10
11.8592
20
55.3568937
11
11.8592
21
49.1068937
0
LINE
8
DEFAULT_255_2_778
10
18.0988
20
49.1068937
11
18.0988
21
55.3568937
0
LINE
8
DEFAULT_255_2_778
10
11.3599
20
55.3568937
11
11.3599
21
49.1068937
0
LINE
8
DEFAULT_255_2_778
10
11.8592
20
47.8569937
11
11.8592
21
41.6069937
0
LINE
8
DEFAULT_255_2_778
10
18.0988
20
41.6069937
11
18.0988
21
47.8569937
0
LINE
8
DEFAULT_255_2_778
10
11.3599
20
47.8569937
11
11.3599
21
41.6069937
0
LINE
8
DEFAULT_255_2_778
10
11.8592
20
40.3570937
11
11.8592
21
34.1070937
0
LINE
8
DEFAULT_255_2_778
10
18.0988
20
34.1070937
11
18.0988
21
40.3570937
0
LINE
8
DEFAULT_255_2_778
10
11.3599
20
40.3570937
11
11.3599
21
34.1070937
0
LINE
8
DEFAULT_255_2_778
10
11.8592
20
32.8572937
11
11.8592
21
26.6072937
0
LINE
8
DEFAULT_255_2_778
10
18.0988
20
26.6072937
11
18.0988
21
32.8572937
0
LINE
8
DEFAULT_255_2_778
10
11.3599
20
32.8572937
11
11.3599
21
26.6072937
0
LINE
8
DEFAULT_255_2_778
10
11.8592
20
25.3573937
11
11.8592
21
19.1073937
0
LINE
8
DEFAULT_255_2_778
10
18.0988
20
19.1073937
11
18.0988
21
25.3573937
0
LINE
8
DEFAULT_255_2_778
10
11.3599
20
25.3573937
11
11.3599
21
19.1073937
0
LINE
8
DEFAULT_255_2_778
10
19.7267709
20
21.0274593
11
19.7267709
21
14.9719593
0
LINE
8
DEFAULT_255_2_778
10
19.7267709
20
14.9719593
11
26.0778709
21
14.9719593
0
LINE
8
DEFAULT_255_2_778
10
26.0778709
20
14.9719593
11
26.0778709
21
21.0274593
0
LINE
8
DEFAULT_255_2_778
10
19.7268
20
51.2214218
11
19.7268
21
44.8516218
0
LINE
8
DEFAULT_255_2_778
10
26.0781
20
44.8516218
11
26.0781
21
51.2214218
0
LINE
8
DEFAULT_255_2_778
10
19.1471
20
51.2214218
11
19.1471
21
44.8516218
0
LINE
8
DEFAULT_255_2_778
10
19.7268
20
43.6729218
11
19.7268
21
37.3031218
0
LINE
8
DEFAULT_255_2_778
10
19.1471
20
43.6729218
11
19.1471
21
37.3031218
0
LINE
8
DEFAULT_255_2_778
10
19.7268
20
36.1243218
11
19.7268
21
29.7545218
0
LINE
8
DEFAULT_255_2_778
10
19.1471
20
36.1243218
11
19.1471
21
29.7545218
0
LINE
8
DEFAULT_255_2_778
10
19.7268
20
28.5760218
11
19.7268
21
22.2062218
0
LINE
8
DEFAULT_255_2_778
10
19.1471
20
28.5760218
11
19.1471
21
22.2062218
0
ARC
8
DEFAULT_255_2_778
10
15.026889
20
52.1786659
40
2.2393945
50
79.8423181
51
89.9201973
0
ARC
8
DEFAULT_255_2_778
10
15.02673
20
51.981381
40
2.4366794
50
89.9229205
51
89.9963295
0
ARC
8
DEFAULT_255_2_778
10
15.0268451
20
52.1799394
40
2.238121
50
89.9989515
51
100.1605819
0
ARC
8
DEFAULT_255_2_778
10
15.0352895
20
52.1621151
40
2.2424201
50
279.9258558
51
305.5606851
0
ARC
8
DEFAULT_255_2_778
10
15.0311337
20
52.1688571
40
2.2503214
50
305.5469321
51
352.0672496
0
ARC
8
DEFAULT_255_2_778
10
15.0217393
20
52.1678226
40
2.2594844
50
352.1261076
51
0.0111011
0
ARC
8
DEFAULT_255_2_778
10
15.038917
20
52.1701713
40
2.2423074
50
359.9511711
51
25.587113
0
ARC
8
DEFAULT_255_2_778
10
15.0312302
20
52.167068
40
2.2505808
50
25.5738541
51
72.0883606
0
ARC
8
DEFAULT_255_2_778
10
15.0306483
20
52.1577469
40
2.2596303
50
72.1470105
51
80.0310341
0
ARC
8
DEFAULT_255_2_778
10
15.0185243
20
52.1740326
40
2.2424862
50
99.9246931
51
125.2499885
0
ARC
8
DEFAULT_255_2_778
10
15.0226883
20
52.1674156
40
2.2502933
50
125.2393339
51
172.0237487
0
ARC
8
DEFAULT_255_2_778
10
15.0322545
20
52.1684048
40
2.2596309
50
172.0822472
51
180.0112699
0
ARC
8
DEFAULT_255_2_778
10
15.0150431
20
52.1660348
40
2.2424204
50
179.9508005
51
205.5852304
0
ARC
8
DEFAULT_255_2_778
10
15.022263
20
52.168902
40
2.2501704
50
205.5716878
51
252.093825
0
ARC
8
DEFAULT_255_2_778
10
15.0229406
20
52.17851
40
2.2595224
50
252.1523816
51
260.0372032
0
ARC
8
DEFAULT_255_2_778
10
15.0268451
20
52.1562814
40
2.238121
50
259.8394181
51
270.0010485
0
ARC
8
DEFAULT_255_2_778
10
15.02673
20
52.3548398
40
2.4366794
50
270.0036705
51
270.0770795
0
ARC
8
DEFAULT_255_2_778
10
15.026889
20
52.1575549
40
2.2393945
50
270.0798027
51
280.1576819
0
LINE
8
DEFAULT_255_2_778
10
16.4698236
20
51.6672604
11
15.4218236
21
51.6672604
0
LINE
8
DEFAULT_255_2_778
10
15.4218236
20
51.6672604
11
15.4218236
21
49.9532604
0
LINE
8
DEFAULT_255_2_778
10
15.4218236
20
54.3832604
11
15.4218236
21
52.6692604
0
LINE
8
DEFAULT_255_2_778
10
15.4218236
20
52.6692604
11
16.4698236
21
52.6692604
0
LINE
8
DEFAULT_255_2_778
10
16.4698236
20
52.6692604
11
16.4698236
21
51.6672604
0
LINE
8
DEFAULT_255_2_778
10
13.5840236
20
52.6689604
11
14.6320236
21
52.6689604
0
LINE
8
DEFAULT_255_2_778
10
14.6320236
20
52.6689604
11
14.6320236
21
54.3829604
0
LINE
8
DEFAULT_255_2_778
10
14.6320236
20
49.9530604
11
14.6320236
21
51.6669604
0
LINE
8
DEFAULT_255_2_778
10
14.6320236
20
51.6669604
11
13.5842236
21
51.6669604
0
LINE
8
DEFAULT_255_2_778
10
13.5842236
20
51.6669604
11
13.5840236
21
52.6689604
0
ARC
8
DEFAULT_255_2_778
10
22.8998392
20
48.0483494
40
2.2381756
50
99.9561377
51
125.7718191
0
ARC
8
DEFAULT_255_2_778
10
22.9080201
20
48.0367275
40
2.2523873
50
125.7678486
51
172.0074386
0
ARC
8
DEFAULT_255_2_778
10
22.9203455
20
48.0368699
40
2.2645738
50
172.0543655
51
180.01141
0
ARC
8
DEFAULT_255_2_778
10
22.9031015
20
48.0344175
40
2.2473308
50
179.9489743
51
205.2322531
0
ARC
8
DEFAULT_255_2_778
10
22.9049138
20
48.0341474
40
2.2488552
50
205.2063449
51
252.8760167
0
ARC
8
DEFAULT_255_2_778
10
22.904327
20
48.041617
40
2.2558226
50
252.9461236
51
260.0068124
0
ARC
8
DEFAULT_255_2_778
10
22.9027628
20
48.0299043
40
2.2440162
50
259.9942477
51
269.9665384
0
LINE
8
DEFAULT_255_2_778
10
22.9014523
20
45.7858885
11
22.903717
21
45.7858883
0
ARC
8
DEFAULT_255_2_778
10
22.9027617
20
48.0293535
40
2.2434653
50
270.0243964
51
280.2681613
0
ARC
8
DEFAULT_255_2_778
10
22.9054365
20
48.0245502
40
2.2382629
50
280.2227044
51
306.1052797
0
ARC
8
DEFAULT_255_2_778
10
22.8972892
20
48.0359881
40
2.252305
50
306.1012727
51
352.0607306
0
ARC
8
DEFAULT_255_2_778
10
22.8845738
20
48.0359791
40
2.264898
50
352.1053857
51
0.0111251
0
ARC
8
DEFAULT_255_2_778
10
22.9024009
20
48.0384221
40
2.2470716
50
359.9489225
51
25.4556515
0
ARC
8
DEFAULT_255_2_778
10
22.9002158
20
48.0384428
40
2.249036
50
25.4312494
51
72.6178174
0
ARC
8
DEFAULT_255_2_778
10
22.9002812
20
48.0300857
40
2.2569933
50
72.6827815
51
79.7300564
0
ARC
8
DEFAULT_255_2_778
10
22.9025854
20
48.0468958
40
2.2400417
50
79.7113914
51
90.0009954
0
LINE
8
DEFAULT_255_2_778
10
22.9025465
20
50.2869377
11
22.9014523
21
50.2869374
0
ARC
8
DEFAULT_255_2_778
10
22.902591
20
48.0441144
40
2.2428233
50
90.0290896
51
100.0066709
0
LINE
8
DEFAULT_255_2_778
10
21.4648716
20
48.4838189
11
22.5128716
21
48.4838189
0
LINE
8
DEFAULT_255_2_778
10
22.5128716
20
48.4838189
11
22.5128716
21
50.2528189
0
LINE
8
DEFAULT_255_2_778
10
22.5128716
20
45.8200189
11
22.5128716
21
47.4821189
0
LINE
8
DEFAULT_255_2_778
10
22.5128716
20
47.4821189
11
21.4648716
21
47.4821189
0
LINE
8
DEFAULT_255_2_778
10
21.4648716
20
47.4821189
11
21.4648716
21
48.4838189
0
LINE
8
DEFAULT_255_2_778
10
23.3026716
20
50.2509189
11
23.3026716
21
48.4838189
0
LINE
8
DEFAULT_255_2_778
10
23.3026716
20
48.4838189
11
24.3506716
21
48.4838189
0
LINE
8
DEFAULT_255_2_778
10
24.3506716
20
48.4838189
11
24.3506716
21
47.4821189
0
LINE
8
DEFAULT_255_2_778
10
24.3506716
20
47.4821189
11
23.3026716
21
47.4821189
0
LINE
8
DEFAULT_255_2_778
10
23.3026716
20
47.4821189
11
23.3026716
21
45.8218189
0
ARC
8
DEFAULT_255_2_778
10
15.026889
20
44.6787659
40
2.2393945
50
79.8423181
51
89.9201973
0
ARC
8
DEFAULT_255_2_778
10
15.02673
20
44.481481
40
2.4366794
50
89.9229205
51
89.9963295
0
ARC
8
DEFAULT_255_2_778
10
15.0268451
20
44.6800394
40
2.238121
50
89.9989515
51
100.1605819
0
ARC
8
DEFAULT_255_2_778
10
15.0350163
20
44.6626553
40
2.2429008
50
279.9307936
51
305.560484
0
ARC
8
DEFAULT_255_2_778
10
15.031198
20
44.6689712
40
2.2502594
50
305.5460484
51
352.0667317
0
ARC
8
DEFAULT_255_2_778
10
15.0217911
20
44.6679216
40
2.2594326
50
352.1260172
51
0.0111281
0
ARC
8
DEFAULT_255_2_778
10
15.038917
20
44.6702713
40
2.2423074
50
359.9511711
51
25.587113
0
ARC
8
DEFAULT_255_2_778
10
15.0312302
20
44.667168
40
2.2505808
50
25.5738541
51
72.0883606
0
ARC
8
DEFAULT_255_2_778
10
15.0306483
20
44.6578469
40
2.2596303
50
72.1470105
51
80.0310341
0
ARC
8
DEFAULT_255_2_778
10
15.0185243
20
44.6741326
40
2.2424862
50
99.9246931
51
125.2499885
0
ARC
8
DEFAULT_255_2_778
10
15.0226883
20
44.6675156
40
2.2502933
50
125.2393339
51
172.0237487
0
ARC
8
DEFAULT_255_2_778
10
15.0322545
20
44.6685048
40
2.2596309
50
172.0822472
51
180.0112699
0
ARC
8
DEFAULT_255_2_778
10
15.0150431
20
44.6661348
40
2.2424204
50
179.9508005
51
205.5852304
0
ARC
8
DEFAULT_255_2_778
10
15.022263
20
44.669002
40
2.2501704
50
205.5716878
51
252.093825
0
ARC
8
DEFAULT_255_2_778
10
15.0229406
20
44.67861
40
2.2595224
50
252.1523816
51
260.0372032
0
ARC
8
DEFAULT_255_2_778
10
15.0268451
20
44.6563814
40
2.238121
50
259.8394181
51
270.0010485
0
ARC
8
DEFAULT_255_2_778
10
15.02673
20
44.8549398
40
2.4366794
50
270.0036705
51
270.0770795
0
ARC
8
DEFAULT_255_2_778
10
15.026889
20
44.6576549
40
2.2393945
50
270.0798027
51
280.1576819
0
LINE
8
DEFAULT_255_2_778
10
15.4218236
20
44.1673604
11
15.4218236
21
42.4533604
0
LINE
8
DEFAULT_255_2_778
10
15.4218236
20
46.8833604
11
15.4218236
21
45.1693604
0
LINE
8
DEFAULT_255_2_778
10
15.4218236
20
45.1693604
11
16.4698236
21
45.1693604
0
LINE
8
DEFAULT_255_2_778
10
16.4698236
20
45.1693604
11
16.4698236
21
44.1675604
0
LINE
8
DEFAULT_255_2_778
10
16.4698236
20
44.1675604
11
15.4218236
21
44.1673604
0
LINE
8
DEFAULT_255_2_778
10
14.6320236
20
45.1690604
11
14.6320236
21
46.8830604
0
LINE
8
DEFAULT_255_2_778
10
14.6320236
20
42.4531604
11
14.6320236
21
44.1670604
0
LINE
8
DEFAULT_255_2_778
10
14.6320236
20
44.1670604
11
13.5842236
21
44.1670604
0
LINE
8
DEFAULT_255_2_778
10
13.5842236
20
44.1670604
11
13.5842236
21
45.1687604
0
LINE
8
DEFAULT_255_2_778
10
13.5842236
20
45.1687604
11
14.6320236
21
45.1690604
0
ARC
8
DEFAULT_255_2_778
10
22.899526
20
40.5484494
40
2.2381756
50
99.9561377
51
125.7718191
0
ARC
8
DEFAULT_255_2_778
10
22.9077069
20
40.5368275
40
2.2523873
50
125.7678486
51
172.0074386
0
ARC
8
DEFAULT_255_2_778
10
22.9200322
20
40.5369699
40
2.2645738
50
172.0543655
51
180.01141
0
ARC
8
DEFAULT_255_2_778
10
22.9027883
20
40.5345175
40
2.2473308
50
179.9489743
51
205.2322531
0
ARC
8
DEFAULT_255_2_778
10
22.9046006
20
40.5342474
40
2.2488552
50
205.2063449
51
252.8760167
0
ARC
8
DEFAULT_255_2_778
10
22.9040137
20
40.541717
40
2.2558226
50
252.9461236
51
260.0068124
0
ARC
8
DEFAULT_255_2_778
10
22.9024496
20
40.5300043
40
2.2440162
50
259.9942477
51
269.9665384
0
LINE
8
DEFAULT_255_2_778
10
22.901139
20
38.2859885
11
22.9034037
21
38.2859883
0
ARC
8
DEFAULT_255_2_778
10
22.9024485
20
40.5294535
40
2.2434653
50
270.0243964
51
280.2681613
0
ARC
8
DEFAULT_255_2_778
10
22.9051233
20
40.5246502
40
2.2382629
50
280.2227044
51
306.1052797
0
ARC
8
DEFAULT_255_2_778
10
22.8969759
20
40.5360881
40
2.252305
50
306.1012727
51
352.0607306
0
ARC
8
DEFAULT_255_2_778
10
22.8842606
20
40.5360791
40
2.264898
50
352.1053857
51
0.0111251
0
ARC
8
DEFAULT_255_2_778
10
22.9020877
20
40.5385221
40
2.2470716
50
359.9489225
51
25.4556515
0
ARC
8
DEFAULT_255_2_778
10
22.8999025
20
40.5385428
40
2.249036
50
25.4312494
51
72.6178174
0
ARC
8
DEFAULT_255_2_778
10
22.899968
20
40.5301857
40
2.2569933
50
72.6827815
51
79.7300564
0
ARC
8
DEFAULT_255_2_778
10
22.9022722
20
40.5469958
40
2.2400417
50
79.7113914
51
90.0009954
0
LINE
8
DEFAULT_255_2_778
10
22.9022332
20
42.7870377
11
22.901139
21
42.7870374
0
ARC
8
DEFAULT_255_2_778
10
22.9022777
20
40.5442144
40
2.2428233
50
90.0290896
51
100.0066709
0
LINE
8
DEFAULT_255_2_778
10
21.4645584
20
40.9839189
11
22.5125584
21
40.9839189
0
LINE
8
DEFAULT_255_2_778
10
22.5125584
20
40.9839189
11
22.5125584
21
42.7529189
0
LINE
8
DEFAULT_255_2_778
10
22.5125584
20
38.3201189
11
22.5125584
21
39.9822189
0
LINE
8
DEFAULT_255_2_778
10
22.5125584
20
39.9822189
11
21.4645584
21
39.9822189
0
LINE
8
DEFAULT_255_2_778
10
21.4645584
20
39.9822189
11
21.4645584
21
40.9839189
0
LINE
8
DEFAULT_255_2_778
10
23.3023584
20
42.7510189
11
23.3023584
21
40.9839189
0
LINE
8
DEFAULT_255_2_778
10
23.3023584
20
40.9839189
11
24.3503584
21
40.9839189
0
LINE
8
DEFAULT_255_2_778
10
24.3503584
20
40.9839189
11
24.3503584
21
39.9822189
0
LINE
8
DEFAULT_255_2_778
10
24.3503584
20
39.9822189
11
23.3023584
21
39.9822189
0
LINE
8
DEFAULT_255_2_778
10
23.3023584
20
39.9822189
11
23.3023584
21
38.3219189
0
ARC
8
DEFAULT_255_2_778
10
15.0269021
20
37.1801518
40
2.238121
50
79.8394181
51
90.0010485
0
ARC
8
DEFAULT_255_2_778
10
15.0270172
20
36.9815934
40
2.4366794
50
90.0036705
51
90.0770795
0
ARC
8
DEFAULT_255_2_778
10
15.0268582
20
37.1788783
40
2.2393945
50
90.0798027
51
100.1576819
0
ARC
8
DEFAULT_255_2_778
10
15.026896
20
37.15159
40
2.2334922
50
269.9991057
51
280.1820223
0
ARC
8
DEFAULT_255_2_778
10
15.0270172
20
37.3547772
40
2.4366794
50
269.9229205
51
269.9963295
0
ARC
8
DEFAULT_255_2_778
10
15.0268624
20
37.1528385
40
2.2347406
50
259.8208312
51
269.9199246
0
ARC
8
DEFAULT_255_2_778
10
15.0187243
20
37.1739451
40
2.2424862
50
99.9246931
51
125.2499885
0
ARC
8
DEFAULT_255_2_778
10
15.0228883
20
37.1673281
40
2.2502933
50
125.2393339
51
172.0237487
0
ARC
8
DEFAULT_255_2_778
10
15.0324545
20
37.1683173
40
2.2596309
50
172.0822472
51
180.0112699
0
ARC
8
DEFAULT_255_2_778
10
15.0152431
20
37.1659473
40
2.2424204
50
179.9508005
51
205.5852304
0
ARC
8
DEFAULT_255_2_778
10
15.022463
20
37.1688145
40
2.2501704
50
205.5716878
51
252.093825
0
ARC
8
DEFAULT_255_2_778
10
15.0231406
20
37.1784224
40
2.2595224
50
252.1523816
51
260.0372032
0
ARC
8
DEFAULT_255_2_778
10
15.0354802
20
37.1618651
40
2.2424587
50
279.9259259
51
305.5602752
0
ARC
8
DEFAULT_255_2_778
10
15.0313963
20
37.168543
40
2.250266
50
305.5459816
51
352.0658365
0
ARC
8
DEFAULT_255_2_778
10
15.0223006
20
37.1674363
40
2.2591231
50
352.125477
51
0.0110701
0
ARC
8
DEFAULT_255_2_778
10
15.0388421
20
37.1697874
40
2.2425823
50
359.9510846
51
25.2756573
0
ARC
8
DEFAULT_255_2_778
10
15.0317149
20
37.1669676
40
2.2502314
50
25.263098
51
72.4860582
0
ARC
8
DEFAULT_255_2_778
10
15.0309403
20
37.1568978
40
2.2600688
50
72.5441564
51
80.035356
0
LINE
8
DEFAULT_255_2_778
10
14.6319236
20
34.9532728
11
14.6319236
21
36.6671728
0
LINE
8
DEFAULT_255_2_778
10
14.6319236
20
36.6671728
11
13.5842236
21
36.6671728
0
LINE
8
DEFAULT_255_2_778
10
13.5842236
20
36.6671728
11
13.5842236
21
37.6689728
0
LINE
8
DEFAULT_255_2_778
10
13.5842236
20
37.6689728
11
14.6322236
21
37.6689728
0
LINE
8
DEFAULT_255_2_778
10
14.6322236
20
37.6689728
11
14.6322236
21
39.3828728
0
LINE
8
DEFAULT_255_2_778
10
15.4220236
20
36.6669728
11
15.4220236
21
34.9529728
0
LINE
8
DEFAULT_255_2_778
10
15.4220236
20
39.3828728
11
15.4220236
21
37.6689728
0
LINE
8
DEFAULT_255_2_778
10
15.4220236
20
37.6689728
11
16.4700236
21
37.6689728
0
LINE
8
DEFAULT_255_2_778
10
16.4700236
20
37.6689728
11
16.4700236
21
36.6671728
0
LINE
8
DEFAULT_255_2_778
10
16.4700236
20
36.6671728
11
15.4220236
21
36.6669728
0
ARC
8
DEFAULT_255_2_778
10
22.899526
20
33.0485494
40
2.2381756
50
99.9561377
51
125.7718191
0
ARC
8
DEFAULT_255_2_778
10
22.9077069
20
33.0369275
40
2.2523873
50
125.7678486
51
172.0074386
0
ARC
8
DEFAULT_255_2_778
10
22.9200322
20
33.0370699
40
2.2645738
50
172.0543655
51
180.01141
0
ARC
8
DEFAULT_255_2_778
10
22.9027883
20
33.0346175
40
2.2473308
50
179.9489743
51
205.2322531
0
ARC
8
DEFAULT_255_2_778
10
22.9046006
20
33.0343474
40
2.2488552
50
205.2063449
51
252.8760167
0
ARC
8
DEFAULT_255_2_778
10
22.9040137
20
33.041817
40
2.2558226
50
252.9461236
51
260.0068124
0
ARC
8
DEFAULT_255_2_778
10
22.9024496
20
33.0301043
40
2.2440162
50
259.9942477
51
269.9665384
0
LINE
8
DEFAULT_255_2_778
10
22.901139
20
30.7860885
11
22.9034037
21
30.7860883
0
ARC
8
DEFAULT_255_2_778
10
22.9024485
20
33.0295535
40
2.2434653
50
270.0243964
51
280.2681613
0
ARC
8
DEFAULT_255_2_778
10
22.9051233
20
33.0247502
40
2.2382629
50
280.2227044
51
306.1052797
0
ARC
8
DEFAULT_255_2_778
10
22.8969759
20
33.0361881
40
2.252305
50
306.1012727
51
352.0607306
0
ARC
8
DEFAULT_255_2_778
10
22.8842606
20
33.0361791
40
2.264898
50
352.1053857
51
0.0111251
0
ARC
8
DEFAULT_255_2_778
10
22.9020877
20
33.0386221
40
2.2470716
50
359.9489225
51
25.4556515
0
ARC
8
DEFAULT_255_2_778
10
22.8999025
20
33.0386428
40
2.249036
50
25.4312494
51
72.6178174
0
ARC
8
DEFAULT_255_2_778
10
22.899968
20
33.0302857
40
2.2569933
50
72.6827815
51
79.7300564
0
ARC
8
DEFAULT_255_2_778
10
22.9022722
20
33.0470958
40
2.2400417
50
79.7113914
51
90.0009954
0
LINE
8
DEFAULT_255_2_778
10
22.9022332
20
35.2871377
11
22.901139
21
35.2871374
0
ARC
8
DEFAULT_255_2_778
10
22.9022777
20
33.0443144
40
2.2428233
50
90.0290896
51
100.0066709
0
LINE
8
DEFAULT_255_2_778
10
21.4645584
20
33.4840189
11
22.5125584
21
33.4840189
0
LINE
8
DEFAULT_255_2_778
10
22.5125584
20
33.4840189
11
22.5125584
21
35.2530189
0
LINE
8
DEFAULT_255_2_778
10
22.5125584
20
30.8202189
11
22.5125584
21
32.4823189
0
LINE
8
DEFAULT_255_2_778
10
22.5125584
20
32.4823189
11
21.4645584
21
32.4823189
0
LINE
8
DEFAULT_255_2_778
10
21.4645584
20
32.4823189
11
21.4645584
21
33.4840189
0
LINE
8
DEFAULT_255_2_778
10
23.3023584
20
35.2511189
11
23.3023584
21
33.4840189
0
LINE
8
DEFAULT_255_2_778
10
23.3023584
20
33.4840189
11
24.3503584
21
33.4840189
0
LINE
8
DEFAULT_255_2_778
10
24.3503584
20
33.4840189
11
24.3503584
21
32.4823189
0
LINE
8
DEFAULT_255_2_778
10
24.3503584
20
32.4823189
11
23.3023584
21
32.4823189
0
LINE
8
DEFAULT_255_2_778
10
23.3023584
20
32.4823189
11
23.3023584
21
30.8220189
0
ARC
8
DEFAULT_255_2_778
10
15.026889
20
29.679056
40
2.2393945
50
79.8423181
51
89.9201973
0
ARC
8
DEFAULT_255_2_778
10
15.02673
20
29.4817711
40
2.4366794
50
89.9229205
51
89.9963295
0
ARC
8
DEFAULT_255_2_778
10
15.0268451
20
29.6803295
40
2.238121
50
89.9989515
51
100.1605819
0
ARC
8
DEFAULT_255_2_778
10
15.0185243
20
29.6744227
40
2.2424862
50
99.9246931
51
125.2499885
0
ARC
8
DEFAULT_255_2_778
10
15.0226883
20
29.6678057
40
2.2502933
50
125.2393339
51
172.0237487
0
ARC
8
DEFAULT_255_2_778
10
15.0322545
20
29.6687949
40
2.2596309
50
172.0822472
51
180.0112699
0
ARC
8
DEFAULT_255_2_778
10
15.0150677
20
29.6664273
40
2.2424449
50
179.9508617
51
205.5850875
0
ARC
8
DEFAULT_255_2_778
10
15.022478
20
29.6694056
40
2.2504147
50
205.5720043
51
252.0900828
0
ARC
8
DEFAULT_255_2_778
10
15.0231946
20
29.6790652
40
2.2598278
50
252.1481098
51
260.0320245
0
ARC
8
DEFAULT_255_2_778
10
15.0350163
20
29.6629453
40
2.2429008
50
279.9307936
51
305.560484
0
ARC
8
DEFAULT_255_2_778
10
15.031198
20
29.6692612
40
2.2502594
50
305.5460484
51
352.0667317
0
ARC
8
DEFAULT_255_2_778
10
15.0217911
20
29.6682116
40
2.2594326
50
352.1260172
51
0.0111281
0
ARC
8
DEFAULT_255_2_778
10
15.038917
20
29.6705614
40
2.2423074
50
359.9511711
51
25.587113
0
ARC
8
DEFAULT_255_2_778
10
15.0312302
20
29.6674581
40
2.2505808
50
25.5738541
51
72.0883606
0
ARC
8
DEFAULT_255_2_778
10
15.0306483
20
29.658137
40
2.2596303
50
72.1470105
51
80.0310341
0
ARC
8
DEFAULT_255_2_778
10
15.0268451
20
29.6566714
40
2.238121
50
259.8394181
51
270.0010485
0
ARC
8
DEFAULT_255_2_778
10
15.02673
20
29.8552299
40
2.4366794
50
270.0036705
51
270.0770795
0
ARC
8
DEFAULT_255_2_778
10
15.026889
20
29.6579449
40
2.2393945
50
270.0798027
51
280.1576819
0
LINE
8
DEFAULT_255_2_778
10
14.6320236
20
30.1693505
11
14.6320236
21
31.8833505
0
LINE
8
DEFAULT_255_2_778
10
14.6320236
20
27.4533505
11
14.6320236
21
29.1673505
0
LINE
8
DEFAULT_255_2_778
10
14.6320236
20
29.1673505
11
13.5842236
21
29.1673505
0
LINE
8
DEFAULT_255_2_778
10
13.5842236
20
29.1673505
11
13.5842236
21
30.1690505
0
LINE
8
DEFAULT_255_2_778
10
13.5842236
20
30.1690505
11
14.6320236
21
30.1693505
0
LINE
8
DEFAULT_255_2_778
10
15.4218236
20
30.1693505
11
16.4698236
21
30.1693505
0
LINE
8
DEFAULT_255_2_778
10
16.4698236
20
30.1693505
11
16.4698236
21
29.1676505
0
LINE
8
DEFAULT_255_2_778
10
16.4698236
20
29.1676505
11
15.4218236
21
29.1676505
0
LINE
8
DEFAULT_255_2_778
10
15.4218236
20
29.1676505
11
15.4218236
21
27.4536505
0
LINE
8
DEFAULT_255_2_778
10
15.4218236
20
31.8836505
11
15.4218236
21
30.1693505
0
ARC
8
DEFAULT_255_2_778
10
22.899526
20
25.5487494
40
2.2381756
50
99.9561377
51
125.7718191
0
ARC
8
DEFAULT_255_2_778
10
22.9077069
20
25.5371275
40
2.2523873
50
125.7678486
51
172.0074386
0
ARC
8
DEFAULT_255_2_778
10
22.9200322
20
25.5372699
40
2.2645738
50
172.0543655
51
180.01141
0
ARC
8
DEFAULT_255_2_778
10
22.9027883
20
25.5348175
40
2.2473308
50
179.9489743
51
205.2322531
0
ARC
8
DEFAULT_255_2_778
10
22.9046006
20
25.5345474
40
2.2488552
50
205.2063449
51
252.8760167
0
ARC
8
DEFAULT_255_2_778
10
22.9040137
20
25.542017
40
2.2558226
50
252.9461236
51
260.0068124
0
ARC
8
DEFAULT_255_2_778
10
22.9024496
20
25.5303043
40
2.2440162
50
259.9942477
51
269.9665384
0
LINE
8
DEFAULT_255_2_778
10
22.901139
20
23.2862885
11
22.9034037
21
23.2862883
0
ARC
8
DEFAULT_255_2_778
10
22.9024485
20
25.5297535
40
2.2434653
50
270.0243964
51
280.2681613
0
ARC
8
DEFAULT_255_2_778
10
22.9051233
20
25.5249502
40
2.2382629
50
280.2227044
51
306.1052797
0
ARC
8
DEFAULT_255_2_778
10
22.8969759
20
25.5363881
40
2.252305
50
306.1012727
51
352.0607306
0
ARC
8
DEFAULT_255_2_778
10
22.8842606
20
25.5363791
40
2.264898
50
352.1053857
51
0.0111251
0
ARC
8
DEFAULT_255_2_778
10
22.9020877
20
25.5388221
40
2.2470716
50
359.9489225
51
25.4556515
0
ARC
8
DEFAULT_255_2_778
10
22.8999025
20
25.5388428
40
2.249036
50
25.4312494
51
72.6178174
0
ARC
8
DEFAULT_255_2_778
10
22.899968
20
25.5304857
40
2.2569933
50
72.6827815
51
79.7300564
0
ARC
8
DEFAULT_255_2_778
10
22.9022722
20
25.5472958
40
2.2400417
50
79.7113914
51
90.0009954
0
LINE
8
DEFAULT_255_2_778
10
22.9022332
20
27.7873377
11
22.901139
21
27.7873374
0
ARC
8
DEFAULT_255_2_778
10
22.9022777
20
25.5445144
40
2.2428233
50
90.0290896
51
100.0066709
0
LINE
8
DEFAULT_255_2_778
10
21.4645584
20
25.9842189
11
22.5125584
21
25.9842189
0
LINE
8
DEFAULT_255_2_778
10
22.5125584
20
25.9842189
11
22.5125584
21
27.7532189
0
LINE
8
DEFAULT_255_2_778
10
22.5125584
20
23.3204189
11
22.5125584
21
24.9825189
0
LINE
8
DEFAULT_255_2_778
10
22.5125584
20
24.9825189
11
21.4645584
21
24.9825189
0
LINE
8
DEFAULT_255_2_778
10
21.4645584
20
24.9825189
11
21.4645584
21
25.9842189
0
LINE
8
DEFAULT_255_2_778
10
23.3023584
20
27.7513189
11
23.3023584
21
25.9842189
0
LINE
8
DEFAULT_255_2_778
10
23.3023584
20
25.9842189
11
24.3503584
21
25.9842189
0
LINE
8
DEFAULT_255_2_778
10
24.3503584
20
25.9842189
11
24.3503584
21
24.9825189
0
LINE
8
DEFAULT_255_2_778
10
24.3503584
20
24.9825189
11
23.3023584
21
24.9825189
0
LINE
8
DEFAULT_255_2_778
10
23.3023584
20
24.9825189
11
23.3023584
21
23.3222189
0
ARC
8
DEFAULT_255_2_778
10
15.0269344
20
22.1804394
40
2.238121
50
79.8394181
51
90.0010485
0
ARC
8
DEFAULT_255_2_778
10
15.0270495
20
21.981881
40
2.4366794
50
90.0036705
51
90.0770795
0
ARC
8
DEFAULT_255_2_778
10
15.0268905
20
22.1791659
40
2.2393945
50
90.0798027
51
100.1576819
0
ARC
8
DEFAULT_255_2_778
10
15.0190303
20
22.174089
40
2.2429704
50
99.9296278
51
125.2498115
0
ARC
8
DEFAULT_255_2_778
10
15.0228587
20
22.1679005
40
2.2502337
50
125.2384762
51
172.0232128
0
ARC
8
DEFAULT_255_2_778
10
15.0324337
20
22.168906
40
2.2595778
50
172.0821557
51
180.0113008
0
ARC
8
DEFAULT_255_2_778
10
15.0152999
20
22.1665372
40
2.2424449
50
179.9508617
51
205.5850875
0
ARC
8
DEFAULT_255_2_778
10
15.0227103
20
22.1695155
40
2.2504147
50
205.5720043
51
252.0900828
0
ARC
8
DEFAULT_255_2_778
10
15.0234269
20
22.1791752
40
2.2598278
50
252.1481098
51
260.0320245
0
ARC
8
DEFAULT_255_2_778
10
15.0352552
20
22.1626881
40
2.2424862
50
279.9246931
51
305.2499885
0
ARC
8
DEFAULT_255_2_778
10
15.0310912
20
22.1693051
40
2.2502933
50
305.2393339
51
352.0237487
0
ARC
8
DEFAULT_255_2_778
10
15.021525
20
22.1683159
40
2.2596309
50
352.0822472
51
0.0112699
0
ARC
8
DEFAULT_255_2_778
10
15.0387364
20
22.1706859
40
2.2424204
50
359.9508005
51
25.5852304
0
ARC
8
DEFAULT_255_2_778
10
15.0315165
20
22.1678187
40
2.2501704
50
25.5716878
51
72.093825
0
ARC
8
DEFAULT_255_2_778
10
15.0308389
20
22.1582108
40
2.2595224
50
72.1523816
51
80.0372032
0
ARC
8
DEFAULT_255_2_778
10
15.0268905
20
22.1580549
40
2.2393945
50
259.8423181
51
269.9201973
0
ARC
8
DEFAULT_255_2_778
10
15.0270495
20
22.3553398
40
2.4366794
50
269.9229205
51
269.9963295
0
ARC
8
DEFAULT_255_2_778
10
15.0269344
20
22.1567814
40
2.238121
50
269.9989515
51
280.1605819
0
LINE
8
DEFAULT_255_2_778
10
14.6319559
20
21.6677604
11
13.5842559
21
21.6677604
0
LINE
8
DEFAULT_255_2_778
10
13.5842559
20
21.6677604
11
13.5842559
21
22.6694604
0
LINE
8
DEFAULT_255_2_778
10
13.5842559
20
22.6694604
11
14.6322559
21
22.6694604
0
LINE
8
DEFAULT_255_2_778
10
14.6322559
20
22.6694604
11
14.6322559
21
24.3834604
0
LINE
8
DEFAULT_255_2_778
10
14.6322559
20
19.9534604
11
14.6319559
21
21.6677604
0
LINE
8
DEFAULT_255_2_778
10
16.4697559
20
21.6677604
11
15.4217559
21
21.6677604
0
LINE
8
DEFAULT_255_2_778
10
15.4217559
20
21.6677604
11
15.4217559
21
19.9537604
0
LINE
8
DEFAULT_255_2_778
10
15.4217559
20
24.3836604
11
15.4217559
21
22.6697604
0
LINE
8
DEFAULT_255_2_778
10
15.4217559
20
22.6697604
11
16.4697559
21
22.6697604
0
LINE
8
DEFAULT_255_2_778
10
16.4697559
20
22.6697604
11
16.4697559
21
21.6677604
0
ARC
8
DEFAULT_255_2_778
10
22.899526
20
18.0488494
40
2.2381756
50
99.9561377
51
125.7718191
0
ARC
8
DEFAULT_255_2_778
10
22.9077069
20
18.0372275
40
2.2523873
50
125.7678486
51
172.0074386
0
ARC
8
DEFAULT_255_2_778
10
22.9200322
20
18.0373699
40
2.2645738
50
172.0543655
51
180.01141
0
ARC
8
DEFAULT_255_2_778
10
22.9027883
20
18.0349175
40
2.2473308
50
179.9489743
51
205.2322531
0
ARC
8
DEFAULT_255_2_778
10
22.9046006
20
18.0346474
40
2.2488552
50
205.2063449
51
252.8760167
0
ARC
8
DEFAULT_255_2_778
10
22.9040137
20
18.042117
40
2.2558226
50
252.9461236
51
260.0068124
0
ARC
8
DEFAULT_255_2_778
10
22.9024496
20
18.0304043
40
2.2440162
50
259.9942477
51
269.9665384
0
LINE
8
DEFAULT_255_2_778
10
22.901139
20
15.7863885
11
22.9034037
21
15.7863883
0
ARC
8
DEFAULT_255_2_778
10
22.9024485
20
18.0298535
40
2.2434653
50
270.0243964
51
280.2681613
0
ARC
8
DEFAULT_255_2_778
10
22.9051233
20
18.0250502
40
2.2382629
50
280.2227044
51
306.1052797
0
ARC
8
DEFAULT_255_2_778
10
22.8969759
20
18.0364881
40
2.252305
50
306.1012727
51
352.0607306
0
ARC
8
DEFAULT_255_2_778
10
22.8842606
20
18.0364791
40
2.264898
50
352.1053857
51
0.0111251
0
ARC
8
DEFAULT_255_2_778
10
22.9020877
20
18.0389221
40
2.2470716
50
359.9489225
51
25.4556515
0
ARC
8
DEFAULT_255_2_778
10
22.8999025
20
18.0389428
40
2.249036
50
25.4312494
51
72.6178174
0
ARC
8
DEFAULT_255_2_778
10
22.899968
20
18.0305857
40
2.2569933
50
72.6827815
51
79.7300564
0
ARC
8
DEFAULT_255_2_778
10
22.9022722
20
18.0473958
40
2.2400417
50
79.7113914
51
90.0009954
0
LINE
8
DEFAULT_255_2_778
10
22.9022332
20
20.2874377
11
22.901139
21
20.2874374
0
ARC
8
DEFAULT_255_2_778
10
22.9022777
20
18.0446144
40
2.2428233
50
90.0290896
51
100.0066709
0
LINE
8
DEFAULT_255_2_778
10
21.4645584
20
18.4843189
11
22.5125584
21
18.4843189
0
LINE
8
DEFAULT_255_2_778
10
22.5125584
20
18.4843189
11
22.5125584
21
20.2533189
0
LINE
8
DEFAULT_255_2_778
10
22.5125584
20
15.8205189
11
22.5125584
21
17.4826189
0
LINE
8
DEFAULT_255_2_778
10
22.5125584
20
17.4826189
11
21.4645584
21
17.4826189
0
LINE
8
DEFAULT_255_2_778
10
21.4645584
20
17.4826189
11
21.4645584
21
18.4843189
0
LINE
8
DEFAULT_255_2_778
10
23.3023584
20
20.2514189
11
23.3023584
21
18.4843189
0
LINE
8
DEFAULT_255_2_778
10
23.3023584
20
18.4843189
11
24.3503584
21
18.4843189
0
LINE
8
DEFAULT_255_2_778
10
24.3503584
20
18.4843189
11
24.3503584
21
17.4826189
0
LINE
8
DEFAULT_255_2_778
10
24.3503584
20
17.4826189
11
23.3023584
21
17.4826189
0
LINE
8
DEFAULT_255_2_778
10
23.3023584
20
17.4826189
11
23.3023584
21
15.8223189
0
LINE
8
DEFAULT_255_2_778
10
16.8507804
20
11.5077795
11
16.8507804
21
13.5076795
0
LINE
8
DEFAULT_255_2_778
10
13.8556804
20
11.5077795
11
13.8556804
21
13.5076795
0
LINE
8
DEFAULT_255_2_778
10
17.3500804
20
9.0076795
11
17.3500804
21
8.5075795
0
LINE
8
DEFAULT_255_2_778
10
17.3500804
20
8.5075795
11
22.3419804
21
8.5075795
0
LINE
8
DEFAULT_255_2_778
10
22.3419804
20
8.5075795
11
22.3419804
21
9.0076795
0
LINE
8
DEFAULT_255_2_778
10
25.8362804
20
13.5076795
11
25.8362804
21
9.0076795
0
LINE
8
DEFAULT_255_2_778
10
25.8362804
20
9.0076795
11
13.8559804
21
9.0076795
0
LINE
8
DEFAULT_255_2_778
10
13.8559804
20
9.0076795
11
13.8559804
21
11.5077795
0
LINE
8
DEFAULT_255_2_778
10
13.8559804
20
11.5077795
11
25.8362804
21
11.5077795
0
LINE
8
DEFAULT_255_2_778
10
21.9426804
20
13.5076795
11
21.9426804
21
13.0060795
0
LINE
8
DEFAULT_255_2_778
10
21.9426804
20
13.0060795
11
22.8411804
21
13.0060795
0
LINE
8
DEFAULT_255_2_778
10
25.9690804
20
13.5076795
11
25.9690804
21
13.0060795
0
LINE
8
DEFAULT_255_2_778
10
22.8411804
20
11.5077795
11
22.8411804
21
13.5076795
0
LINE
8
DEFAULT_255_2_778
10
25.8362804
20
13.0060795
11
28.4320804
21
13.0060795
0
LINE
8
DEFAULT_255_2_778
10
28.4320804
20
13.0060795
11
28.4320804
21
55.5052795
0
LINE
8
DEFAULT_255_2_778
10
28.4320804
20
55.5052795
11
28.3323804
21
55.5052795
0
LINE
8
DEFAULT_255_2_778
10
19.1473804
20
55.3568795
11
19.1473804
21
52.6067795
0
LINE
8
DEFAULT_255_2_778
10
19.1473804
20
52.6067795
11
26.9345804
21
52.6067795
0
LINE
8
DEFAULT_255_2_778
10
26.9345804
20
52.6067795
11
26.9345804
21
55.3568795
0
LINE
8
DEFAULT_255_2_778
10
26.9345804
20
55.3568795
11
11.3598804
21
55.3568795
0
LINE
8
DEFAULT_255_2_778
10
11.3598804
20
55.3568795
11
11.3598804
21
56.5067795
0
LINE
8
DEFAULT_255_2_778
10
11.3598804
20
56.5067795
11
28.3320804
21
56.5067795
0
LINE
8
DEFAULT_255_2_778
10
28.3320804
20
56.5067795
11
28.3320804
21
13.5074795
0
LINE
8
DEFAULT_255_2_778
10
28.3320804
20
13.5074795
11
11.3598804
21
13.5074795
0
LINE
8
DEFAULT_255_2_778
10
11.3598804
20
13.5074795
11
11.3598804
21
14.6573795
0
LINE
8
DEFAULT_255_2_778
10
11.3598804
20
14.6573795
11
26.9342804
21
14.6573795
0
LINE
8
DEFAULT_255_2_778
10
26.9342804
20
14.6573795
11
26.9342804
21
21.0271795
0
LINE
8
DEFAULT_255_2_778
10
26.9342804
20
21.0271795
11
19.1470804
21
21.0271795
0
LINE
8
DEFAULT_255_2_778
10
19.1470804
20
21.0271795
11
19.1470804
21
22.2055795
0
LINE
8
DEFAULT_255_2_778
10
19.1470804
20
22.2055795
11
26.9342804
21
22.2055795
0
LINE
8
DEFAULT_255_2_778
10
26.9342804
20
22.2055795
11
26.9342804
21
28.5754795
0
LINE
8
DEFAULT_255_2_778
10
26.9342804
20
28.5754795
11
19.1470804
21
28.5754795
0
LINE
8
DEFAULT_255_2_778
10
19.1470804
20
28.5754795
11
19.1470804
21
29.7538795
0
LINE
8
DEFAULT_255_2_778
10
19.1470804
20
29.7538795
11
26.9342804
21
29.7538795
0
LINE
8
DEFAULT_255_2_778
10
26.9342804
20
29.7538795
11
26.9342804
21
36.1237795
0
LINE
8
DEFAULT_255_2_778
10
26.9342804
20
36.1237795
11
19.1470804
21
36.1237795
0
LINE
8
DEFAULT_255_2_778
10
19.1470804
20
36.1237795
11
19.1470804
21
37.3021795
0
LINE
8
DEFAULT_255_2_778
10
19.1470804
20
37.3021795
11
26.9342804
21
37.3021795
0
LINE
8
DEFAULT_255_2_778
10
26.9342804
20
37.3021795
11
26.9342804
21
43.6720795
0
LINE
8
DEFAULT_255_2_778
10
26.9342804
20
43.6720795
11
19.1470804
21
43.6720795
0
LINE
8
DEFAULT_255_2_778
10
19.1470804
20
43.6720795
11
19.1470804
21
44.8504795
0
LINE
8
DEFAULT_255_2_778
10
19.1470804
20
44.8504795
11
26.9342804
21
44.8504795
0
LINE
8
DEFAULT_255_2_778
10
26.9342804
20
44.8504795
11
26.9342804
21
51.2203795
0
LINE
8
DEFAULT_255_2_778
10
26.9342804
20
51.2203795
11
19.1470804
21
51.2203795
0
LINE
8
DEFAULT_255_2_778
10
19.1470804
20
51.2203795
11
19.1470804
21
52.6059795
0
LINE
8
DEFAULT_255_2_778
10
17.5995804
20
58.0058795
11
17.5995804
21
58.4656795
0
LINE
8
DEFAULT_255_2_778
10
22.0921804
20
58.0058795
11
22.0921804
21
58.4656795
0
LINE
8
DEFAULT_255_2_778
10
17.3500804
20
58.5059795
11
17.3500804
21
58.0058795
0
LINE
8
DEFAULT_255_2_778
10
17.3500804
20
58.0058795
11
22.3419804
21
58.0058795
0
LINE
8
DEFAULT_255_2_778
10
22.3419804
20
58.0058795
11
22.3419804
21
58.5059795
0
LINE
8
DEFAULT_255_2_778
10
25.8362804
20
59.0416795
11
25.8362804
21
58.5059795
0
LINE
8
DEFAULT_255_2_778
10
25.8362804
20
58.5059795
11
13.8559804
21
58.5059795
0
LINE
8
DEFAULT_255_2_778
10
13.8559804
20
58.5059795
11
13.8559804
21
61.0059795
0
LINE
8
DEFAULT_255_2_778
10
13.8559804
20
61.0059795
11
25.8362804
21
61.0059795
0
LINE
8
DEFAULT_255_2_778
10
25.8362804
20
61.0059795
11
25.8362804
21
59.0419795
0
LINE
8
DEFAULT_255_2_778
10
25.8362804
20
59.0419795
11
13.8559804
21
59.0419795
0
LINE
8
DEFAULT_255_2_778
10
16.8510804
20
58.5061795
11
16.8510804
21
56.5061795
0
LINE
8
DEFAULT_255_2_778
10
13.8559804
20
58.5061795
11
13.8559804
21
56.5061795
0
LINE
8
DEFAULT_255_2_778
10
22.8411804
20
58.5061795
11
22.8411804
21
56.5061795
0
LINE
8
DEFAULT_255_2_778
10
25.8362804
20
58.5061795
11
25.8362804
21
56.5061795
0
ARC
8
DEFAULT_255_2_778
10
28.6815113
20
1.7510224
40
1.9944754
50
270.0039309
51
315.0662501
0
ARC
8
DEFAULT_255_2_778
10
28.6764604
20
1.7561715
40
2.0016878
50
315.064025
51
0.0107477
0
LINE
8
DEFAULT_255_2_778
10
29.1806482
20
65.005147
11
29.1806482
21
1.050547
0
LINE
8
DEFAULT_255_2_778
10
29.1806482
20
1.050547
11
23.2131482
21
1.050547
0
LINE
8
DEFAULT_255_2_778
10
23.2131482
20
1.050547
11
23.2131482
21
6.253647
0
LINE
8
DEFAULT_255_2_778
10
23.2131482
20
6.253647
11
11.5990482
21
6.253647
0
LINE
8
DEFAULT_255_2_778
10
11.5990482
20
6.253647
11
11.5990482
21
-0.243453
0
LINE
8
DEFAULT_255_2_778
10
11.5990482
20
-0.243453
11
13.2069482
21
-0.243453
0
LINE
8
DEFAULT_255_2_778
10
13.2069482
20
-0.243453
11
13.2069482
21
4.756347
0
LINE
8
DEFAULT_255_2_778
10
13.2069482
20
4.756347
11
22.1921482
21
4.756347
0
LINE
8
DEFAULT_255_2_778
10
22.1921482
20
4.756347
11
22.1921482
21
-0.243453
0
LINE
8
DEFAULT_255_2_778
10
22.1921482
20
-0.243453
11
28.6816482
21
-0.243453
0
LINE
8
DEFAULT_255_2_778
10
30.6781482
20
1.756547
11
30.6781482
21
65.005147
0
LINE
8
DEFAULT_255_2_778
10
13.2069482
20
-0.243753
11
22.1921482
21
-0.243753
0
LINE
8
DEFAULT_255_2_778
10
21.9426482
20
4.213447
11
21.9426482
21
-0.232153
0
LINE
8
DEFAULT_255_2_778
10
21.9426482
20
-0.232153
11
13.4564482
21
-0.232153
0
LINE
8
DEFAULT_255_2_778
10
13.4564482
20
-0.232153
11
13.4564482
21
4.638847
0
LINE
8
DEFAULT_255_2_778
10
13.4564482
20
4.638847
11
21.9424482
21
4.638847
0
LINE
8
DEFAULT_255_2_778
10
21.9424482
20
4.638847
11
21.9424482
21
4.213447
0
LINE
8
DEFAULT_255_2_778
10
21.9424482
20
4.213447
11
13.4564482
21
4.213447
0
LINE
8
DEFAULT_255_2_778
10
3.9824615
20
66.8403208
11
3.9824615
21
66.4964208
0
LINE
8
DEFAULT_255_2_778
10
3.9824615
20
66.4964208
11
3.1651615
21
66.4964208
0
LINE
8
DEFAULT_255_2_778
10
3.1651615
20
66.4964208
11
3.1651615
21
65.6508208
0
LINE
8
DEFAULT_255_2_778
10
3.1651615
20
65.6508208
11
2.7397615
21
65.6508208
0
LINE
8
DEFAULT_255_2_778
10
2.7397615
20
65.6508208
11
2.7397615
21
67.7198208
0
LINE
8
DEFAULT_255_2_778
10
2.7397615
20
67.7198208
11
4.0846615
21
67.7198208
0
LINE
8
DEFAULT_255_2_778
10
4.0846615
20
67.7198208
11
4.0846615
21
67.3745208
0
LINE
8
DEFAULT_255_2_778
10
4.0846615
20
67.3745208
11
3.1651615
21
67.3745208
0
LINE
8
DEFAULT_255_2_778
10
3.1651615
20
67.3745208
11
3.1651615
21
66.8403208
0
LINE
8
DEFAULT_255_2_778
10
3.1651615
20
66.8403208
11
3.9824615
21
66.8403208
0
LINE
8
DEFAULT_255_2_778
10
3.9824615
20
66.8403208
11
3.9824615
21
66.8403208
0
ARC
8
DEFAULT_255_2_778
10
3.3777194
20
68.1041238
40
2.1489844
50
317.256698
51
323.0038019
0
ARC
8
DEFAULT_255_2_778
10
4.2228053
20
67.4650823
40
1.0894857
50
323.1008878
51
329.2830533
0
ARC
8
DEFAULT_255_2_778
10
4.7906388
20
67.1405043
40
0.4356641
50
327.8352368
51
355.4589583
0
ARC
8
DEFAULT_255_2_778
10
4.9106038
20
67.1219178
40
0.3147337
50
357.1030856
51
359.9923994
0
ARC
8
DEFAULT_255_2_778
10
4.8836169
20
67.13525
40
0.3419822
50
357.7587537
51
30.130992
0
ARC
8
DEFAULT_255_2_778
10
4.9723773
20
67.1769157
40
0.2444485
50
32.1283688
51
41.4011488
0
ARC
8
DEFAULT_255_2_778
10
4.9726274
20
67.1667688
40
0.2510917
50
43.1759476
51
93.5597011
0
ARC
8
DEFAULT_255_2_778
10
4.944538
20
67.1478786
40
0.2697871
50
87.3444685
51
139.977376
0
ARC
8
DEFAULT_255_2_778
10
5.0283117
20
67.0917779
40
0.3701789
50
141.6666709
51
180.1465709
0
ARC
8
DEFAULT_255_2_778
10
5.2415599
20
67.0693147
40
0.5838225
50
177.8879418
51
180.0136141
0
ARC
8
DEFAULT_255_2_778
10
4.9250904
20
67.0763018
40
0.6787903
50
150.1189356
51
180.6014934
0
ARC
8
DEFAULT_255_2_778
10
4.8863145
20
67.0977039
40
0.6345071
50
117.703203
51
150.0501916
0
ARC
8
DEFAULT_255_2_778
10
4.9513278
20
66.976023
40
0.7724643
50
89.0275716
51
117.7768003
0
ARC
8
DEFAULT_255_2_778
10
4.9772738
20
66.7681649
40
0.9802951
50
75.0340218
51
90.7502704
0
ARC
8
DEFAULT_255_2_778
10
5.0794624
20
67.1472866
40
0.5876443
50
49.611384
51
75.113568
0
ARC
8
DEFAULT_255_2_778
10
5.1177405
20
67.2083058
40
0.5164695
50
3.5007351
51
48.4594073
0
ARC
8
DEFAULT_255_2_778
10
4.831327
20
67.1628017
40
0.8056116
50
359.912827
51
5.4875643
0
ARC
8
DEFAULT_255_2_778
10
4.938465
20
67.1721985
40
0.6985533
50
332.4198523
51
359.1287047
0
ARC
8
DEFAULT_255_2_778
10
4.488871
20
67.3974058
40
1.2013561
50
323.1187062
51
332.8272141
0
ARC
8
DEFAULT_255_2_778
10
3.5014939
20
68.1255652
40
2.4281727
50
317.4795209
51
323.3580383
0
ARC
8
DEFAULT_255_2_778
10
2.7917758
20
68.7532328
40
3.3755149
50
317.6174909
51
317.7689646
0
LINE
8
DEFAULT_255_2_778
10
5.7036375
20
65.981976
11
5.7036375
21
65.650976
0
LINE
8
DEFAULT_255_2_778
10
5.7036375
20
65.650976
11
4.2876375
21
65.650976
0
LINE
8
DEFAULT_255_2_778
10
4.2876375
20
65.650976
11
4.2876375
21
65.932276
0
LINE
8
DEFAULT_255_2_778
10
4.2876375
20
65.932276
11
4.9559375
21
66.645576
0
LINE
8
DEFAULT_255_2_778
10
4.6577375
20
67.069176
11
4.2463375
21
67.069176
0
LINE
8
DEFAULT_255_2_778
10
5.2851375
20
66.477876
11
4.8154375
21
65.981976
0
LINE
8
DEFAULT_255_2_778
10
4.8154375
20
65.981976
11
5.7036375
21
65.981976
0
LINE
8
DEFAULT_255_2_778
10
5.7036375
20
65.981976
11
5.7036375
21
65.981976
0
LINE
8
DEFAULT_255_2_778
10
6.7691115
20
66.7024969
11
6.7691115
21
66.3714969
0
LINE
8
DEFAULT_255_2_778
10
6.7691115
20
66.3714969
11
5.9703115
21
66.3714969
0
LINE
8
DEFAULT_255_2_778
10
5.9703115
20
66.3714969
11
5.9703115
21
66.7024969
0
LINE
8
DEFAULT_255_2_778
10
5.9703115
20
66.7024969
11
6.7691115
21
66.7024969
0
LINE
8
DEFAULT_255_2_778
10
6.7691115
20
66.7024969
11
6.7691115
21
66.7024969
0
ARC
8
DEFAULT_255_2_778
10
6.8794144
20
66.4939247
40
1.5923318
50
349.8373896
51
0.4511808
0
ARC
8
DEFAULT_255_2_778
10
7.5450993
20
66.3691675
40
0.915094
50
331.8514857
51
350.1720362
0
ARC
8
DEFAULT_255_2_778
10
7.7685652
20
66.2590595
40
0.6661656
50
322.1239427
51
331.1344444
0
ARC
8
DEFAULT_255_2_778
10
7.8346941
20
66.2119385
40
0.5850471
50
274.7273134
51
321.7904175
0
ARC
8
DEFAULT_255_2_778
10
7.7771238
20
66.5400289
40
0.9172677
50
269.8733948
51
276.6225137
0
ARC
8
DEFAULT_255_2_778
10
7.7619279
20
66.3811995
40
0.7585503
50
249.2691723
51
270.9947485
0
ARC
8
DEFAULT_255_2_778
10
7.699338
20
66.1951099
40
0.5624016
50
218.4015347
51
248.5219584
0
ARC
8
DEFAULT_255_2_778
10
7.8669999
20
66.3187362
40
0.7706215
50
194.3894501
51
217.8615067
0
ARC
8
DEFAULT_255_2_778
10
8.3988844
20
66.4653495
40
1.3222919
50
182.3460007
51
194.815584
0
ARC
8
DEFAULT_255_2_778
10
8.9191118
20
66.5030849
40
1.843701
50
180.5538358
51
182.8559374
0
ARC
8
DEFAULT_255_2_778
10
8.6732761
20
66.8787517
40
1.5978296
50
169.9011283
51
180.4549857
0
ARC
8
DEFAULT_255_2_778
10
7.9998261
20
67.0037783
40
0.9129043
50
152.3319184
51
170.2150525
0
ARC
8
DEFAULT_255_2_778
10
7.7663296
20
67.1174777
40
0.6533571
50
141.5155222
51
151.6544097
0
ARC
8
DEFAULT_255_2_778
10
7.717163
20
67.1514476
40
0.5937445
50
94.0428414
51
141.12898
0
ARC
8
DEFAULT_255_2_778
10
7.770489
20
66.8310324
40
0.9176325
50
89.8996052
51
95.9540218
0
ARC
8
DEFAULT_255_2_778
10
7.7852796
20
66.9887099
40
0.7600679
50
69.3135641
51
90.9937942
0
ARC
8
DEFAULT_255_2_778
10
7.848361
20
67.1763247
40
0.5623121
50
38.472833
51
68.573678
0
ARC
8
DEFAULT_255_2_778
10
7.6831487
20
67.0542929
40
0.7676127
50
14.4016252
51
37.9319282
0
ARC
8
DEFAULT_255_2_778
10
7.1510993
20
66.907464
40
1.3194992
50
2.3454898
51
14.8308594
0
ARC
8
DEFAULT_255_2_778
10
6.6302018
20
66.8696561
40
1.8415811
50
0.5540383
51
2.8575577
0
ARC
8
DEFAULT_255_2_778
10
6.7660906
20
66.9358654
40
1.295561
50
359.4736346
51
8.2700103
0
ARC
8
DEFAULT_255_2_778
10
7.5135742
20
67.0505687
40
0.5393849
50
7.633311
51
24.7842832
0
ARC
8
DEFAULT_255_2_778
10
7.727877
20
67.1410918
40
0.3069688
50
26.2125194
51
30.8196726
0
ARC
8
DEFAULT_255_2_778
10
7.7867281
20
67.1789564
40
0.2370407
50
30.247805
51
93.4661554
0
ARC
8
DEFAULT_255_2_778
10
7.758079
20
67.1830415
40
0.2329624
50
86.4763793
51
148.7594011
0
ARC
8
DEFAULT_255_2_778
10
7.9550981
20
67.076187
40
0.4569595
50
150.1162329
51
170.3747559
0
ARC
8
DEFAULT_255_2_778
10
8.618633
20
66.9477362
40
1.1327396
50
169.5807276
51
179.545136
0
ARC
8
DEFAULT_255_2_778
10
8.7538554
20
66.9327169
40
1.2681537
50
178.9150681
51
178.9948367
0
ARC
8
DEFAULT_255_2_778
10
8.76714
20
66.4397235
40
1.2813015
50
179.4526554
51
188.6802478
0
ARC
8
DEFAULT_255_2_778
10
8.0360019
20
66.3218548
40
0.5407846
50
188.0259719
51
206.046136
0
ARC
8
DEFAULT_255_2_778
10
7.8437963
20
66.2376109
40
0.3312226
50
207.5526967
51
209.2113525
0
ARC
8
DEFAULT_255_2_778
10
7.760993
20
66.1866322
40
0.2341061
50
208.2115773
51
273.5029471
0
ARC
8
DEFAULT_255_2_778
10
7.7910079
20
66.182601
40
0.2301743
50
266.0861253
51
330.9866951
0
ARC
8
DEFAULT_255_2_778
10
7.5492337
20
66.3053122
40
0.5012228
50
332.124372
51
350.8789675
0
ARC
8
DEFAULT_255_2_778
10
6.854143
20
66.4318507
40
1.2076736
50
350.1790481
51
359.6530924
0
ARC
8
DEFAULT_255_2_778
10
6.24923
20
66.4535413
40
1.8127965
50
359.0832957
51
359.3148282
0
LINE
8
DEFAULT_255_2_778
10
8.4716969
20
66.8871635
11
8.4716969
21
66.5064635
0
LINE
8
DEFAULT_255_2_778
10
7.0754969
20
66.4852635
11
7.0754969
21
66.8660635
0
LINE
8
DEFAULT_255_2_778
10
8.4716969
20
66.8874635
11
8.4716969
21
66.8871635
0
LINE
8
DEFAULT_255_2_778
10
8.0615969
20
66.4323635
11
8.0615969
21
66.9239635
0
LINE
8
DEFAULT_255_2_778
10
7.4858969
20
66.9549635
11
7.4858969
21
66.4519635
0
LINE
8
DEFAULT_255_2_778
10
8.0618969
20
66.4318635
11
8.0615969
21
66.4323635
0
ARC
8
DEFAULT_255_2_778
10
7.8383194
20
68.1041238
40
2.1489844
50
317.256698
51
323.0038019
0
ARC
8
DEFAULT_255_2_778
10
8.6834053
20
67.4650823
40
1.0894857
50
323.1008878
51
329.2830533
0
ARC
8
DEFAULT_255_2_778
10
9.2512388
20
67.1405043
40
0.4356641
50
327.8352368
51
355.4589583
0
ARC
8
DEFAULT_255_2_778
10
9.3712038
20
67.1219178
40
0.3147337
50
357.1030856
51
359.9923994
0
ARC
8
DEFAULT_255_2_778
10
9.3442169
20
67.13525
40
0.3419822
50
357.7587537
51
30.130992
0
ARC
8
DEFAULT_255_2_778
10
9.4329773
20
67.1769157
40
0.2444485
50
32.1283688
51
41.4011488
0
ARC
8
DEFAULT_255_2_778
10
9.4332274
20
67.1667688
40
0.2510917
50
43.1759476
51
93.5597011
0
ARC
8
DEFAULT_255_2_778
10
9.405138
20
67.1478786
40
0.2697871
50
87.3444685
51
139.977376
0
ARC
8
DEFAULT_255_2_778
10
9.4889117
20
67.0917779
40
0.3701789
50
141.6666709
51
180.1465709
0
ARC
8
DEFAULT_255_2_778
10
9.7021599
20
67.0693147
40
0.5838225
50
177.8879418
51
180.0136141
0
ARC
8
DEFAULT_255_2_778
10
9.3856904
20
67.0763018
40
0.6787903
50
150.1189356
51
180.6014934
0
ARC
8
DEFAULT_255_2_778
10
9.3469145
20
67.0977039
40
0.6345071
50
117.703203
51
150.0501916
0
ARC
8
DEFAULT_255_2_778
10
9.4119278
20
66.976023
40
0.7724643
50
89.0275716
51
117.7768003
0
ARC
8
DEFAULT_255_2_778
10
9.4378738
20
66.7681649
40
0.9802951
50
75.0340218
51
90.7502704
0
ARC
8
DEFAULT_255_2_778
10
9.5400624
20
67.1472866
40
0.5876443
50
49.611384
51
75.113568
0
ARC
8
DEFAULT_255_2_778
10
9.5783405
20
67.2083058
40
0.5164695
50
3.5007351
51
48.4594073
0
ARC
8
DEFAULT_255_2_778
10
9.291927
20
67.1628017
40
0.8056116
50
359.912827
51
5.4875643
0
ARC
8
DEFAULT_255_2_778
10
9.399065
20
67.1721985
40
0.6985533
50
332.4198523
51
359.1287047
0
ARC
8
DEFAULT_255_2_778
10
8.949471
20
67.3974058
40
1.2013561
50
323.1187062
51
332.8272141
0
ARC
8
DEFAULT_255_2_778
10
7.9620939
20
68.1255652
40
2.4281727
50
317.4795209
51
323.3580383
0
ARC
8
DEFAULT_255_2_778
10
7.2523758
20
68.7532328
40
3.3755149
50
317.6174909
51
317.7689646
0
LINE
8
DEFAULT_255_2_778
10
10.1642375
20
65.981976
11
10.1642375
21
65.650976
0
LINE
8
DEFAULT_255_2_778
10
10.1642375
20
65.650976
11
8.7482375
21
65.650976
0
LINE
8
DEFAULT_255_2_778
10
8.7482375
20
65.650976
11
8.7482375
21
65.932276
0
LINE
8
DEFAULT_255_2_778
10
8.7482375
20
65.932276
11
9.4165375
21
66.645576
0
LINE
8
DEFAULT_255_2_778
10
9.1183375
20
67.069176
11
8.7069375
21
67.069176
0
LINE
8
DEFAULT_255_2_778
10
9.7457375
20
66.477876
11
9.2760375
21
65.981976
0
LINE
8
DEFAULT_255_2_778
10
9.2760375
20
65.981976
11
10.1642375
21
65.981976
0
LINE
8
DEFAULT_255_2_778
10
10.1642375
20
65.981976
11
10.1642375
21
65.981976
0
ARC
8
DEFAULT_255_2_778
10
11.1108906
20
66.7566938
40
0.9634939
50
60.7152943
51
90.9578907
0
ARC
8
DEFAULT_255_2_778
10
11.1553287
20
66.8515167
40
0.8590864
50
27.4514742
51
60.2068345
0
ARC
8
DEFAULT_255_2_778
10
10.9715354
20
66.7557507
40
1.0663327
50
0.7266328
51
27.4651556
0
ARC
8
DEFAULT_255_2_778
10
10.6873463
20
66.7324852
40
1.3509371
50
359.994399
51
1.5604667
0
ARC
8
DEFAULT_255_2_778
10
10.9125688
20
66.6228832
40
1.125805
50
338.9201127
51
0.7262612
0
ARC
8
DEFAULT_255_2_778
10
11.0657478
20
66.5742948
40
0.9654503
50
332.2021105
51
338.3410675
0
ARC
8
DEFAULT_255_2_778
10
11.1654223
20
66.5136022
40
0.8490048
50
299.6622682
51
332.6883426
0
ARC
8
DEFAULT_255_2_778
10
11.1082253
20
66.6237234
40
0.9730133
50
269.4616717
51
299.3798746
0
ARC
8
DEFAULT_255_2_778
10
11.1042725
20
66.5274973
40
0.5343196
50
268.5319323
51
296.0023202
0
ARC
8
DEFAULT_255_2_778
10
11.1488128
20
66.4146529
40
0.4134787
50
297.3105514
51
321.4285617
0
ARC
8
DEFAULT_255_2_778
10
11.0099276
20
66.5149562
40
0.5846587
50
322.2295539
51
348.7229837
0
ARC
8
DEFAULT_255_2_778
10
10.5363308
20
66.623623
40
1.0704528
50
347.9759906
51
0.0444316
0
ARC
8
DEFAULT_255_2_778
10
10.4992759
20
66.7465606
40
1.1075792
50
359.3477941
51
12.2042792
0
ARC
8
DEFAULT_255_2_778
10
11.0250945
20
66.8667705
40
0.5682673
50
11.5654041
51
37.2349158
0
ARC
8
DEFAULT_255_2_778
10
11.1143318
20
66.9219465
40
0.4639431
50
38.4782736
51
38.7046837
0
ARC
8
DEFAULT_255_2_778
10
11.1371719
20
66.9337604
40
0.438761
50
39.3658132
51
87.3423916
0
ARC
8
DEFAULT_255_2_778
10
11.0957219
20
66.66732
40
0.7074335
50
84.988841
51
90.0760166
0
LINE
8
DEFAULT_255_2_778
10
11.0990834
20
65.6510531
11
10.4592834
21
65.6510531
0
LINE
8
DEFAULT_255_2_778
10
10.4592834
20
65.6510531
11
10.4592834
21
67.7200531
0
LINE
8
DEFAULT_255_2_778
10
10.4592834
20
67.7200531
11
11.0947834
21
67.7200531
0
LINE
8
DEFAULT_255_2_778
10
12.0382834
20
66.7323531
11
12.0382834
21
66.6371531
0
LINE
8
DEFAULT_255_2_778
10
11.0990834
20
65.6507531
11
11.0990834
21
65.6510531
0
LINE
8
DEFAULT_255_2_778
10
11.0947834
20
67.3747531
11
10.8846834
21
67.3747531
0
LINE
8
DEFAULT_255_2_778
10
10.8846834
20
67.3747531
11
10.8846834
21
65.9933531
0
LINE
8
DEFAULT_255_2_778
10
10.8846834
20
65.9933531
11
11.0905834
21
65.9933531
0
LINE
8
DEFAULT_255_2_778
10
11.6067834
20
66.6244531
11
11.6067834
21
66.7339531
0
LINE
8
DEFAULT_255_2_778
10
11.0947834
20
67.3747531
11
11.0947834
21
67.3747531
0
LINE
8
DEFAULT_255_2_778
10
13.6273573
20
65.6510208
11
13.4839573
21
66.0772208
0
LINE
8
DEFAULT_255_2_778
10
13.4839573
20
66.0772208
11
12.7375573
21
66.0772208
0
LINE
8
DEFAULT_255_2_778
10
12.7375573
20
66.0772208
11
12.5957573
21
65.6510208
0
LINE
8
DEFAULT_255_2_778
10
12.5957573
20
65.6510208
11
12.1430573
21
65.6510208
0
LINE
8
DEFAULT_255_2_778
10
12.1430573
20
65.6510208
11
12.9119573
21
67.7200208
0
LINE
8
DEFAULT_255_2_778
10
12.9119573
20
67.7200208
11
13.3064573
21
67.7200208
0
LINE
8
DEFAULT_255_2_778
10
13.3064573
20
67.7200208
11
14.0795573
21
65.6510208
0
LINE
8
DEFAULT_255_2_778
10
14.0795573
20
65.6510208
11
13.6268573
21
65.6510208
0
LINE
8
DEFAULT_255_2_778
10
13.6268573
20
65.6510208
11
13.6273573
21
65.6510208
0
LINE
8
DEFAULT_255_2_778
10
13.1095573
20
67.1972208
11
12.8526573
21
66.4227208
0
LINE
8
DEFAULT_255_2_778
10
12.8526573
20
66.4227208
11
13.3691573
21
66.4227208
0
LINE
8
DEFAULT_255_2_778
10
13.3691573
20
66.4227208
11
13.1095573
21
67.1972208
0
LINE
8
DEFAULT_255_2_778
10
13.1095573
20
67.1972208
11
13.1095573
21
67.1972208
0
LINE
8
DEFAULT_255_2_778
10
15.0434115
20
66.7024969
11
15.0434115
21
66.3714969
0
LINE
8
DEFAULT_255_2_778
10
15.0434115
20
66.3714969
11
14.2446115
21
66.3714969
0
LINE
8
DEFAULT_255_2_778
10
14.2446115
20
66.3714969
11
14.2446115
21
66.7024969
0
LINE
8
DEFAULT_255_2_778
10
14.2446115
20
66.7024969
11
15.0434115
21
66.7024969
0
LINE
8
DEFAULT_255_2_778
10
15.0434115
20
66.7024969
11
15.0434115
21
66.7024969
0
LINE
8
DEFAULT_255_2_778
10
16.3515083
20
67.722676
11
16.3515083
21
65.650676
0
LINE
8
DEFAULT_255_2_778
10
16.3515083
20
65.650676
11
15.9414083
21
65.650676
0
LINE
8
DEFAULT_255_2_778
10
15.9414083
20
65.650676
11
15.9414083
21
67.233776
0
LINE
8
DEFAULT_255_2_778
10
15.9414083
20
67.233776
11
15.4519083
21
67.081576
0
LINE
8
DEFAULT_255_2_778
10
15.4519083
20
67.081576
11
15.4519083
21
67.415476
0
LINE
8
DEFAULT_255_2_778
10
15.4519083
20
67.415476
11
16.3073083
21
67.722376
0
LINE
8
DEFAULT_255_2_778
10
16.3073083
20
67.722376
11
16.3512083
21
67.722376
0
LINE
8
DEFAULT_255_2_778
10
16.3512083
20
67.722376
11
16.3515083
21
67.722676
0
LINE
8
DEFAULT_255_2_778
10
17.0970667
20
67.7222208
11
17.0970667
21
65.9955208
0
LINE
8
DEFAULT_255_2_778
10
17.0970667
20
65.9955208
11
18.0009667
21
65.9955208
0
LINE
8
DEFAULT_255_2_778
10
18.0009667
20
65.9955208
11
18.0009667
21
65.6532208
0
LINE
8
DEFAULT_255_2_778
10
18.0009667
20
65.6532208
11
16.6716667
21
65.6532208
0
LINE
8
DEFAULT_255_2_778
10
16.6716667
20
65.6532208
11
16.6716667
21
67.7222208
0
LINE
8
DEFAULT_255_2_778
10
16.6716667
20
67.7222208
11
17.0973667
21
67.7222208
0
LINE
8
DEFAULT_255_2_778
10
17.0973667
20
67.7222208
11
17.0970667
21
67.7222208
0
ENDSEC
0
EOF