0
SECTION
2
HEADER
9
$MEASUREMENT
70
1
0
ENDSEC
0
SECTION
2
TABLES
0
TABLE
2
LTYPE
0
LTYPE
72
65
70
64
2
CONTINUOUS
3
______
73
0
40
0
0
ENDTAB
0
TABLE
2
LAYER
0
LAYER
2
DEFAULT_255_2_778
70
0
62
255
6
CONTINUOUS
0
ENDTAB
0
ENDSEC
0
SECTION
2
ENTITIES
0
ARC
8
DEFAULT_255_2_778
10
28.6763368
20
87.7591283
40
2.0018623
50
359.9913179
51
44.9339089
0
ARC
8
DEFAULT_255_2_778
10
28.6812739
20
87.7636545
40
1.9951705
50
44.9420319
51
89.9964047
0
LINE
8
DEFAULT_255_2_778
10
30.6781991
20
85.8536249
11
30.6781991
21
87.7588249
0
LINE
8
DEFAULT_255_2_778
10
28.6813991
20
89.7588249
11
18.1985991
21
89.7588249
0
LINE
8
DEFAULT_255_2_778
10
18.1985991
20
89.7588249
11
18.1985991
21
86.0525249
0
ARC
8
DEFAULT_255_2_778
10
2.2250004
20
87.7636541
40
1.9951709
50
90.0035985
51
135.0579628
0
ARC
8
DEFAULT_255_2_778
10
2.2299369
20
87.7591285
40
2.0018618
50
135.0660833
51
180.008687
0
LINE
8
DEFAULT_255_2_778
10
9.2132751
20
86.0525249
11
9.2132751
21
89.7588249
0
LINE
8
DEFAULT_255_2_778
10
9.2132751
20
89.7588249
11
2.2248751
21
89.7588249
0
LINE
8
DEFAULT_255_2_778
10
0.2280751
20
87.7588249
11
0.2280751
21
85.8536249
0
LINE
8
DEFAULT_255_2_778
10
30.7281948
20
65.0070645
11
28.7313948
21
65.0070645
0
LINE
8
DEFAULT_255_2_778
10
28.7313948
20
65.0070645
11
28.7313948
21
72.5177645
0
LINE
8
DEFAULT_255_2_778
10
28.7313948
20
72.5177645
11
30.7281948
21
74.5071645
0
LINE
8
DEFAULT_255_2_778
10
30.7281948
20
74.5071645
11
30.7281948
21
65.0070645
0
LINE
8
DEFAULT_255_2_778
10
28.7313428
20
72.5177311
11
21.1936428
21
65.0072311
0
LINE
8
DEFAULT_255_2_778
10
21.1936428
20
65.0072311
11
28.7313428
21
65.0072311
0
LINE
8
DEFAULT_255_2_778
10
9.6129275
20
75.6435634
11
13.5565275
21
75.6435634
0
LINE
8
DEFAULT_255_2_778
10
13.5565275
20
75.6435634
11
13.5565275
21
74.5540634
0
LINE
8
DEFAULT_255_2_778
10
13.5565275
20
74.5540634
11
16.8511275
21
74.5540634
0
LINE
8
DEFAULT_255_2_778
10
16.8511275
20
74.5540634
11
16.8511275
21
75.6435634
0
LINE
8
DEFAULT_255_2_778
10
16.8511275
20
75.6435634
11
20.7947275
21
75.6435634
0
LINE
8
DEFAULT_255_2_778
10
20.7947275
20
75.6435634
11
20.7947275
21
74.5540634
0
LINE
8
DEFAULT_255_2_778
10
20.7947275
20
74.5540634
11
28.6816275
21
74.5540634
0
LINE
8
DEFAULT_255_2_778
10
28.6816275
20
74.5540634
11
28.6816275
21
86.0525634
0
LINE
8
DEFAULT_255_2_778
10
28.6816275
20
86.0525634
11
18.1986275
21
86.0525634
0
LINE
8
DEFAULT_255_2_778
10
18.1986275
20
86.0525634
11
18.1986275
21
84.7571634
0
LINE
8
DEFAULT_255_2_778
10
18.1986275
20
84.7571634
11
9.2133275
21
84.7571634
0
LINE
8
DEFAULT_255_2_778
10
9.2133275
20
84.7571634
11
9.2133275
21
86.0525634
0
LINE
8
DEFAULT_255_2_778
10
9.2133275
20
86.0525634
11
2.2249275
21
86.0525634
0
LINE
8
DEFAULT_255_2_778
10
2.2249275
20
86.0525634
11
2.2249275
21
74.5540634
0
LINE
8
DEFAULT_255_2_778
10
2.2249275
20
74.5540634
11
9.6129275
21
74.5540634
0
LINE
8
DEFAULT_255_2_778
10
9.6129275
20
74.5540634
11
9.6129275
21
75.6435634
0
LINE
8
DEFAULT_255_2_778
10
9.6129275
20
75.6435634
11
9.6303275
21
75.6261634
0
LINE
8
DEFAULT_255_2_778
10
9.6303275
20
75.6261634
11
9.9624275
21
75.2604634
0
LINE
8
DEFAULT_255_2_778
10
28.6813917
20
72.4679875
11
28.6813917
21
74.5539875
0
LINE
8
DEFAULT_255_2_778
10
28.6813917
20
74.5539875
11
30.6773917
21
74.4568875
0
ARC
8
DEFAULT_255_2_778
10
0.2602653
20
74.4340424
40
0.0380311
50
91.6234715
51
147.7295436
0
ARC
8
DEFAULT_255_2_778
10
0.4326713
20
73.7868269
40
0.706851
50
96.9400238
51
104.2073285
0
ARC
8
DEFAULT_255_2_778
10
0.7168636
20
71.7194546
40
2.7936019
50
95.0238714
51
97.6026815
0
ARC
8
DEFAULT_255_2_778
10
1.0279151
20
68.324914
40
6.2023533
50
93.8297863
51
95.1402119
0
ARC
8
DEFAULT_255_2_778
10
1.3779174
20
63.0987526
40
11.4402217
50
92.6938106
51
93.8305457
0
ARC
8
DEFAULT_255_2_778
10
1.7450899
20
55.4083676
40
19.1393658
50
91.8354214
51
92.7097663
0
ARC
8
DEFAULT_255_2_778
10
2.0340589
20
46.4984672
40
28.0539505
50
91.0721054
51
91.8424644
0
ARC
8
DEFAULT_255_2_778
10
2.1794048
20
39.0913486
40
35.4624924
50
90.5231781
51
91.082976
0
ARC
8
DEFAULT_255_2_778
10
2.222701
20
34.5692304
40
39.9848175
50
89.9968366
51
90.5260479
0
LINE
8
DEFAULT_255_2_778
10
2.2249086
20
65.0073478
11
0.2281086
21
65.0073478
0
LINE
8
DEFAULT_255_2_778
10
0.2281086
20
65.0073478
11
0.2281086
21
74.4543478
0
LINE
8
DEFAULT_255_2_778
10
0.2281086
20
74.4543478
11
0.2281086
21
74.4543478
0
LINE
8
DEFAULT_255_2_778
10
2.2249086
20
74.5540478
11
2.2249086
21
65.0073478
0
LINE
8
DEFAULT_255_2_778
10
2.2249086
20
65.0073478
11
21.1937086
21
65.0073478
0
ARC
8
DEFAULT_255_2_778
10
1.7310353
20
80.8958742
40
5.1805084
50
90.0003192
51
106.8648101
0
ARC
8
DEFAULT_255_2_778
10
1.7310103
20
80.8973581
40
5.1790243
50
88.1414758
51
90.0000424
0
ARC
8
DEFAULT_255_2_778
10
1.7310288
20
80.897845
40
5.1785371
50
84.5275077
51
88.1415061
0
LINE
8
DEFAULT_255_2_778
10
0.2280948
20
74.454179
11
0.2280948
21
85.853579
0
LINE
8
DEFAULT_255_2_778
10
2.2248948
20
86.052779
11
2.2248948
21
89.758779
0
ARC
8
DEFAULT_255_2_778
10
29.1752543
20
80.8958867
40
5.1805084
50
73.1351899
51
89.9996808
0
ARC
8
DEFAULT_255_2_778
10
29.1752793
20
80.8973706
40
5.1790243
50
89.9999576
51
91.8585242
0
ARC
8
DEFAULT_255_2_778
10
29.1752608
20
80.8978575
40
5.1785371
50
91.8584939
51
95.4724923
0
LINE
8
DEFAULT_255_2_778
10
30.6781948
20
74.4573915
11
30.6781948
21
85.8535915
0
LINE
8
DEFAULT_255_2_778
10
28.6813948
20
86.0527915
11
28.6813948
21
89.7587915
0
LINE
8
DEFAULT_255_2_778
10
29.1807202
20
62.816575
11
0.2281202
21
62.816575
0
LINE
8
DEFAULT_255_2_778
10
0.2281202
20
62.816575
11
0.2281202
21
65.007275
0
ARC
8
DEFAULT_255_2_778
10
2.2298952
20
1.7570977
40
2.0018618
50
179.991313
51
224.9339167
0
ARC
8
DEFAULT_255_2_778
10
2.2248436
20
1.752294
40
1.9948928
50
224.9387206
51
269.9910929
0
LINE
8
DEFAULT_255_2_778
10
0.2280335
20
62.8166012
11
0.2280335
21
1.7574012
0
LINE
8
DEFAULT_255_2_778
10
2.2245335
20
-0.2425988
11
11.5987335
21
-0.2425988
0
ARC
8
DEFAULT_255_2_778
10
20.415442
20
79.6754795
40
0.0888624
50
46.5886642
51
69.3007456
0
ARC
8
DEFAULT_255_2_778
10
19.588936
20
78.6291615
40
1.4219085
50
47.6689393
51
51.3754888
0
ARC
8
DEFAULT_255_2_778
10
17.1595576
20
75.9256972
40
5.0565238
50
46.2212085
51
47.9475927
0
ARC
8
DEFAULT_255_2_778
10
14.3206432
20
72.9474287
40
9.1710656
50
45.0986318
51
46.2889911
0
ARC
8
DEFAULT_255_2_778
10
17.1115353
20
81.2262185
40
0.0951347
50
21.0970782
51
43.449368
0
ARC
8
DEFAULT_255_2_778
10
16.168332
20
80.4861487
40
1.2936429
50
38.5103909
51
41.7710304
0
ARC
8
DEFAULT_255_2_778
10
13.8622547
20
78.4420234
40
4.3752659
50
41.6181952
51
43.4992821
0
ARC
8
DEFAULT_255_2_778
10
10.6735933
20
75.428288
40
8.7627621
50
43.441819
51
45.0139519
0
ARC
8
DEFAULT_255_2_778
10
20.5334368
20
81.2260471
40
0.0952701
50
136.5358237
51
158.8361512
0
ARC
8
DEFAULT_255_2_778
10
21.4803495
20
80.4825205
40
1.2988307
50
138.2229364
51
141.4705775
0
ARC
8
DEFAULT_255_2_778
10
23.7925385
20
78.4325037
40
4.3889354
50
136.4996953
51
138.3753316
0
ARC
8
DEFAULT_255_2_778
10
26.9789512
20
75.4208033
40
8.7733996
50
134.9864077
51
136.5571311
0
LINE
8
DEFAULT_255_2_778
10
20.4448928
20
81.2585052
11
17.2002928
21
81.2585052
0
LINE
8
DEFAULT_255_2_778
10
17.2002928
20
79.7586052
11
17.2002928
21
81.2604052
0
LINE
8
DEFAULT_255_2_778
10
16.8682928
20
81.6260052
11
16.8507928
21
81.6435052
0
LINE
8
DEFAULT_255_2_778
10
16.8507928
20
81.6435052
11
20.7943928
21
81.6435052
0
LINE
8
DEFAULT_255_2_778
10
20.7943928
20
81.6435052
11
20.7943928
21
79.4435052
0
LINE
8
DEFAULT_255_2_778
10
20.7943928
20
79.4435052
11
16.8507928
21
79.4435052
0
LINE
8
DEFAULT_255_2_778
10
16.8507928
20
79.4435052
11
16.8507928
21
81.6435052
0
LINE
8
DEFAULT_255_2_778
10
16.8507928
20
79.4435052
11
17.1984928
21
79.7586052
0
LINE
8
DEFAULT_255_2_778
10
17.1984928
20
79.7586052
11
20.4464928
21
79.7586052
0
LINE
8
DEFAULT_255_2_778
10
20.4464928
20
79.7586052
11
20.4445928
21
81.2604052
0
LINE
8
DEFAULT_255_2_778
10
20.7766928
20
81.6260052
11
20.7940928
21
81.6435052
0
ARC
8
DEFAULT_255_2_778
10
20.4153928
20
76.6756122
40
0.0889314
50
46.6047449
51
69.3058342
0
ARC
8
DEFAULT_255_2_778
10
19.5892702
20
75.6292602
40
1.4217666
50
47.6812807
51
51.3891873
0
ARC
8
DEFAULT_255_2_778
10
17.1693228
20
72.9351157
40
5.0431463
50
46.2284392
51
47.9597174
0
ARC
8
DEFAULT_255_2_778
10
14.3585443
20
69.985547
40
9.117501
50
45.0988339
51
46.2962664
0
ARC
8
DEFAULT_255_2_778
10
20.5334026
20
78.2264011
40
0.0951266
50
136.5316649
51
158.8898547
0
ARC
8
DEFAULT_255_2_778
10
21.4774283
20
77.4852492
40
1.2949494
50
138.2153871
51
141.4734472
0
ARC
8
DEFAULT_255_2_778
10
23.790767
20
75.4337241
40
4.3869149
50
136.4920643
51
138.3684858
0
ARC
8
DEFAULT_255_2_778
10
27.0057377
20
72.3941788
40
8.8112604
50
134.9859797
51
136.5495751
0
LINE
8
DEFAULT_255_2_778
10
20.4449605
20
78.2587052
11
17.2003605
21
78.2587052
0
LINE
8
DEFAULT_255_2_778
10
20.7944605
20
76.4437052
11
16.8508605
21
76.4437052
0
LINE
8
DEFAULT_255_2_778
10
16.8508605
20
76.4437052
11
16.8508605
21
78.6437052
0
LINE
8
DEFAULT_255_2_778
10
16.8508605
20
78.6437052
11
20.7944605
21
78.6437052
0
LINE
8
DEFAULT_255_2_778
10
20.7944605
20
78.6437052
11
20.7944605
21
76.4437052
0
LINE
8
DEFAULT_255_2_778
10
16.8508605
20
76.4437052
11
17.1984605
21
76.7588052
0
LINE
8
DEFAULT_255_2_778
10
17.1984605
20
76.7588052
11
20.4465605
21
76.7588052
0
LINE
8
DEFAULT_255_2_778
10
20.4465605
20
76.7588052
11
20.4446605
21
78.2606052
0
LINE
8
DEFAULT_255_2_778
10
20.7767605
20
78.6262052
11
20.7941605
21
78.6437052
0
LINE
8
DEFAULT_255_2_778
10
16.8505605
20
78.6437052
11
16.8680605
21
78.6262052
0
LINE
8
DEFAULT_255_2_778
10
16.8680605
20
78.6262052
11
17.2000605
21
78.2606052
0
LINE
8
DEFAULT_255_2_778
10
17.2000605
20
78.2606052
11
17.2000605
21
76.7588052
0
LINE
8
DEFAULT_255_2_778
10
16.8507928
20
75.6435354
11
16.8682928
21
75.6260354
0
LINE
8
DEFAULT_255_2_778
10
16.8682928
20
75.6260354
11
17.2002928
21
75.2604354
0
LINE
8
DEFAULT_255_2_778
10
17.2002928
20
75.2585354
11
17.2002928
21
75.2604354
0
LINE
8
DEFAULT_255_2_778
10
20.7943928
20
75.6435354
11
20.7769928
21
75.6260354
0
LINE
8
DEFAULT_255_2_778
10
20.7769928
20
75.6260354
11
20.4448928
21
75.2604354
0
LINE
8
DEFAULT_255_2_778
10
20.4448928
20
75.2604354
11
20.4448928
21
75.2585354
0
LINE
8
DEFAULT_255_2_778
10
17.2002928
20
73.7586354
11
20.4448928
21
73.7586354
0
LINE
8
DEFAULT_255_2_778
10
16.8507928
20
74.5539354
11
16.8507928
21
73.4088354
0
LINE
8
DEFAULT_255_2_778
10
20.7943928
20
74.5539354
11
20.7943928
21
73.4088354
0
LINE
8
DEFAULT_255_2_778
10
20.7943928
20
73.4088354
11
16.8507928
21
73.4088354
0
LINE
8
DEFAULT_255_2_778
10
16.8507928
20
73.4088354
11
17.2002928
21
73.7589354
0
LINE
8
DEFAULT_255_2_778
10
17.2002928
20
73.7589354
11
17.2002928
21
74.5542354
0
LINE
8
DEFAULT_255_2_778
10
17.2002928
20
74.5542354
11
17.2002928
21
75.2591354
0
LINE
8
DEFAULT_255_2_778
10
17.2002928
20
75.2591354
11
20.4448928
21
75.2591354
0
LINE
8
DEFAULT_255_2_778
10
20.4448928
20
75.2591354
11
20.4448928
21
74.5542354
0
LINE
8
DEFAULT_255_2_778
10
20.4448928
20
74.5542354
11
20.4448928
21
73.7589354
0
LINE
8
DEFAULT_255_2_778
10
20.4448928
20
73.7589354
11
20.7943928
21
73.4088354
0
LINE
8
DEFAULT_255_2_778
10
20.7943928
20
70.4088052
11
20.7943928
21
72.6088052
0
LINE
8
DEFAULT_255_2_778
10
20.7943928
20
72.6088052
11
16.8507928
21
72.6088052
0
LINE
8
DEFAULT_255_2_778
10
16.8507928
20
72.6088052
11
16.8507928
21
70.4088052
0
LINE
8
DEFAULT_255_2_778
10
16.8507928
20
70.4088052
11
20.7943928
21
70.4088052
0
LINE
8
DEFAULT_255_2_778
10
20.7943928
20
70.4088052
11
20.4448928
21
70.7588052
0
LINE
8
DEFAULT_255_2_778
10
20.4448928
20
70.7588052
11
20.4448928
21
72.2588052
0
LINE
8
DEFAULT_255_2_778
10
20.4448928
20
72.2588052
11
20.7943928
21
72.6088052
0
LINE
8
DEFAULT_255_2_778
10
17.2002928
20
70.7588052
11
20.4448928
21
70.7588052
0
LINE
8
DEFAULT_255_2_778
10
17.2002928
20
72.2588052
11
17.2002928
21
70.7588052
0
LINE
8
DEFAULT_255_2_778
10
17.2002928
20
70.7588052
11
16.8507928
21
70.4088052
0
LINE
8
DEFAULT_255_2_778
10
20.4448928
20
72.2588052
11
17.2002928
21
72.2588052
0
LINE
8
DEFAULT_255_2_778
10
17.2002928
20
72.2588052
11
16.8507928
21
72.6088052
0
LINE
8
DEFAULT_255_2_778
10
9.6125928
20
70.4088052
11
9.9620928
21
70.7588052
0
LINE
8
DEFAULT_255_2_778
10
9.9620928
20
70.7588052
11
13.2066928
21
70.7588052
0
LINE
8
DEFAULT_255_2_778
10
13.2066928
20
70.7588052
11
13.5561928
21
70.4088052
0
LINE
8
DEFAULT_255_2_778
10
13.2066928
20
70.7588052
11
13.2066928
21
72.2588052
0
LINE
8
DEFAULT_255_2_778
10
13.2066928
20
72.2588052
11
13.5561928
21
72.6088052
0
LINE
8
DEFAULT_255_2_778
10
13.5561928
20
72.6088052
11
13.5561928
21
70.4088052
0
LINE
8
DEFAULT_255_2_778
10
13.5561928
20
70.4088052
11
9.6125928
21
70.4088052
0
LINE
8
DEFAULT_255_2_778
10
9.6125928
20
70.4088052
11
9.6125928
21
72.6088052
0
LINE
8
DEFAULT_255_2_778
10
9.6125928
20
72.6088052
11
13.5561928
21
72.6088052
0
LINE
8
DEFAULT_255_2_778
10
9.9620928
20
72.2588052
11
9.9620928
21
70.7588052
0
LINE
8
DEFAULT_255_2_778
10
13.2066928
20
72.2588052
11
9.9620928
21
72.2588052
0
LINE
8
DEFAULT_255_2_778
10
9.9620928
20
72.2588052
11
9.6125928
21
72.6088052
0
LINE
8
DEFAULT_255_2_778
10
13.5561928
20
75.6435323
11
13.5387928
21
75.6260323
0
LINE
8
DEFAULT_255_2_778
10
13.5387928
20
75.6260323
11
13.2066928
21
75.2604323
0
LINE
8
DEFAULT_255_2_778
10
9.9620928
20
73.7586323
11
9.9620928
21
74.5537323
0
LINE
8
DEFAULT_255_2_778
10
9.9620928
20
74.5537323
11
9.9620928
21
75.2585323
0
LINE
8
DEFAULT_255_2_778
10
9.9620928
20
75.2585323
11
13.2066928
21
75.2585323
0
LINE
8
DEFAULT_255_2_778
10
9.6125928
20
74.5537323
11
9.6125928
21
73.4086323
0
LINE
8
DEFAULT_255_2_778
10
13.5561928
20
74.5537323
11
13.5561928
21
73.4086323
0
LINE
8
DEFAULT_255_2_778
10
13.5561928
20
73.4086323
11
9.6125928
21
73.4086323
0
LINE
8
DEFAULT_255_2_778
10
9.6125928
20
73.4086323
11
9.6808928
21
73.4768323
0
LINE
8
DEFAULT_255_2_778
10
9.6808928
20
73.4768323
11
9.7464928
21
73.5424323
0
LINE
8
DEFAULT_255_2_778
10
9.7464928
20
73.5424323
11
9.8067928
21
73.6030323
0
LINE
8
DEFAULT_255_2_778
10
9.8067928
20
73.6030323
11
9.8596928
21
73.6560323
0
LINE
8
DEFAULT_255_2_778
10
9.8596928
20
73.6560323
11
9.9030928
21
73.6993323
0
LINE
8
DEFAULT_255_2_778
10
9.9030928
20
73.6993323
11
9.9353928
21
73.7316323
0
LINE
8
DEFAULT_255_2_778
10
9.9353928
20
73.7316323
11
9.9551928
21
73.7515323
0
LINE
8
DEFAULT_255_2_778
10
9.9551928
20
73.7515323
11
9.9617928
21
73.7581323
0
LINE
8
DEFAULT_255_2_778
10
9.9617928
20
73.7581323
11
13.2063928
21
73.7581323
0
LINE
8
DEFAULT_255_2_778
10
13.5558928
20
73.4080323
11
13.2063928
21
73.7581323
0
LINE
8
DEFAULT_255_2_778
10
13.2063928
20
73.7581323
11
13.2063928
21
75.2580323
0
ARC
8
DEFAULT_255_2_778
10
13.2954349
20
78.2264011
40
0.0951266
50
136.5316649
51
158.8898547
0
ARC
8
DEFAULT_255_2_778
10
14.2394606
20
77.4852492
40
1.2949494
50
138.2153871
51
141.4734472
0
ARC
8
DEFAULT_255_2_778
10
16.5527992
20
75.4337241
40
4.3869149
50
136.4920643
51
138.3684858
0
ARC
8
DEFAULT_255_2_778
10
19.76777
20
72.3941788
40
8.8112604
50
134.9859797
51
136.5495751
0
ARC
8
DEFAULT_255_2_778
10
13.177242
20
76.6756795
40
0.0888624
50
46.5886642
51
69.3007456
0
ARC
8
DEFAULT_255_2_778
10
12.350736
20
75.6293615
40
1.4219085
50
47.6689393
51
51.3754888
0
ARC
8
DEFAULT_255_2_778
10
9.9213576
20
72.9258972
40
5.0565238
50
46.2212085
51
47.9475927
0
ARC
8
DEFAULT_255_2_778
10
7.0824432
20
69.9476287
40
9.1710656
50
45.0986318
51
46.2889911
0
LINE
8
DEFAULT_255_2_778
10
13.2066928
20
78.2587052
11
9.9620928
21
78.2587052
0
LINE
8
DEFAULT_255_2_778
10
13.2066928
20
76.7588052
11
13.2066928
21
78.2606052
0
LINE
8
DEFAULT_255_2_778
10
13.5387928
20
78.6262052
11
13.5561928
21
78.6437052
0
LINE
8
DEFAULT_255_2_778
10
9.6125928
20
76.4437052
11
9.9602928
21
76.7588052
0
LINE
8
DEFAULT_255_2_778
10
9.9602928
20
76.7588052
11
13.2085928
21
76.7588052
0
LINE
8
DEFAULT_255_2_778
10
13.5561928
20
76.4437052
11
9.6125928
21
76.4437052
0
LINE
8
DEFAULT_255_2_778
10
9.6125928
20
76.4437052
11
9.6125928
21
78.6437052
0
LINE
8
DEFAULT_255_2_778
10
9.6125928
20
78.6437052
11
13.5561928
21
78.6437052
0
LINE
8
DEFAULT_255_2_778
10
13.5561928
20
78.6437052
11
13.5561928
21
76.4437052
0
LINE
8
DEFAULT_255_2_778
10
9.6125928
20
78.6437052
11
9.6300928
21
78.6262052
0
LINE
8
DEFAULT_255_2_778
10
9.6300928
20
78.6262052
11
9.9620928
21
78.2606052
0
LINE
8
DEFAULT_255_2_778
10
9.9620928
20
78.2606052
11
9.9620928
21
76.7588052
0
ARC
8
DEFAULT_255_2_778
10
9.8733353
20
81.2262185
40
0.0951347
50
21.0970782
51
43.449368
0
ARC
8
DEFAULT_255_2_778
10
8.930132
20
80.4861487
40
1.2936429
50
38.5103909
51
41.7710304
0
ARC
8
DEFAULT_255_2_778
10
6.6240547
20
78.4420234
40
4.3752659
50
41.6181952
51
43.4992821
0
ARC
8
DEFAULT_255_2_778
10
3.4353933
20
75.428288
40
8.7627621
50
43.441819
51
45.0139519
0
ARC
8
DEFAULT_255_2_778
10
13.2954349
20
81.2262011
40
0.0951266
50
136.5316649
51
158.8898547
0
ARC
8
DEFAULT_255_2_778
10
14.2394606
20
80.4850492
40
1.2949494
50
138.2153871
51
141.4734472
0
ARC
8
DEFAULT_255_2_778
10
16.5527992
20
78.4335241
40
4.3869149
50
136.4920643
51
138.3684858
0
ARC
8
DEFAULT_255_2_778
10
19.76777
20
75.3939788
40
8.8112604
50
134.9859797
51
136.5495751
0
ARC
8
DEFAULT_255_2_778
10
13.177242
20
79.6754795
40
0.0888624
50
46.5886642
51
69.3007456
0
ARC
8
DEFAULT_255_2_778
10
12.350736
20
78.6291615
40
1.4219085
50
47.6689393
51
51.3754888
0
ARC
8
DEFAULT_255_2_778
10
9.9213576
20
75.9256972
40
5.0565238
50
46.2212085
51
47.9475927
0
ARC
8
DEFAULT_255_2_778
10
7.0824432
20
72.9474287
40
9.1710656
50
45.0986318
51
46.2889911
0
LINE
8
DEFAULT_255_2_778
10
13.2066928
20
81.2585052
11
9.9620928
21
81.2585052
0
LINE
8
DEFAULT_255_2_778
10
9.9620928
20
79.7586052
11
9.9620928
21
81.2604052
0
LINE
8
DEFAULT_255_2_778
10
9.6300928
20
81.6260052
11
9.6125928
21
81.6435052
0
LINE
8
DEFAULT_255_2_778
10
9.6125928
20
81.6435052
11
13.5561928
21
81.6435052
0
LINE
8
DEFAULT_255_2_778
10
13.5561928
20
81.6435052
11
13.5561928
21
79.4435052
0
LINE
8
DEFAULT_255_2_778
10
13.5561928
20
79.4435052
11
9.6125928
21
79.4435052
0
LINE
8
DEFAULT_255_2_778
10
9.6125928
20
79.4435052
11
9.6125928
21
81.6435052
0
LINE
8
DEFAULT_255_2_778
10
13.2066928
20
79.7586052
11
13.2066928
21
81.2604052
0
LINE
8
DEFAULT_255_2_778
10
13.5387928
20
81.6260052
11
13.5561928
21
81.6435052
0
LINE
8
DEFAULT_255_2_778
10
9.6125928
20
79.4435052
11
9.9602928
21
79.7586052
0
LINE
8
DEFAULT_255_2_778
10
9.9602928
20
79.7586052
11
13.2085928
21
79.7586052
0
LINE
8
DEFAULT_255_2_778
10
18.1984751
20
89.7571978
11
17.9489751
21
89.7571978
0
LINE
8
DEFAULT_255_2_778
10
17.9489751
20
88.5384978
11
18.1984751
21
88.5384978
0
LINE
8
DEFAULT_255_2_778
10
9.4627751
20
89.7571978
11
9.2132751
21
89.7571978
0
LINE
8
DEFAULT_255_2_778
10
9.2132751
20
88.5384978
11
9.4627751
21
88.5384978
0
LINE
8
DEFAULT_255_2_778
10
17.9487751
20
86.0527978
11
9.4627751
21
86.0527978
0
LINE
8
DEFAULT_255_2_778
10
9.4627751
20
86.0527978
11
9.4627751
21
84.8729978
0
LINE
8
DEFAULT_255_2_778
10
9.4627751
20
84.8729978
11
17.9487751
21
84.8729978
0
LINE
8
DEFAULT_255_2_778
10
17.9487751
20
84.8729978
11
17.9487751
21
89.7587978
0
LINE
8
DEFAULT_255_2_778
10
17.9487751
20
89.7587978
11
9.4627751
21
89.7587978
0
LINE
8
DEFAULT_255_2_778
10
9.4627751
20
89.7587978
11
9.4627751
21
86.0524978
0
LINE
8
DEFAULT_255_2_778
10
19.1471
20
21.0290541
11
19.1471
21
14.6589541
0
LINE
8
DEFAULT_255_2_778
10
19.1470918
20
34.1090458
11
11.3598918
21
34.1090458
0
LINE
8
DEFAULT_255_2_778
10
11.3598918
20
34.1090458
11
11.3598918
21
32.8591458
0
LINE
8
DEFAULT_255_2_778
10
11.3598918
20
32.8591458
11
19.1470918
21
32.8591458
0
LINE
8
DEFAULT_255_2_778
10
19.1470918
20
41.6088458
11
11.3598918
21
41.6088458
0
LINE
8
DEFAULT_255_2_778
10
11.3598918
20
41.6088458
11
11.3598918
21
40.3589458
0
LINE
8
DEFAULT_255_2_778
10
11.3598918
20
40.3589458
11
19.1470918
21
40.3589458
0
LINE
8
DEFAULT_255_2_778
10
19.1470918
20
17.6590583
11
11.3598918
21
17.6590583
0
LINE
8
DEFAULT_255_2_778
10
11.3598918
20
17.6590583
11
11.3598918
21
19.1089583
0
LINE
8
DEFAULT_255_2_778
10
11.3598918
20
19.1089583
11
19.1470918
21
19.1089583
0
LINE
8
DEFAULT_255_2_778
10
19.1470918
20
26.6088458
11
11.3598918
21
26.6088458
0
LINE
8
DEFAULT_255_2_778
10
11.3598918
20
26.6088458
11
11.3598918
21
25.3589458
0
LINE
8
DEFAULT_255_2_778
10
11.3598918
20
25.3589458
11
19.1470918
21
25.3589458
0
LINE
8
DEFAULT_255_2_778
10
19.1470918
20
49.1090458
11
11.3598918
21
49.1090458
0
LINE
8
DEFAULT_255_2_778
10
11.3598918
20
49.1090458
11
11.3598918
21
47.8591458
0
LINE
8
DEFAULT_255_2_778
10
11.3598918
20
47.8591458
11
19.1470918
21
47.8591458
0
LINE
8
DEFAULT_255_2_778
10
11.3599
20
17.6587552
11
11.3599
21
14.6586552
0
LINE
8
DEFAULT_255_2_778
10
26.0781
20
22.2075541
11
26.0781
21
28.5776541
0
LINE
8
DEFAULT_255_2_778
10
26.0781
20
29.7560541
11
26.0781
21
36.1261541
0
LINE
8
DEFAULT_255_2_778
10
26.0781
20
37.3046541
11
26.0781
21
43.6747541
0
LINE
8
DEFAULT_255_2_778
10
11.8592
20
55.3589937
11
11.8592
21
49.1089937
0
LINE
8
DEFAULT_255_2_778
10
18.0988
20
49.1089937
11
18.0988
21
55.3589937
0
LINE
8
DEFAULT_255_2_778
10
11.3599
20
55.3589937
11
11.3599
21
49.1089937
0
LINE
8
DEFAULT_255_2_778
10
11.8592
20
47.8588937
11
11.8592
21
41.6088937
0
LINE
8
DEFAULT_255_2_778
10
18.0988
20
41.6088937
11
18.0988
21
47.8588937
0
LINE
8
DEFAULT_255_2_778
10
11.3599
20
47.8588937
11
11.3599
21
41.6088937
0
LINE
8
DEFAULT_255_2_778
10
11.8592
20
40.3589937
11
11.8592
21
34.1089937
0
LINE
8
DEFAULT_255_2_778
10
18.0988
20
34.1089937
11
18.0988
21
40.3589937
0
LINE
8
DEFAULT_255_2_778
10
11.3599
20
40.3589937
11
11.3599
21
34.1089937
0
LINE
8
DEFAULT_255_2_778
10
11.8592
20
32.8588937
11
11.8592
21
26.6088937
0
LINE
8
DEFAULT_255_2_778
10
18.0988
20
26.6088937
11
18.0988
21
32.8588937
0
LINE
8
DEFAULT_255_2_778
10
11.3599
20
32.8588937
11
11.3599
21
26.6088937
0
LINE
8
DEFAULT_255_2_778
10
11.8592
20
25.3589937
11
11.8592
21
19.1089937
0
LINE
8
DEFAULT_255_2_778
10
18.0988
20
19.1089937
11
18.0988
21
25.3589937
0
LINE
8
DEFAULT_255_2_778
10
11.3599
20
25.3589937
11
11.3599
21
19.1089937
0
LINE
8
DEFAULT_255_2_778
10
19.7267709
20
21.0287593
11
19.7267709
21
14.9732593
0
LINE
8
DEFAULT_255_2_778
10
19.7267709
20
14.9732593
11
26.0778709
21
14.9732593
0
LINE
8
DEFAULT_255_2_778
10
26.0778709
20
14.9732593
11
26.0778709
21
21.0287593
0
LINE
8
DEFAULT_255_2_778
10
19.7268
20
51.2233541
11
19.7268
21
44.8532541
0
LINE
8
DEFAULT_255_2_778
10
26.0781
20
44.8532541
11
26.0781
21
51.2233541
0
LINE
8
DEFAULT_255_2_778
10
19.1471
20
51.2233541
11
19.1471
21
44.8532541
0
LINE
8
DEFAULT_255_2_778
10
19.7268
20
43.6747541
11
19.7268
21
37.3046541
0
LINE
8
DEFAULT_255_2_778
10
19.1471
20
43.6747541
11
19.1471
21
37.3046541
0
LINE
8
DEFAULT_255_2_778
10
19.7268
20
36.1261541
11
19.7268
21
29.7560541
0
LINE
8
DEFAULT_255_2_778
10
19.1471
20
36.1261541
11
19.1471
21
29.7560541
0
LINE
8
DEFAULT_255_2_778
10
19.7268
20
28.5776541
11
19.7268
21
22.2075541
0
LINE
8
DEFAULT_255_2_778
10
19.1471
20
28.5776541
11
19.1471
21
22.2075541
0
ARC
8
DEFAULT_255_2_778
10
15.026889
20
52.180585
40
2.2393945
50
79.8423181
51
89.9201973
0
ARC
8
DEFAULT_255_2_778
10
15.02673
20
51.9833
40
2.4366794
50
89.9229205
51
89.9963295
0
ARC
8
DEFAULT_255_2_778
10
15.0268451
20
52.1818585
40
2.238121
50
89.9989515
51
100.1605819
0
ARC
8
DEFAULT_255_2_778
10
15.0352895
20
52.1635342
40
2.2424201
50
279.9258558
51
305.5606851
0
ARC
8
DEFAULT_255_2_778
10
15.0311337
20
52.1702761
40
2.2503214
50
305.5469321
51
352.0672496
0
ARC
8
DEFAULT_255_2_778
10
15.0217393
20
52.1692417
40
2.2594844
50
352.1261076
51
0.0111011
0
ARC
8
DEFAULT_255_2_778
10
15.0389416
20
52.1715928
40
2.2422828
50
359.95111
51
25.587256
0
ARC
8
DEFAULT_255_2_778
10
15.0314452
20
52.1686006
40
2.2503365
50
25.5735376
51
72.0921028
0
ARC
8
DEFAULT_255_2_778
10
15.0309023
20
52.1593312
40
2.2593248
50
72.1512825
51
80.0362133
0
ARC
8
DEFAULT_255_2_778
10
15.0185243
20
52.1759517
40
2.2424862
50
99.9246931
51
125.2499885
0
ARC
8
DEFAULT_255_2_778
10
15.0226883
20
52.1693347
40
2.2502933
50
125.2393339
51
172.0237487
0
ARC
8
DEFAULT_255_2_778
10
15.0322545
20
52.1703239
40
2.2596309
50
172.0822472
51
180.0112699
0
ARC
8
DEFAULT_255_2_778
10
15.0150431
20
52.1679539
40
2.2424204
50
179.9508005
51
205.5852304
0
ARC
8
DEFAULT_255_2_778
10
15.022263
20
52.1708211
40
2.2501704
50
205.5716878
51
252.093825
0
ARC
8
DEFAULT_255_2_778
10
15.0229406
20
52.180429
40
2.2595224
50
252.1523816
51
260.0372032
0
ARC
8
DEFAULT_255_2_778
10
15.0268512
20
52.1532966
40
2.2334922
50
259.8179777
51
270.0008943
0
ARC
8
DEFAULT_255_2_778
10
15.02673
20
52.3564838
40
2.4366794
50
270.0036705
51
270.0770795
0
ARC
8
DEFAULT_255_2_778
10
15.0268848
20
52.1545451
40
2.2347406
50
270.0800754
51
280.1791688
0
LINE
8
DEFAULT_255_2_778
10
16.4698236
20
51.6688794
11
15.4218236
21
51.6688794
0
LINE
8
DEFAULT_255_2_778
10
15.4218236
20
51.6688794
11
15.4218236
21
49.9546794
0
LINE
8
DEFAULT_255_2_778
10
15.4218236
20
54.3845794
11
15.4218236
21
52.6703794
0
LINE
8
DEFAULT_255_2_778
10
15.4218236
20
52.6703794
11
16.4698236
21
52.6703794
0
LINE
8
DEFAULT_255_2_778
10
16.4698236
20
52.6703794
11
16.4698236
21
51.6688794
0
LINE
8
DEFAULT_255_2_778
10
13.5840236
20
52.6706794
11
14.6320236
21
52.6706794
0
LINE
8
DEFAULT_255_2_778
10
14.6320236
20
52.6706794
11
14.6320236
21
54.3848794
0
LINE
8
DEFAULT_255_2_778
10
14.6320236
20
49.9549794
11
14.6320236
21
51.6691794
0
LINE
8
DEFAULT_255_2_778
10
14.6320236
20
51.6691794
11
13.5842236
21
51.6691794
0
LINE
8
DEFAULT_255_2_778
10
13.5842236
20
51.6691794
11
13.5840236
21
52.6706794
0
ARC
8
DEFAULT_255_2_778
10
22.8998392
20
48.0502494
40
2.2381756
50
99.9561377
51
125.7718191
0
ARC
8
DEFAULT_255_2_778
10
22.9080201
20
48.0386275
40
2.2523873
50
125.7678486
51
172.0074386
0
ARC
8
DEFAULT_255_2_778
10
22.9203455
20
48.0387699
40
2.2645738
50
172.0543655
51
180.01141
0
ARC
8
DEFAULT_255_2_778
10
22.9031015
20
48.0363175
40
2.2473308
50
179.9489743
51
205.2322531
0
ARC
8
DEFAULT_255_2_778
10
22.9049138
20
48.0360474
40
2.2488552
50
205.2063449
51
252.8760167
0
ARC
8
DEFAULT_255_2_778
10
22.904327
20
48.043517
40
2.2558226
50
252.9461236
51
260.0068124
0
ARC
8
DEFAULT_255_2_778
10
22.9027628
20
48.0318043
40
2.2440162
50
259.9942477
51
269.9665384
0
LINE
8
DEFAULT_255_2_778
10
22.9014523
20
45.7877885
11
22.903717
21
45.7877883
0
ARC
8
DEFAULT_255_2_778
10
22.9027617
20
48.0312535
40
2.2434653
50
270.0243964
51
280.2681613
0
ARC
8
DEFAULT_255_2_778
10
22.9046117
20
48.0277666
40
2.2397048
50
280.2374922
51
306.1044899
0
ARC
8
DEFAULT_255_2_778
10
22.8974988
20
48.0379198
40
2.2520994
50
306.0984847
51
352.1132352
0
ARC
8
DEFAULT_255_2_778
10
22.8846639
20
48.0378771
40
2.2648077
50
352.1588587
51
0.011177
0
ARC
8
DEFAULT_255_2_778
10
22.9024009
20
48.0403221
40
2.2470716
50
359.9489225
51
25.4556515
0
ARC
8
DEFAULT_255_2_778
10
22.9002158
20
48.0403428
40
2.249036
50
25.4312494
51
72.6178174
0
ARC
8
DEFAULT_255_2_778
10
22.9002812
20
48.0319857
40
2.2569933
50
72.6827815
51
79.7300564
0
ARC
8
DEFAULT_255_2_778
10
22.9025854
20
48.0487958
40
2.2400417
50
79.7113914
51
90.0009954
0
LINE
8
DEFAULT_255_2_778
10
22.9025465
20
50.2888377
11
22.9014523
21
50.2888374
0
ARC
8
DEFAULT_255_2_778
10
22.902591
20
48.0460144
40
2.2428233
50
90.0290896
51
100.0066709
0
LINE
8
DEFAULT_255_2_778
10
21.4648716
20
48.4857189
11
22.5128716
21
48.4857189
0
LINE
8
DEFAULT_255_2_778
10
22.5128716
20
48.4857189
11
22.5128716
21
50.2547189
0
LINE
8
DEFAULT_255_2_778
10
22.5128716
20
45.8219189
11
22.5128716
21
47.4840189
0
LINE
8
DEFAULT_255_2_778
10
22.5128716
20
47.4840189
11
21.4648716
21
47.4840189
0
LINE
8
DEFAULT_255_2_778
10
21.4648716
20
47.4840189
11
21.4648716
21
48.4857189
0
LINE
8
DEFAULT_255_2_778
10
23.3026716
20
50.2528189
11
23.3026716
21
48.4857189
0
LINE
8
DEFAULT_255_2_778
10
23.3026716
20
48.4857189
11
24.3506716
21
48.4857189
0
LINE
8
DEFAULT_255_2_778
10
24.3506716
20
48.4857189
11
24.3506716
21
47.4840189
0
LINE
8
DEFAULT_255_2_778
10
24.3506716
20
47.4840189
11
23.3026716
21
47.4840189
0
LINE
8
DEFAULT_255_2_778
10
23.3026716
20
47.4840189
11
23.3026716
21
45.8237189
0
ARC
8
DEFAULT_255_2_778
10
15.026889
20
44.6806982
40
2.2393945
50
79.8423181
51
89.9201973
0
ARC
8
DEFAULT_255_2_778
10
15.02673
20
44.4834133
40
2.4366794
50
89.9229205
51
89.9963295
0
ARC
8
DEFAULT_255_2_778
10
15.0268451
20
44.6819717
40
2.238121
50
89.9989515
51
100.1605819
0
ARC
8
DEFAULT_255_2_778
10
15.0350236
20
44.6641734
40
2.242787
50
279.9311119
51
305.5623325
0
ARC
8
DEFAULT_255_2_778
10
15.0310739
20
44.6706985
40
2.2503922
50
305.5475158
51
352.0653646
0
ARC
8
DEFAULT_255_2_778
10
15.0220956
20
44.6695564
40
2.2591281
50
352.125488
51
0.0110658
0
ARC
8
DEFAULT_255_2_778
10
15.0387666
20
44.671915
40
2.2424579
50
359.9508846
51
25.2763716
0
ARC
8
DEFAULT_255_2_778
10
15.0312835
20
44.6688264
40
2.2505435
50
25.266131
51
72.0447435
0
ARC
8
DEFAULT_255_2_778
10
15.0306302
20
44.6593367
40
2.2597736
50
72.1031595
51
80.0312077
0
ARC
8
DEFAULT_255_2_778
10
15.018791
20
44.6760361
40
2.2428562
50
99.9299576
51
125.2516552
0
ARC
8
DEFAULT_255_2_778
10
15.0226393
20
44.6697274
40
2.2502291
50
125.2389599
51
172.461289
0
ARC
8
DEFAULT_255_2_778
10
15.0327956
20
44.6706948
40
2.2601719
50
172.5193779
51
180.0101929
0
ARC
8
DEFAULT_255_2_778
10
15.0152185
20
44.6683585
40
2.2425958
50
179.9505849
51
205.274374
0
ARC
8
DEFAULT_255_2_778
10
15.0224245
20
44.6713215
40
2.2503771
50
205.2642589
51
252.0464628
0
ARC
8
DEFAULT_255_2_778
10
15.0232153
20
44.6811583
40
2.2599799
50
252.1042632
51
260.0321704
0
ARC
8
DEFAULT_255_2_778
10
15.0268451
20
44.6580137
40
2.238121
50
259.8394181
51
270.0010485
0
ARC
8
DEFAULT_255_2_778
10
15.02673
20
44.8565721
40
2.4366794
50
270.0036705
51
270.0770795
0
ARC
8
DEFAULT_255_2_778
10
15.026889
20
44.6592872
40
2.2393945
50
270.0798027
51
280.1576819
0
LINE
8
DEFAULT_255_2_778
10
15.4218236
20
44.1692927
11
15.4218236
21
42.4549927
0
LINE
8
DEFAULT_255_2_778
10
15.4218236
20
46.8849927
11
15.4218236
21
45.1706927
0
LINE
8
DEFAULT_255_2_778
10
15.4218236
20
45.1706927
11
16.4698236
21
45.1706927
0
LINE
8
DEFAULT_255_2_778
10
16.4698236
20
45.1706927
11
16.4698236
21
44.1689927
0
LINE
8
DEFAULT_255_2_778
10
16.4698236
20
44.1689927
11
15.4218236
21
44.1692927
0
LINE
8
DEFAULT_255_2_778
10
14.6320236
20
45.1709927
11
14.6320236
21
46.8852927
0
LINE
8
DEFAULT_255_2_778
10
14.6320236
20
42.4552927
11
14.6320236
21
44.1694927
0
LINE
8
DEFAULT_255_2_778
10
14.6320236
20
44.1694927
11
13.5842236
21
44.1694927
0
LINE
8
DEFAULT_255_2_778
10
13.5842236
20
44.1694927
11
13.5842236
21
45.1712927
0
LINE
8
DEFAULT_255_2_778
10
13.5842236
20
45.1712927
11
14.6320236
21
45.1709927
0
ARC
8
DEFAULT_255_2_778
10
22.899526
20
40.5503494
40
2.2381756
50
99.9561377
51
125.7718191
0
ARC
8
DEFAULT_255_2_778
10
22.9077069
20
40.5387275
40
2.2523873
50
125.7678486
51
172.0074386
0
ARC
8
DEFAULT_255_2_778
10
22.9200322
20
40.5388699
40
2.2645738
50
172.0543655
51
180.01141
0
ARC
8
DEFAULT_255_2_778
10
22.9027883
20
40.5364175
40
2.2473308
50
179.9489743
51
205.2322531
0
ARC
8
DEFAULT_255_2_778
10
22.9046006
20
40.5361474
40
2.2488552
50
205.2063449
51
252.8760167
0
ARC
8
DEFAULT_255_2_778
10
22.9040137
20
40.543617
40
2.2558226
50
252.9461236
51
260.0068124
0
ARC
8
DEFAULT_255_2_778
10
22.9024496
20
40.5319043
40
2.2440162
50
259.9942477
51
269.9665384
0
LINE
8
DEFAULT_255_2_778
10
22.901139
20
38.2878885
11
22.9034037
21
38.2878883
0
ARC
8
DEFAULT_255_2_778
10
22.9024485
20
40.5313535
40
2.2434653
50
270.0243964
51
280.2681613
0
ARC
8
DEFAULT_255_2_778
10
22.9042985
20
40.5278666
40
2.2397048
50
280.2374922
51
306.1044899
0
ARC
8
DEFAULT_255_2_778
10
22.8971856
20
40.5380198
40
2.2520994
50
306.0984847
51
352.1132352
0
ARC
8
DEFAULT_255_2_778
10
22.8843507
20
40.5379771
40
2.2648077
50
352.1588587
51
0.011177
0
ARC
8
DEFAULT_255_2_778
10
22.9020877
20
40.5404221
40
2.2470716
50
359.9489225
51
25.4556515
0
ARC
8
DEFAULT_255_2_778
10
22.8999025
20
40.5404428
40
2.249036
50
25.4312494
51
72.6178174
0
ARC
8
DEFAULT_255_2_778
10
22.899968
20
40.5320857
40
2.2569933
50
72.6827815
51
79.7300564
0
ARC
8
DEFAULT_255_2_778
10
22.9022722
20
40.5488958
40
2.2400417
50
79.7113914
51
90.0009954
0
LINE
8
DEFAULT_255_2_778
10
22.9022332
20
42.7889377
11
22.901139
21
42.7889374
0
ARC
8
DEFAULT_255_2_778
10
22.9022777
20
40.5461144
40
2.2428233
50
90.0290896
51
100.0066709
0
LINE
8
DEFAULT_255_2_778
10
21.4645584
20
40.9858189
11
22.5125584
21
40.9858189
0
LINE
8
DEFAULT_255_2_778
10
22.5125584
20
40.9858189
11
22.5125584
21
42.7548189
0
LINE
8
DEFAULT_255_2_778
10
22.5125584
20
38.3220189
11
22.5125584
21
39.9841189
0
LINE
8
DEFAULT_255_2_778
10
22.5125584
20
39.9841189
11
21.4645584
21
39.9841189
0
LINE
8
DEFAULT_255_2_778
10
21.4645584
20
39.9841189
11
21.4645584
21
40.9858189
0
LINE
8
DEFAULT_255_2_778
10
23.3023584
20
42.7529189
11
23.3023584
21
40.9858189
0
LINE
8
DEFAULT_255_2_778
10
23.3023584
20
40.9858189
11
24.3503584
21
40.9858189
0
LINE
8
DEFAULT_255_2_778
10
24.3503584
20
40.9858189
11
24.3503584
21
39.9841189
0
LINE
8
DEFAULT_255_2_778
10
24.3503584
20
39.9841189
11
23.3023584
21
39.9841189
0
LINE
8
DEFAULT_255_2_778
10
23.3023584
20
39.9841189
11
23.3023584
21
38.3238189
0
ARC
8
DEFAULT_255_2_778
10
15.0269021
20
37.1817585
40
2.238121
50
79.8394181
51
90.0010485
0
ARC
8
DEFAULT_255_2_778
10
15.0270172
20
36.9832
40
2.4366794
50
90.0036705
51
90.0770795
0
ARC
8
DEFAULT_255_2_778
10
15.0268582
20
37.180485
40
2.2393945
50
90.0798027
51
100.1576819
0
ARC
8
DEFAULT_255_2_778
10
15.026896
20
37.1531966
40
2.2334922
50
269.9991057
51
280.1820223
0
ARC
8
DEFAULT_255_2_778
10
15.0270172
20
37.3563838
40
2.4366794
50
269.9229205
51
269.9963295
0
ARC
8
DEFAULT_255_2_778
10
15.0268624
20
37.1544451
40
2.2347406
50
259.8208312
51
269.9199246
0
ARC
8
DEFAULT_255_2_778
10
15.018991
20
37.1758228
40
2.2428562
50
99.9299576
51
125.2516552
0
ARC
8
DEFAULT_255_2_778
10
15.0228393
20
37.1695142
40
2.2502291
50
125.2389599
51
172.461289
0
ARC
8
DEFAULT_255_2_778
10
15.0329956
20
37.1704815
40
2.2601719
50
172.5193779
51
180.0101929
0
ARC
8
DEFAULT_255_2_778
10
15.0154185
20
37.1681453
40
2.2425958
50
179.9505849
51
205.274374
0
ARC
8
DEFAULT_255_2_778
10
15.0226245
20
37.1711083
40
2.2503771
50
205.2642589
51
252.0464628
0
ARC
8
DEFAULT_255_2_778
10
15.0234153
20
37.1809451
40
2.2599799
50
252.1042632
51
260.0321704
0
ARC
8
DEFAULT_255_2_778
10
15.0352163
20
37.1643743
40
2.2429008
50
279.9307936
51
305.560484
0
ARC
8
DEFAULT_255_2_778
10
15.031398
20
37.1706902
40
2.2502594
50
305.5460484
51
352.0667317
0
ARC
8
DEFAULT_255_2_778
10
15.0219911
20
37.1696406
40
2.2594326
50
352.1260172
51
0.0111281
0
ARC
8
DEFAULT_255_2_778
10
15.039117
20
37.1719904
40
2.2423074
50
359.9511711
51
25.587113
0
ARC
8
DEFAULT_255_2_778
10
15.0314302
20
37.168887
40
2.2505808
50
25.5738541
51
72.0883606
0
ARC
8
DEFAULT_255_2_778
10
15.0308483
20
37.159566
40
2.2596303
50
72.1470105
51
80.0310341
0
LINE
8
DEFAULT_255_2_778
10
14.6319236
20
34.9548794
11
14.6319236
21
36.6690794
0
LINE
8
DEFAULT_255_2_778
10
14.6319236
20
36.6690794
11
13.5842236
21
36.6690794
0
LINE
8
DEFAULT_255_2_778
10
13.5842236
20
36.6690794
11
13.5842236
21
37.6707794
0
LINE
8
DEFAULT_255_2_778
10
13.5842236
20
37.6707794
11
14.6322236
21
37.6707794
0
LINE
8
DEFAULT_255_2_778
10
14.6322236
20
37.6707794
11
14.6322236
21
39.3850794
0
LINE
8
DEFAULT_255_2_778
10
15.4220236
20
36.6692794
11
15.4220236
21
34.9550794
0
LINE
8
DEFAULT_255_2_778
10
15.4220236
20
39.3850794
11
15.4220236
21
37.6707794
0
LINE
8
DEFAULT_255_2_778
10
15.4220236
20
37.6707794
11
16.4700236
21
37.6707794
0
LINE
8
DEFAULT_255_2_778
10
16.4700236
20
37.6707794
11
16.4700236
21
36.6690794
0
LINE
8
DEFAULT_255_2_778
10
16.4700236
20
36.6690794
11
15.4220236
21
36.6692794
0
ARC
8
DEFAULT_255_2_778
10
22.899526
20
33.0501494
40
2.2381756
50
99.9561377
51
125.7718191
0
ARC
8
DEFAULT_255_2_778
10
22.9077069
20
33.0385275
40
2.2523873
50
125.7678486
51
172.0074386
0
ARC
8
DEFAULT_255_2_778
10
22.9200322
20
33.0386699
40
2.2645738
50
172.0543655
51
180.01141
0
ARC
8
DEFAULT_255_2_778
10
22.9027883
20
33.0362175
40
2.2473308
50
179.9489743
51
205.2322531
0
ARC
8
DEFAULT_255_2_778
10
22.9046006
20
33.0359474
40
2.2488552
50
205.2063449
51
252.8760167
0
ARC
8
DEFAULT_255_2_778
10
22.9040137
20
33.043417
40
2.2558226
50
252.9461236
51
260.0068124
0
ARC
8
DEFAULT_255_2_778
10
22.9024496
20
33.0317043
40
2.2440162
50
259.9942477
51
269.9665384
0
LINE
8
DEFAULT_255_2_778
10
22.901139
20
30.7876885
11
22.9034037
21
30.7876883
0
ARC
8
DEFAULT_255_2_778
10
22.9024485
20
33.0311535
40
2.2434653
50
270.0243964
51
280.2681613
0
ARC
8
DEFAULT_255_2_778
10
22.9042985
20
33.0276666
40
2.2397048
50
280.2374922
51
306.1044899
0
ARC
8
DEFAULT_255_2_778
10
22.8971856
20
33.0378198
40
2.2520994
50
306.0984847
51
352.1132352
0
ARC
8
DEFAULT_255_2_778
10
22.8843507
20
33.0377771
40
2.2648077
50
352.1588587
51
0.011177
0
ARC
8
DEFAULT_255_2_778
10
22.9020877
20
33.0402221
40
2.2470716
50
359.9489225
51
25.4556515
0
ARC
8
DEFAULT_255_2_778
10
22.8999025
20
33.0402428
40
2.249036
50
25.4312494
51
72.6178174
0
ARC
8
DEFAULT_255_2_778
10
22.899968
20
33.0318857
40
2.2569933
50
72.6827815
51
79.7300564
0
ARC
8
DEFAULT_255_2_778
10
22.9022722
20
33.0486958
40
2.2400417
50
79.7113914
51
90.0009954
0
LINE
8
DEFAULT_255_2_778
10
22.9022332
20
35.2887377
11
22.901139
21
35.2887374
0
ARC
8
DEFAULT_255_2_778
10
22.9022777
20
33.0459144
40
2.2428233
50
90.0290896
51
100.0066709
0
LINE
8
DEFAULT_255_2_778
10
21.4645584
20
33.4856189
11
22.5125584
21
33.4856189
0
LINE
8
DEFAULT_255_2_778
10
22.5125584
20
33.4856189
11
22.5125584
21
35.2546189
0
LINE
8
DEFAULT_255_2_778
10
22.5125584
20
30.8218189
11
22.5125584
21
32.4839189
0
LINE
8
DEFAULT_255_2_778
10
22.5125584
20
32.4839189
11
21.4645584
21
32.4839189
0
LINE
8
DEFAULT_255_2_778
10
21.4645584
20
32.4839189
11
21.4645584
21
33.4856189
0
LINE
8
DEFAULT_255_2_778
10
23.3023584
20
35.2527189
11
23.3023584
21
33.4856189
0
LINE
8
DEFAULT_255_2_778
10
23.3023584
20
33.4856189
11
24.3503584
21
33.4856189
0
LINE
8
DEFAULT_255_2_778
10
24.3503584
20
33.4856189
11
24.3503584
21
32.4839189
0
LINE
8
DEFAULT_255_2_778
10
24.3503584
20
32.4839189
11
23.3023584
21
32.4839189
0
LINE
8
DEFAULT_255_2_778
10
23.3023584
20
32.4839189
11
23.3023584
21
30.8236189
0
ARC
8
DEFAULT_255_2_778
10
15.026889
20
29.6806783
40
2.2393945
50
79.8423181
51
89.9201973
0
ARC
8
DEFAULT_255_2_778
10
15.02673
20
29.4833934
40
2.4366794
50
89.9229205
51
89.9963295
0
ARC
8
DEFAULT_255_2_778
10
15.0268451
20
29.6819518
40
2.238121
50
89.9989515
51
100.1605819
0
ARC
8
DEFAULT_255_2_778
10
15.0185243
20
29.6760451
40
2.2424862
50
99.9246931
51
125.2499885
0
ARC
8
DEFAULT_255_2_778
10
15.0226883
20
29.6694281
40
2.2502933
50
125.2393339
51
172.0237487
0
ARC
8
DEFAULT_255_2_778
10
15.0322545
20
29.6704173
40
2.2596309
50
172.0822472
51
180.0112699
0
ARC
8
DEFAULT_255_2_778
10
15.0150431
20
29.6680473
40
2.2424204
50
179.9508005
51
205.5852304
0
ARC
8
DEFAULT_255_2_778
10
15.022263
20
29.6709145
40
2.2501704
50
205.5716878
51
252.093825
0
ARC
8
DEFAULT_255_2_778
10
15.0229406
20
29.6805224
40
2.2595224
50
252.1523816
51
260.0372032
0
ARC
8
DEFAULT_255_2_778
10
15.0352802
20
29.6636651
40
2.2424587
50
279.9259259
51
305.5602752
0
ARC
8
DEFAULT_255_2_778
10
15.0311963
20
29.670343
40
2.250266
50
305.5459816
51
352.0658365
0
ARC
8
DEFAULT_255_2_778
10
15.0221006
20
29.6692363
40
2.2591231
50
352.125477
51
0.0110701
0
ARC
8
DEFAULT_255_2_778
10
15.0386421
20
29.6715874
40
2.2425823
50
359.9510846
51
25.2756573
0
ARC
8
DEFAULT_255_2_778
10
15.0315149
20
29.6687676
40
2.2502314
50
25.263098
51
72.4860582
0
ARC
8
DEFAULT_255_2_778
10
15.0307403
20
29.6586978
40
2.2600688
50
72.5441564
51
80.035356
0
ARC
8
DEFAULT_255_2_778
10
15.0268512
20
29.65339
40
2.2334922
50
259.8179777
51
270.0008943
0
ARC
8
DEFAULT_255_2_778
10
15.02673
20
29.8565772
40
2.4366794
50
270.0036705
51
270.0770795
0
ARC
8
DEFAULT_255_2_778
10
15.0268848
20
29.6546385
40
2.2347406
50
270.0800754
51
280.1791688
0
LINE
8
DEFAULT_255_2_778
10
14.6320236
20
30.1707728
11
14.6320236
21
31.8849728
0
LINE
8
DEFAULT_255_2_778
10
14.6320236
20
27.4550728
11
14.6320236
21
29.1692728
0
LINE
8
DEFAULT_255_2_778
10
14.6320236
20
29.1692728
11
13.5842236
21
29.1692728
0
LINE
8
DEFAULT_255_2_778
10
13.5842236
20
29.1692728
11
13.5842236
21
30.1709728
0
LINE
8
DEFAULT_255_2_778
10
13.5842236
20
30.1709728
11
14.6320236
21
30.1707728
0
LINE
8
DEFAULT_255_2_778
10
15.4218236
20
30.1707728
11
16.4698236
21
30.1707728
0
LINE
8
DEFAULT_255_2_778
10
16.4698236
20
30.1707728
11
16.4698236
21
29.1689728
0
LINE
8
DEFAULT_255_2_778
10
16.4698236
20
29.1689728
11
15.4218236
21
29.1689728
0
LINE
8
DEFAULT_255_2_778
10
15.4218236
20
29.1689728
11
15.4218236
21
27.4547728
0
LINE
8
DEFAULT_255_2_778
10
15.4218236
20
31.8846728
11
15.4218236
21
30.1707728
0
ARC
8
DEFAULT_255_2_778
10
22.899526
20
25.5503494
40
2.2381756
50
99.9561377
51
125.7718191
0
ARC
8
DEFAULT_255_2_778
10
22.9077069
20
25.5387275
40
2.2523873
50
125.7678486
51
172.0074386
0
ARC
8
DEFAULT_255_2_778
10
22.9200322
20
25.5388699
40
2.2645738
50
172.0543655
51
180.01141
0
ARC
8
DEFAULT_255_2_778
10
22.9027883
20
25.5364175
40
2.2473308
50
179.9489743
51
205.2322531
0
ARC
8
DEFAULT_255_2_778
10
22.9046006
20
25.5361474
40
2.2488552
50
205.2063449
51
252.8760167
0
ARC
8
DEFAULT_255_2_778
10
22.9040137
20
25.543617
40
2.2558226
50
252.9461236
51
260.0068124
0
ARC
8
DEFAULT_255_2_778
10
22.9024496
20
25.5319043
40
2.2440162
50
259.9942477
51
269.9665384
0
LINE
8
DEFAULT_255_2_778
10
22.901139
20
23.2878885
11
22.9034037
21
23.2878883
0
ARC
8
DEFAULT_255_2_778
10
22.9024485
20
25.5313535
40
2.2434653
50
270.0243964
51
280.2681613
0
ARC
8
DEFAULT_255_2_778
10
22.9042985
20
25.5278666
40
2.2397048
50
280.2374922
51
306.1044899
0
ARC
8
DEFAULT_255_2_778
10
22.8971856
20
25.5380198
40
2.2520994
50
306.0984847
51
352.1132352
0
ARC
8
DEFAULT_255_2_778
10
22.8843507
20
25.5379771
40
2.2648077
50
352.1588587
51
0.011177
0
ARC
8
DEFAULT_255_2_778
10
22.9020877
20
25.5404221
40
2.2470716
50
359.9489225
51
25.4556515
0
ARC
8
DEFAULT_255_2_778
10
22.8999025
20
25.5404428
40
2.249036
50
25.4312494
51
72.6178174
0
ARC
8
DEFAULT_255_2_778
10
22.899968
20
25.5320857
40
2.2569933
50
72.6827815
51
79.7300564
0
ARC
8
DEFAULT_255_2_778
10
22.9022722
20
25.5488958
40
2.2400417
50
79.7113914
51
90.0009954
0
LINE
8
DEFAULT_255_2_778
10
22.9022332
20
27.7889377
11
22.901139
21
27.7889374
0
ARC
8
DEFAULT_255_2_778
10
22.9022777
20
25.5461144
40
2.2428233
50
90.0290896
51
100.0066709
0
LINE
8
DEFAULT_255_2_778
10
21.4645584
20
25.9858189
11
22.5125584
21
25.9858189
0
LINE
8
DEFAULT_255_2_778
10
22.5125584
20
25.9858189
11
22.5125584
21
27.7548189
0
LINE
8
DEFAULT_255_2_778
10
22.5125584
20
23.3220189
11
22.5125584
21
24.9841189
0
LINE
8
DEFAULT_255_2_778
10
22.5125584
20
24.9841189
11
21.4645584
21
24.9841189
0
LINE
8
DEFAULT_255_2_778
10
21.4645584
20
24.9841189
11
21.4645584
21
25.9858189
0
LINE
8
DEFAULT_255_2_778
10
23.3023584
20
27.7529189
11
23.3023584
21
25.9858189
0
LINE
8
DEFAULT_255_2_778
10
23.3023584
20
25.9858189
11
24.3503584
21
25.9858189
0
LINE
8
DEFAULT_255_2_778
10
24.3503584
20
25.9858189
11
24.3503584
21
24.9841189
0
LINE
8
DEFAULT_255_2_778
10
24.3503584
20
24.9841189
11
23.3023584
21
24.9841189
0
LINE
8
DEFAULT_255_2_778
10
23.3023584
20
24.9841189
11
23.3023584
21
23.3238189
0
ARC
8
DEFAULT_255_2_778
10
15.0269344
20
22.1817908
40
2.238121
50
79.8394181
51
90.0010485
0
ARC
8
DEFAULT_255_2_778
10
15.0270495
20
21.9832323
40
2.4366794
50
90.0036705
51
90.0770795
0
ARC
8
DEFAULT_255_2_778
10
15.0268905
20
22.1805172
40
2.2393945
50
90.0798027
51
100.1576819
0
ARC
8
DEFAULT_255_2_778
10
15.0187566
20
22.175884
40
2.2424862
50
99.9246931
51
125.2499885
0
ARC
8
DEFAULT_255_2_778
10
15.0229206
20
22.169267
40
2.2502933
50
125.2393339
51
172.0237487
0
ARC
8
DEFAULT_255_2_778
10
15.0324868
20
22.1702562
40
2.2596309
50
172.0822472
51
180.0112699
0
ARC
8
DEFAULT_255_2_778
10
15.0152754
20
22.1678862
40
2.2424204
50
179.9508005
51
205.5852304
0
ARC
8
DEFAULT_255_2_778
10
15.0224953
20
22.1707534
40
2.2501704
50
205.5716878
51
252.093825
0
ARC
8
DEFAULT_255_2_778
10
15.0231729
20
22.1803613
40
2.2595224
50
252.1523816
51
260.0372032
0
ARC
8
DEFAULT_255_2_778
10
15.0352552
20
22.1635395
40
2.2424862
50
279.9246931
51
305.2499885
0
ARC
8
DEFAULT_255_2_778
10
15.0310912
20
22.1701565
40
2.2502933
50
305.2393339
51
352.0237487
0
ARC
8
DEFAULT_255_2_778
10
15.021525
20
22.1691673
40
2.2596309
50
352.0822472
51
0.0112699
0
ARC
8
DEFAULT_255_2_778
10
15.0387364
20
22.1715373
40
2.2424204
50
359.9508005
51
25.5852304
0
ARC
8
DEFAULT_255_2_778
10
15.0315165
20
22.1686701
40
2.2501704
50
25.5716878
51
72.093825
0
ARC
8
DEFAULT_255_2_778
10
15.0308389
20
22.1590622
40
2.2595224
50
72.1523816
51
80.0372032
0
ARC
8
DEFAULT_255_2_778
10
15.0268905
20
22.1589062
40
2.2393945
50
259.8423181
51
269.9201973
0
ARC
8
DEFAULT_255_2_778
10
15.0270495
20
22.3561911
40
2.4366794
50
269.9229205
51
269.9963295
0
ARC
8
DEFAULT_255_2_778
10
15.0269344
20
22.1576327
40
2.238121
50
269.9989515
51
280.1605819
0
LINE
8
DEFAULT_255_2_778
10
14.6319559
20
21.6688117
11
13.5842559
21
21.6688117
0
LINE
8
DEFAULT_255_2_778
10
13.5842559
20
21.6688117
11
13.5842559
21
22.6705117
0
LINE
8
DEFAULT_255_2_778
10
13.5842559
20
22.6705117
11
14.6322559
21
22.6705117
0
LINE
8
DEFAULT_255_2_778
10
14.6322559
20
22.6705117
11
14.6322559
21
24.3848117
0
LINE
8
DEFAULT_255_2_778
10
14.6322559
20
19.9549117
11
14.6319559
21
21.6688117
0
LINE
8
DEFAULT_255_2_778
10
16.4697559
20
21.6688117
11
15.4217559
21
21.6688117
0
LINE
8
DEFAULT_255_2_778
10
15.4217559
20
21.6688117
11
15.4217559
21
19.9546117
0
LINE
8
DEFAULT_255_2_778
10
15.4217559
20
24.3845117
11
15.4217559
21
22.6703117
0
LINE
8
DEFAULT_255_2_778
10
15.4217559
20
22.6703117
11
16.4697559
21
22.6703117
0
LINE
8
DEFAULT_255_2_778
10
16.4697559
20
22.6703117
11
16.4697559
21
21.6688117
0
ARC
8
DEFAULT_255_2_778
10
22.899526
20
18.0501494
40
2.2381756
50
99.9561377
51
125.7718191
0
ARC
8
DEFAULT_255_2_778
10
22.9077069
20
18.0385275
40
2.2523873
50
125.7678486
51
172.0074386
0
ARC
8
DEFAULT_255_2_778
10
22.9200322
20
18.0386699
40
2.2645738
50
172.0543655
51
180.01141
0
ARC
8
DEFAULT_255_2_778
10
22.9027883
20
18.0362175
40
2.2473308
50
179.9489743
51
205.2322531
0
ARC
8
DEFAULT_255_2_778
10
22.9046006
20
18.0359474
40
2.2488552
50
205.2063449
51
252.8760167
0
ARC
8
DEFAULT_255_2_778
10
22.9040137
20
18.043417
40
2.2558226
50
252.9461236
51
260.0068124
0
ARC
8
DEFAULT_255_2_778
10
22.9024496
20
18.0317043
40
2.2440162
50
259.9942477
51
269.9665384
0
LINE
8
DEFAULT_255_2_778
10
22.901139
20
15.7876885
11
22.9034037
21
15.7876883
0
ARC
8
DEFAULT_255_2_778
10
22.9024485
20
18.0311535
40
2.2434653
50
270.0243964
51
280.2681613
0
ARC
8
DEFAULT_255_2_778
10
22.9042985
20
18.0276666
40
2.2397048
50
280.2374922
51
306.1044899
0
ARC
8
DEFAULT_255_2_778
10
22.8971856
20
18.0378198
40
2.2520994
50
306.0984847
51
352.1132352
0
ARC
8
DEFAULT_255_2_778
10
22.8843507
20
18.0377771
40
2.2648077
50
352.1588587
51
0.011177
0
ARC
8
DEFAULT_255_2_778
10
22.9020877
20
18.0402221
40
2.2470716
50
359.9489225
51
25.4556515
0
ARC
8
DEFAULT_255_2_778
10
22.8999025
20
18.0402428
40
2.249036
50
25.4312494
51
72.6178174
0
ARC
8
DEFAULT_255_2_778
10
22.899968
20
18.0318857
40
2.2569933
50
72.6827815
51
79.7300564
0
ARC
8
DEFAULT_255_2_778
10
22.9022722
20
18.0486958
40
2.2400417
50
79.7113914
51
90.0009954
0
LINE
8
DEFAULT_255_2_778
10
22.9022332
20
20.2887377
11
22.901139
21
20.2887374
0
ARC
8
DEFAULT_255_2_778
10
22.9022777
20
18.0459144
40
2.2428233
50
90.0290896
51
100.0066709
0
LINE
8
DEFAULT_255_2_778
10
21.4645584
20
18.4856189
11
22.5125584
21
18.4856189
0
LINE
8
DEFAULT_255_2_778
10
22.5125584
20
18.4856189
11
22.5125584
21
20.2546189
0
LINE
8
DEFAULT_255_2_778
10
22.5125584
20
15.8218189
11
22.5125584
21
17.4839189
0
LINE
8
DEFAULT_255_2_778
10
22.5125584
20
17.4839189
11
21.4645584
21
17.4839189
0
LINE
8
DEFAULT_255_2_778
10
21.4645584
20
17.4839189
11
21.4645584
21
18.4856189
0
LINE
8
DEFAULT_255_2_778
10
23.3023584
20
20.2527189
11
23.3023584
21
18.4856189
0
LINE
8
DEFAULT_255_2_778
10
23.3023584
20
18.4856189
11
24.3503584
21
18.4856189
0
LINE
8
DEFAULT_255_2_778
10
24.3503584
20
18.4856189
11
24.3503584
21
17.4839189
0
LINE
8
DEFAULT_255_2_778
10
24.3503584
20
17.4839189
11
23.3023584
21
17.4839189
0
LINE
8
DEFAULT_255_2_778
10
23.3023584
20
17.4839189
11
23.3023584
21
15.8236189
0
LINE
8
DEFAULT_255_2_778
10
16.8507804
20
11.5088055
11
16.8507804
21
13.5088055
0
LINE
8
DEFAULT_255_2_778
10
13.8556804
20
11.5088055
11
13.8556804
21
13.5088055
0
LINE
8
DEFAULT_255_2_778
10
17.3500804
20
9.0088055
11
17.3500804
21
8.5087055
0
LINE
8
DEFAULT_255_2_778
10
17.3500804
20
8.5087055
11
22.3419804
21
8.5087055
0
LINE
8
DEFAULT_255_2_778
10
22.3419804
20
8.5087055
11
22.3419804
21
9.0088055
0
LINE
8
DEFAULT_255_2_778
10
25.8362804
20
13.5088055
11
25.8362804
21
9.0088055
0
LINE
8
DEFAULT_255_2_778
10
25.8362804
20
9.0088055
11
13.8559804
21
9.0088055
0
LINE
8
DEFAULT_255_2_778
10
13.8559804
20
9.0088055
11
13.8559804
21
11.5088055
0
LINE
8
DEFAULT_255_2_778
10
13.8559804
20
11.5088055
11
25.8362804
21
11.5088055
0
LINE
8
DEFAULT_255_2_778
10
21.9426804
20
13.5088055
11
21.9426804
21
13.0071055
0
LINE
8
DEFAULT_255_2_778
10
21.9426804
20
13.0071055
11
22.8411804
21
13.0071055
0
LINE
8
DEFAULT_255_2_778
10
25.9690804
20
13.5088055
11
25.9690804
21
13.0071055
0
LINE
8
DEFAULT_255_2_778
10
22.8411804
20
11.5088055
11
22.8411804
21
13.5088055
0
LINE
8
DEFAULT_255_2_778
10
25.8362804
20
13.0071055
11
28.4320804
21
13.0071055
0
LINE
8
DEFAULT_255_2_778
10
28.4320804
20
13.0071055
11
28.4320804
21
55.5072055
0
LINE
8
DEFAULT_255_2_778
10
28.4320804
20
55.5072055
11
28.3323804
21
55.5072055
0
LINE
8
DEFAULT_255_2_778
10
19.1473804
20
55.3587055
11
19.1473804
21
52.6086055
0
LINE
8
DEFAULT_255_2_778
10
19.1473804
20
52.6086055
11
26.9345804
21
52.6086055
0
LINE
8
DEFAULT_255_2_778
10
26.9345804
20
52.6086055
11
26.9345804
21
55.3587055
0
LINE
8
DEFAULT_255_2_778
10
26.9345804
20
55.3587055
11
11.3598804
21
55.3587055
0
LINE
8
DEFAULT_255_2_778
10
11.3598804
20
55.3587055
11
11.3598804
21
56.5086055
0
LINE
8
DEFAULT_255_2_778
10
11.3598804
20
56.5086055
11
28.3320804
21
56.5086055
0
LINE
8
DEFAULT_255_2_778
10
28.3320804
20
56.5086055
11
28.3320804
21
13.5085055
0
LINE
8
DEFAULT_255_2_778
10
28.3320804
20
13.5085055
11
11.3598804
21
13.5085055
0
LINE
8
DEFAULT_255_2_778
10
11.3598804
20
13.5085055
11
11.3598804
21
14.6584055
0
LINE
8
DEFAULT_255_2_778
10
11.3598804
20
14.6584055
11
26.9342804
21
14.6584055
0
LINE
8
DEFAULT_255_2_778
10
26.9342804
20
14.6584055
11
26.9342804
21
21.0285055
0
LINE
8
DEFAULT_255_2_778
10
26.9342804
20
21.0285055
11
19.1470804
21
21.0285055
0
LINE
8
DEFAULT_255_2_778
10
19.1470804
20
21.0285055
11
19.1470804
21
22.2072055
0
LINE
8
DEFAULT_255_2_778
10
19.1470804
20
22.2072055
11
26.9342804
21
22.2072055
0
LINE
8
DEFAULT_255_2_778
10
26.9342804
20
22.2072055
11
26.9342804
21
28.5773055
0
LINE
8
DEFAULT_255_2_778
10
26.9342804
20
28.5773055
11
19.1470804
21
28.5773055
0
LINE
8
DEFAULT_255_2_778
10
19.1470804
20
28.5773055
11
19.1470804
21
29.7561055
0
LINE
8
DEFAULT_255_2_778
10
19.1470804
20
29.7561055
11
26.9342804
21
29.7561055
0
LINE
8
DEFAULT_255_2_778
10
26.9342804
20
29.7561055
11
26.9342804
21
36.1262055
0
LINE
8
DEFAULT_255_2_778
10
26.9342804
20
36.1262055
11
19.1470804
21
36.1262055
0
LINE
8
DEFAULT_255_2_778
10
19.1470804
20
36.1262055
11
19.1470804
21
37.3049055
0
LINE
8
DEFAULT_255_2_778
10
19.1470804
20
37.3049055
11
26.9342804
21
37.3049055
0
LINE
8
DEFAULT_255_2_778
10
26.9342804
20
37.3049055
11
26.9342804
21
43.6750055
0
LINE
8
DEFAULT_255_2_778
10
26.9342804
20
43.6750055
11
19.1470804
21
43.6750055
0
LINE
8
DEFAULT_255_2_778
10
19.1470804
20
43.6750055
11
19.1470804
21
44.8537055
0
LINE
8
DEFAULT_255_2_778
10
19.1470804
20
44.8537055
11
26.9342804
21
44.8537055
0
LINE
8
DEFAULT_255_2_778
10
26.9342804
20
44.8537055
11
26.9342804
21
51.2238055
0
LINE
8
DEFAULT_255_2_778
10
26.9342804
20
51.2238055
11
19.1470804
21
51.2238055
0
LINE
8
DEFAULT_255_2_778
10
19.1470804
20
51.2238055
11
19.1470804
21
52.6094055
0
LINE
8
DEFAULT_255_2_778
10
17.5995804
20
58.0088055
11
17.5995804
21
58.4686055
0
LINE
8
DEFAULT_255_2_778
10
22.0921804
20
58.0088055
11
22.0921804
21
58.4686055
0
LINE
8
DEFAULT_255_2_778
10
17.3500804
20
58.5089055
11
17.3500804
21
58.0088055
0
LINE
8
DEFAULT_255_2_778
10
17.3500804
20
58.0088055
11
22.3419804
21
58.0088055
0
LINE
8
DEFAULT_255_2_778
10
22.3419804
20
58.0088055
11
22.3419804
21
58.5089055
0
LINE
8
DEFAULT_255_2_778
10
25.8362804
20
59.0446055
11
25.8362804
21
58.5089055
0
LINE
8
DEFAULT_255_2_778
10
25.8362804
20
58.5089055
11
13.8559804
21
58.5089055
0
LINE
8
DEFAULT_255_2_778
10
13.8559804
20
58.5089055
11
13.8559804
21
61.0089055
0
LINE
8
DEFAULT_255_2_778
10
13.8559804
20
61.0089055
11
25.8362804
21
61.0089055
0
LINE
8
DEFAULT_255_2_778
10
25.8362804
20
61.0089055
11
25.8362804
21
59.0449055
0
LINE
8
DEFAULT_255_2_778
10
25.8362804
20
59.0449055
11
13.8559804
21
59.0449055
0
LINE
8
DEFAULT_255_2_778
10
16.8510804
20
58.5091055
11
16.8510804
21
56.5091055
0
LINE
8
DEFAULT_255_2_778
10
13.8559804
20
58.5091055
11
13.8559804
21
56.5091055
0
LINE
8
DEFAULT_255_2_778
10
22.8411804
20
58.5091055
11
22.8411804
21
56.5091055
0
LINE
8
DEFAULT_255_2_778
10
25.8362804
20
58.5091055
11
25.8362804
21
56.5091055
0
ARC
8
DEFAULT_255_2_778
10
28.6813371
20
1.7520031
40
1.9948947
50
270.0089333
51
315.06126
0
ARC
8
DEFAULT_255_2_778
10
28.6764604
20
1.756733
40
2.0016878
50
315.064025
51
0.0107477
0
LINE
8
DEFAULT_255_2_778
10
29.1806482
20
65.0073085
11
29.1806482
21
1.0514085
0
LINE
8
DEFAULT_255_2_778
10
29.1806482
20
1.0514085
11
23.2131482
21
1.0514085
0
LINE
8
DEFAULT_255_2_778
10
23.2131482
20
1.0514085
11
23.2131482
21
6.2545085
0
LINE
8
DEFAULT_255_2_778
10
23.2131482
20
6.2545085
11
11.5990482
21
6.2545085
0
LINE
8
DEFAULT_255_2_778
10
11.5990482
20
6.2545085
11
11.5990482
21
-0.2428915
0
LINE
8
DEFAULT_255_2_778
10
11.5990482
20
-0.2428915
11
13.2069482
21
-0.2428915
0
LINE
8
DEFAULT_255_2_778
10
13.2069482
20
-0.2428915
11
13.2069482
21
4.7572085
0
LINE
8
DEFAULT_255_2_778
10
13.2069482
20
4.7572085
11
22.1921482
21
4.7572085
0
LINE
8
DEFAULT_255_2_778
10
22.1921482
20
4.7572085
11
22.1921482
21
-0.2428915
0
LINE
8
DEFAULT_255_2_778
10
22.1921482
20
-0.2428915
11
28.6816482
21
-0.2428915
0
LINE
8
DEFAULT_255_2_778
10
30.6781482
20
1.7571085
11
30.6781482
21
65.0073085
0
LINE
8
DEFAULT_255_2_778
10
13.2069482
20
-0.2426915
11
22.1921482
21
-0.2426915
0
LINE
8
DEFAULT_255_2_778
10
21.9426482
20
4.2145085
11
21.9426482
21
-0.2309915
0
LINE
8
DEFAULT_255_2_778
10
21.9426482
20
-0.2309915
11
13.4564482
21
-0.2309915
0
LINE
8
DEFAULT_255_2_778
10
13.4564482
20
-0.2309915
11
13.4564482
21
4.6402085
0
LINE
8
DEFAULT_255_2_778
10
13.4564482
20
4.6402085
11
21.9424482
21
4.6402085
0
LINE
8
DEFAULT_255_2_778
10
21.9424482
20
4.6402085
11
21.9424482
21
4.2148085
0
LINE
8
DEFAULT_255_2_778
10
21.9424482
20
4.2148085
11
13.4564482
21
4.2148085
0
LINE
8
DEFAULT_255_2_778
10
3.9824615
20
66.8421208
11
3.9824615
21
66.4982208
0
LINE
8
DEFAULT_255_2_778
10
3.9824615
20
66.4982208
11
3.1651615
21
66.4982208
0
LINE
8
DEFAULT_255_2_778
10
3.1651615
20
66.4982208
11
3.1651615
21
65.6526208
0
LINE
8
DEFAULT_255_2_778
10
3.1651615
20
65.6526208
11
2.7397615
21
65.6526208
0
LINE
8
DEFAULT_255_2_778
10
2.7397615
20
65.6526208
11
2.7397615
21
67.7216208
0
LINE
8
DEFAULT_255_2_778
10
2.7397615
20
67.7216208
11
4.0846615
21
67.7216208
0
LINE
8
DEFAULT_255_2_778
10
4.0846615
20
67.7216208
11
4.0846615
21
67.3763208
0
LINE
8
DEFAULT_255_2_778
10
4.0846615
20
67.3763208
11
3.1651615
21
67.3763208
0
LINE
8
DEFAULT_255_2_778
10
3.1651615
20
67.3763208
11
3.1651615
21
66.8419208
0
LINE
8
DEFAULT_255_2_778
10
3.1651615
20
66.8419208
11
3.9824615
21
66.8419208
0
LINE
8
DEFAULT_255_2_778
10
3.9824615
20
66.8419208
11
3.9824615
21
66.8421208
0
ARC
8
DEFAULT_255_2_778
10
3.381475
20
68.1035718
40
2.1445403
50
317.2373402
51
322.9946499
0
ARC
8
DEFAULT_255_2_778
10
4.2242315
20
67.4660706
40
1.0878286
50
323.0920321
51
329.2829013
0
ARC
8
DEFAULT_255_2_778
10
4.7906388
20
67.1423366
40
0.4356641
50
327.8352368
51
355.4589583
0
ARC
8
DEFAULT_255_2_778
10
4.9106038
20
67.1237501
40
0.3147337
50
357.1030856
51
359.9923994
0
ARC
8
DEFAULT_255_2_778
10
4.8830924
20
67.1370356
40
0.3425045
50
357.7699911
51
29.9593798
0
ARC
8
DEFAULT_255_2_778
10
4.9728786
20
67.1789946
40
0.2439095
50
31.9530692
51
41.4355704
0
ARC
8
DEFAULT_255_2_778
10
4.9726274
20
67.1686011
40
0.2510917
50
43.1759476
51
93.5597011
0
ARC
8
DEFAULT_255_2_778
10
4.944538
20
67.1497109
40
0.2697871
50
87.3444685
51
139.977376
0
ARC
8
DEFAULT_255_2_778
10
5.0278935
20
67.0937554
40
0.3697609
50
141.644123
51
180.1538119
0
ARC
8
DEFAULT_255_2_778
10
5.2415195
20
67.0712472
40
0.5837821
50
177.8878645
51
180.0136356
0
ARC
8
DEFAULT_255_2_778
10
4.924549
20
67.0782777
40
0.6782493
50
150.1066603
51
180.6056513
0
ARC
8
DEFAULT_255_2_778
10
4.8880214
20
67.0984505
40
0.6365281
50
117.781242
51
150.0422156
0
ARC
8
DEFAULT_255_2_778
10
4.9513278
20
66.9781553
40
0.7724643
50
89.0275716
51
117.7768003
0
ARC
8
DEFAULT_255_2_778
10
4.9772738
20
66.7702972
40
0.9802951
50
75.0340218
51
90.7502704
0
ARC
8
DEFAULT_255_2_778
10
5.0794624
20
67.1494189
40
0.5876443
50
49.611384
51
75.113568
0
ARC
8
DEFAULT_255_2_778
10
5.1177405
20
67.2104381
40
0.5164695
50
3.5007351
51
48.4594073
0
ARC
8
DEFAULT_255_2_778
10
4.831327
20
67.164934
40
0.8056116
50
359.912827
51
5.4875643
0
ARC
8
DEFAULT_255_2_778
10
4.938465
20
67.1743308
40
0.6985533
50
332.4198523
51
359.1287047
0
ARC
8
DEFAULT_255_2_778
10
4.488871
20
67.3995381
40
1.2013561
50
323.1187062
51
332.8272141
0
ARC
8
DEFAULT_255_2_778
10
3.5014939
20
68.1276975
40
2.4281727
50
317.4795209
51
323.3580383
0
ARC
8
DEFAULT_255_2_778
10
2.7917758
20
68.755365
40
3.3755149
50
317.6174909
51
317.7689646
0
LINE
8
DEFAULT_255_2_778
10
5.7036375
20
65.9839083
11
5.7036375
21
65.6529083
0
LINE
8
DEFAULT_255_2_778
10
5.7036375
20
65.6529083
11
4.2876375
21
65.6529083
0
LINE
8
DEFAULT_255_2_778
10
4.2876375
20
65.6529083
11
4.2876375
21
65.9341083
0
LINE
8
DEFAULT_255_2_778
10
4.2876375
20
65.9341083
11
4.9559375
21
66.6475083
0
LINE
8
DEFAULT_255_2_778
10
4.6577375
20
67.0711083
11
4.2463375
21
67.0711083
0
LINE
8
DEFAULT_255_2_778
10
5.2851375
20
66.4800083
11
4.8154375
21
65.9839083
0
LINE
8
DEFAULT_255_2_778
10
4.8154375
20
65.9839083
11
5.7036375
21
65.9839083
0
LINE
8
DEFAULT_255_2_778
10
5.7036375
20
65.9839083
11
5.7036375
21
65.9839083
0
LINE
8
DEFAULT_255_2_778
10
6.7691115
20
66.7042969
11
6.7691115
21
66.3732969
0
LINE
8
DEFAULT_255_2_778
10
6.7691115
20
66.3732969
11
5.9703115
21
66.3732969
0
LINE
8
DEFAULT_255_2_778
10
5.9703115
20
66.3732969
11
5.9703115
21
66.7042969
0
LINE
8
DEFAULT_255_2_778
10
5.9703115
20
66.7042969
11
6.7691115
21
66.7042969
0
LINE
8
DEFAULT_255_2_778
10
6.7691115
20
66.7042969
11
6.7691115
21
66.7042969
0
ARC
8
DEFAULT_255_2_778
10
6.8794144
20
66.4957247
40
1.5923318
50
349.8373896
51
0.4511808
0
ARC
8
DEFAULT_255_2_778
10
7.5450993
20
66.3709675
40
0.915094
50
331.8514857
51
350.1720362
0
ARC
8
DEFAULT_255_2_778
10
7.7685652
20
66.2608595
40
0.6661656
50
322.1239427
51
331.1344444
0
ARC
8
DEFAULT_255_2_778
10
7.8346941
20
66.2137385
40
0.5850471
50
274.7273134
51
321.7904175
0
ARC
8
DEFAULT_255_2_778
10
7.7771238
20
66.5418289
40
0.9172677
50
269.8733948
51
276.6225137
0
ARC
8
DEFAULT_255_2_778
10
7.7619279
20
66.3829995
40
0.7585503
50
249.2691723
51
270.9947485
0
ARC
8
DEFAULT_255_2_778
10
7.699338
20
66.1969099
40
0.5624016
50
218.4015347
51
248.5219584
0
ARC
8
DEFAULT_255_2_778
10
7.8669999
20
66.3205362
40
0.7706215
50
194.3894501
51
217.8615067
0
ARC
8
DEFAULT_255_2_778
10
8.3988844
20
66.4671495
40
1.3222919
50
182.3460007
51
194.815584
0
ARC
8
DEFAULT_255_2_778
10
8.9191118
20
66.5048849
40
1.843701
50
180.5538358
51
182.8559374
0
ARC
8
DEFAULT_255_2_778
10
8.6732761
20
66.8805517
40
1.5978296
50
169.9011283
51
180.4549857
0
ARC
8
DEFAULT_255_2_778
10
7.9998261
20
67.0055783
40
0.9129043
50
152.3319184
51
170.2150525
0
ARC
8
DEFAULT_255_2_778
10
7.7663296
20
67.1192777
40
0.6533571
50
141.5155222
51
151.6544097
0
ARC
8
DEFAULT_255_2_778
10
7.717163
20
67.1532476
40
0.5937445
50
94.0428414
51
141.12898
0
ARC
8
DEFAULT_255_2_778
10
7.770489
20
66.8328324
40
0.9176325
50
89.8996052
51
95.9540218
0
ARC
8
DEFAULT_255_2_778
10
7.7852796
20
66.9905099
40
0.7600679
50
69.3135641
51
90.9937942
0
ARC
8
DEFAULT_255_2_778
10
7.848361
20
67.1781247
40
0.5623121
50
38.472833
51
68.573678
0
ARC
8
DEFAULT_255_2_778
10
7.6831487
20
67.0560929
40
0.7676127
50
14.4016252
51
37.9319282
0
ARC
8
DEFAULT_255_2_778
10
7.1510993
20
66.909264
40
1.3194992
50
2.3454898
51
14.8308594
0
ARC
8
DEFAULT_255_2_778
10
6.6302018
20
66.8714561
40
1.8415811
50
0.5540383
51
2.8575577
0
ARC
8
DEFAULT_255_2_778
10
6.7660906
20
66.9376654
40
1.295561
50
359.4736346
51
8.2700103
0
ARC
8
DEFAULT_255_2_778
10
7.5135742
20
67.0523687
40
0.5393849
50
7.633311
51
24.7842832
0
ARC
8
DEFAULT_255_2_778
10
7.727877
20
67.1428918
40
0.3069688
50
26.2125194
51
30.8196726
0
ARC
8
DEFAULT_255_2_778
10
7.7867281
20
67.1807564
40
0.2370407
50
30.247805
51
93.4661554
0
ARC
8
DEFAULT_255_2_778
10
7.758079
20
67.1848415
40
0.2329624
50
86.4763793
51
148.7594011
0
ARC
8
DEFAULT_255_2_778
10
7.9550981
20
67.077987
40
0.4569595
50
150.1162329
51
170.3747559
0
ARC
8
DEFAULT_255_2_778
10
8.618633
20
66.9495362
40
1.1327396
50
169.5807276
51
179.545136
0
ARC
8
DEFAULT_255_2_778
10
8.7538554
20
66.9345169
40
1.2681537
50
178.9150681
51
178.9948367
0
ARC
8
DEFAULT_255_2_778
10
8.76714
20
66.4415235
40
1.2813015
50
179.4526554
51
188.6802478
0
ARC
8
DEFAULT_255_2_778
10
8.0360019
20
66.3236548
40
0.5407846
50
188.0259719
51
206.046136
0
ARC
8
DEFAULT_255_2_778
10
7.8437963
20
66.2394109
40
0.3312226
50
207.5526967
51
209.2113525
0
ARC
8
DEFAULT_255_2_778
10
7.760993
20
66.1884322
40
0.2341061
50
208.2115773
51
273.5029471
0
ARC
8
DEFAULT_255_2_778
10
7.7910079
20
66.184401
40
0.2301743
50
266.0861253
51
330.9866951
0
ARC
8
DEFAULT_255_2_778
10
7.5492337
20
66.3071122
40
0.5012228
50
332.124372
51
350.8789675
0
ARC
8
DEFAULT_255_2_778
10
6.854143
20
66.4336507
40
1.2076736
50
350.1790481
51
359.6530924
0
ARC
8
DEFAULT_255_2_778
10
6.24923
20
66.4553413
40
1.8127965
50
359.0832957
51
359.3148282
0
LINE
8
DEFAULT_255_2_778
10
8.4716969
20
66.8889635
11
8.4716969
21
66.5082635
0
LINE
8
DEFAULT_255_2_778
10
7.0754969
20
66.4870635
11
7.0754969
21
66.8678635
0
LINE
8
DEFAULT_255_2_778
10
8.4716969
20
66.8892635
11
8.4716969
21
66.8889635
0
LINE
8
DEFAULT_255_2_778
10
8.0615969
20
66.4341635
11
8.0615969
21
66.9257635
0
LINE
8
DEFAULT_255_2_778
10
7.4858969
20
66.9567635
11
7.4858969
21
66.4537635
0
LINE
8
DEFAULT_255_2_778
10
8.0618969
20
66.4336635
11
8.0615969
21
66.4341635
0
ARC
8
DEFAULT_255_2_778
10
9.6116288
20
67.1634308
40
0.4830751
50
327.6058796
51
1.0078842
0
ARC
8
DEFAULT_255_2_778
10
9.565037
20
67.2019946
40
0.5431298
50
297.0848533
51
326.8039598
0
ARC
8
DEFAULT_255_2_778
10
9.5590906
20
66.1741369
40
0.6003188
50
35.0189304
51
65.0491813
0
ARC
8
DEFAULT_255_2_778
10
9.6247758
20
66.23115
40
0.5138871
50
358.6929545
51
34.0156134
0
ARC
8
DEFAULT_255_2_778
10
9.5492075
20
66.2048465
40
0.589502
50
331.1139863
51
1.4173858
0
ARC
8
DEFAULT_255_2_778
10
9.6167769
20
66.1802218
40
0.5185624
50
310.162713
51
329.8897015
0
ARC
8
DEFAULT_255_2_778
10
9.5290614
20
66.2943151
40
0.6623599
50
278.959045
51
309.5959324
0
ARC
8
DEFAULT_255_2_778
10
9.4478655
20
66.6923625
40
1.0683508
50
269.6816325
51
279.9361231
0
ARC
8
DEFAULT_255_2_778
10
9.4291752
20
66.5931447
40
0.9692005
50
253.9531994
51
270.7539944
0
ARC
8
DEFAULT_255_2_778
10
9.3377849
20
66.2687613
40
0.6321966
50
229.9778036
51
253.7866702
0
ARC
8
DEFAULT_255_2_778
10
9.281452
20
66.1942765
40
0.5389507
50
178.4395793
51
229.4717053
0
ARC
8
DEFAULT_255_2_778
10
9.5308829
20
66.2196066
40
0.7882538
50
179.9984352
51
180.7744168
0
ARC
8
DEFAULT_255_2_778
10
9.2588789
20
66.2311949
40
0.5163792
50
146.0698853
51
181.2835193
0
ARC
8
DEFAULT_255_2_778
10
9.3143655
20
66.1835859
40
0.5890538
50
114.7739107
51
145.2401204
0
ARC
8
DEFAULT_255_2_778
10
9.3095104
20
67.1941565
40
0.5337344
50
212.8511093
51
243.039645
0
ARC
8
DEFAULT_255_2_778
10
9.2709794
20
67.163072
40
0.4845312
50
178.9527084
51
212.2347634
0
ARC
8
DEFAULT_255_2_778
10
9.3617501
20
67.1867424
40
0.5754117
50
149.8584283
51
181.4752721
0
ARC
8
DEFAULT_255_2_778
10
9.3033711
20
67.208325
40
0.514199
50
131.5183589
51
148.6716493
0
ARC
8
DEFAULT_255_2_778
10
9.3675016
20
67.125769
40
0.6185581
50
97.6828546
51
130.8972019
0
ARC
8
DEFAULT_255_2_778
10
9.4364234
20
66.7675077
40
0.9830294
50
89.7548649
51
98.8723774
0
ARC
8
DEFAULT_255_2_778
10
9.4537632
20
66.8894486
40
0.8611797
50
72.1468986
51
90.8738629
0
ARC
8
DEFAULT_255_2_778
10
9.5356533
20
67.1575869
40
0.5808635
50
48.8435972
51
71.7268458
0
ARC
8
DEFAULT_255_2_778
10
9.5689643
20
67.2027194
40
0.5249801
50
0.2602383
51
48.3391372
0
ARC
8
DEFAULT_255_2_778
10
9.3163843
20
67.1723342
40
0.7782449
50
359.9848267
51
2.4132761
0
ARC
8
DEFAULT_255_2_778
10
9.4295612
20
66.2640631
40
0.2979227
50
357.2035566
51
42.5238266
0
ARC
8
DEFAULT_255_2_778
10
9.4525329
20
66.2684728
40
0.2782832
50
45.0522674
51
92.7813676
0
ARC
8
DEFAULT_255_2_778
10
9.4259808
20
66.2692268
40
0.2775083
50
87.3049597
51
134.7737451
0
ARC
8
DEFAULT_255_2_778
10
9.4493343
20
66.2649455
40
0.2973051
50
137.3885186
51
182.9725383
0
ARC
8
DEFAULT_255_2_778
10
9.4490107
20
66.2359316
40
0.296893
50
177.3751584
51
222.245432
0
ARC
8
DEFAULT_255_2_778
10
9.4261728
20
66.2337202
40
0.2788376
50
225.0651628
51
273.2393637
0
ARC
8
DEFAULT_255_2_778
10
9.4573812
20
66.2334196
40
0.2785205
50
266.8196627
51
314.1063149
0
ARC
8
DEFAULT_255_2_778
10
9.4370897
20
66.2288697
40
0.2899192
50
317.6138138
51
1.30592
0
ARC
8
DEFAULT_255_2_778
10
9.2419849
20
66.2492593
40
0.4851444
50
358.3720921
51
0.008121
0
ARC
8
DEFAULT_255_2_778
10
9.4000941
20
67.1660917
40
0.2847825
50
357.16938
51
39.1858618
0
ARC
8
DEFAULT_255_2_778
10
9.4538412
20
67.1933493
40
0.2262649
50
42.436998
51
93.3475168
0
ARC
8
DEFAULT_255_2_778
10
9.4276564
20
67.1912482
40
0.2283487
50
86.7431926
51
136.6053965
0
ARC
8
DEFAULT_255_2_778
10
9.4731459
20
67.1722495
40
0.2750097
50
140.2427561
51
181.0039711
0
ARC
8
DEFAULT_255_2_778
10
9.6677424
20
67.1521243
40
0.4698134
50
178.1329782
51
180.0117387
0
ARC
8
DEFAULT_255_2_778
10
9.4955091
20
67.1377059
40
0.2979244
50
177.2445414
51
218.3074727
0
ARC
8
DEFAULT_255_2_778
10
9.4292437
20
67.1003427
40
0.2230756
50
221.328848
51
273.2599455
0
ARC
8
DEFAULT_255_2_778
10
9.454878
20
67.0979429
40
0.220695
50
266.6363527
51
318.9566902
0
ARC
8
DEFAULT_255_2_778
10
9.3850912
20
67.1375902
40
0.2997858
50
322.0010867
51
2.7604726
0
LINE
8
DEFAULT_255_2_778
10
10.0946292
20
67.1721281
11
10.0946292
21
67.1719281
0
LINE
8
DEFAULT_255_2_778
10
9.7271292
20
66.2493281
11
9.7271292
21
66.2495281
0
LINE
8
DEFAULT_255_2_778
10
9.6845292
20
67.1520281
11
9.6845292
21
67.1520281
0
LINE
8
DEFAULT_255_2_778
10
11.7688573
20
65.6529208
11
11.6254573
21
66.0791208
0
LINE
8
DEFAULT_255_2_778
10
11.6254573
20
66.0791208
11
10.8791573
21
66.0791208
0
LINE
8
DEFAULT_255_2_778
10
10.8791573
20
66.0791208
11
10.7372573
21
65.6529208
0
LINE
8
DEFAULT_255_2_778
10
10.7372573
20
65.6529208
11
10.2848573
21
65.6529208
0
LINE
8
DEFAULT_255_2_778
10
10.2848573
20
65.6529208
11
11.0537573
21
67.7219208
0
LINE
8
DEFAULT_255_2_778
10
11.0537573
20
67.7219208
11
11.4482573
21
67.7219208
0
LINE
8
DEFAULT_255_2_778
10
11.4482573
20
67.7219208
11
12.2213573
21
65.6529208
0
LINE
8
DEFAULT_255_2_778
10
12.2213573
20
65.6529208
11
11.7686573
21
65.6529208
0
LINE
8
DEFAULT_255_2_778
10
11.7686573
20
65.6529208
11
11.7688573
21
65.6529208
0
LINE
8
DEFAULT_255_2_778
10
11.2511573
20
67.1991208
11
10.9941573
21
66.4246208
0
LINE
8
DEFAULT_255_2_778
10
10.9941573
20
66.4246208
11
11.5106573
21
66.4246208
0
LINE
8
DEFAULT_255_2_778
10
11.5106573
20
66.4246208
11
11.2511573
21
67.1991208
0
LINE
8
DEFAULT_255_2_778
10
11.2511573
20
67.1991208
11
11.2511573
21
67.1991208
0
ARC
8
DEFAULT_255_2_778
10
13.0660906
20
66.7585938
40
0.9634939
50
60.7152943
51
90.9578907
0
ARC
8
DEFAULT_255_2_778
10
13.1105287
20
66.8534167
40
0.8590864
50
27.4514742
51
60.2068345
0
ARC
8
DEFAULT_255_2_778
10
12.9267354
20
66.7576507
40
1.0663327
50
0.7266328
51
27.4651556
0
ARC
8
DEFAULT_255_2_778
10
12.6425463
20
66.7343852
40
1.3509371
50
359.994399
51
1.5604667
0
ARC
8
DEFAULT_255_2_778
10
12.8677688
20
66.6247832
40
1.125805
50
338.9201127
51
0.7262612
0
ARC
8
DEFAULT_255_2_778
10
13.0209478
20
66.5761948
40
0.9654503
50
332.2021105
51
338.3410675
0
ARC
8
DEFAULT_255_2_778
10
13.1206223
20
66.5155022
40
0.8490048
50
299.6622682
51
332.6883426
0
ARC
8
DEFAULT_255_2_778
10
13.0634253
20
66.6256234
40
0.9730133
50
269.4616717
51
299.3798746
0
ARC
8
DEFAULT_255_2_778
10
13.0594725
20
66.5293973
40
0.5343196
50
268.5319323
51
296.0023202
0
ARC
8
DEFAULT_255_2_778
10
13.1040128
20
66.4165529
40
0.4134787
50
297.3105514
51
321.4285617
0
ARC
8
DEFAULT_255_2_778
10
12.9651276
20
66.5168562
40
0.5846587
50
322.2295539
51
348.7229837
0
ARC
8
DEFAULT_255_2_778
10
12.4915308
20
66.625523
40
1.0704528
50
347.9759906
51
0.0444316
0
ARC
8
DEFAULT_255_2_778
10
12.4544759
20
66.7484606
40
1.1075792
50
359.3477941
51
12.2042792
0
ARC
8
DEFAULT_255_2_778
10
12.9802945
20
66.8686705
40
0.5682673
50
11.5654041
51
37.2349158
0
ARC
8
DEFAULT_255_2_778
10
13.0695318
20
66.9238465
40
0.4639431
50
38.4782736
51
38.7046837
0
ARC
8
DEFAULT_255_2_778
10
13.0923719
20
66.9356604
40
0.438761
50
39.3658132
51
87.3423916
0
ARC
8
DEFAULT_255_2_778
10
13.0509219
20
66.66922
40
0.7074335
50
84.988841
51
90.0760166
0
LINE
8
DEFAULT_255_2_778
10
13.0542834
20
65.6529531
11
12.4144834
21
65.6529531
0
LINE
8
DEFAULT_255_2_778
10
12.4144834
20
65.6529531
11
12.4144834
21
67.7219531
0
LINE
8
DEFAULT_255_2_778
10
12.4144834
20
67.7219531
11
13.0499834
21
67.7219531
0
LINE
8
DEFAULT_255_2_778
10
13.9934834
20
66.7342531
11
13.9934834
21
66.6390531
0
LINE
8
DEFAULT_255_2_778
10
13.0542834
20
65.6526531
11
13.0542834
21
65.6529531
0
LINE
8
DEFAULT_255_2_778
10
13.0499834
20
67.3766531
11
12.8398834
21
67.3766531
0
LINE
8
DEFAULT_255_2_778
10
12.8398834
20
67.3766531
11
12.8398834
21
65.9952531
0
LINE
8
DEFAULT_255_2_778
10
12.8398834
20
65.9952531
11
13.0457834
21
65.9952531
0
LINE
8
DEFAULT_255_2_778
10
13.5619834
20
66.6263531
11
13.5619834
21
66.7358531
0
LINE
8
DEFAULT_255_2_778
10
13.0499834
20
67.3766531
11
13.0499834
21
67.3766531
0
LINE
8
DEFAULT_255_2_778
10
15.0733115
20
66.7042969
11
15.0733115
21
66.3732969
0
LINE
8
DEFAULT_255_2_778
10
15.0733115
20
66.3732969
11
14.2745115
21
66.3732969
0
LINE
8
DEFAULT_255_2_778
10
14.2745115
20
66.3732969
11
14.2745115
21
66.7042969
0
LINE
8
DEFAULT_255_2_778
10
14.2745115
20
66.7042969
11
15.0733115
21
66.7042969
0
LINE
8
DEFAULT_255_2_778
10
15.0733115
20
66.7042969
11
15.0733115
21
66.7042969
0
LINE
8
DEFAULT_255_2_778
10
16.3814083
20
67.724576
11
16.3814083
21
65.652576
0
LINE
8
DEFAULT_255_2_778
10
16.3814083
20
65.652576
11
15.9713083
21
65.652576
0
LINE
8
DEFAULT_255_2_778
10
15.9713083
20
65.652576
11
15.9713083
21
67.235676
0
LINE
8
DEFAULT_255_2_778
10
15.9713083
20
67.235676
11
15.4818083
21
67.083476
0
LINE
8
DEFAULT_255_2_778
10
15.4818083
20
67.083476
11
15.4818083
21
67.417376
0
LINE
8
DEFAULT_255_2_778
10
15.4818083
20
67.417376
11
16.3372083
21
67.724276
0
LINE
8
DEFAULT_255_2_778
10
16.3372083
20
67.724276
11
16.3811083
21
67.724276
0
LINE
8
DEFAULT_255_2_778
10
16.3811083
20
67.724276
11
16.3814083
21
67.724576
0
ENDSEC
0
EOF