0
SECTION
2
HEADER
9
$MEASUREMENT
70
1
0
ENDSEC
0
SECTION
2
TABLES
0
TABLE
2
LTYPE
0
LTYPE
72
65
70
64
2
CONTINUOUS
3
______
73
0
40
0
0
ENDTAB
0
TABLE
2
LAYER
0
LAYER
2
DEFAULT_255_2_778
70
0
62
255
6
CONTINUOUS
0
LAYER
2
DEFAULT_255_1_388
70
0
62
255
6
CONTINUOUS
0
LAYER
2
DEFAULT_255_2_778_1
70
0
62
255
6
CONTINUOUS
0
ENDTAB
0
ENDSEC
0
SECTION
2
ENTITIES
0
ARC
8
DEFAULT_255_2_778
10
3.5700693
20
75.805203
40
0.7914215
50
129.1312896
51
180.1450914
0
ARC
8
DEFAULT_255_2_778
10
3.5703345
20
75.8056901
40
0.7912112
50
89.854026
51
129.1684493
0
ARC
8
DEFAULT_255_2_778
10
25.7993937
20
75.8053767
40
0.7915249
50
39.4792447
51
90.147911
0
ARC
8
DEFAULT_255_2_778
10
25.7999935
20
75.8052233
40
0.7911595
50
359.8533901
51
39.5154338
0
ARC
8
DEFAULT_255_2_778
10
25.7996693
20
-1.9863492
40
0.7914836
50
309.4761667
51
0.1482649
0
ARC
8
DEFAULT_255_2_778
10
25.799398
20
-1.9867803
40
0.7913235
50
269.8517415
51
309.511178
0
ARC
8
DEFAULT_255_2_778
10
3.570342
20
-1.9867221
40
0.7913815
50
219.1282118
51
270.1454017
0
ARC
8
DEFAULT_255_2_778
10
3.5700247
20
-1.9863397
40
0.7913769
50
179.8524075
51
219.1641908
0
LINE
8
DEFAULT_255_2_778
10
3.5723503
20
76.5968989
11
25.7973503
21
76.5968989
0
LINE
8
DEFAULT_255_2_778
10
26.5911503
20
75.8031989
11
26.5911503
21
-1.9843011
0
LINE
8
DEFAULT_255_2_778
10
25.7973503
20
-2.7781011
11
3.5723503
21
-2.7781011
0
LINE
8
DEFAULT_255_2_778
10
2.7786503
20
-1.9843011
11
2.7786503
21
75.8031989
0
LINE
8
DEFAULT_255_1_388
10
10.7241646
20
0.0830516
11
10.7241646
21
-0.0588081
0
LINE
8
DEFAULT_255_1_388
10
10.7241646
20
-0.0588081
11
10.1720868
21
-0.0588081
0
LINE
8
DEFAULT_255_1_388
10
10.1720868
20
-0.0588081
11
10.1720868
21
-0.6398
0
LINE
8
DEFAULT_255_1_388
10
10.1720868
20
-0.6398
11
9.9986024
21
-0.6398
0
LINE
8
DEFAULT_255_1_388
10
9.9986024
20
-0.6398
11
9.9986024
21
0.6757898
0
LINE
8
DEFAULT_255_1_388
10
9.9986024
20
0.6757898
11
10.8136175
21
0.6757898
0
LINE
8
DEFAULT_255_1_388
10
10.8136175
20
0.6757898
11
10.8136175
21
0.5330267
0
LINE
8
DEFAULT_255_1_388
10
10.8136175
20
0.5330267
11
10.1720868
21
0.5330267
0
LINE
8
DEFAULT_255_1_388
10
10.1720868
20
0.5330267
11
10.1720868
21
0.0830516
0
LINE
8
DEFAULT_255_1_388
10
10.1720868
20
0.0830516
11
10.7241646
21
0.0830516
0
LINE
8
DEFAULT_255_1_388
10
11.8400667
20
-0.5033618
11
11.8400667
21
-0.6398
0
LINE
8
DEFAULT_255_1_388
10
11.8400667
20
-0.6398
11
10.9780663
21
-0.6398
0
LINE
8
DEFAULT_255_1_388
10
10.9780663
20
-0.6398
11
10.9780663
21
-0.5196259
0
LINE
8
DEFAULT_255_1_388
10
10.9780663
20
-0.5196259
11
11.4334627
21
-0.0136298
0
LINE
8
DEFAULT_255_1_388
10
11.1199259
20
0.2881607
11
10.9527665
21
0.2881607
0
LINE
8
DEFAULT_255_1_388
10
11.5319513
20
-0.121154
11
11.1795611
21
-0.5033618
0
LINE
8
DEFAULT_255_1_388
10
11.1795611
20
-0.5033618
11
11.8400667
21
-0.5033618
0
ARC
8
DEFAULT_255_1_388
10
9.9158687
20
1.3283983
40
2.0258655
50
318.5132526
51
320.7829045
0
ARC
8
DEFAULT_255_1_388
10
10.5106644
20
0.8442929
40
1.2589638
50
320.7372878
51
323.9739031
0
ARC
8
DEFAULT_255_1_388
10
10.9515576
20
0.5248554
40
0.7145141
50
323.8962701
51
328.64194
0
ARC
8
DEFAULT_255_1_388
10
11.1817833
20
0.3828545
40
0.4440242
50
328.8294576
51
331.7891185
0
ARC
8
DEFAULT_255_1_388
10
11.2940153
20
0.3249374
40
0.3177517
50
331.4254512
51
352.9365785
0
ARC
8
DEFAULT_255_1_388
10
11.3093153
20
0.321505
40
0.3021496
50
353.2257659
51
0.0166158
0
ARC
8
DEFAULT_255_1_388
10
11.3329914
20
0.3240894
40
0.2784847
50
359.486299
51
15.9343185
0
ARC
8
DEFAULT_255_1_388
10
11.3900181
20
0.3394269
40
0.2194403
50
16.1712913
51
43.5286088
0
ARC
8
DEFAULT_255_1_388
10
11.3987125
20
0.3481191
40
0.2071504
50
43.4417391
51
83.1661095
0
ARC
8
DEFAULT_255_1_388
10
11.3836286
20
0.2652316
40
0.2912888
50
82.160179
51
90.1505708
0
ARC
8
DEFAULT_255_1_388
10
11.3800768
20
0.2048279
40
0.3517025
50
89.5460741
51
102.5418361
0
ARC
8
DEFAULT_255_1_388
10
11.3527488
20
0.3207933
40
0.2325748
50
102.1738499
51
129.206123
0
ARC
8
DEFAULT_255_1_388
10
11.3438941
20
0.3347664
40
0.2161591
50
129.72865
51
135.753947
0
ARC
8
DEFAULT_255_1_388
10
11.3575423
20
0.3238728
40
0.2335433
50
136.1757367
51
166.3673339
0
ARC
8
DEFAULT_255_1_388
10
11.4708112
20
0.2935148
40
0.3507873
50
165.9090694
51
178.8684636
0
ARC
8
DEFAULT_255_1_388
10
11.5683883
20
0.2882263
40
0.4484624
50
178.4391136
51
180.0083808
0
ARC
8
DEFAULT_255_1_388
10
11.4104585
20
0.2926197
40
0.4577138
50
163.2878482
51
180.5581842
0
ARC
8
DEFAULT_255_1_388
10
11.3202626
20
0.3174393
40
0.3641968
50
133.4540601
51
162.947111
0
ARC
8
DEFAULT_255_1_388
10
11.3403508
20
0.2960789
40
0.3935189
50
100.7869829
51
133.4382499
0
ARC
8
DEFAULT_255_1_388
10
11.3794753
20
0.1218399
40
0.5720313
50
89.660664
51
101.3702276
0
ARC
8
DEFAULT_255_1_388
10
11.3869362
20
0.1287263
40
0.5651495
50
78.2172678
51
90.412935
0
ARC
8
DEFAULT_255_1_388
10
11.4268827
20
0.3114511
40
0.378122
50
55.9269121
51
78.4888449
0
ARC
8
DEFAULT_255_1_388
10
11.4489543
20
0.3495187
40
0.3342379
50
47.929771
51
55.4049217
0
ARC
8
DEFAULT_255_1_388
10
11.4604073
20
0.3611618
40
0.3179217
50
4.334829
51
48.0560205
0
ARC
8
DEFAULT_255_1_388
10
11.3371875
20
0.3420487
40
0.442341
50
359.9251713
51
5.5971671
0
ARC
8
DEFAULT_255_1_388
10
11.3854029
20
0.3483728
40
0.3941854
50
337.8914027
51
358.9967534
0
ARC
8
DEFAULT_255_1_388
10
11.0801599
20
0.4661295
40
0.7213271
50
326.9132501
51
338.3508308
0
ARC
8
DEFAULT_255_1_388
10
10.6317711
20
0.7535105
40
1.2538973
50
319.6471833
51
327.0959558
0
ARC
8
DEFAULT_255_1_388
10
10.2004369
20
1.109305
40
1.8129975
50
317.2588228
51
319.9045804
0
LINE
8
DEFAULT_255_1_388
10
12.3822054
20
-0.0127263
11
12.3822054
21
-0.1491645
0
LINE
8
DEFAULT_255_1_388
10
12.3822054
20
-0.1491645
11
11.941266
21
-0.1491645
0
LINE
8
DEFAULT_255_1_388
10
11.941266
20
-0.1491645
11
11.941266
21
-0.0127263
0
LINE
8
DEFAULT_255_1_388
10
11.941266
20
-0.0127263
11
12.3822054
21
-0.0127263
0
LINE
8
DEFAULT_255_1_388
10
13.3526336
20
0.138169
11
13.3526336
21
-0.0786865
0
LINE
8
DEFAULT_255_1_388
10
12.5222579
20
-0.1012756
11
12.5222579
21
0.1219048
0
LINE
8
DEFAULT_255_1_388
10
13.1854742
20
-0.1238647
11
13.1854742
21
0.1499153
0
LINE
8
DEFAULT_255_1_388
10
12.6894173
20
0.1625652
11
12.6894173
21
-0.1048898
0
ARC
8
DEFAULT_255_1_388
10
11.974867
20
-0.0841882
40
1.3777776
50
353.8440855
51
0.2287917
0
ARC
8
DEFAULT_255_1_388
10
12.4967688
20
-0.1424586
40
0.852639
50
344.4934746
51
353.9763743
0
ARC
8
DEFAULT_255_1_388
10
12.8334495
20
-0.2381809
40
0.5026273
50
329.2803599
51
344.7473406
0
ARC
8
DEFAULT_255_1_388
10
12.9449991
20
-0.2993962
40
0.3754848
50
324.9361395
51
328.6153007
0
ARC
8
DEFAULT_255_1_388
10
12.987564
20
-0.3291414
40
0.3235566
50
280.5801797
51
324.9173226
0
ARC
8
DEFAULT_255_1_388
10
12.9424269
20
-0.1411764
40
0.5167077
50
269.5979457
51
281.6732777
0
ARC
8
DEFAULT_255_1_388
10
12.9343173
20
-0.1546887
40
0.5032026
50
256.6228565
51
270.5105488
0
ARC
8
DEFAULT_255_1_388
10
12.8890915
20
-0.3288655
40
0.3233092
50
215.8618351
51
257.2787793
0
ARC
8
DEFAULT_255_1_388
10
13.0039622
20
-0.2517894
40
0.4615831
50
197.9695203
51
215.2622745
0
ARC
8
DEFAULT_255_1_388
10
13.2835298
20
-0.1574359
40
0.7566307
50
187.8816486
51
198.2346584
0
ARC
8
DEFAULT_255_1_388
10
13.7288536
20
-0.0931547
40
1.2065653
50
180.8977266
51
188.0054894
0
ARC
8
DEFAULT_255_1_388
10
14.033875
20
-0.08166
40
1.5117443
50
180.7434591
51
181.152202
0
ARC
8
DEFAULT_255_1_388
10
13.8663746
20
0.1273371
40
1.3441277
50
173.7674302
51
180.2315596
0
ARC
8
DEFAULT_255_1_388
10
13.3581615
20
0.1847779
40
0.8326847
50
164.3058537
51
173.9000553
0
ARC
8
DEFAULT_255_1_388
10
13.0305615
20
0.2791652
40
0.4917711
50
148.7922028
51
164.5682288
0
ARC
8
DEFAULT_255_1_388
10
12.9236352
20
0.3388457
40
0.3694204
50
144.5883979
51
148.1161588
0
ARC
8
DEFAULT_255_1_388
10
12.8849098
20
0.3658667
40
0.322202
50
101.6440149
51
144.5142619
0
ARC
8
DEFAULT_255_1_388
10
12.932729
20
0.1758337
40
0.5180451
50
89.528284
51
102.5820197
0
ARC
8
DEFAULT_255_1_388
10
12.9416282
20
0.1714376
40
0.5224441
50
77.0437914
51
90.508231
0
ARC
8
DEFAULT_255_1_388
10
12.9868535
20
0.3562272
40
0.3322297
50
48.2777708
51
77.4996087
0
ARC
8
DEFAULT_255_1_388
10
12.9950275
20
0.3707557
40
0.315966
50
36.3141586
51
47.6307332
0
ARC
8
DEFAULT_255_1_388
10
12.8972998
20
0.3049159
40
0.4337313
50
18.2931065
51
35.6770203
0
ARC
8
DEFAULT_255_1_388
10
12.6111838
20
0.2067107
40
0.7362203
50
8.0246996
51
18.5605636
0
ARC
8
DEFAULT_255_1_388
10
12.1428194
20
0.1375432
40
1.2096583
50
1.127539
51
8.1718423
0
ARC
8
DEFAULT_255_1_388
10
11.7779327
20
0.1232374
40
1.5747719
50
0.5432713
51
1.38669
0
ARC
8
DEFAULT_255_1_388
10
11.9836706
20
0.1539163
40
1.2018103
50
359.8092569
51
4.9408001
0
ARC
8
DEFAULT_255_1_388
10
12.4573287
20
0.19619
40
0.7262727
50
4.8364937
51
12.2906017
0
ARC
8
DEFAULT_255_1_388
10
12.7672752
20
0.2652485
40
0.4087324
50
12.0806994
51
23.8171225
0
ARC
8
DEFAULT_255_1_388
10
12.8993148
20
0.3211508
40
0.2653719
50
24.2874621
51
31.3934353
0
ARC
8
DEFAULT_255_1_388
10
12.9583584
20
0.3597822
40
0.1948607
50
30.7407708
51
82.4658033
0
ARC
8
DEFAULT_255_1_388
10
12.9381245
20
0.2604017
40
0.2961198
50
81.1057101
51
90.2187368
0
ARC
8
DEFAULT_255_1_388
10
12.9341057
20
0.2894421
40
0.2670929
50
89.380395
51
105.6763916
0
ARC
8
DEFAULT_255_1_388
10
12.9134779
20
0.364432
40
0.1893189
50
105.7980655
51
149.7387869
0
ARC
8
DEFAULT_255_1_388
10
13.0331919
20
0.2924719
40
0.3289892
50
149.4208441
51
163.628295
0
ARC
8
DEFAULT_255_1_388
10
13.2684148
20
0.2207345
40
0.5749004
50
163.3764549
51
172.141138
0
ARC
8
DEFAULT_255_1_388
10
13.639687
20
0.1675582
40
0.9499585
50
172.0258462
51
178.0705453
0
ARC
8
DEFAULT_255_1_388
10
13.9818423
20
0.1513682
40
1.2924734
50
177.8639301
51
179.5036263
0
ARC
8
DEFAULT_255_1_388
10
13.8599441
20
-0.1089849
40
1.170534
50
179.7995545
51
185.246089
0
ARC
8
DEFAULT_255_1_388
10
13.4051034
20
-0.1520596
40
0.7136613
50
185.1411911
51
193.0082205
0
ARC
8
DEFAULT_255_1_388
10
13.1077295
20
-0.2223559
40
0.4080987
50
192.7897338
51
205.2507384
0
ARC
8
DEFAULT_255_1_388
10
12.9899505
20
-0.2749462
40
0.2791522
50
205.8001921
51
211.2545876
0
ARC
8
DEFAULT_255_1_388
10
12.9311044
20
-0.3143868
40
0.2084074
50
210.3789935
51
238.4007996
0
ARC
8
DEFAULT_255_1_388
10
12.928913
20
-0.3091214
40
0.2117943
50
239.6521916
51
265.9793852
0
ARC
8
DEFAULT_255_1_388
10
12.9384979
20
-0.2334642
40
0.2879689
50
265.1324455
51
270.0603288
0
ARC
8
DEFAULT_255_1_388
10
12.9417356
20
-0.2699582
40
0.2514919
50
269.3314378
51
287.2180039
0
ARC
8
DEFAULT_255_1_388
10
12.9572438
20
-0.3265709
40
0.1928357
50
287.7957942
51
329.0808983
0
ARC
8
DEFAULT_255_1_388
10
12.8495195
20
-0.2593349
40
0.319808
50
328.6635261
51
343.3325043
0
ARC
8
DEFAULT_255_1_388
10
12.6050654
20
-0.1831805
40
0.5758408
50
343.0498092
51
351.9392499
0
ARC
8
DEFAULT_255_1_388
10
12.2149976
20
-0.1256795
40
0.9701202
50
351.8071632
51
357.7957897
0
ARC
8
DEFAULT_255_1_388
10
11.8515453
20
-0.1068276
40
1.3340376
50
357.5870923
51
359.2682493
0
LINE
8
DEFAULT_255_1_388
10
14.2724623
20
0.6757898
11
14.2724623
21
-0.197957
0
LINE
8
DEFAULT_255_1_388
10
14.2724623
20
-0.197957
11
14.4549823
21
-0.197957
0
LINE
8
DEFAULT_255_1_388
10
14.4549823
20
-0.197957
11
14.4549823
21
-0.3343952
0
LINE
8
DEFAULT_255_1_388
10
14.4549823
20
-0.3343952
11
14.2724623
21
-0.3343952
0
LINE
8
DEFAULT_255_1_388
10
14.2724623
20
-0.3343952
11
14.2724623
21
-0.6398
0
LINE
8
DEFAULT_255_1_388
10
14.2724623
20
-0.6398
11
14.1043993
21
-0.6398
0
LINE
8
DEFAULT_255_1_388
10
14.1043993
20
-0.6398
11
14.1043993
21
-0.3343952
0
LINE
8
DEFAULT_255_1_388
10
14.1043993
20
-0.3343952
11
13.505336
21
-0.3343952
0
LINE
8
DEFAULT_255_1_388
10
13.505336
20
-0.3343952
11
13.505336
21
-0.2359067
0
LINE
8
DEFAULT_255_1_388
10
13.505336
20
-0.2359067
11
14.0944601
21
0.6757898
0
LINE
8
DEFAULT_255_1_388
10
14.0944601
20
0.6757898
11
14.2724623
21
0.6757898
0
LINE
8
DEFAULT_255_1_388
10
14.0845208
20
0.4110455
11
13.6950846
21
-0.197957
0
LINE
8
DEFAULT_255_1_388
10
13.6950846
20
-0.197957
11
14.1043993
21
-0.197957
0
LINE
8
DEFAULT_255_1_388
10
14.1043993
20
-0.197957
11
14.1043993
21
0.447188
0
LINE
8
DEFAULT_255_1_388
10
14.1043993
20
0.447188
11
14.0845208
21
0.4110455
0
LINE
8
DEFAULT_255_1_388
10
15.5013099
20
-0.6398
11
15.3757145
21
-0.2964455
0
LINE
8
DEFAULT_255_1_388
10
15.3757145
20
-0.2964455
11
14.8245401
21
-0.2964455
0
LINE
8
DEFAULT_255_1_388
10
14.8245401
20
-0.2964455
11
14.7007518
21
-0.6398
0
LINE
8
DEFAULT_255_1_388
10
14.7007518
20
-0.6398
11
14.521846
21
-0.6398
0
LINE
8
DEFAULT_255_1_388
10
14.521846
20
-0.6398
11
15.0242279
21
0.6757898
0
LINE
8
DEFAULT_255_1_388
10
15.0242279
20
0.6757898
11
15.1760267
21
0.6757898
0
LINE
8
DEFAULT_255_1_388
10
15.1760267
20
0.6757898
11
15.6793121
21
-0.6398
0
LINE
8
DEFAULT_255_1_388
10
15.6793121
20
-0.6398
11
15.5013099
21
-0.6398
0
LINE
8
DEFAULT_255_1_388
10
15.1001273
20
0.4616451
11
14.8769469
21
-0.1536823
0
LINE
8
DEFAULT_255_1_388
10
14.8769469
20
-0.1536823
11
15.3242113
21
-0.1536823
0
LINE
8
DEFAULT_255_1_388
10
15.3242113
20
-0.1536823
11
15.1001273
21
0.4616451
0
LINE
8
DEFAULT_255_1_388
10
16.2205472
20
-0.6398
11
15.8564107
21
-0.6398
0
LINE
8
DEFAULT_255_1_388
10
15.8564107
20
-0.6398
11
15.8564107
21
0.6757898
0
LINE
8
DEFAULT_255_1_388
10
15.8564107
20
0.6757898
11
16.2277757
21
0.6757898
0
LINE
8
DEFAULT_255_1_388
10
16.8078641
20
0.0622696
11
16.8078641
21
-0.0217619
0
LINE
8
DEFAULT_255_1_388
10
16.2322936
20
0.5330267
11
16.0298951
21
0.5330267
0
LINE
8
DEFAULT_255_1_388
10
16.0298951
20
0.5330267
11
16.0298951
21
-0.4979404
0
LINE
8
DEFAULT_255_1_388
10
16.0298951
20
-0.4979404
11
16.2124151
21
-0.4979404
0
LINE
8
DEFAULT_255_1_388
10
16.6361869
20
-0.0181477
11
16.6361869
21
0.0586553
0
ARC
8
DEFAULT_255_1_388
10
16.2321552
20
0.0159436
40
0.6598608
50
75.4100343
51
90.3802731
0
ARC
8
DEFAULT_255_1_388
10
16.2579798
20
0.1235691
40
0.5492049
50
60.1455157
51
75.1889627
0
ARC
8
DEFAULT_255_1_388
10
16.2758389
20
0.1546914
40
0.5133226
50
26.525419
51
60.1451222
0
ARC
8
DEFAULT_255_1_388
10
16.1498175
20
0.0878642
40
0.6559324
50
7.4029944
51
26.832209
0
ARC
8
DEFAULT_255_1_388
10
15.9704573
20
0.0599229
40
0.8374103
50
0.1605597
51
7.7176135
0
ARC
8
DEFAULT_255_1_388
10
15.9888973
20
-0.0260679
40
0.8189782
50
348.7289744
51
0.30125
0
ARC
8
DEFAULT_255_1_388
10
16.1752437
20
-0.0630844
40
0.628991
50
333.0706936
51
348.7181455
0
ARC
8
DEFAULT_255_1_388
10
16.2840065
20
-0.1221551
40
0.5052808
50
299.2531435
51
333.4571133
0
ARC
8
DEFAULT_255_1_388
10
16.2434096
20
-0.0450371
40
0.5924066
50
278.1072193
51
299.0340218
0
ARC
8
DEFAULT_255_1_388
10
16.2146145
20
0.1245979
40
0.7644209
50
270.4446841
51
278.4508355
0
ARC
8
DEFAULT_255_1_388
10
16.2169628
20
0.02003
40
0.5179903
50
269.4969684
51
284.0204874
0
ARC
8
DEFAULT_255_1_388
10
16.2569347
20
-0.1335585
40
0.3592968
50
283.7699076
51
318.1557121
0
ARC
8
DEFAULT_255_1_388
10
16.2189892
20
-0.1051601
40
0.4065308
50
318.7417595
51
343.687252
0
ARC
8
DEFAULT_255_1_388
10
16.0160471
20
-0.0417725
40
0.6191194
50
343.3324891
51
355.8548594
0
ARC
8
DEFAULT_255_1_388
10
15.7799508
20
-0.0193281
40
0.856237
50
355.4988754
51
0.0789913
0
ARC
8
DEFAULT_255_1_388
10
15.8680307
20
0.063408
40
0.7681709
50
359.6455047
51
9.8607559
0
ARC
8
DEFAULT_255_1_388
10
16.1336031
20
0.1113664
40
0.498312
50
9.6573037
51
26.1931522
0
ARC
8
DEFAULT_255_1_388
10
16.2380105
20
0.1598587
40
0.3832303
50
26.5777895
51
40.1533752
0
ARC
8
DEFAULT_255_1_388
10
16.266777
20
0.182302
40
0.3467742
50
40.3839958
51
80.1430923
0
ARC
8
DEFAULT_255_1_388
10
16.2300026
20
0.0192486
40
0.5137832
50
79.2153636
51
89.7445174
0
LINE
8
DEFAULT_255_1_388
10
17.3915667
20
-0.0127263
11
17.3915667
21
-0.1491645
0
LINE
8
DEFAULT_255_1_388
10
17.3915667
20
-0.1491645
11
16.9506273
21
-0.1491645
0
LINE
8
DEFAULT_255_1_388
10
16.9506273
20
-0.1491645
11
16.9506273
21
-0.0127263
0
LINE
8
DEFAULT_255_1_388
10
16.9506273
20
-0.0127263
11
17.3915667
21
-0.0127263
0
LINE
8
DEFAULT_255_1_388
10
18.3990411
20
-0.5033618
11
18.3990411
21
-0.6398
0
LINE
8
DEFAULT_255_1_388
10
18.3990411
20
-0.6398
11
17.5370406
21
-0.6398
0
LINE
8
DEFAULT_255_1_388
10
17.5370406
20
-0.6398
11
17.5370406
21
-0.5196259
0
LINE
8
DEFAULT_255_1_388
10
17.5370406
20
-0.5196259
11
17.9924371
21
-0.0136298
0
LINE
8
DEFAULT_255_1_388
10
17.6789002
20
0.2881607
11
17.5117408
21
0.2881607
0
LINE
8
DEFAULT_255_1_388
10
18.0909256
20
-0.121154
11
17.7385355
21
-0.5033618
0
LINE
8
DEFAULT_255_1_388
10
17.7385355
20
-0.5033618
11
18.3990411
21
-0.5033618
0
ARC
8
DEFAULT_255_1_388
10
16.4748431
20
1.3283983
40
2.0258655
50
318.5132526
51
320.7829045
0
ARC
8
DEFAULT_255_1_388
10
17.0696388
20
0.8442929
40
1.2589638
50
320.7372878
51
323.9739031
0
ARC
8
DEFAULT_255_1_388
10
17.5105319
20
0.5248554
40
0.7145141
50
323.8962701
51
328.64194
0
ARC
8
DEFAULT_255_1_388
10
17.7407577
20
0.3828545
40
0.4440242
50
328.8294576
51
331.7891185
0
ARC
8
DEFAULT_255_1_388
10
17.8529897
20
0.3249374
40
0.3177517
50
331.4254512
51
352.9365785
0
ARC
8
DEFAULT_255_1_388
10
17.8682897
20
0.321505
40
0.3021496
50
353.2257659
51
0.0166158
0
ARC
8
DEFAULT_255_1_388
10
17.8919658
20
0.3240894
40
0.2784847
50
359.486299
51
15.9343185
0
ARC
8
DEFAULT_255_1_388
10
17.9489924
20
0.3394269
40
0.2194403
50
16.1712913
51
43.5286088
0
ARC
8
DEFAULT_255_1_388
10
17.9576869
20
0.3481191
40
0.2071504
50
43.4417391
51
83.1661095
0
ARC
8
DEFAULT_255_1_388
10
17.942603
20
0.2652316
40
0.2912888
50
82.160179
51
90.1505708
0
ARC
8
DEFAULT_255_1_388
10
17.9390512
20
0.2048279
40
0.3517025
50
89.5460741
51
102.5418361
0
ARC
8
DEFAULT_255_1_388
10
17.9117232
20
0.3207933
40
0.2325748
50
102.1738499
51
129.206123
0
ARC
8
DEFAULT_255_1_388
10
17.9028685
20
0.3347664
40
0.2161591
50
129.72865
51
135.753947
0
ARC
8
DEFAULT_255_1_388
10
17.9165167
20
0.3238728
40
0.2335433
50
136.1757367
51
166.3673339
0
ARC
8
DEFAULT_255_1_388
10
18.0297856
20
0.2935148
40
0.3507873
50
165.9090694
51
178.8684636
0
ARC
8
DEFAULT_255_1_388
10
18.1273627
20
0.2882263
40
0.4484624
50
178.4391136
51
180.0083808
0
ARC
8
DEFAULT_255_1_388
10
17.9694329
20
0.2926197
40
0.4577138
50
163.2878482
51
180.5581842
0
ARC
8
DEFAULT_255_1_388
10
17.879237
20
0.3174393
40
0.3641968
50
133.4540601
51
162.947111
0
ARC
8
DEFAULT_255_1_388
10
17.8993251
20
0.2960789
40
0.3935189
50
100.7869829
51
133.4382499
0
ARC
8
DEFAULT_255_1_388
10
17.9384496
20
0.1218399
40
0.5720313
50
89.660664
51
101.3702276
0
ARC
8
DEFAULT_255_1_388
10
17.9459105
20
0.1287263
40
0.5651495
50
78.2172678
51
90.412935
0
ARC
8
DEFAULT_255_1_388
10
17.9858571
20
0.3114511
40
0.378122
50
55.9269121
51
78.4888449
0
ARC
8
DEFAULT_255_1_388
10
18.0079286
20
0.3495187
40
0.3342379
50
47.929771
51
55.4049217
0
ARC
8
DEFAULT_255_1_388
10
18.0193817
20
0.3611618
40
0.3179217
50
4.334829
51
48.0560205
0
ARC
8
DEFAULT_255_1_388
10
17.8961618
20
0.3420487
40
0.442341
50
359.9251713
51
5.5971671
0
ARC
8
DEFAULT_255_1_388
10
17.9443773
20
0.3483728
40
0.3941854
50
337.8914027
51
358.9967534
0
ARC
8
DEFAULT_255_1_388
10
17.6391343
20
0.4661295
40
0.7213271
50
326.9132501
51
338.3508308
0
ARC
8
DEFAULT_255_1_388
10
17.1907455
20
0.7535105
40
1.2538973
50
319.6471833
51
327.0959558
0
ARC
8
DEFAULT_255_1_388
10
16.7594113
20
1.109305
40
1.8129975
50
317.2588228
51
319.9045804
0
ARC
8
DEFAULT_255_2_778
10
13.4649021
20
73.8860533
40
2.3035416
50
339.8907409
51
346.994376
0
ARC
8
DEFAULT_255_2_778
10
14.4342357
20
73.5259276
40
1.2694939
50
328.7691853
51
340.1120733
0
ARC
8
DEFAULT_255_2_778
10
14.9618733
20
73.1992249
40
0.6489533
50
308.240385
51
329.2799976
0
ARC
8
DEFAULT_255_2_778
10
15.1031254
20
73.0303956
40
0.42897
50
290.2149747
51
307.3797345
0
ARC
8
DEFAULT_255_2_778
10
14.8246836
20
73.2930832
40
0.5085768
50
279.0582472
51
335.0254579
0
ARC
8
DEFAULT_255_2_778
10
14.3731606
20
73.5413036
40
1.0232605
50
333.100566
51
347.4967948
0
ARC
8
DEFAULT_255_2_778
10
13.8963879
20
73.6652273
40
1.515659
50
346.8251736
51
349.6433145
0
ARC
8
DEFAULT_255_2_778
10
16.7021297
20
73.9377541
40
0.6340004
50
90.2418805
51
180.4975197
0
ARC
8
DEFAULT_255_2_778
10
16.6967765
20
73.937754
40
0.6340006
50
359.5024881
51
89.7581009
0
ARC
8
DEFAULT_255_2_778
10
16.6967768
20
73.9267436
40
0.6340003
50
270.2418684
51
0.4975336
0
ARC
8
DEFAULT_255_2_778
10
16.7021299
20
73.9267437
40
0.6340005
50
179.5024805
51
269.758104
0
ARC
8
DEFAULT_255_2_778
10
17.0885581
20
73.9521235
40
0.5748535
50
158.6224664
51
180.7450103
0
ARC
8
DEFAULT_255_2_778
10
16.7839054
20
74.0791995
40
0.2449488
50
125.6968143
51
160.3264119
0
ARC
8
DEFAULT_255_2_778
10
16.7006393
20
74.1859868
40
0.1097683
50
90.6191325
51
122.9231799
0
ARC
8
DEFAULT_255_2_778
10
16.6857984
20
74.1478461
40
0.1485318
50
26.6299238
51
84.7252528
0
ARC
8
DEFAULT_255_2_778
10
16.4257415
20
73.982402
40
0.4562354
50
6.9672199
51
30.5675002
0
ARC
8
DEFAULT_255_2_778
10
16.230961
20
73.9454325
40
0.6541928
50
359.9313724
51
8.1119436
0
ARC
8
DEFAULT_255_2_778
10
16.3103903
20
73.9372075
40
0.5748111
50
338.6217917
51
0.7417631
0
ARC
8
DEFAULT_255_2_778
10
16.6148775
20
73.8101776
40
0.2450776
50
305.7107467
51
340.3279893
0
ARC
8
DEFAULT_255_2_778
10
16.6982626
20
73.7032757
40
0.1097331
50
270.6216799
51
302.9378787
0
ARC
8
DEFAULT_255_2_778
10
16.7131343
20
73.7414636
40
0.148546
50
206.6181959
51
264.7155805
0
ARC
8
DEFAULT_255_2_778
10
16.9733331
20
73.9069852
40
0.456409
50
186.9714802
51
210.5628916
0
ARC
8
DEFAULT_255_2_778
10
17.1675553
20
73.9438721
40
0.6538026
50
179.9319269
51
188.1143536
0
ARC
8
DEFAULT_255_2_778
10
14.1772298
20
73.9377541
40
0.6340005
50
90.2418914
51
180.4975151
0
ARC
8
DEFAULT_255_2_778
10
14.1718765
20
73.937754
40
0.6340006
50
359.5024881
51
89.7581009
0
ARC
8
DEFAULT_255_2_778
10
14.1718768
20
73.9267436
40
0.6340003
50
270.2418684
51
0.4975336
0
ARC
8
DEFAULT_255_2_778
10
14.1772299
20
73.9267437
40
0.6340005
50
179.5024805
51
269.758104
0
ARC
8
DEFAULT_255_2_778
10
14.5631296
20
73.9521068
40
0.5744248
50
158.6039448
51
180.7439081
0
ARC
8
DEFAULT_255_2_778
10
14.2590145
20
74.079083
40
0.2450547
50
125.6846154
51
160.3063409
0
ARC
8
DEFAULT_255_2_778
10
14.1757439
20
74.185937
40
0.1098183
50
90.6212609
51
122.9155624
0
ARC
8
DEFAULT_255_2_778
10
14.1608984
20
74.1478461
40
0.1485318
50
26.6299238
51
84.7252528
0
ARC
8
DEFAULT_255_2_778
10
13.9008415
20
73.982402
40
0.4562354
50
6.9672199
51
30.5675002
0
ARC
8
DEFAULT_255_2_778
10
13.706061
20
73.9454325
40
0.6541928
50
359.9313724
51
8.1119436
0
ARC
8
DEFAULT_255_2_778
10
13.7854903
20
73.9372075
40
0.5748111
50
338.6217917
51
0.7417631
0
ARC
8
DEFAULT_255_2_778
10
14.0899775
20
73.8101776
40
0.2450776
50
305.7107467
51
340.3279893
0
ARC
8
DEFAULT_255_2_778
10
14.1733626
20
73.7032757
40
0.1097331
50
270.6216799
51
302.9378787
0
ARC
8
DEFAULT_255_2_778
10
14.1879015
20
73.7407507
40
0.1478058
50
207.0367178
51
264.8185874
0
ARC
8
DEFAULT_255_2_778
10
14.4427143
20
73.9049943
40
0.4504617
50
187.4901111
51
210.9147812
0
ARC
8
DEFAULT_255_2_778
10
14.6395142
20
73.9437625
40
0.6507616
50
179.9219565
51
188.6157011
0
LINE
8
DEFAULT_255_2_778
10
14.8553532
20
74.5466489
11
15.3503532
21
74.5466489
0
LINE
8
DEFAULT_255_2_778
10
15.3503532
20
74.5466489
11
15.5236532
21
73.8819489
0
LINE
8
DEFAULT_255_2_778
10
15.5236532
20
73.8819489
11
15.7093532
21
74.5590489
0
LINE
8
DEFAULT_255_2_778
10
15.7093532
20
74.5590489
11
16.0065532
21
74.4712489
0
LINE
8
DEFAULT_255_2_778
10
16.0065532
20
74.4712489
11
15.7093532
21
73.3676489
0
LINE
8
DEFAULT_255_2_778
10
15.2513532
20
72.6278489
11
14.9047532
21
72.7908489
0
LINE
8
DEFAULT_255_2_778
10
15.3873532
20
73.3927489
11
15.1770532
21
73.3927489
0
LINE
8
DEFAULT_255_2_778
10
15.1770532
20
73.3927489
11
14.8553532
21
74.5466489
0
LINE
8
DEFAULT_255_2_778
10
16.0681532
20
73.9322489
11
16.0681532
21
73.9322489
0
LINE
8
DEFAULT_255_2_778
10
16.5137532
20
73.9446489
11
16.5137532
21
73.9446489
0
LINE
8
DEFAULT_255_2_778
10
13.5432532
20
73.9322489
11
13.5432532
21
73.9322489
0
LINE
8
DEFAULT_255_2_778
10
13.9887532
20
73.9446489
11
13.9887532
21
73.9446489
0
LINE
8
DEFAULT_255_2_778
10
12.0086532
20
75.2739489
11
12.5531532
21
75.2739489
0
LINE
8
DEFAULT_255_2_778
10
12.5531532
20
75.2739489
11
12.5531532
21
74.5466489
0
LINE
8
DEFAULT_255_2_778
10
12.5531532
20
74.5466489
11
12.9987532
21
75.2739489
0
LINE
8
DEFAULT_255_2_778
10
12.9987532
20
75.2739489
11
13.4691532
21
75.2739489
0
LINE
8
DEFAULT_255_2_778
10
13.4691532
20
75.2739489
11
12.9492532
21
74.4211489
0
LINE
8
DEFAULT_255_2_778
10
12.9492532
20
74.4211489
11
13.5681532
21
73.3678489
0
LINE
8
DEFAULT_255_2_778
10
13.5681532
20
73.3678489
11
12.9987532
21
73.3678489
0
LINE
8
DEFAULT_255_2_778
10
12.9987532
20
73.3678489
11
12.5285532
21
74.1703489
0
LINE
8
DEFAULT_255_2_778
10
12.5285532
20
74.1703489
11
12.5285532
21
73.3678489
0
LINE
8
DEFAULT_255_2_778
10
12.5285532
20
73.3678489
11
12.0086532
21
73.3678489
0
LINE
8
DEFAULT_255_2_778
10
12.0086532
20
73.3678489
11
12.0086532
21
75.2739489
0
LINE
8
DEFAULT_255_1_388
10
7.8857389
20
70.1363
11
7.5216024
21
70.1363
0
LINE
8
DEFAULT_255_1_388
10
7.5216024
20
70.1363
11
7.5216024
21
71.4518898
0
LINE
8
DEFAULT_255_1_388
10
7.5216024
20
71.4518898
11
7.8929674
21
71.4518898
0
LINE
8
DEFAULT_255_1_388
10
8.4730558
20
70.8383696
11
8.4730558
21
70.7543381
0
LINE
8
DEFAULT_255_1_388
10
7.8974852
20
71.3091267
11
7.6950868
21
71.3091267
0
LINE
8
DEFAULT_255_1_388
10
7.6950868
20
71.3091267
11
7.6950868
21
70.2781596
0
LINE
8
DEFAULT_255_1_388
10
7.6950868
20
70.2781596
11
7.8776068
21
70.2781596
0
LINE
8
DEFAULT_255_1_388
10
8.3013785
20
70.7579523
11
8.3013785
21
70.8347553
0
ARC
8
DEFAULT_255_1_388
10
7.8973469
20
70.7920436
40
0.6598608
50
75.4100343
51
90.3802731
0
ARC
8
DEFAULT_255_1_388
10
7.9231714
20
70.8996691
40
0.5492049
50
60.1455157
51
75.1889627
0
ARC
8
DEFAULT_255_1_388
10
7.9410306
20
70.9307914
40
0.5133226
50
26.525419
51
60.1451222
0
ARC
8
DEFAULT_255_1_388
10
7.8150092
20
70.8639642
40
0.6559324
50
7.4029944
51
26.832209
0
ARC
8
DEFAULT_255_1_388
10
7.6356489
20
70.8360229
40
0.8374103
50
0.1605597
51
7.7176135
0
ARC
8
DEFAULT_255_1_388
10
7.6540889
20
70.7500321
40
0.8189782
50
348.7289744
51
0.30125
0
ARC
8
DEFAULT_255_1_388
10
7.8404353
20
70.7130156
40
0.628991
50
333.0706936
51
348.7181455
0
ARC
8
DEFAULT_255_1_388
10
7.9491981
20
70.6539449
40
0.5052808
50
299.2531435
51
333.4571133
0
ARC
8
DEFAULT_255_1_388
10
7.9086012
20
70.7310629
40
0.5924066
50
278.1072193
51
299.0340218
0
ARC
8
DEFAULT_255_1_388
10
7.8798061
20
70.9006979
40
0.7644209
50
270.4446841
51
278.4508355
0
ARC
8
DEFAULT_255_1_388
10
7.8821545
20
70.79613
40
0.5179903
50
269.4969684
51
284.0204874
0
ARC
8
DEFAULT_255_1_388
10
7.9221263
20
70.6425415
40
0.3592968
50
283.7699076
51
318.1557121
0
ARC
8
DEFAULT_255_1_388
10
7.8841808
20
70.6709399
40
0.4065308
50
318.7417595
51
343.687252
0
ARC
8
DEFAULT_255_1_388
10
7.6812387
20
70.7343275
40
0.6191194
50
343.3324891
51
355.8548594
0
ARC
8
DEFAULT_255_1_388
10
7.4451424
20
70.7567719
40
0.856237
50
355.4988754
51
0.0789913
0
ARC
8
DEFAULT_255_1_388
10
7.5332224
20
70.839508
40
0.7681709
50
359.6455047
51
9.8607559
0
ARC
8
DEFAULT_255_1_388
10
7.7987947
20
70.8874664
40
0.498312
50
9.6573037
51
26.1931522
0
ARC
8
DEFAULT_255_1_388
10
7.9032022
20
70.9359587
40
0.3832303
50
26.5777895
51
40.1533752
0
ARC
8
DEFAULT_255_1_388
10
7.9319687
20
70.958402
40
0.3467742
50
40.3839958
51
80.1430923
0
ARC
8
DEFAULT_255_1_388
10
7.8951942
20
70.7953486
40
0.5137832
50
79.2153636
51
89.7445174
0
LINE
8
DEFAULT_255_1_388
10
8.8905025
20
71.1139567
11
8.8905025
21
70.1363
0
LINE
8
DEFAULT_255_1_388
10
8.8905025
20
70.1363
11
8.7233431
21
70.1363
0
LINE
8
DEFAULT_255_1_388
10
8.7233431
20
70.1363
11
8.7233431
21
71.1139567
0
LINE
8
DEFAULT_255_1_388
10
8.7233431
20
71.1139567
11
8.8905025
21
71.1139567
0
ARC
8
DEFAULT_255_1_388
10
8.8198793
20
71.3743428
40
0.1100948
50
161.4148232
51
180.5532607
0
ARC
8
DEFAULT_255_1_388
10
8.8059103
20
71.3781875
40
0.0956324
50
138.1830164
51
160.9307633
0
ARC
8
DEFAULT_255_1_388
10
8.793529
20
71.3889313
40
0.0792417
50
104.6371663
51
138.0036136
0
ARC
8
DEFAULT_255_1_388
10
8.8055829
20
71.3476963
40
0.1221906
50
92.0601206
51
105.2198859
0
ARC
8
DEFAULT_255_1_388
10
8.8082193
20
71.3088583
40
0.161103
50
89.9790681
51
92.5006086
0
ARC
8
DEFAULT_255_1_388
10
8.8093369
20
71.3344998
40
0.1354654
50
78.0234649
51
90.4478111
0
ARC
8
DEFAULT_255_1_388
10
8.8196954
20
71.3810203
40
0.0878096
50
55.0521508
51
78.336297
0
ARC
8
DEFAULT_255_1_388
10
8.8253488
20
71.3905168
40
0.0767913
50
42.0506198
51
54.4508489
0
ARC
8
DEFAULT_255_1_388
10
8.8101521
20
71.3765821
40
0.0974091
50
1.7493657
51
42.1498724
0
ARC
8
DEFAULT_255_1_388
10
8.7815427
20
71.3733166
40
0.1261276
50
359.9832635
51
2.8353994
0
ARC
8
DEFAULT_255_1_388
10
8.8001837
20
71.3722412
40
0.1074916
50
342.1062453
51
0.5535864
0
ARC
8
DEFAULT_255_1_388
10
8.8162261
20
71.3678197
40
0.0908695
50
316.7110111
51
341.6513114
0
ARC
8
DEFAULT_255_1_388
10
8.8237693
20
71.3610607
40
0.0807447
50
285.4398289
51
316.5320129
0
ARC
8
DEFAULT_255_1_388
10
8.8113863
20
71.4022023
40
0.1237022
50
272.3543902
51
285.8951677
0
ARC
8
DEFAULT_255_1_388
10
8.8083573
20
71.4437742
40
0.1653687
50
269.9725761
51
272.8112722
0
ARC
8
DEFAULT_255_1_388
10
8.8072625
20
71.4186727
40
0.1402709
50
258.8433431
51
270.4148607
0
ARC
8
DEFAULT_255_1_388
10
8.7971405
20
71.3696739
40
0.0902407
50
238.54281
51
259.1289544
0
ARC
8
DEFAULT_255_1_388
10
8.7894727
20
71.3557694
40
0.0743817
50
222.5056676
51
237.9918132
0
ARC
8
DEFAULT_255_1_388
10
8.803832
20
71.3688295
40
0.0937918
50
184.1070774
51
222.4604165
0
ARC
8
DEFAULT_255_1_388
10
8.8340734
20
71.3731538
40
0.1242838
50
179.9419581
51
185.0970785
0
LINE
8
DEFAULT_255_1_388
10
9.6305218
20
71.1193781
11
9.6305218
21
70.963965
0
LINE
8
DEFAULT_255_1_388
10
9.325117
20
70.8302375
11
9.325117
21
70.1363
0
LINE
8
DEFAULT_255_1_388
10
9.325117
20
70.1363
11
9.1579576
21
70.1363
0
LINE
8
DEFAULT_255_1_388
10
9.1579576
20
70.1363
11
9.1579576
21
71.1139567
0
LINE
8
DEFAULT_255_1_388
10
9.1579576
20
71.1139567
11
9.3205992
21
71.1139567
0
LINE
8
DEFAULT_255_1_388
10
9.3205992
20
71.1139567
11
9.3233099
21
71.0010112
0
ARC
8
DEFAULT_255_1_388
10
9.5555378
20
70.5073068
40
0.4627735
50
80.6751522
51
86.893806
0
ARC
8
DEFAULT_255_1_388
10
9.5487208
20
70.3981103
40
0.5721798
50
86.8046851
51
90.0423898
0
ARC
8
DEFAULT_255_1_388
10
9.5445628
20
70.6748197
40
0.2954939
50
89.2758283
51
106.6212906
0
ARC
8
DEFAULT_255_1_388
10
9.5215652
20
70.7584009
40
0.2088351
50
107.1347109
51
157.6456887
0
ARC
8
DEFAULT_255_1_388
10
9.5983714
20
70.7156908
40
0.296292
50
155.6557383
51
157.256838
0
ARC
8
DEFAULT_255_1_388
10
9.5763329
20
70.8467472
40
0.296341
50
127.8167201
51
148.6300223
0
ARC
8
DEFAULT_255_1_388
10
9.5478076
20
70.8760066
40
0.2557782
50
91.3329934
51
126.7875218
0
ARC
8
DEFAULT_255_1_388
10
9.5563463
20
70.7956718
40
0.3363561
50
89.9858247
51
92.4688453
0
ARC
8
DEFAULT_255_1_388
10
9.5572956
20
70.8265114
40
0.3055179
50
85.3587643
51
90.1624243
0
ARC
8
DEFAULT_255_1_388
10
9.5668021
20
70.9394458
40
0.1921848
50
78.4019195
51
85.4592653
0
ARC
8
DEFAULT_255_1_388
10
9.5831082
20
71.0172142
40
0.1127267
50
67.7849217
51
78.573798
0
ARC
8
DEFAULT_255_1_388
10
9.5952717
20
71.0487374
40
0.0789473
50
63.4805074
51
67.3074739
0
LINE
8
DEFAULT_255_1_388
10
9.7244925
20
70.5980214
11
9.7244925
21
70.6287426
0
LINE
8
DEFAULT_255_1_388
10
10.5539647
20
70.6468139
11
10.5539647
21
70.5772395
0
LINE
8
DEFAULT_255_1_388
10
10.5539647
20
70.5772395
11
9.891652
21
70.5772395
0
LINE
8
DEFAULT_255_1_388
10
10.439212
20
70.3865874
11
10.5413148
21
70.3070737
0
LINE
8
DEFAULT_255_1_388
10
9.8970733
20
70.7145813
11
10.3868053
21
70.7145813
0
LINE
8
DEFAULT_255_1_388
10
10.3868053
20
70.7145813
11
10.3868053
21
70.7272312
0
ARC
8
DEFAULT_255_1_388
10
10.1676686
20
70.610521
40
0.4923176
50
252.326534
51
270.5809615
0
ARC
8
DEFAULT_255_1_388
10
10.1446151
20
70.527194
40
0.4059384
50
223.3000488
51
251.8562489
0
ARC
8
DEFAULT_255_1_388
10
10.1683931
20
70.5502898
40
0.4390832
50
190.9374369
51
223.3654369
0
ARC
8
DEFAULT_255_1_388
10
10.3624609
20
70.5941598
40
0.63798
50
179.6531919
51
191.4988561
0
ARC
8
DEFAULT_255_1_388
10
10.3761636
20
70.6323571
40
0.6516811
50
167.4005523
51
180.3177836
0
ARC
8
DEFAULT_255_1_388
10
10.2578307
20
70.6573853
40
0.5307402
50
154.1835149
51
167.2508278
0
ARC
8
DEFAULT_255_1_388
10
10.1867898
20
70.6947925
40
0.4505076
50
134.3150225
51
154.5315008
0
ARC
8
DEFAULT_255_1_388
10
10.1623233
20
70.716255
40
0.4180662
50
122.8617482
51
133.9707159
0
ARC
8
DEFAULT_255_1_388
10
10.150684
20
70.7412882
40
0.3907416
50
89.8248474
51
123.4199325
0
ARC
8
DEFAULT_255_1_388
10
10.1563138
20
70.6685352
40
0.4635141
50
74.7874349
51
90.5482648
0
ARC
8
DEFAULT_255_1_388
10
10.1893602
20
70.7905987
40
0.3370565
50
39.8178888
51
74.7634383
0
ARC
8
DEFAULT_255_1_388
10
10.1316844
20
70.7456356
40
0.4101553
50
16.8990848
51
39.4830125
0
ARC
8
DEFAULT_255_1_388
10
9.9185459
20
70.6773711
40
0.6339427
50
4.9634768
51
17.2027767
0
ARC
8
DEFAULT_255_1_388
10
9.6464863
20
70.64866
40
0.9074803
50
359.8834402
51
5.2832409
0
ARC
8
DEFAULT_255_1_388
10
10.3257221
20
70.5846981
40
0.4341343
50
180.9844233
51
194.9402766
0
ARC
8
DEFAULT_255_1_388
10
10.2076387
20
70.552417
40
0.3117211
50
194.8030557
51
222.0412897
0
ARC
8
DEFAULT_255_1_388
10
10.1734259
20
70.5184715
40
0.2635903
50
221.541578
51
268.8616004
0
ARC
8
DEFAULT_255_1_388
10
10.181638
20
70.594528
40
0.3398611
50
267.7321071
51
270.009808
0
ARC
8
DEFAULT_255_1_388
10
10.1836443
20
70.6172178
40
0.3625561
50
269.6921218
51
280.4122297
0
ARC
8
DEFAULT_255_1_388
10
10.2034855
20
70.5138767
40
0.2573323
50
280.2257165
51
298.633539
0
ARC
8
DEFAULT_255_1_388
10
10.2160268
20
70.4874578
40
0.2281403
50
299.0485543
51
300.4624141
0
ARC
8
DEFAULT_255_1_388
10
10.1401249
20
70.6139796
40
0.3756797
50
300.6578578
51
322.037749
0
ARC
8
DEFAULT_255_1_388
10
10.103077
20
70.6463266
40
0.4247956
50
321.671786
51
322.3059078
0
ARC
8
DEFAULT_255_1_388
10
10.2054333
20
70.5169267
40
0.3960488
50
276.9729088
51
328.0035579
0
ARC
8
DEFAULT_255_1_388
10
10.1742804
20
70.6834609
40
0.5652345
50
269.8358003
51
278.0581296
0
ARC
8
DEFAULT_255_1_388
10
10.1487103
20
70.767282
40
0.2274263
50
89.2017936
51
117.2852353
0
ARC
8
DEFAULT_255_1_388
10
10.1546853
20
70.7625637
40
0.2343798
50
118.0546404
51
137.4544511
0
ARC
8
DEFAULT_255_1_388
10
10.1968497
20
70.7242556
40
0.2913471
50
137.5109688
51
158.8516701
0
ARC
8
DEFAULT_255_1_388
10
10.3248597
20
70.6725902
40
0.4293804
50
158.5845496
51
170.1719753
0
ARC
8
DEFAULT_255_1_388
10
10.4564933
20
70.6464519
40
0.5635533
50
169.8378964
51
173.0563877
0
ARC
8
DEFAULT_255_1_388
10
9.9280217
20
70.7039187
40
0.4593755
50
2.9089079
51
12.88469
0
ARC
8
DEFAULT_255_1_388
10
10.0822136
20
70.7402082
40
0.3009753
50
12.6957404
51
28.6405841
0
ARC
8
DEFAULT_255_1_388
10
10.1431633
20
70.7717577
40
0.232366
50
29.016559
51
41.1492981
0
ARC
8
DEFAULT_255_1_388
10
10.1659612
20
70.791608
40
0.2021373
50
41.1646967
51
85.001362
0
ARC
8
DEFAULT_255_1_388
10
10.1523616
20
70.7089775
40
0.2857091
50
83.728216
51
90.0968824
0
LINE
8
DEFAULT_255_1_388
10
11.3698834
20
70.4444155
11
11.5280072
21
70.4444155
0
LINE
8
DEFAULT_255_1_388
10
10.7039564
20
70.6160927
11
10.7039564
21
70.6441032
0
LINE
8
DEFAULT_255_1_388
10
11.5280072
20
70.7778308
11
11.3698834
21
70.7778308
0
LINE
8
DEFAULT_255_1_388
10
10.8711158
20
70.6377783
11
10.8711158
21
70.6061535
0
ARC
8
DEFAULT_255_1_388
10
11.1435391
20
70.4954109
40
0.2407783
50
269.0327343
51
309.2224588
0
ARC
8
DEFAULT_255_1_388
10
11.1671395
20
70.471219
40
0.207135
50
308.3965377
51
329.6987678
0
ARC
8
DEFAULT_255_1_388
10
11.1826453
20
70.4594899
40
0.1878439
50
330.4013397
51
355.3970937
0
ARC
8
DEFAULT_255_1_388
10
11.2340437
20
70.4614312
40
0.2944555
50
329.2357424
51
356.6872018
0
ARC
8
DEFAULT_255_1_388
10
11.1722332
20
70.4941153
40
0.3643032
50
324.8702872
51
329.7911998
0
ARC
8
DEFAULT_255_1_388
10
11.1633614
20
70.5017113
40
0.3759315
50
298.8769973
51
324.7015261
0
ARC
8
DEFAULT_255_1_388
10
11.1260158
20
70.561229
40
0.4461015
50
296.902888
51
299.3854973
0
ARC
8
DEFAULT_255_1_388
10
11.1406155
20
70.5288595
40
0.4106323
50
269.8407861
51
297.1298875
0
ARC
8
DEFAULT_255_1_388
10
11.1346151
20
70.6006354
40
0.4824312
50
253.3156606
51
270.5771301
0
ARC
8
DEFAULT_255_1_388
10
11.1068329
20
70.5000943
40
0.3781531
50
221.1002518
51
252.9743523
0
ARC
8
DEFAULT_255_1_388
10
11.1585799
20
70.5445131
40
0.4463481
50
194.5394284
51
221.0302764
0
ARC
8
DEFAULT_255_1_388
10
11.366562
20
70.6024897
40
0.6622359
50
182.0498004
51
194.8774376
0
ARC
8
DEFAULT_255_1_388
10
11.565871
20
70.6157778
40
0.8619146
50
179.9790673
51
182.4586753
0
ARC
8
DEFAULT_255_1_388
10
11.3702024
20
70.6474412
40
0.6662543
50
168.615001
51
180.2870547
0
ARC
8
DEFAULT_255_1_388
10
11.2349932
20
70.6739636
40
0.5284705
50
154.9162417
51
168.5402053
0
ARC
8
DEFAULT_255_1_388
10
11.1313208
20
70.7251942
40
0.4128641
50
133.5745308
51
155.2559538
0
ARC
8
DEFAULT_255_1_388
10
11.1130051
20
70.7408116
40
0.3889328
50
122.0165845
51
133.2056002
0
ARC
8
DEFAULT_255_1_388
10
11.1170375
20
70.7308977
40
0.3994808
50
97.8732516
51
121.753124
0
ARC
8
DEFAULT_255_1_388
10
11.1371833
20
70.611959
40
0.5200708
50
89.8471322
51
98.2768545
0
ARC
8
DEFAULT_255_1_388
10
11.1426681
20
70.6805809
40
0.4514657
50
73.3760755
51
90.5199878
0
ARC
8
DEFAULT_255_1_388
10
11.1647597
20
70.761855
40
0.3672743
50
47.7085939
51
73.0510707
0
ARC
8
DEFAULT_255_1_388
10
11.17937
20
70.7745231
40
0.3480795
50
3.7442743
51
48.0844373
0
ARC
8
DEFAULT_255_1_388
10
11.0681694
20
70.7567946
40
0.4603187
50
2.6192831
51
5.0424684
0
ARC
8
DEFAULT_255_1_388
10
11.1197165
20
70.7612986
40
0.2507126
50
3.78087
51
23.9354314
0
ARC
8
DEFAULT_255_1_388
10
11.1454424
20
70.7703644
40
0.2235311
50
24.4867863
51
46.9439952
0
ARC
8
DEFAULT_255_1_388
10
11.145537
20
70.7729874
40
0.2215567
50
46.4987715
51
89.3298168
0
ARC
8
DEFAULT_255_1_388
10
11.1386029
20
70.7063742
40
0.2883121
50
88.1066411
51
90.0063536
0
ARC
8
DEFAULT_255_1_388
10
11.1355005
20
70.7121548
40
0.2825481
50
89.3773571
51
107.2070287
0
ARC
8
DEFAULT_255_1_388
10
11.1194273
20
70.7703667
40
0.2221946
50
107.688418
51
143.3582986
0
ARC
8
DEFAULT_255_1_388
10
11.1832567
20
70.7224064
40
0.3020337
50
143.2845866
51
162.9352432
0
ARC
8
DEFAULT_255_1_388
10
11.3526583
20
70.6680401
40
0.4799362
50
162.6652705
51
174.0802646
0
ARC
8
DEFAULT_255_1_388
10
11.5937064
20
70.6400287
40
0.7225942
50
173.8422673
51
180.1784414
0
ARC
8
DEFAULT_255_1_388
10
11.5320735
20
70.6027276
40
0.6609665
50
179.7030218
51
188.2277356
0
ARC
8
DEFAULT_255_1_388
10
11.2956342
20
70.5673143
40
0.4218948
50
188.0630838
51
201.115837
0
ARC
8
DEFAULT_255_1_388
10
11.1721227
20
70.520173
40
0.2896941
50
201.2186162
51
216.9761863
0
ARC
8
DEFAULT_255_1_388
10
11.1213384
20
70.4821225
40
0.2262366
50
217.0136373
51
265.2055518
0
ARC
8
DEFAULT_255_1_388
10
11.1388721
20
70.5858503
40
0.3311837
50
263.6824874
51
270.1042034
0
LINE
8
DEFAULT_255_1_388
10
11.7755838
20
71.3506906
11
11.9427433
21
71.3506906
0
LINE
8
DEFAULT_255_1_388
10
11.9427433
20
71.3506906
11
11.9427433
21
71.1139567
0
LINE
8
DEFAULT_255_1_388
10
11.9427433
20
71.1139567
11
12.1252633
21
71.1139567
0
LINE
8
DEFAULT_255_1_388
10
12.1252633
20
71.1139567
11
12.1252633
21
70.984747
0
LINE
8
DEFAULT_255_1_388
10
12.1252633
20
70.984747
11
11.9427433
21
70.984747
0
LINE
8
DEFAULT_255_1_388
10
11.9427433
20
70.984747
11
11.9427433
21
70.3784553
0
LINE
8
DEFAULT_255_1_388
10
12.1297811
20
70.2718347
11
12.1297811
21
70.1363
0
LINE
8
DEFAULT_255_1_388
10
11.7755838
20
70.3784553
11
11.7755838
21
70.984747
0
LINE
8
DEFAULT_255_1_388
10
11.7755838
20
70.984747
11
11.5975816
21
70.984747
0
LINE
8
DEFAULT_255_1_388
10
11.5975816
20
70.984747
11
11.5975816
21
71.1139567
0
LINE
8
DEFAULT_255_1_388
10
11.5975816
20
71.1139567
11
11.7755838
21
71.1139567
0
LINE
8
DEFAULT_255_1_388
10
11.7755838
20
71.1139567
11
11.7755838
21
71.3506906
0
ARC
8
DEFAULT_255_1_388
10
12.168594
20
70.3772842
40
0.2258538
50
179.7029045
51
187.9180047
0
ARC
8
DEFAULT_255_1_388
10
12.0846514
20
70.3652019
40
0.1410477
50
187.7540838
51
200.2454047
0
ARC
8
DEFAULT_255_1_388
10
12.037342
20
70.3475591
40
0.0905561
50
200.1304287
51
219.1733455
0
ARC
8
DEFAULT_255_1_388
10
12.0220586
20
70.3371695
40
0.0721626
50
220.4434631
51
249.6169985
0
ARC
8
DEFAULT_255_1_388
10
12.0394813
20
70.3809919
40
0.1193141
50
249.1038184
51
262.7745376
0
ARC
8
DEFAULT_255_1_388
10
12.0493995
20
70.4517481
40
0.1907583
50
262.4921618
51
270.2607019
0
ARC
8
DEFAULT_255_1_388
10
12.0491077
20
70.4759817
40
0.2149929
50
270.309081
51
275.6615459
0
ARC
8
DEFAULT_255_1_388
10
12.0330484
20
70.6448342
40
0.3846066
50
275.5607354
51
279.087751
0
ARC
8
DEFAULT_255_1_388
10
11.9958416
20
70.8809428
40
0.6236283
50
279.0369545
51
281.5000133
0
ARC
8
DEFAULT_255_1_388
10
11.9567684
20
71.0786499
40
0.825157
50
281.4217093
51
282.1031556
0
ARC
8
DEFAULT_255_1_388
10
11.994366
20
70.6243229
40
0.5064619
50
275.2597791
51
285.5081125
0
ARC
8
DEFAULT_255_1_388
10
12.0012674
20
70.5617452
40
0.4435166
50
270.0268175
51
275.1130565
0
ARC
8
DEFAULT_255_1_388
10
11.9990125
20
70.4124367
40
0.2942182
50
257.3572424
51
270.4795428
0
ARC
8
DEFAULT_255_1_388
10
11.9750395
20
70.3113952
40
0.1903838
50
230.8036715
51
257.7414447
0
ARC
8
DEFAULT_255_1_388
10
11.9673891
20
70.2990723
40
0.1760087
50
219.9745381
51
230.1985446
0
ARC
8
DEFAULT_255_1_388
10
12.0047179
20
70.3276116
40
0.2229598
50
196.5081334
51
219.4319996
0
ARC
8
DEFAULT_255_1_388
10
12.118979
20
70.3634617
40
0.3427033
50
184.6408645
51
196.8266009
0
ARC
8
DEFAULT_255_1_388
10
12.2590696
20
70.377601
40
0.4834863
50
179.8987586
51
184.9677262
0
LINE
8
DEFAULT_255_1_388
10
12.5210245
20
71.4518898
11
12.5210245
21
70.2781596
0
LINE
8
DEFAULT_255_1_388
10
12.5210245
20
70.2781596
11
13.144484
21
70.2781596
0
LINE
8
DEFAULT_255_1_388
10
13.144484
20
70.2781596
11
13.144484
21
70.1363
0
LINE
8
DEFAULT_255_1_388
10
13.144484
20
70.1363
11
12.3466366
21
70.1363
0
LINE
8
DEFAULT_255_1_388
10
12.3466366
20
70.1363
11
12.3466366
21
71.4518898
0
LINE
8
DEFAULT_255_1_388
10
12.3466366
20
71.4518898
11
12.5210245
21
71.4518898
0
LINE
8
DEFAULT_255_1_388
10
14.2956251
20
70.8347553
11
14.2956251
21
70.7516274
0
LINE
8
DEFAULT_255_1_388
10
13.2375511
20
70.7398811
11
13.2375511
21
70.8347553
0
LINE
8
DEFAULT_255_1_388
10
14.1230443
20
70.7389775
11
14.1230443
21
70.8365625
0
LINE
8
DEFAULT_255_1_388
10
13.4101319
20
70.8483088
11
13.4101319
21
70.7516274
0
ARC
8
DEFAULT_255_1_388
10
13.3233989
20
70.7471726
40
0.9722364
50
350.4878118
51
0.2625322
0
ARC
8
DEFAULT_255_1_388
10
13.5813949
20
70.7027994
40
0.7104556
50
336.0277991
51
350.5787241
0
ARC
8
DEFAULT_255_1_388
10
13.7327056
20
70.6344243
40
0.544417
50
319.887443
51
336.1331163
0
ARC
8
DEFAULT_255_1_388
10
13.8004868
20
70.5801733
40
0.4576311
50
302.4806296
51
319.6144102
0
ARC
8
DEFAULT_255_1_388
10
13.787549
20
70.6051067
40
0.4856183
50
275.8196423
51
302.1885521
0
ARC
8
DEFAULT_255_1_388
10
13.7688351
20
70.7336466
40
0.6154183
50
269.9169897
51
276.339506
0
ARC
8
DEFAULT_255_1_388
10
13.7637952
20
70.656468
40
0.5382553
50
252.5221437
51
270.441579
0
ARC
8
DEFAULT_255_1_388
10
13.7476202
20
70.5958046
40
0.4755426
50
237.5349961
51
252.1858334
0
ARC
8
DEFAULT_255_1_388
10
13.7576578
20
70.608612
40
0.4917393
50
209.0632754
51
237.3492577
0
ARC
8
DEFAULT_255_1_388
10
13.8555904
20
70.6701104
40
0.6072464
50
205.118533
51
209.6465345
0
ARC
8
DEFAULT_255_1_388
10
13.9451906
20
70.7081174
40
0.7045164
50
188.7216633
51
204.8239753
0
ARC
8
DEFAULT_255_1_388
10
14.1698682
20
70.7459387
40
0.9323368
50
180.3722704
51
188.9253909
0
ARC
8
DEFAULT_255_1_388
10
14.1668243
20
70.8392416
40
0.929284
50
169.5253055
51
180.2766048
0
ARC
8
DEFAULT_255_1_388
10
13.9528042
20
70.8786024
40
0.7116745
50
155.8314601
51
169.5088611
0
ARC
8
DEFAULT_255_1_388
10
13.8087505
20
70.9454312
40
0.5528904
50
139.6259579
51
156.0379072
0
ARC
8
DEFAULT_255_1_388
10
13.7424039
20
70.9988143
40
0.4677708
50
122.6414784
51
139.3431662
0
ARC
8
DEFAULT_255_1_388
10
13.7537294
20
70.9781787
40
0.4912586
50
93.0224537
51
122.4556091
0
ARC
8
DEFAULT_255_1_388
10
13.7658815
20
70.8695776
40
0.6003837
50
89.9756766
51
93.6340839
0
ARC
8
DEFAULT_255_1_388
10
13.7702412
20
70.9144879
40
0.5554884
50
73.7463329
51
90.4234008
0
ARC
8
DEFAULT_255_1_388
10
13.7899885
20
70.9909772
40
0.4765353
50
57.663051
51
73.4516911
0
ARC
8
DEFAULT_255_1_388
10
13.7890923
20
70.9934108
40
0.4749629
50
29.1441355
51
57.4146687
0
ARC
8
DEFAULT_255_1_388
10
13.6838734
20
70.9277046
40
0.5988917
50
24.0985653
51
29.732054
0
ARC
8
DEFAULT_255_1_388
10
13.5676366
20
70.8795154
40
0.7246823
50
8.6654943
51
23.8241215
0
ARC
8
DEFAULT_255_1_388
10
13.3162785
20
70.8385037
40
0.9793537
50
359.7807044
51
8.8218476
0
ARC
8
DEFAULT_255_1_388
10
13.1872489
20
70.8413731
40
0.9358078
50
359.7054632
51
8.0359751
0
ARC
8
DEFAULT_255_1_388
10
13.524754
20
70.8905252
40
0.5947474
50
7.8926278
51
20.2962188
0
ARC
8
DEFAULT_255_1_388
10
13.7078391
20
70.9580367
40
0.3996117
50
20.3231056
51
36.4990255
0
ARC
8
DEFAULT_255_1_388
10
13.7849688
20
71.0174399
40
0.3022818
50
36.1436715
51
85.6627846
0
ARC
8
DEFAULT_255_1_388
10
13.7666943
20
70.9004881
40
0.4203853
50
84.3845912
51
90.076054
0
ARC
8
DEFAULT_255_1_388
10
13.7619298
20
70.9747416
40
0.346157
50
89.3037228
51
109.9046209
0
ARC
8
DEFAULT_255_1_388
10
13.7515131
20
71.0177379
40
0.3022217
50
110.8229774
51
143.917961
0
ARC
8
DEFAULT_255_1_388
10
13.8565491
20
70.9375455
40
0.434348
50
143.5289166
51
163.2980252
0
ARC
8
DEFAULT_255_1_388
10
14.0711778
20
70.8700685
40
0.659321
50
163.0418884
51
174.3139873
0
ARC
8
DEFAULT_255_1_388
10
14.3416742
20
70.8388378
40
0.9315905
50
174.050934
51
179.4174954
0
ARC
8
DEFAULT_255_1_388
10
14.2848686
20
70.7469382
40
0.8747493
50
179.6928582
51
188.7908948
0
ARC
8
DEFAULT_255_1_388
10
13.9852486
20
70.6990086
40
0.5713262
50
188.6328449
51
202.5630732
0
ARC
8
DEFAULT_255_1_388
10
13.8441323
20
70.6423142
40
0.4192612
50
202.8078931
51
216.1195888
0
ARC
8
DEFAULT_255_1_388
10
13.753084
20
70.5690479
40
0.3025752
50
215.0755613
51
264.6379773
0
ARC
8
DEFAULT_255_1_388
10
13.7673678
20
70.6625376
40
0.3970284
50
263.8464302
51
270.0830805
0
ARC
8
DEFAULT_255_1_388
10
13.7720222
20
70.6334808
40
0.3679937
50
269.3649295
51
287.5149684
0
ARC
8
DEFAULT_255_1_388
10
13.7920663
20
70.5606714
40
0.2925408
50
288.0629019
51
323.8115617
0
ARC
8
DEFAULT_255_1_388
10
13.6940639
20
70.6337754
40
0.4148018
50
323.6546541
51
342.6591359
0
ARC
8
DEFAULT_255_1_388
10
13.4655297
20
70.708128
40
0.6551163
50
342.4092446
51
353.6451501
0
ARC
8
DEFAULT_255_1_388
10
13.1470091
20
70.7477565
40
0.9760748
50
353.4027553
51
359.4846611
0
LINE
8
DEFAULT_255_1_388
10
15.5271834
20
70.7913842
11
15.5271834
21
70.3088808
0
LINE
8
DEFAULT_255_1_388
10
14.5133841
20
70.7308454
11
14.5133841
21
70.8455981
0
LINE
8
DEFAULT_255_1_388
10
15.5271834
20
71.0660678
11
15.3536991
21
71.0660678
0
LINE
8
DEFAULT_255_1_388
10
14.6877721
20
70.8501159
11
14.6877721
21
70.7425917
0
LINE
8
DEFAULT_255_1_388
10
15.3546026
20
70.3549626
11
15.3546026
21
70.6504282
0
LINE
8
DEFAULT_255_1_388
10
15.3546026
20
70.6504282
11
15.0501014
21
70.6504282
0
LINE
8
DEFAULT_255_1_388
10
15.0501014
20
70.6504282
11
15.0501014
21
70.7913842
0
LINE
8
DEFAULT_255_1_388
10
15.0501014
20
70.7913842
11
15.5271834
21
70.7913842
0
ARC
8
DEFAULT_255_1_388
10
15.2086435
20
70.5331284
40
0.3895571
50
295.8437277
51
324.8549962
0
ARC
8
DEFAULT_255_1_388
10
15.1618817
20
70.6177619
40
0.4861381
50
291.5691164
51
296.4556269
0
ARC
8
DEFAULT_255_1_388
10
15.104382
20
70.7713801
40
0.6501442
50
278.6622213
51
291.3047061
0
ARC
8
DEFAULT_255_1_388
10
15.0661852
20
71.0130557
40
0.8948168
50
270.0200506
51
278.7494673
0
ARC
8
DEFAULT_255_1_388
10
15.0618056
20
71.1976453
40
1.0794166
50
270.0022372
51
270.2490917
0
ARC
8
DEFAULT_255_1_388
10
15.0575948
20
70.7017827
40
0.5835695
50
253.5785313
51
270.4175629
0
ARC
8
DEFAULT_255_1_388
10
15.0380944
20
70.6262625
40
0.5056241
50
238.8203954
51
253.2788387
0
ARC
8
DEFAULT_255_1_388
10
15.035886
20
70.6205224
40
0.4995712
50
206.7883476
51
238.696262
0
ARC
8
DEFAULT_255_1_388
10
15.1234256
20
70.6729847
40
0.6014056
50
206.1137778
51
207.4912776
0
ARC
8
DEFAULT_255_1_388
10
15.1901092
20
70.7013284
40
0.6737692
50
188.6922336
51
205.782076
0
ARC
8
DEFAULT_255_1_388
10
15.3989451
20
70.7368455
40
0.8855812
50
180.3881972
51
188.9218085
0
ARC
8
DEFAULT_255_1_388
10
15.5370608
20
70.8519622
40
1.0236965
50
170.2024645
51
180.3561986
0
ARC
8
DEFAULT_255_1_388
10
15.1811759
20
70.9156101
40
0.6621746
50
154.2856519
51
170.3893388
0
ARC
8
DEFAULT_255_1_388
10
15.0369722
20
70.9816192
40
0.5036209
50
139.8400879
51
153.9334639
0
ARC
8
DEFAULT_255_1_388
10
14.9965626
20
71.0139716
40
0.4518751
50
98.4190017
51
139.6707015
0
ARC
8
DEFAULT_255_1_388
10
15.0392593
20
70.8063755
40
0.6635912
50
89.7660128
51
99.4415389
0
ARC
8
DEFAULT_255_1_388
10
15.046599
20
70.8137517
40
0.6562258
50
78.0552044
51
90.4042252
0
ARC
8
DEFAULT_255_1_388
10
15.0921053
20
71.0183661
40
0.4466287
50
54.6380186
51
78.3338577
0
ARC
8
DEFAULT_255_1_388
10
15.1135352
20
71.0544444
40
0.4048184
50
50.0313964
51
54.1562739
0
ARC
8
DEFAULT_255_1_388
10
15.1014246
20
71.0435798
40
0.4209308
50
18.1092229
51
49.7179911
0
ARC
8
DEFAULT_255_1_388
10
14.9375326
20
70.9835399
40
0.5953982
50
7.967396
51
18.698492
0
ARC
8
DEFAULT_255_1_388
10
14.9544587
20
70.9974236
40
0.4050986
50
9.7558763
51
27.3214087
0
ARC
8
DEFAULT_255_1_388
10
15.0813051
20
71.0608087
40
0.2633168
50
27.736147
51
84.5257861
0
ARC
8
DEFAULT_255_1_388
10
15.0444461
20
70.8758988
40
0.4513019
50
82.1064239
51
90.1997295
0
ARC
8
DEFAULT_255_1_388
10
15.0388477
20
70.9330501
40
0.3941684
50
89.4148952
51
105.5824837
0
ARC
8
DEFAULT_255_1_388
10
15.0099358
20
71.0383043
40
0.2850167
50
105.6678541
51
144.2649156
0
ARC
8
DEFAULT_255_1_388
10
15.110425
20
70.9668024
40
0.4083468
50
144.3560675
51
162.8564185
0
ARC
8
DEFAULT_255_1_388
10
15.3448693
20
70.8915083
40
0.6545749
50
162.6076338
51
173.6779811
0
ARC
8
DEFAULT_255_1_388
10
15.6892808
20
70.8496422
40
1.0015089
50
173.4670996
51
179.9729015
0
ARC
8
DEFAULT_255_1_388
10
15.4745679
20
70.7378636
40
0.78681
50
179.6556955
51
190.007958
0
ARC
8
DEFAULT_255_1_388
10
15.213996
20
70.690066
40
0.5218997
50
189.8117884
51
206.6795375
0
ARC
8
DEFAULT_255_1_388
10
15.1189406
20
70.6457514
40
0.4170788
50
207.1031171
51
217.7074698
0
ARC
8
DEFAULT_255_1_388
10
15.0475837
20
70.5836596
40
0.3226945
50
216.7345117
51
265.6812141
0
ARC
8
DEFAULT_255_1_388
10
15.0622979
20
70.685403
40
0.4253149
50
264.7367524
51
270.0610826
0
ARC
8
DEFAULT_255_1_388
10
15.0649164
20
71.0049173
40
0.7448321
50
269.8334494
51
276.0538364
0
ARC
8
DEFAULT_255_1_388
10
15.0882027
20
70.7909924
40
0.5296446
50
275.9894423
51
284.4615914
0
ARC
8
DEFAULT_255_1_388
10
15.110354
20
70.697757
40
0.4338353
50
284.7038488
51
286.4938196
0
ARC
8
DEFAULT_255_1_388
10
15.1562689
20
70.5498371
40
0.2789738
50
286.0770429
51
304.2629628
0
ARC
8
DEFAULT_255_1_388
10
15.1712847
20
70.525268
40
0.2502188
50
304.5886247
51
317.1074126
0
LINE
8
DEFAULT_255_1_388
10
16.0024583
20
71.4518898
11
16.0024583
21
70.1363
0
LINE
8
DEFAULT_255_1_388
10
16.0024583
20
70.1363
11
15.828974
21
70.1363
0
LINE
8
DEFAULT_255_1_388
10
15.828974
20
70.1363
11
15.828974
21
71.4518898
0
LINE
8
DEFAULT_255_1_388
10
15.828974
20
71.4518898
11
16.0024583
21
71.4518898
0
LINE
8
DEFAULT_255_1_388
10
17.1129391
20
70.5537468
11
17.287327
21
70.5537468
0
LINE
8
DEFAULT_255_1_388
10
16.2744313
20
70.7326525
11
16.2744313
21
70.8591516
0
LINE
8
DEFAULT_255_1_388
10
17.287327
20
71.0290217
11
17.1129391
21
71.0290217
0
LINE
8
DEFAULT_255_1_388
10
16.4488192
20
70.8546337
11
16.4488192
21
70.7272312
0
ARC
8
DEFAULT_255_1_388
10
16.6707504
20
70.6209329
40
0.6202263
50
340.1774904
51
353.7812217
0
ARC
8
DEFAULT_255_1_388
10
16.8475357
20
70.5550893
40
0.4315926
50
311.4560052
51
340.4420756
0
ARC
8
DEFAULT_255_1_388
10
16.8437897
20
70.5675665
40
0.4434573
50
282.4332229
51
310.7514507
0
ARC
8
DEFAULT_255_1_388
10
16.7943714
20
70.7717703
40
0.6535262
50
269.9358869
51
282.8096729
0
ARC
8
DEFAULT_255_1_388
10
16.7885654
20
70.9230329
40
0.8048043
50
269.9995752
51
270.3612856
0
ARC
8
DEFAULT_255_1_388
10
16.7826144
20
70.6431781
40
0.5249831
50
250.7885263
51
270.6488451
0
ARC
8
DEFAULT_255_1_388
10
16.7636969
20
70.5714853
40
0.4510942
50
219.3628377
51
250.0611024
0
ARC
8
DEFAULT_255_1_388
10
16.8569843
20
70.6507653
40
0.5735046
50
193.5480293
51
219.5755675
0
ARC
8
DEFAULT_255_1_388
10
17.1238052
20
70.720052
40
0.849146
50
181.1220183
51
193.8754971
0
ARC
8
DEFAULT_255_1_388
10
17.3561285
20
70.7324914
40
1.0816971
50
179.9914644
51
181.5398227
0
ARC
8
DEFAULT_255_1_388
10
17.1484595
20
70.8633586
40
0.8740384
50
169.5837606
51
180.275782
0
ARC
8
DEFAULT_255_1_388
10
16.9417944
20
70.9015439
40
0.6638751
50
155.0367033
51
169.6002779
0
ARC
8
DEFAULT_255_1_388
10
16.8140402
20
70.9631336
40
0.5220662
50
136.7831557
51
155.2472983
0
ARC
8
DEFAULT_255_1_388
10
16.7702192
20
71.0003577
40
0.4646502
50
121.7633063
51
136.4281161
0
ARC
8
DEFAULT_255_1_388
10
16.7854032
20
70.9723049
40
0.4964979
50
95.6460018
51
121.5489589
0
ARC
8
DEFAULT_255_1_388
10
16.8031007
20
70.8475704
40
0.6223912
50
89.9245727
51
96.1375919
0
ARC
8
DEFAULT_255_1_388
10
16.8087712
20
70.8609721
40
0.6090084
50
76.6779212
51
90.456405
0
ARC
8
DEFAULT_255_1_388
10
16.8530525
20
71.039906
40
0.42469
50
47.4858803
51
76.9287069
0
ARC
8
DEFAULT_255_1_388
10
16.8365139
20
71.0286623
40
0.4441778
50
16.5424081
51
46.8934505
0
ARC
8
DEFAULT_255_1_388
10
16.6556188
20
70.9692265
40
0.6345318
50
5.4072971
51
17.0363711
0
ARC
8
DEFAULT_255_1_388
10
16.4937914
20
70.9432304
40
0.6250632
50
7.8888693
51
15.9242022
0
ARC
8
DEFAULT_255_1_388
10
16.7172899
20
71.0081309
40
0.3923364
50
15.7650676
51
27.9410069
0
ARC
8
DEFAULT_255_1_388
10
16.8415068
20
71.0746317
40
0.2514401
50
27.8167196
51
46.4007942
0
ARC
8
DEFAULT_255_1_388
10
16.847091
20
71.0739882
40
0.2480958
50
47.4372362
51
75.0695672
0
ARC
8
DEFAULT_255_1_388
10
16.8123746
20
70.9531277
40
0.3738281
50
74.7009379
51
87.8124314
0
ARC
8
DEFAULT_255_1_388
10
16.8041363
20
70.8347659
40
0.4924321
50
87.3802571
51
90.0251599
0
ARC
8
DEFAULT_255_1_388
10
16.799801
20
70.9667997
40
0.3604218
50
89.3451886
51
108.5744412
0
ARC
8
DEFAULT_255_1_388
10
16.7844002
20
71.0245836
40
0.3007661
50
109.2998307
51
143.3037387
0
ARC
8
DEFAULT_255_1_388
10
16.8701292
20
70.9586584
40
0.4089031
50
143.075267
51
163.1918576
0
ARC
8
DEFAULT_255_1_388
10
17.0897126
20
70.8893652
40
0.6391492
50
162.9375929
51
174.6208776
0
ARC
8
DEFAULT_255_1_388
10
17.3851508
20
70.8569711
40
0.9363344
50
174.342123
51
180.1430283
0
ARC
8
DEFAULT_255_1_388
10
17.2804049
20
70.7226117
40
0.8315986
50
179.6817261
51
189.150555
0
ARC
8
DEFAULT_255_1_388
10
16.9990798
20
70.6757559
40
0.5464044
50
188.9911061
51
203.5772363
0
ARC
8
DEFAULT_255_1_388
10
16.877609
20
70.6253539
40
0.4149206
50
203.9075402
51
215.1312435
0
ARC
8
DEFAULT_255_1_388
10
16.7737888
20
70.5448907
40
0.2837747
50
213.9071511
51
263.8848919
0
ARC
8
DEFAULT_255_1_388
10
16.7878881
20
70.6331519
40
0.3730641
50
263.1757928
51
270.1031044
0
ARC
8
DEFAULT_255_1_388
10
16.7914961
20
70.7734511
40
0.5133712
50
269.6722503
51
279.0606936
0
ARC
8
DEFAULT_255_1_388
10
16.8215116
20
70.592015
40
0.3294739
50
278.8749101
51
293.6349581
0
ARC
8
DEFAULT_255_1_388
10
16.857532
20
70.5074251
40
0.2375405
50
293.8553806
51
310.0518171
0
ARC
8
DEFAULT_255_1_388
10
16.8580828
20
70.5004021
40
0.2318463
50
311.0644687
51
332.0111037
0
ARC
8
DEFAULT_255_1_388
10
16.7239502
20
70.5743702
40
0.3850112
50
331.6586806
51
343.2877423
0
ARC
8
DEFAULT_255_1_388
10
16.4918967
20
70.6456806
40
0.6277712
50
343.1446576
51
351.0103568
0
ARC
8
DEFAULT_255_1_388
10
16.328629
20
70.6756873
40
0.7937327
50
350.71248
51
351.1626997
0
LINE
8
DEFAULT_255_1_388
10
18.8007975
20
70.2727382
11
18.8007975
21
70.1363
0
LINE
8
DEFAULT_255_1_388
10
18.8007975
20
70.1363
11
17.938797
21
70.1363
0
LINE
8
DEFAULT_255_1_388
10
17.938797
20
70.1363
11
17.938797
21
70.2564741
0
LINE
8
DEFAULT_255_1_388
10
17.938797
20
70.2564741
11
18.3941935
21
70.7624702
0
LINE
8
DEFAULT_255_1_388
10
18.0806566
20
71.0642607
11
17.9134972
21
71.0642607
0
LINE
8
DEFAULT_255_1_388
10
18.492682
20
70.654946
11
18.1402918
21
70.2727382
0
LINE
8
DEFAULT_255_1_388
10
18.1402918
20
70.2727382
11
18.8007975
21
70.2727382
0
ARC
8
DEFAULT_255_1_388
10
16.8765994
20
72.1044983
40
2.0258655
50
318.5132526
51
320.7829045
0
ARC
8
DEFAULT_255_1_388
10
17.4713951
20
71.6203929
40
1.2589638
50
320.7372878
51
323.9739031
0
ARC
8
DEFAULT_255_1_388
10
17.9122883
20
71.3009554
40
0.7145141
50
323.8962701
51
328.64194
0
ARC
8
DEFAULT_255_1_388
10
18.142514
20
71.1589545
40
0.4440242
50
328.8294576
51
331.7891185
0
ARC
8
DEFAULT_255_1_388
10
18.254746
20
71.1010374
40
0.3177517
50
331.4254512
51
352.9365785
0
ARC
8
DEFAULT_255_1_388
10
18.270046
20
71.097605
40
0.3021496
50
353.2257659
51
0.0166158
0
ARC
8
DEFAULT_255_1_388
10
18.2937221
20
71.1001894
40
0.2784847
50
359.486299
51
15.9343185
0
ARC
8
DEFAULT_255_1_388
10
18.3507488
20
71.1155269
40
0.2194403
50
16.1712913
51
43.5286088
0
ARC
8
DEFAULT_255_1_388
10
18.3594432
20
71.1242191
40
0.2071504
50
43.4417391
51
83.1661095
0
ARC
8
DEFAULT_255_1_388
10
18.3443593
20
71.0413316
40
0.2912888
50
82.160179
51
90.1505708
0
ARC
8
DEFAULT_255_1_388
10
18.3408075
20
70.9809279
40
0.3517025
50
89.5460741
51
102.5418361
0
ARC
8
DEFAULT_255_1_388
10
18.3134795
20
71.0968933
40
0.2325748
50
102.1738499
51
129.206123
0
ARC
8
DEFAULT_255_1_388
10
18.3046248
20
71.1108664
40
0.2161591
50
129.72865
51
135.753947
0
ARC
8
DEFAULT_255_1_388
10
18.3182731
20
71.0999728
40
0.2335433
50
136.1757367
51
166.3673339
0
ARC
8
DEFAULT_255_1_388
10
18.4315419
20
71.0696148
40
0.3507873
50
165.9090694
51
178.8684636
0
ARC
8
DEFAULT_255_1_388
10
18.529119
20
71.0643263
40
0.4484624
50
178.4391136
51
180.0083808
0
ARC
8
DEFAULT_255_1_388
10
18.3711892
20
71.0687197
40
0.4577138
50
163.2878482
51
180.5581842
0
ARC
8
DEFAULT_255_1_388
10
18.2809933
20
71.0935393
40
0.3641968
50
133.4540601
51
162.947111
0
ARC
8
DEFAULT_255_1_388
10
18.3010815
20
71.0721789
40
0.3935189
50
100.7869829
51
133.4382499
0
ARC
8
DEFAULT_255_1_388
10
18.340206
20
70.8979399
40
0.5720313
50
89.660664
51
101.3702276
0
ARC
8
DEFAULT_255_1_388
10
18.3476669
20
70.9048263
40
0.5651495
50
78.2172678
51
90.412935
0
ARC
8
DEFAULT_255_1_388
10
18.3876135
20
71.0875511
40
0.378122
50
55.9269121
51
78.4888449
0
ARC
8
DEFAULT_255_1_388
10
18.409685
20
71.1256187
40
0.3342379
50
47.929771
51
55.4049217
0
ARC
8
DEFAULT_255_1_388
10
18.421138
20
71.1372618
40
0.3179217
50
4.334829
51
48.0560205
0
ARC
8
DEFAULT_255_1_388
10
18.2979182
20
71.1181487
40
0.442341
50
359.9251713
51
5.5971671
0
ARC
8
DEFAULT_255_1_388
10
18.3461336
20
71.1244728
40
0.3941854
50
337.8914027
51
358.9967534
0
ARC
8
DEFAULT_255_1_388
10
18.0408907
20
71.2422295
40
0.7213271
50
326.9132501
51
338.3508308
0
ARC
8
DEFAULT_255_1_388
10
17.5925018
20
71.5296105
40
1.2538973
50
319.6471833
51
327.0959558
0
ARC
8
DEFAULT_255_1_388
10
17.1611677
20
71.885405
40
1.8129975
50
317.2588228
51
319.9045804
0
LINE
8
DEFAULT_255_1_388
10
19.8028504
20
70.914269
11
19.8028504
21
70.6974135
0
LINE
8
DEFAULT_255_1_388
10
18.9724747
20
70.6748244
11
18.9724747
21
70.8980048
0
LINE
8
DEFAULT_255_1_388
10
19.635691
20
70.6522353
11
19.635691
21
70.9260153
0
LINE
8
DEFAULT_255_1_388
10
19.1396341
20
70.9386652
11
19.1396341
21
70.6712102
0
ARC
8
DEFAULT_255_1_388
10
18.4250838
20
70.6919118
40
1.3777776
50
353.8440855
51
0.2287917
0
ARC
8
DEFAULT_255_1_388
10
18.9469856
20
70.6336414
40
0.852639
50
344.4934746
51
353.9763743
0
ARC
8
DEFAULT_255_1_388
10
19.2836663
20
70.5379191
40
0.5026273
50
329.2803599
51
344.7473406
0
ARC
8
DEFAULT_255_1_388
10
19.3952159
20
70.4767038
40
0.3754848
50
324.9361395
51
328.6153007
0
ARC
8
DEFAULT_255_1_388
10
19.4377808
20
70.4469586
40
0.3235566
50
280.5801797
51
324.9173226
0
ARC
8
DEFAULT_255_1_388
10
19.3926437
20
70.6349236
40
0.5167077
50
269.5979457
51
281.6732777
0
ARC
8
DEFAULT_255_1_388
10
19.3845341
20
70.6214113
40
0.5032026
50
256.6228565
51
270.5105488
0
ARC
8
DEFAULT_255_1_388
10
19.3393083
20
70.4472345
40
0.3233092
50
215.8618351
51
257.2787793
0
ARC
8
DEFAULT_255_1_388
10
19.454179
20
70.5243106
40
0.4615831
50
197.9695203
51
215.2622745
0
ARC
8
DEFAULT_255_1_388
10
19.7337466
20
70.6186641
40
0.7566307
50
187.8816486
51
198.2346584
0
ARC
8
DEFAULT_255_1_388
10
20.1790704
20
70.6829453
40
1.2065653
50
180.8977266
51
188.0054894
0
ARC
8
DEFAULT_255_1_388
10
20.4840918
20
70.69444
40
1.5117443
50
180.7434591
51
181.152202
0
ARC
8
DEFAULT_255_1_388
10
20.3165914
20
70.9034371
40
1.3441277
50
173.7674302
51
180.2315596
0
ARC
8
DEFAULT_255_1_388
10
19.8083783
20
70.9608779
40
0.8326847
50
164.3058537
51
173.9000553
0
ARC
8
DEFAULT_255_1_388
10
19.4807783
20
71.0552652
40
0.4917711
50
148.7922028
51
164.5682288
0
ARC
8
DEFAULT_255_1_388
10
19.373852
20
71.1149457
40
0.3694204
50
144.5883979
51
148.1161588
0
ARC
8
DEFAULT_255_1_388
10
19.3351266
20
71.1419667
40
0.322202
50
101.6440149
51
144.5142619
0
ARC
8
DEFAULT_255_1_388
10
19.3829458
20
70.9519337
40
0.5180451
50
89.528284
51
102.5820197
0
ARC
8
DEFAULT_255_1_388
10
19.391845
20
70.9475376
40
0.5224441
50
77.0437914
51
90.508231
0
ARC
8
DEFAULT_255_1_388
10
19.4370703
20
71.1323272
40
0.3322297
50
48.2777708
51
77.4996087
0
ARC
8
DEFAULT_255_1_388
10
19.4452443
20
71.1468557
40
0.315966
50
36.3141586
51
47.6307332
0
ARC
8
DEFAULT_255_1_388
10
19.3475165
20
71.0810159
40
0.4337313
50
18.2931065
51
35.6770203
0
ARC
8
DEFAULT_255_1_388
10
19.0614006
20
70.9828107
40
0.7362203
50
8.0246996
51
18.5605636
0
ARC
8
DEFAULT_255_1_388
10
18.5930362
20
70.9136432
40
1.2096583
50
1.127539
51
8.1718423
0
ARC
8
DEFAULT_255_1_388
10
18.2281495
20
70.8993374
40
1.5747719
50
0.5432713
51
1.38669
0
ARC
8
DEFAULT_255_1_388
10
18.4338874
20
70.9300163
40
1.2018103
50
359.8092569
51
4.9408001
0
ARC
8
DEFAULT_255_1_388
10
18.9075455
20
70.97229
40
0.7262727
50
4.8364937
51
12.2906017
0
ARC
8
DEFAULT_255_1_388
10
19.217492
20
71.0413485
40
0.4087324
50
12.0806994
51
23.8171225
0
ARC
8
DEFAULT_255_1_388
10
19.3495316
20
71.0972508
40
0.2653719
50
24.2874621
51
31.3934353
0
ARC
8
DEFAULT_255_1_388
10
19.4085752
20
71.1358822
40
0.1948607
50
30.7407708
51
82.4658033
0
ARC
8
DEFAULT_255_1_388
10
19.3883413
20
71.0365017
40
0.2961198
50
81.1057101
51
90.2187368
0
ARC
8
DEFAULT_255_1_388
10
19.3843225
20
71.0655421
40
0.2670929
50
89.380395
51
105.6763916
0
ARC
8
DEFAULT_255_1_388
10
19.3636947
20
71.140532
40
0.1893189
50
105.7980655
51
149.7387869
0
ARC
8
DEFAULT_255_1_388
10
19.4834087
20
71.0685719
40
0.3289892
50
149.4208441
51
163.628295
0
ARC
8
DEFAULT_255_1_388
10
19.7186316
20
70.9968345
40
0.5749004
50
163.3764549
51
172.141138
0
ARC
8
DEFAULT_255_1_388
10
20.0899038
20
70.9436582
40
0.9499585
50
172.0258462
51
178.0705453
0
ARC
8
DEFAULT_255_1_388
10
20.4320591
20
70.9274682
40
1.2924734
50
177.8639301
51
179.5036263
0
ARC
8
DEFAULT_255_1_388
10
20.3101609
20
70.6671151
40
1.170534
50
179.7995545
51
185.246089
0
ARC
8
DEFAULT_255_1_388
10
19.8553202
20
70.6240404
40
0.7136613
50
185.1411911
51
193.0082205
0
ARC
8
DEFAULT_255_1_388
10
19.5579463
20
70.5537441
40
0.4080987
50
192.7897338
51
205.2507384
0
ARC
8
DEFAULT_255_1_388
10
19.4401673
20
70.5011538
40
0.2791522
50
205.8001921
51
211.2545876
0
ARC
8
DEFAULT_255_1_388
10
19.3813212
20
70.4617132
40
0.2084074
50
210.3789935
51
238.4007996
0
ARC
8
DEFAULT_255_1_388
10
19.3791298
20
70.4669786
40
0.2117943
50
239.6521916
51
265.9793852
0
ARC
8
DEFAULT_255_1_388
10
19.3887147
20
70.5426358
40
0.2879689
50
265.1324455
51
270.0603288
0
ARC
8
DEFAULT_255_1_388
10
19.3919524
20
70.5061418
40
0.2514919
50
269.3314378
51
287.2180039
0
ARC
8
DEFAULT_255_1_388
10
19.4074606
20
70.4495291
40
0.1928357
50
287.7957942
51
329.0808983
0
ARC
8
DEFAULT_255_1_388
10
19.2997363
20
70.5167651
40
0.319808
50
328.6635261
51
343.3325043
0
ARC
8
DEFAULT_255_1_388
10
19.0552822
20
70.5929195
40
0.5758408
50
343.0498092
51
351.9392499
0
ARC
8
DEFAULT_255_1_388
10
18.6652144
20
70.6504205
40
0.9701202
50
351.8071632
51
357.7957897
0
ARC
8
DEFAULT_255_1_388
10
18.3017621
20
70.6692724
40
1.3340376
50
357.5870923
51
359.2682493
0
LINE
8
DEFAULT_255_1_388
10
20.2275257
20
70.7615666
11
20.0937982
21
70.7959021
0
LINE
8
DEFAULT_255_1_388
10
20.0937982
20
70.7959021
11
20.160662
21
71.4518898
0
LINE
8
DEFAULT_255_1_388
10
20.160662
20
71.4518898
11
20.834721
21
71.4518898
0
LINE
8
DEFAULT_255_1_388
10
20.834721
20
71.4518898
11
20.834721
21
71.2973803
0
LINE
8
DEFAULT_255_1_388
10
20.834721
20
71.2973803
11
20.3025216
21
71.2973803
0
LINE
8
DEFAULT_255_1_388
10
20.3025216
20
71.2973803
11
20.2627647
21
70.9386652
0
LINE
8
DEFAULT_255_1_388
10
20.0468128
20
70.4823652
11
20.2049366
21
70.4823652
0
LINE
8
DEFAULT_255_1_388
10
20.2718004
20
70.7977092
11
20.2275257
21
70.7615666
0
ARC
8
DEFAULT_255_1_388
10
20.4714261
20
70.5809241
40
0.4141476
50
93.7181681
51
120.253934
0
ARC
8
DEFAULT_255_1_388
10
20.4820313
20
70.4900284
40
0.5055616
50
89.9660471
51
94.2495185
0
ARC
8
DEFAULT_255_1_388
10
20.4866135
20
70.5563154
40
0.4392953
50
73.8045384
51
90.5585736
0
ARC
8
DEFAULT_255_1_388
10
20.5130393
20
70.652852
40
0.3392225
50
41.3071072
51
73.543002
0
ARC
8
DEFAULT_255_1_388
10
20.4662213
20
70.6125461
40
0.4009977
50
13.5075837
51
41.2174839
0
ARC
8
DEFAULT_255_1_388
10
20.281531
20
70.5641907
40
0.5918864
50
1.1330171
51
13.8830737
0
ARC
8
DEFAULT_255_1_388
10
20.1218956
20
70.5556522
40
0.7516787
50
359.9925091
51
1.5431298
0
ARC
8
DEFAULT_255_1_388
10
20.2663571
20
70.5510027
40
0.6072343
50
347.8572712
51
0.4294349
0
ARC
8
DEFAULT_255_1_388
10
20.4632706
20
70.5063898
40
0.4053482
50
323.6727442
51
348.1674594
0
ARC
8
DEFAULT_255_1_388
10
20.496367
20
70.4862175
40
0.3667495
50
316.8171818
51
323.1486802
0
ARC
8
DEFAULT_255_1_388
10
20.5032794
20
70.4820612
40
0.358869
50
281.839603
51
316.5458142
0
ARC
8
DEFAULT_255_1_388
10
20.4610081
20
70.6570363
40
0.5388223
50
269.5770964
51
282.4214641
0
ARC
8
DEFAULT_255_1_388
10
20.4530002
20
70.632993
40
0.5147801
50
256.2425863
51
270.4486481
0
ARC
8
DEFAULT_255_1_388
10
20.419353
20
70.4980124
40
0.3756708
50
228.9024379
51
256.33135
0
ARC
8
DEFAULT_255_1_388
10
20.411051
20
70.4849054
40
0.360344
50
193.7536029
51
228.5272638
0
ARC
8
DEFAULT_255_1_388
10
20.5503075
20
70.5257463
40
0.5053599
50
184.9244437
51
194.4976052
0
ARC
8
DEFAULT_255_1_388
10
20.5719716
20
70.5297722
40
0.3700839
50
187.3596909
51
198.6733728
0
ARC
8
DEFAULT_255_1_388
10
20.453896
20
70.4888373
40
0.2451195
50
198.4453795
51
217.7945479
0
ARC
8
DEFAULT_255_1_388
10
20.4206132
20
70.4652563
40
0.2043754
50
218.2887146
51
228.5613203
0
ARC
8
DEFAULT_255_1_388
10
20.4316139
20
70.4800902
40
0.2227819
50
228.9652423
51
258.1237049
0
ARC
8
DEFAULT_255_1_388
10
20.4547577
20
70.5791964
40
0.3245374
50
257.7260585
51
270.4013717
0
ARC
8
DEFAULT_255_1_388
10
20.4598075
20
70.5291255
40
0.2744726
50
269.4204315
51
286.420998
0
ARC
8
DEFAULT_255_1_388
10
20.476513
20
70.4684705
40
0.2115721
50
286.7250065
51
320.6004665
0
ARC
8
DEFAULT_255_1_388
10
20.4334046
20
70.5034527
40
0.2670878
50
320.6712228
51
344.5440474
0
ARC
8
DEFAULT_255_1_388
10
20.303276
20
70.5416394
40
0.4026927
50
344.241448
51
356.735803
0
ARC
8
DEFAULT_255_1_388
10
20.1629067
20
70.5532656
40
0.5435085
50
356.3547471
51
0.0507222
0
ARC
8
DEFAULT_255_1_388
10
20.3131332
20
70.5567812
40
0.3932934
50
359.5579289
51
12.9534322
0
ARC
8
DEFAULT_255_1_388
10
20.4318172
20
70.5855586
40
0.2711827
50
12.6489751
51
41.608121
0
ARC
8
DEFAULT_255_1_388
10
20.4577332
20
70.6075946
40
0.2371737
50
41.7851122
51
85.9892156
0
ARC
8
DEFAULT_255_1_388
10
20.4438642
20
70.5160738
40
0.3295244
50
84.6965848
51
90.0672125
0
ARC
8
DEFAULT_255_1_388
10
20.4412209
20
70.4409118
40
0.4046926
50
89.6804991
51
99.161352
0
ARC
8
DEFAULT_255_1_388
10
20.4181219
20
70.5789848
40
0.2647044
50
98.9836248
51
113.8905702
0
ARC
8
DEFAULT_255_1_388
10
20.3922894
20
70.6399118
40
0.1985386
50
114.195234
51
127.3641866
0
LINE
8
DEFAULT_255_2_778
10
9.3932417
20
60.721908
11
10.7161417
21
60.721908
0
LINE
8
DEFAULT_255_2_778
10
10.7161417
20
60.721908
11
10.7161417
21
35.586508
0
LINE
8
DEFAULT_255_2_778
10
9.3932834
20
35.5864333
11
12.0390834
21
35.5864333
0
LINE
8
DEFAULT_255_2_778
10
12.0390834
20
35.5864333
11
12.0390834
21
30.2947333
0
LINE
8
DEFAULT_255_2_778
10
12.0390834
20
30.2947333
11
9.3932834
21
30.2947333
0
LINE
8
DEFAULT_255_2_778
10
9.3932834
20
30.2947333
11
9.3932834
21
35.5864333
0
ARC
8
DEFAULT_255_2_778_1
10
13.1928591
20
30.397177
40
4.816461
50
120.9442904
51
122.351755
0
ARC
8
DEFAULT_255_2_778_1
10
12.7462523
20
31.1008039
40
3.9830657
50
122.3407904
51
124.1946752
0
ARC
8
DEFAULT_255_2_778_1
10
12.3063464
20
31.7473306
40
3.2010724
50
124.1855758
51
126.4338849
0
ARC
8
DEFAULT_255_2_778_1
10
11.9204129
20
32.2700611
40
2.5513094
50
126.4326926
51
128.8877368
0
ARC
8
DEFAULT_255_2_778_1
10
11.5855968
20
32.6844658
40
2.0185498
50
128.8749205
51
131.8726567
0
ARC
8
DEFAULT_255_2_778_1
10
11.2884677
20
33.0154854
40
1.5737356
50
131.8616166
51
135.4168838
0
ARC
8
DEFAULT_255_2_778_1
10
11.025668
20
33.2736765
40
1.2053256
50
135.3893975
51
139.9687014
0
ARC
8
DEFAULT_255_2_778_1
10
10.7927889
20
33.4685102
40
0.9016937
50
139.9301659
51
145.9260426
0
ARC
8
DEFAULT_255_2_778_1
10
10.596654
20
33.6005104
40
0.6652776
50
145.8787362
51
153.8146208
0
ARC
8
DEFAULT_255_2_778_1
10
10.4445553
20
33.6748797
40
0.4959714
50
153.770634
51
164.3484794
0
ARC
8
DEFAULT_255_2_778_1
10
10.3432387
20
33.7030786
40
0.3908039
50
164.3220276
51
179.8083066
0
ARC
8
DEFAULT_255_2_778_1
10
10.3642789
20
33.711215
40
0.4118985
50
180.9499449
51
213.8111542
0
ARC
8
DEFAULT_255_2_778_1
10
10.6401828
20
33.8807896
40
0.73561
50
212.8271214
51
224.258472
0
ARC
8
DEFAULT_255_2_778_1
10
11.0230335
20
34.2501236
40
1.267567
50
224.1376218
51
231.4508261
0
ARC
8
DEFAULT_255_2_778_1
10
11.6657195
20
35.0531168
40
2.2960809
50
231.3955893
51
236.1256478
0
ARC
8
DEFAULT_255_2_778_1
10
13.4980223
20
37.7996293
40
5.5976905
50
236.2233172
51
239.1314682
0
ARC
8
DEFAULT_255_2_778_1
10
25.447927
20
57.5273568
40
28.6623793
50
238.8606853
51
239.0711101
0
ARC
8
DEFAULT_255_2_778_1
10
6.2757281
20
25.4302653
40
8.7248518
50
57.2420924
51
59.4062964
0
ARC
8
DEFAULT_255_2_778_1
10
9.5034241
20
30.4612102
40
2.747542
50
52.8289294
51
57.079028
0
ARC
8
DEFAULT_255_2_778_1
10
10.2780783
20
31.4815488
40
1.466457
50
46.3041868
51
52.8596521
0
ARC
8
DEFAULT_255_2_778_1
10
10.7103073
20
31.9316842
40
0.8424061
50
36.2174211
51
46.4090895
0
ARC
8
DEFAULT_255_2_778_1
10
10.9948088
20
32.1365128
40
0.4918609
50
17.400375
51
36.5489745
0
ARC
8
DEFAULT_255_2_778_1
10
11.1088994
20
32.1763754
40
0.3710912
50
0.0676858
51
16.7951297
0
ARC
8
DEFAULT_255_2_778_1
10
11.0878613
20
32.1782428
40
0.3921317
50
343.8035191
51
359.7912046
0
ARC
8
DEFAULT_255_2_778_1
10
10.9815912
20
32.2087167
40
0.5026844
50
333.2506233
51
343.8465691
0
ARC
8
DEFAULT_255_2_778_1
10
10.8277757
20
32.2854313
40
0.6745679
50
325.6600948
51
333.3122657
0
ARC
8
DEFAULT_255_2_778_1
10
10.6323344
20
32.4182296
40
0.9108568
50
319.7560915
51
325.6976089
0
ARC
8
DEFAULT_255_2_778_1
10
10.404199
20
32.6100002
40
1.2088854
50
315.4577584
51
319.8037947
0
ARC
8
DEFAULT_255_2_778_1
10
10.1408127
20
32.8688507
40
1.5781764
50
311.7298824
51
315.4670864
0
ARC
8
DEFAULT_255_2_778_1
10
9.8317879
20
33.2144074
40
2.0417554
50
308.723055
51
311.7470879
0
ARC
8
DEFAULT_255_2_778_1
10
9.477589
20
33.6556492
40
2.6075745
50
306.1165163
51
308.7300151
0
ARC
8
DEFAULT_255_2_778_1
10
9.0746091
20
34.2069523
40
3.2904564
50
303.9559446
51
306.1266333
0
ARC
8
DEFAULT_255_2_778_1
10
8.6630432
20
34.816215
40
4.0257023
50
302.3733397
51
303.9712246
0
ARC
8
DEFAULT_255_2_778_1
10
8.2434347
20
35.4777058
40
4.8090549
50
300.9434827
51
302.3758078
0
LINE
8
DEFAULT_255_2_778
10
10.7161417
20
30.294808
11
10.7161417
21
5.159408
0
LINE
8
DEFAULT_255_2_778
10
10.7161417
20
5.159408
11
9.3932417
21
5.159408
0
LINE
8
DEFAULT_255_1_388
10
4.8809318
20
68.2883382
11
4.8809318
21
68.1519
0
LINE
8
DEFAULT_255_1_388
10
4.8809318
20
68.1519
11
4.0189313
21
68.1519
0
LINE
8
DEFAULT_255_1_388
10
4.0189313
20
68.1519
11
4.0189313
21
68.2720741
0
LINE
8
DEFAULT_255_1_388
10
4.0189313
20
68.2720741
11
4.4743278
21
68.7780702
0
LINE
8
DEFAULT_255_1_388
10
4.1607909
20
69.0798607
11
3.9936315
21
69.0798607
0
LINE
8
DEFAULT_255_1_388
10
4.5728163
20
68.670546
11
4.2204262
21
68.2883382
0
LINE
8
DEFAULT_255_1_388
10
4.2204262
20
68.2883382
11
4.8809318
21
68.2883382
0
ARC
8
DEFAULT_255_1_388
10
2.9567337
20
70.1200983
40
2.0258655
50
318.5132526
51
320.7829045
0
ARC
8
DEFAULT_255_1_388
10
3.5515294
20
69.6359929
40
1.2589638
50
320.7372878
51
323.9739031
0
ARC
8
DEFAULT_255_1_388
10
3.9924226
20
69.3165554
40
0.7145141
50
323.8962701
51
328.64194
0
ARC
8
DEFAULT_255_1_388
10
4.2226484
20
69.1745545
40
0.4440242
50
328.8294576
51
331.7891185
0
ARC
8
DEFAULT_255_1_388
10
4.3348804
20
69.1166374
40
0.3177517
50
331.4254512
51
352.9365785
0
ARC
8
DEFAULT_255_1_388
10
4.3501804
20
69.113205
40
0.3021496
50
353.2257659
51
0.0166158
0
ARC
8
DEFAULT_255_1_388
10
4.3738564
20
69.1157894
40
0.2784847
50
359.486299
51
15.9343185
0
ARC
8
DEFAULT_255_1_388
10
4.4308831
20
69.1311269
40
0.2194403
50
16.1712913
51
43.5286088
0
ARC
8
DEFAULT_255_1_388
10
4.4395776
20
69.1398191
40
0.2071504
50
43.4417391
51
83.1661095
0
ARC
8
DEFAULT_255_1_388
10
4.4244937
20
69.0569316
40
0.2912888
50
82.160179
51
90.1505708
0
ARC
8
DEFAULT_255_1_388
10
4.4209418
20
68.9965279
40
0.3517025
50
89.5460741
51
102.5418361
0
ARC
8
DEFAULT_255_1_388
10
4.3936138
20
69.1124933
40
0.2325748
50
102.1738499
51
129.206123
0
ARC
8
DEFAULT_255_1_388
10
4.3847592
20
69.1264664
40
0.2161591
50
129.72865
51
135.753947
0
ARC
8
DEFAULT_255_1_388
10
4.3984074
20
69.1155728
40
0.2335433
50
136.1757367
51
166.3673339
0
ARC
8
DEFAULT_255_1_388
10
4.5116762
20
69.0852148
40
0.3507873
50
165.9090694
51
178.8684636
0
ARC
8
DEFAULT_255_1_388
10
4.6092534
20
69.0799263
40
0.4484624
50
178.4391136
51
180.0083808
0
ARC
8
DEFAULT_255_1_388
10
4.4513235
20
69.0843197
40
0.4577138
50
163.2878482
51
180.5581842
0
ARC
8
DEFAULT_255_1_388
10
4.3611276
20
69.1091393
40
0.3641968
50
133.4540601
51
162.947111
0
ARC
8
DEFAULT_255_1_388
10
4.3812158
20
69.0877789
40
0.3935189
50
100.7869829
51
133.4382499
0
ARC
8
DEFAULT_255_1_388
10
4.4203403
20
68.9135399
40
0.5720313
50
89.660664
51
101.3702276
0
ARC
8
DEFAULT_255_1_388
10
4.4278012
20
68.9204263
40
0.5651495
50
78.2172678
51
90.412935
0
ARC
8
DEFAULT_255_1_388
10
4.4677478
20
69.1031511
40
0.378122
50
55.9269121
51
78.4888449
0
ARC
8
DEFAULT_255_1_388
10
4.4898193
20
69.1412187
40
0.3342379
50
47.929771
51
55.4049217
0
ARC
8
DEFAULT_255_1_388
10
4.5012723
20
69.1528618
40
0.3179217
50
4.334829
51
48.0560205
0
ARC
8
DEFAULT_255_1_388
10
4.3780525
20
69.1337487
40
0.442341
50
359.9251713
51
5.5971671
0
ARC
8
DEFAULT_255_1_388
10
4.426268
20
69.1400728
40
0.3941854
50
337.8914027
51
358.9967534
0
ARC
8
DEFAULT_255_1_388
10
4.121025
20
69.2578295
40
0.7213271
50
326.9132501
51
338.3508308
0
ARC
8
DEFAULT_255_1_388
10
3.6726362
20
69.5452105
40
1.2538973
50
319.6471833
51
327.0959558
0
ARC
8
DEFAULT_255_1_388
10
3.241302
20
69.901005
40
1.8129975
50
317.2588228
51
319.9045804
0
LINE
8
DEFAULT_255_1_388
10
5.7637143
20
69.4674898
11
5.7637143
21
68.593743
0
LINE
8
DEFAULT_255_1_388
10
5.7637143
20
68.593743
11
5.9462343
21
68.593743
0
LINE
8
DEFAULT_255_1_388
10
5.9462343
20
68.593743
11
5.9462343
21
68.4573048
0
LINE
8
DEFAULT_255_1_388
10
5.9462343
20
68.4573048
11
5.7637143
21
68.4573048
0
LINE
8
DEFAULT_255_1_388
10
5.7637143
20
68.4573048
11
5.7637143
21
68.1519
0
LINE
8
DEFAULT_255_1_388
10
5.7637143
20
68.1519
11
5.5956513
21
68.1519
0
LINE
8
DEFAULT_255_1_388
10
5.5956513
20
68.1519
11
5.5956513
21
68.4573048
0
LINE
8
DEFAULT_255_1_388
10
5.5956513
20
68.4573048
11
4.996588
21
68.4573048
0
LINE
8
DEFAULT_255_1_388
10
4.996588
20
68.4573048
11
4.996588
21
68.5557933
0
LINE
8
DEFAULT_255_1_388
10
4.996588
20
68.5557933
11
5.5857121
21
69.4674898
0
LINE
8
DEFAULT_255_1_388
10
5.5857121
20
69.4674898
11
5.7637143
21
69.4674898
0
LINE
8
DEFAULT_255_1_388
10
5.5757729
20
69.2027455
11
5.1863366
21
68.593743
0
LINE
8
DEFAULT_255_1_388
10
5.1863366
20
68.593743
11
5.5956513
21
68.593743
0
LINE
8
DEFAULT_255_1_388
10
5.5956513
20
68.593743
11
5.5956513
21
69.238888
0
LINE
8
DEFAULT_255_1_388
10
5.5956513
20
69.238888
11
5.5757729
21
69.2027455
0
LINE
8
DEFAULT_255_1_388
10
6.201943
20
69.4674898
11
6.5760187
21
68.3823089
0
LINE
8
DEFAULT_255_1_388
10
6.5760187
20
68.3823089
11
6.9519015
21
69.4674898
0
LINE
8
DEFAULT_255_1_388
10
6.9519015
20
69.4674898
11
7.14165
21
69.4674898
0
LINE
8
DEFAULT_255_1_388
10
7.14165
20
69.4674898
11
6.6537252
21
68.1519
0
LINE
8
DEFAULT_255_1_388
10
6.6537252
20
68.1519
11
6.5001193
21
68.1519
0
LINE
8
DEFAULT_255_1_388
10
6.5001193
20
68.1519
11
6.013098
21
69.4674898
0
LINE
8
DEFAULT_255_1_388
10
6.013098
20
69.4674898
11
6.201943
21
69.4674898
0
LINE
8
DEFAULT_255_1_388
10
4.925632
20
5.0693468
11
5.1000199
21
5.0693468
0
LINE
8
DEFAULT_255_1_388
10
4.0871242
20
5.2482525
11
4.0871242
21
5.3747516
0
LINE
8
DEFAULT_255_1_388
10
5.1000199
20
5.5446217
11
4.925632
21
5.5446217
0
LINE
8
DEFAULT_255_1_388
10
4.2615121
20
5.3702337
11
4.2615121
21
5.2428312
0
ARC
8
DEFAULT_255_1_388
10
4.4834433
20
5.1365329
40
0.6202263
50
340.1774904
51
353.7812217
0
ARC
8
DEFAULT_255_1_388
10
4.6602286
20
5.0706893
40
0.4315926
50
311.4560052
51
340.4420756
0
ARC
8
DEFAULT_255_1_388
10
4.6564826
20
5.0831665
40
0.4434573
50
282.4332229
51
310.7514507
0
ARC
8
DEFAULT_255_1_388
10
4.6070644
20
5.2873703
40
0.6535262
50
269.9358869
51
282.8096729
0
ARC
8
DEFAULT_255_1_388
10
4.6012583
20
5.4386329
40
0.8048043
50
269.9995752
51
270.3612856
0
ARC
8
DEFAULT_255_1_388
10
4.5953073
20
5.1587781
40
0.5249831
50
250.7885263
51
270.6488451
0
ARC
8
DEFAULT_255_1_388
10
4.5763898
20
5.0870853
40
0.4510942
50
219.3628377
51
250.0611024
0
ARC
8
DEFAULT_255_1_388
10
4.6696772
20
5.1663653
40
0.5735046
50
193.5480293
51
219.5755675
0
ARC
8
DEFAULT_255_1_388
10
4.9364981
20
5.235652
40
0.849146
50
181.1220183
51
193.8754971
0
ARC
8
DEFAULT_255_1_388
10
5.1688214
20
5.2480914
40
1.0816971
50
179.9914644
51
181.5398227
0
ARC
8
DEFAULT_255_1_388
10
4.9611525
20
5.3789586
40
0.8740384
50
169.5837606
51
180.275782
0
ARC
8
DEFAULT_255_1_388
10
4.7544873
20
5.4171439
40
0.6638751
50
155.0367033
51
169.6002779
0
ARC
8
DEFAULT_255_1_388
10
4.6267331
20
5.4787336
40
0.5220662
50
136.7831557
51
155.2472983
0
ARC
8
DEFAULT_255_1_388
10
4.5829122
20
5.5159577
40
0.4646502
50
121.7633063
51
136.4281161
0
ARC
8
DEFAULT_255_1_388
10
4.5980962
20
5.4879049
40
0.4964979
50
95.6460018
51
121.5489589
0
ARC
8
DEFAULT_255_1_388
10
4.6157936
20
5.3631704
40
0.6223912
50
89.9245727
51
96.1375919
0
ARC
8
DEFAULT_255_1_388
10
4.6214641
20
5.3765721
40
0.6090084
50
76.6779212
51
90.456405
0
ARC
8
DEFAULT_255_1_388
10
4.6657454
20
5.555506
40
0.42469
50
47.4858803
51
76.9287069
0
ARC
8
DEFAULT_255_1_388
10
4.6492068
20
5.5442623
40
0.4441778
50
16.5424081
51
46.8934505
0
ARC
8
DEFAULT_255_1_388
10
4.4683118
20
5.4848265
40
0.6345318
50
5.4072971
51
17.0363711
0
ARC
8
DEFAULT_255_1_388
10
4.3064843
20
5.4588304
40
0.6250632
50
7.8888693
51
15.9242022
0
ARC
8
DEFAULT_255_1_388
10
4.5299828
20
5.5237309
40
0.3923364
50
15.7650676
51
27.9410069
0
ARC
8
DEFAULT_255_1_388
10
4.6541997
20
5.5902317
40
0.2514401
50
27.8167196
51
46.4007942
0
ARC
8
DEFAULT_255_1_388
10
4.6597839
20
5.5895882
40
0.2480958
50
47.4372362
51
75.0695672
0
ARC
8
DEFAULT_255_1_388
10
4.6250675
20
5.4687277
40
0.3738281
50
74.7009379
51
87.8124314
0
ARC
8
DEFAULT_255_1_388
10
4.6168292
20
5.3503659
40
0.4924321
50
87.3802571
51
90.0251599
0
ARC
8
DEFAULT_255_1_388
10
4.6124939
20
5.4823997
40
0.3604218
50
89.3451886
51
108.5744412
0
ARC
8
DEFAULT_255_1_388
10
4.5970931
20
5.5401836
40
0.3007661
50
109.2998307
51
143.3037387
0
ARC
8
DEFAULT_255_1_388
10
4.6828221
20
5.4742584
40
0.4089031
50
143.075267
51
163.1918576
0
ARC
8
DEFAULT_255_1_388
10
4.9024055
20
5.4049652
40
0.6391492
50
162.9375929
51
174.6208776
0
ARC
8
DEFAULT_255_1_388
10
5.1978437
20
5.3725711
40
0.9363344
50
174.342123
51
180.1430283
0
ARC
8
DEFAULT_255_1_388
10
5.0930978
20
5.2382117
40
0.8315986
50
179.6817261
51
189.150555
0
ARC
8
DEFAULT_255_1_388
10
4.8117727
20
5.1913559
40
0.5464044
50
188.9911061
51
203.5772363
0
ARC
8
DEFAULT_255_1_388
10
4.6903019
20
5.1409539
40
0.4149206
50
203.9075402
51
215.1312435
0
ARC
8
DEFAULT_255_1_388
10
4.5864817
20
5.0604907
40
0.2837747
50
213.9071511
51
263.8848919
0
ARC
8
DEFAULT_255_1_388
10
4.600581
20
5.1487519
40
0.3730641
50
263.1757928
51
270.1031044
0
ARC
8
DEFAULT_255_1_388
10
4.604189
20
5.2890511
40
0.5133712
50
269.6722503
51
279.0606936
0
ARC
8
DEFAULT_255_1_388
10
4.6342045
20
5.107615
40
0.3294739
50
278.8749101
51
293.6349581
0
ARC
8
DEFAULT_255_1_388
10
4.6702249
20
5.0230251
40
0.2375405
50
293.8553806
51
310.0518171
0
ARC
8
DEFAULT_255_1_388
10
4.6707758
20
5.0160021
40
0.2318463
50
311.0644687
51
332.0111037
0
ARC
8
DEFAULT_255_1_388
10
4.5366431
20
5.0899702
40
0.3850112
50
331.6586806
51
343.2877423
0
ARC
8
DEFAULT_255_1_388
10
4.3045896
20
5.1612806
40
0.6277712
50
343.1446576
51
351.0103568
0
ARC
8
DEFAULT_255_1_388
10
4.141322
20
5.1912873
40
0.7937327
50
350.71248
51
351.1626997
0
LINE
8
DEFAULT_255_1_388
10
6.3478424
20
5.9674898
11
6.3478424
21
4.6519
0
LINE
8
DEFAULT_255_1_388
10
6.3478424
20
4.6519
11
6.1734545
21
4.6519
0
LINE
8
DEFAULT_255_1_388
10
6.1734545
20
4.6519
11
6.1734545
21
5.2599989
0
LINE
8
DEFAULT_255_1_388
10
6.1734545
20
5.2599989
11
5.5102382
21
5.2599989
0
LINE
8
DEFAULT_255_1_388
10
5.5102382
20
5.2599989
11
5.5102382
21
4.6519
0
LINE
8
DEFAULT_255_1_388
10
5.5102382
20
4.6519
11
5.3367538
21
4.6519
0
LINE
8
DEFAULT_255_1_388
10
5.3367538
20
4.6519
11
5.3367538
21
5.9674898
0
LINE
8
DEFAULT_255_1_388
10
5.3367538
20
5.9674898
11
5.5102382
21
5.9674898
0
LINE
8
DEFAULT_255_1_388
10
5.5102382
20
5.9674898
11
5.5102382
21
5.4018585
0
LINE
8
DEFAULT_255_1_388
10
5.5102382
20
5.4018585
11
6.1734545
21
5.4018585
0
LINE
8
DEFAULT_255_1_388
10
6.1734545
20
5.4018585
11
6.1734545
21
5.9674898
0
LINE
8
DEFAULT_255_1_388
10
6.1734545
20
5.9674898
11
6.3478424
21
5.9674898
0
LINE
8
DEFAULT_255_1_388
10
7.3182707
20
5.9674898
11
7.3182707
21
5.093743
0
LINE
8
DEFAULT_255_1_388
10
7.3182707
20
5.093743
11
7.5007907
21
5.093743
0
LINE
8
DEFAULT_255_1_388
10
7.5007907
20
5.093743
11
7.5007907
21
4.9573048
0
LINE
8
DEFAULT_255_1_388
10
7.5007907
20
4.9573048
11
7.3182707
21
4.9573048
0
LINE
8
DEFAULT_255_1_388
10
7.3182707
20
4.9573048
11
7.3182707
21
4.6519
0
LINE
8
DEFAULT_255_1_388
10
7.3182707
20
4.6519
11
7.1502077
21
4.6519
0
LINE
8
DEFAULT_255_1_388
10
7.1502077
20
4.6519
11
7.1502077
21
4.9573048
0
LINE
8
DEFAULT_255_1_388
10
7.1502077
20
4.9573048
11
6.5511444
21
4.9573048
0
LINE
8
DEFAULT_255_1_388
10
6.5511444
20
4.9573048
11
6.5511444
21
5.0557933
0
LINE
8
DEFAULT_255_1_388
10
6.5511444
20
5.0557933
11
7.1402685
21
5.9674898
0
LINE
8
DEFAULT_255_1_388
10
7.1402685
20
5.9674898
11
7.3182707
21
5.9674898
0
LINE
8
DEFAULT_255_1_388
10
7.1303292
20
5.7027455
11
6.740893
21
5.093743
0
LINE
8
DEFAULT_255_1_388
10
6.740893
20
5.093743
11
7.1502077
21
5.093743
0
LINE
8
DEFAULT_255_1_388
10
7.1502077
20
5.093743
11
7.1502077
21
5.738888
0
LINE
8
DEFAULT_255_1_388
10
7.1502077
20
5.738888
11
7.1303292
21
5.7027455
0
LINE
8
DEFAULT_255_1_388
10
8.016726
20
5.2789737
11
8.016726
21
5.1425355
0
LINE
8
DEFAULT_255_1_388
10
8.016726
20
5.1425355
11
7.5757865
21
5.1425355
0
LINE
8
DEFAULT_255_1_388
10
7.5757865
20
5.1425355
11
7.5757865
21
5.2789737
0
LINE
8
DEFAULT_255_1_388
10
7.5757865
20
5.2789737
11
8.016726
21
5.2789737
0
LINE
8
DEFAULT_255_1_388
10
4.787532
20
13.0068468
11
4.9619199
21
13.0068468
0
LINE
8
DEFAULT_255_1_388
10
3.9490242
20
13.1857525
11
3.9490242
21
13.3122516
0
LINE
8
DEFAULT_255_1_388
10
4.9619199
20
13.4821217
11
4.787532
21
13.4821217
0
LINE
8
DEFAULT_255_1_388
10
4.1234121
20
13.3077337
11
4.1234121
21
13.1803312
0
ARC
8
DEFAULT_255_1_388
10
4.3453433
20
13.0740329
40
0.6202263
50
340.1774904
51
353.7812217
0
ARC
8
DEFAULT_255_1_388
10
4.5221286
20
13.0081893
40
0.4315926
50
311.4560052
51
340.4420756
0
ARC
8
DEFAULT_255_1_388
10
4.5183826
20
13.0206665
40
0.4434573
50
282.4332229
51
310.7514507
0
ARC
8
DEFAULT_255_1_388
10
4.4689644
20
13.2248703
40
0.6535262
50
269.9358869
51
282.8096729
0
ARC
8
DEFAULT_255_1_388
10
4.4631583
20
13.3761329
40
0.8048043
50
269.9995752
51
270.3612856
0
ARC
8
DEFAULT_255_1_388
10
4.4572073
20
13.0962781
40
0.5249831
50
250.7885263
51
270.6488451
0
ARC
8
DEFAULT_255_1_388
10
4.4382898
20
13.0245853
40
0.4510942
50
219.3628377
51
250.0611024
0
ARC
8
DEFAULT_255_1_388
10
4.5315772
20
13.1038653
40
0.5735046
50
193.5480293
51
219.5755675
0
ARC
8
DEFAULT_255_1_388
10
4.7983981
20
13.173152
40
0.849146
50
181.1220183
51
193.8754971
0
ARC
8
DEFAULT_255_1_388
10
5.0307214
20
13.1855914
40
1.0816971
50
179.9914644
51
181.5398227
0
ARC
8
DEFAULT_255_1_388
10
4.8230525
20
13.3164586
40
0.8740384
50
169.5837606
51
180.275782
0
ARC
8
DEFAULT_255_1_388
10
4.6163873
20
13.3546439
40
0.6638751
50
155.0367033
51
169.6002779
0
ARC
8
DEFAULT_255_1_388
10
4.4886331
20
13.4162336
40
0.5220662
50
136.7831557
51
155.2472983
0
ARC
8
DEFAULT_255_1_388
10
4.4448122
20
13.4534577
40
0.4646502
50
121.7633063
51
136.4281161
0
ARC
8
DEFAULT_255_1_388
10
4.4599962
20
13.4254049
40
0.4964979
50
95.6460018
51
121.5489589
0
ARC
8
DEFAULT_255_1_388
10
4.4776936
20
13.3006704
40
0.6223912
50
89.9245727
51
96.1375919
0
ARC
8
DEFAULT_255_1_388
10
4.4833641
20
13.3140721
40
0.6090084
50
76.6779212
51
90.456405
0
ARC
8
DEFAULT_255_1_388
10
4.5276454
20
13.493006
40
0.42469
50
47.4858803
51
76.9287069
0
ARC
8
DEFAULT_255_1_388
10
4.5111068
20
13.4817623
40
0.4441778
50
16.5424081
51
46.8934505
0
ARC
8
DEFAULT_255_1_388
10
4.3302118
20
13.4223265
40
0.6345318
50
5.4072971
51
17.0363711
0
ARC
8
DEFAULT_255_1_388
10
4.1683843
20
13.3963304
40
0.6250632
50
7.8888693
51
15.9242022
0
ARC
8
DEFAULT_255_1_388
10
4.3918828
20
13.4612309
40
0.3923364
50
15.7650676
51
27.9410069
0
ARC
8
DEFAULT_255_1_388
10
4.5160997
20
13.5277317
40
0.2514401
50
27.8167196
51
46.4007942
0
ARC
8
DEFAULT_255_1_388
10
4.5216839
20
13.5270882
40
0.2480958
50
47.4372362
51
75.0695672
0
ARC
8
DEFAULT_255_1_388
10
4.4869675
20
13.4062277
40
0.3738281
50
74.7009379
51
87.8124314
0
ARC
8
DEFAULT_255_1_388
10
4.4787292
20
13.2878659
40
0.4924321
50
87.3802571
51
90.0251599
0
ARC
8
DEFAULT_255_1_388
10
4.4743939
20
13.4198997
40
0.3604218
50
89.3451886
51
108.5744412
0
ARC
8
DEFAULT_255_1_388
10
4.4589931
20
13.4776836
40
0.3007661
50
109.2998307
51
143.3037387
0
ARC
8
DEFAULT_255_1_388
10
4.5447221
20
13.4117584
40
0.4089031
50
143.075267
51
163.1918576
0
ARC
8
DEFAULT_255_1_388
10
4.7643055
20
13.3424652
40
0.6391492
50
162.9375929
51
174.6208776
0
ARC
8
DEFAULT_255_1_388
10
5.0597437
20
13.3100711
40
0.9363344
50
174.342123
51
180.1430283
0
ARC
8
DEFAULT_255_1_388
10
4.9549978
20
13.1757117
40
0.8315986
50
179.6817261
51
189.150555
0
ARC
8
DEFAULT_255_1_388
10
4.6736727
20
13.1288559
40
0.5464044
50
188.9911061
51
203.5772363
0
ARC
8
DEFAULT_255_1_388
10
4.5522019
20
13.0784539
40
0.4149206
50
203.9075402
51
215.1312435
0
ARC
8
DEFAULT_255_1_388
10
4.4483817
20
12.9979907
40
0.2837747
50
213.9071511
51
263.8848919
0
ARC
8
DEFAULT_255_1_388
10
4.462481
20
13.0862519
40
0.3730641
50
263.1757928
51
270.1031044
0
ARC
8
DEFAULT_255_1_388
10
4.466089
20
13.2265511
40
0.5133712
50
269.6722503
51
279.0606936
0
ARC
8
DEFAULT_255_1_388
10
4.4961045
20
13.045115
40
0.3294739
50
278.8749101
51
293.6349581
0
ARC
8
DEFAULT_255_1_388
10
4.5321249
20
12.9605251
40
0.2375405
50
293.8553806
51
310.0518171
0
ARC
8
DEFAULT_255_1_388
10
4.5326758
20
12.9535021
40
0.2318463
50
311.0644687
51
332.0111037
0
ARC
8
DEFAULT_255_1_388
10
4.3985431
20
13.0274702
40
0.3850112
50
331.6586806
51
343.2877423
0
ARC
8
DEFAULT_255_1_388
10
4.1664896
20
13.0987806
40
0.6277712
50
343.1446576
51
351.0103568
0
ARC
8
DEFAULT_255_1_388
10
4.003222
20
13.1287873
40
0.7937327
50
350.71248
51
351.1626997
0
LINE
8
DEFAULT_255_1_388
10
6.2097424
20
13.9049898
11
6.2097424
21
12.5894
0
LINE
8
DEFAULT_255_1_388
10
6.2097424
20
12.5894
11
6.0353545
21
12.5894
0
LINE
8
DEFAULT_255_1_388
10
6.0353545
20
12.5894
11
6.0353545
21
13.1974989
0
LINE
8
DEFAULT_255_1_388
10
6.0353545
20
13.1974989
11
5.3721382
21
13.1974989
0
LINE
8
DEFAULT_255_1_388
10
5.3721382
20
13.1974989
11
5.3721382
21
12.5894
0
LINE
8
DEFAULT_255_1_388
10
5.3721382
20
12.5894
11
5.1986538
21
12.5894
0
LINE
8
DEFAULT_255_1_388
10
5.1986538
20
12.5894
11
5.1986538
21
13.9049898
0
LINE
8
DEFAULT_255_1_388
10
5.1986538
20
13.9049898
11
5.3721382
21
13.9049898
0
LINE
8
DEFAULT_255_1_388
10
5.3721382
20
13.9049898
11
5.3721382
21
13.3393585
0
LINE
8
DEFAULT_255_1_388
10
5.3721382
20
13.3393585
11
6.0353545
21
13.3393585
0
LINE
8
DEFAULT_255_1_388
10
6.0353545
20
13.3393585
11
6.0353545
21
13.9049898
0
LINE
8
DEFAULT_255_1_388
10
6.0353545
20
13.9049898
11
6.2097424
21
13.9049898
0
LINE
8
DEFAULT_255_1_388
10
7.1801707
20
13.9049898
11
7.1801707
21
13.031243
0
LINE
8
DEFAULT_255_1_388
10
7.1801707
20
13.031243
11
7.3626907
21
13.031243
0
LINE
8
DEFAULT_255_1_388
10
7.3626907
20
13.031243
11
7.3626907
21
12.8948048
0
LINE
8
DEFAULT_255_1_388
10
7.3626907
20
12.8948048
11
7.1801707
21
12.8948048
0
LINE
8
DEFAULT_255_1_388
10
7.1801707
20
12.8948048
11
7.1801707
21
12.5894
0
LINE
8
DEFAULT_255_1_388
10
7.1801707
20
12.5894
11
7.0121077
21
12.5894
0
LINE
8
DEFAULT_255_1_388
10
7.0121077
20
12.5894
11
7.0121077
21
12.8948048
0
LINE
8
DEFAULT_255_1_388
10
7.0121077
20
12.8948048
11
6.4130444
21
12.8948048
0
LINE
8
DEFAULT_255_1_388
10
6.4130444
20
12.8948048
11
6.4130444
21
12.9932933
0
LINE
8
DEFAULT_255_1_388
10
6.4130444
20
12.9932933
11
7.0021685
21
13.9049898
0
LINE
8
DEFAULT_255_1_388
10
7.0021685
20
13.9049898
11
7.1801707
21
13.9049898
0
LINE
8
DEFAULT_255_1_388
10
6.9922292
20
13.6402455
11
6.602793
21
13.031243
0
LINE
8
DEFAULT_255_1_388
10
6.602793
20
13.031243
11
7.0121077
21
13.031243
0
LINE
8
DEFAULT_255_1_388
10
7.0121077
20
13.031243
11
7.0121077
21
13.676388
0
LINE
8
DEFAULT_255_1_388
10
7.0121077
20
13.676388
11
6.9922292
21
13.6402455
0
LINE
8
DEFAULT_255_1_388
10
8.0096428
20
13.6790987
11
8.0096428
21
13.2950838
0
LINE
8
DEFAULT_255_1_388
10
8.0096428
20
13.2950838
11
8.37649
21
13.2950838
0
LINE
8
DEFAULT_255_1_388
10
8.37649
20
13.2950838
11
8.37649
21
13.1369601
0
LINE
8
DEFAULT_255_1_388
10
8.37649
20
13.1369601
11
8.0096428
21
13.1369601
0
LINE
8
DEFAULT_255_1_388
10
8.0096428
20
13.1369601
11
8.0096428
21
12.7213204
0
LINE
8
DEFAULT_255_1_388
10
8.0096428
20
12.7213204
11
7.8415798
21
12.7213204
0
LINE
8
DEFAULT_255_1_388
10
7.8415798
20
12.7213204
11
7.8415798
21
13.1369601
0
LINE
8
DEFAULT_255_1_388
10
7.8415798
20
13.1369601
11
7.4747327
21
13.1369601
0
LINE
8
DEFAULT_255_1_388
10
7.4747327
20
13.1369601
11
7.4747327
21
13.2950838
0
LINE
8
DEFAULT_255_1_388
10
7.4747327
20
13.2950838
11
7.8415798
21
13.2950838
0
LINE
8
DEFAULT_255_1_388
10
7.8415798
20
13.2950838
11
7.8415798
21
13.6790987
0
LINE
8
DEFAULT_255_1_388
10
7.8415798
20
13.6790987
11
8.0096428
21
13.6790987
0
LINE
8
DEFAULT_255_1_388
10
4.925632
20
20.9443468
11
5.1000199
21
20.9443468
0
LINE
8
DEFAULT_255_1_388
10
4.0871242
20
21.1232525
11
4.0871242
21
21.2497516
0
LINE
8
DEFAULT_255_1_388
10
5.1000199
20
21.4196217
11
4.925632
21
21.4196217
0
LINE
8
DEFAULT_255_1_388
10
4.2615121
20
21.2452337
11
4.2615121
21
21.1178312
0
ARC
8
DEFAULT_255_1_388
10
4.4834433
20
21.0115329
40
0.6202263
50
340.1774904
51
353.7812217
0
ARC
8
DEFAULT_255_1_388
10
4.6602286
20
20.9456893
40
0.4315926
50
311.4560052
51
340.4420756
0
ARC
8
DEFAULT_255_1_388
10
4.6564826
20
20.9581665
40
0.4434573
50
282.4332229
51
310.7514507
0
ARC
8
DEFAULT_255_1_388
10
4.6070644
20
21.1623703
40
0.6535262
50
269.9358869
51
282.8096729
0
ARC
8
DEFAULT_255_1_388
10
4.6012583
20
21.3136329
40
0.8048043
50
269.9995752
51
270.3612856
0
ARC
8
DEFAULT_255_1_388
10
4.5953073
20
21.0337781
40
0.5249831
50
250.7885263
51
270.6488451
0
ARC
8
DEFAULT_255_1_388
10
4.5763898
20
20.9620853
40
0.4510942
50
219.3628377
51
250.0611024
0
ARC
8
DEFAULT_255_1_388
10
4.6696772
20
21.0413653
40
0.5735046
50
193.5480293
51
219.5755675
0
ARC
8
DEFAULT_255_1_388
10
4.9364981
20
21.110652
40
0.849146
50
181.1220183
51
193.8754971
0
ARC
8
DEFAULT_255_1_388
10
5.1688214
20
21.1230914
40
1.0816971
50
179.9914644
51
181.5398227
0
ARC
8
DEFAULT_255_1_388
10
4.9611525
20
21.2539586
40
0.8740384
50
169.5837606
51
180.275782
0
ARC
8
DEFAULT_255_1_388
10
4.7544873
20
21.2921439
40
0.6638751
50
155.0367033
51
169.6002779
0
ARC
8
DEFAULT_255_1_388
10
4.6267331
20
21.3537336
40
0.5220662
50
136.7831557
51
155.2472983
0
ARC
8
DEFAULT_255_1_388
10
4.5829122
20
21.3909577
40
0.4646502
50
121.7633063
51
136.4281161
0
ARC
8
DEFAULT_255_1_388
10
4.5980962
20
21.3629049
40
0.4964979
50
95.6460018
51
121.5489589
0
ARC
8
DEFAULT_255_1_388
10
4.6157936
20
21.2381704
40
0.6223912
50
89.9245727
51
96.1375919
0
ARC
8
DEFAULT_255_1_388
10
4.6214641
20
21.2515721
40
0.6090084
50
76.6779212
51
90.456405
0
ARC
8
DEFAULT_255_1_388
10
4.6657454
20
21.430506
40
0.42469
50
47.4858803
51
76.9287069
0
ARC
8
DEFAULT_255_1_388
10
4.6492068
20
21.4192623
40
0.4441778
50
16.5424081
51
46.8934505
0
ARC
8
DEFAULT_255_1_388
10
4.4683118
20
21.3598265
40
0.6345318
50
5.4072971
51
17.0363711
0
ARC
8
DEFAULT_255_1_388
10
4.3064843
20
21.3338304
40
0.6250632
50
7.8888693
51
15.9242022
0
ARC
8
DEFAULT_255_1_388
10
4.5299828
20
21.3987309
40
0.3923364
50
15.7650676
51
27.9410069
0
ARC
8
DEFAULT_255_1_388
10
4.6541997
20
21.4652317
40
0.2514401
50
27.8167196
51
46.4007942
0
ARC
8
DEFAULT_255_1_388
10
4.6597839
20
21.4645882
40
0.2480958
50
47.4372362
51
75.0695672
0
ARC
8
DEFAULT_255_1_388
10
4.6250675
20
21.3437277
40
0.3738281
50
74.7009379
51
87.8124314
0
ARC
8
DEFAULT_255_1_388
10
4.6168292
20
21.2253659
40
0.4924321
50
87.3802571
51
90.0251599
0
ARC
8
DEFAULT_255_1_388
10
4.6124939
20
21.3573997
40
0.3604218
50
89.3451886
51
108.5744412
0
ARC
8
DEFAULT_255_1_388
10
4.5970931
20
21.4151836
40
0.3007661
50
109.2998307
51
143.3037387
0
ARC
8
DEFAULT_255_1_388
10
4.6828221
20
21.3492584
40
0.4089031
50
143.075267
51
163.1918576
0
ARC
8
DEFAULT_255_1_388
10
4.9024055
20
21.2799652
40
0.6391492
50
162.9375929
51
174.6208776
0
ARC
8
DEFAULT_255_1_388
10
5.1978437
20
21.2475711
40
0.9363344
50
174.342123
51
180.1430283
0
ARC
8
DEFAULT_255_1_388
10
5.0930978
20
21.1132117
40
0.8315986
50
179.6817261
51
189.150555
0
ARC
8
DEFAULT_255_1_388
10
4.8117727
20
21.0663559
40
0.5464044
50
188.9911061
51
203.5772363
0
ARC
8
DEFAULT_255_1_388
10
4.6903019
20
21.0159539
40
0.4149206
50
203.9075402
51
215.1312435
0
ARC
8
DEFAULT_255_1_388
10
4.5864817
20
20.9354907
40
0.2837747
50
213.9071511
51
263.8848919
0
ARC
8
DEFAULT_255_1_388
10
4.600581
20
21.0237519
40
0.3730641
50
263.1757928
51
270.1031044
0
ARC
8
DEFAULT_255_1_388
10
4.604189
20
21.1640511
40
0.5133712
50
269.6722503
51
279.0606936
0
ARC
8
DEFAULT_255_1_388
10
4.6342045
20
20.982615
40
0.3294739
50
278.8749101
51
293.6349581
0
ARC
8
DEFAULT_255_1_388
10
4.6702249
20
20.8980251
40
0.2375405
50
293.8553806
51
310.0518171
0
ARC
8
DEFAULT_255_1_388
10
4.6707758
20
20.8910021
40
0.2318463
50
311.0644687
51
332.0111037
0
ARC
8
DEFAULT_255_1_388
10
4.5366431
20
20.9649702
40
0.3850112
50
331.6586806
51
343.2877423
0
ARC
8
DEFAULT_255_1_388
10
4.3045896
20
21.0362806
40
0.6277712
50
343.1446576
51
351.0103568
0
ARC
8
DEFAULT_255_1_388
10
4.141322
20
21.0662873
40
0.7937327
50
350.71248
51
351.1626997
0
LINE
8
DEFAULT_255_1_388
10
6.3478424
20
21.8424898
11
6.3478424
21
20.5269
0
LINE
8
DEFAULT_255_1_388
10
6.3478424
20
20.5269
11
6.1734545
21
20.5269
0
LINE
8
DEFAULT_255_1_388
10
6.1734545
20
20.5269
11
6.1734545
21
21.1349989
0
LINE
8
DEFAULT_255_1_388
10
6.1734545
20
21.1349989
11
5.5102382
21
21.1349989
0
LINE
8
DEFAULT_255_1_388
10
5.5102382
20
21.1349989
11
5.5102382
21
20.5269
0
LINE
8
DEFAULT_255_1_388
10
5.5102382
20
20.5269
11
5.3367538
21
20.5269
0
LINE
8
DEFAULT_255_1_388
10
5.3367538
20
20.5269
11
5.3367538
21
21.8424898
0
LINE
8
DEFAULT_255_1_388
10
5.3367538
20
21.8424898
11
5.5102382
21
21.8424898
0
LINE
8
DEFAULT_255_1_388
10
5.5102382
20
21.8424898
11
5.5102382
21
21.2768585
0
LINE
8
DEFAULT_255_1_388
10
5.5102382
20
21.2768585
11
6.1734545
21
21.2768585
0
LINE
8
DEFAULT_255_1_388
10
6.1734545
20
21.2768585
11
6.1734545
21
21.8424898
0
LINE
8
DEFAULT_255_1_388
10
6.1734545
20
21.8424898
11
6.3478424
21
21.8424898
0
LINE
8
DEFAULT_255_1_388
10
6.8556457
20
21.1295775
11
6.8556457
21
21.2660157
0
LINE
8
DEFAULT_255_1_388
10
6.8556457
20
21.2660157
11
6.9812411
21
21.2660157
0
LINE
8
DEFAULT_255_1_388
10
6.7670963
20
21.4973282
11
6.5999369
21
21.4973282
0
LINE
8
DEFAULT_255_1_388
10
6.5881906
20
20.8738687
11
6.7562536
21
20.8738687
0
LINE
8
DEFAULT_255_1_388
10
6.9812411
20
21.1295775
11
6.8556457
21
21.1295775
0
ARC
8
DEFAULT_255_1_388
10
6.9779638
20
21.6476922
40
0.3816905
50
270.491971
51
281.8953028
0
ARC
8
DEFAULT_255_1_388
10
7.0051065
20
21.5237199
40
0.2547877
50
281.6690378
51
301.2943765
0
ARC
8
DEFAULT_255_1_388
10
7.0242516
20
21.4886926
40
0.2149197
50
301.7834992
51
311.754567
0
ARC
8
DEFAULT_255_1_388
10
7.0345557
20
21.477265
40
0.1995326
50
311.7325027
51
354.2803031
0
ARC
8
DEFAULT_255_1_388
10
6.9527973
20
21.491328
40
0.2823461
50
353.0941646
51
0.1174696
0
ARC
8
DEFAULT_255_1_388
10
6.9009531
20
21.4966874
40
0.3342238
50
359.1804452
51
15.0452323
0
ARC
8
DEFAULT_255_1_388
10
7.0523589
20
21.5408546
40
0.1765747
50
13.957816
51
77.6713812
0
ARC
8
DEFAULT_255_1_388
10
7.0088825
20
21.3850464
40
0.3381982
50
76.111571
51
90.7028736
0
ARC
8
DEFAULT_255_1_388
10
7.0022237
20
21.415825
40
0.3074046
50
89.5321574
51
103.5319393
0
ARC
8
DEFAULT_255_1_388
10
6.9796621
20
21.5057443
40
0.2147041
50
103.2930114
51
133.5619756
0
ARC
8
DEFAULT_255_1_388
10
6.9746563
20
21.5124351
40
0.2064084
50
133.8349761
51
173.5343225
0
ARC
8
DEFAULT_255_1_388
10
7.056022
20
21.4980144
40
0.2889266
50
172.5097183
51
180.1360699
0
ARC
8
DEFAULT_255_1_388
10
6.9489984
20
21.501888
40
0.3490913
50
155.3483706
51
180.7484035
0
ARC
8
DEFAULT_255_1_388
10
6.943496
20
21.4986519
40
0.3454798
50
131.5745177
51
154.4799474
0
ARC
8
DEFAULT_255_1_388
10
6.9787242
20
21.4630422
40
0.3955058
50
96.9874487
51
131.9690874
0
ARC
8
DEFAULT_255_1_388
10
7.0034135
20
21.3229407
40
0.537622
50
89.8592909
51
97.7827481
0
ARC
8
DEFAULT_255_1_388
10
7.0088244
20
21.293436
40
0.5671399
50
78.3654493
51
90.4132586
0
ARC
8
DEFAULT_255_1_388
10
7.0490885
20
21.4800918
40
0.3762034
50
56.6229818
51
78.6387103
0
ARC
8
DEFAULT_255_1_388
10
7.0732714
20
21.5223846
40
0.3275964
50
47.0254604
51
56.085558
0
ARC
8
DEFAULT_255_1_388
10
7.0754965
20
21.5268189
40
0.3228382
50
10.9207523
51
46.777927
0
ARC
8
DEFAULT_255_1_388
10
6.9220559
20
21.4913401
40
0.4802559
50
359.6364235
51
11.6087615
0
ARC
8
DEFAULT_255_1_388
10
7.1284725
20
21.4896404
40
0.273833
50
332.3549969
51
359.7179765
0
ARC
8
DEFAULT_255_1_388
10
7.0553125
20
21.5243285
40
0.3547505
50
325.2332381
51
332.8746682
0
ARC
8
DEFAULT_255_1_388
10
7.0724708
20
21.5123763
40
0.3338396
50
292.9803892
51
325.2391113
0
ARC
8
DEFAULT_255_1_388
10
7.0413904
20
21.5728679
40
0.4016959
50
292.542178
51
293.6931461
0
ARC
8
DEFAULT_255_1_388
10
7.0857476
20
20.8463036
40
0.372079
50
57.643292
51
72.8626085
0
ARC
8
DEFAULT_255_1_388
10
7.1256311
20
20.9109273
40
0.2961455
50
36.7246661
51
57.4701329
0
ARC
8
DEFAULT_255_1_388
10
7.1243467
20
20.912347
40
0.2963321
50
8.054535
51
36.3561529
0
ARC
8
DEFAULT_255_1_388
10
7.027314
20
20.8949073
40
0.3948682
50
359.8316595
51
8.5873361
0
ARC
8
DEFAULT_255_1_388
10
6.9850614
20
20.889497
40
0.4371398
50
343.9831631
51
0.557075
0
ARC
8
DEFAULT_255_1_388
10
7.0847664
20
20.8621963
40
0.3337749
50
311.6358204
51
343.7652116
0
ARC
8
DEFAULT_255_1_388
10
7.0421917
20
20.9101955
40
0.3979351
50
279.7829743
51
311.625622
0
ARC
8
DEFAULT_255_1_388
10
7.0083053
20
21.0718642
40
0.5630417
50
269.7285092
51
280.3857694
0
ARC
8
DEFAULT_255_1_388
10
7.0013366
20
21.0672241
40
0.5584119
50
256.6827433
51
270.4412869
0
ARC
8
DEFAULT_255_1_388
10
6.9632352
20
20.9114698
40
0.3980715
50
229.4223821
51
256.8554507
0
ARC
8
DEFAULT_255_1_388
10
6.9165905
20
20.8589683
40
0.3278564
50
181.8183354
51
229.6455015
0
ARC
8
DEFAULT_255_1_388
10
7.0335515
20
20.8736825
40
0.4453611
50
179.9760419
51
183.2330638
0
ARC
8
DEFAULT_255_1_388
10
7.0142067
20
20.8713781
40
0.2579652
50
179.4467996
51
196.2871626
0
ARC
8
DEFAULT_255_1_388
10
6.9593521
20
20.8563709
40
0.2011057
50
196.5661293
51
227.7059371
0
ARC
8
DEFAULT_255_1_388
10
6.9778128
20
20.8770155
40
0.2287994
50
227.7653015
51
257.8763321
0
ARC
8
DEFAULT_255_1_388
10
7.0031211
20
20.9830961
40
0.3378385
50
257.4583525
51
270.4267406
0
ARC
8
DEFAULT_255_1_388
10
7.0082461
20
21.015723
40
0.3704652
50
269.5965319
51
280.8788143
0
ARC
8
DEFAULT_255_1_388
10
7.0340689
20
20.8867529
40
0.2389415
50
280.6347277
51
299.8594068
0
ARC
8
DEFAULT_255_1_388
10
7.0555459
20
20.8459736
40
0.19289
50
300.3575552
51
314.5515667
0
ARC
8
DEFAULT_255_1_388
10
7.0462134
20
20.8528025
40
0.204312
50
315.0730962
51
345.0429362
0
ARC
8
DEFAULT_255_1_388
10
6.9423642
20
20.8830539
40
0.31246
50
344.598526
51
357.9270698
0
ARC
8
DEFAULT_255_1_388
10
6.8413947
20
20.8899705
40
0.4136265
50
357.4755098
51
0.0224936
0
ARC
8
DEFAULT_255_1_388
10
6.9566824
20
20.8927099
40
0.2983498
50
359.5051035
51
13.4236939
0
ARC
8
DEFAULT_255_1_388
10
7.0541914
20
20.9176637
40
0.1977186
50
12.9497905
51
48.7550905
0
ARC
8
DEFAULT_255_1_388
10
7.0336836
20
20.8896373
40
0.2323321
50
49.509109
51
72.1832965
0
ARC
8
DEFAULT_255_1_388
10
6.9934304
20
20.7701632
40
0.358397
50
71.9008458
51
84.3555134
0
ARC
8
DEFAULT_255_1_388
10
6.9752699
20
20.6169712
40
0.512641
50
84.019632
51
89.3326067
0
LINE
8
DEFAULT_255_1_388
10
8.016726
20
21.1539737
11
8.016726
21
21.0175355
0
LINE
8
DEFAULT_255_1_388
10
8.016726
20
21.0175355
11
7.5757865
21
21.0175355
0
LINE
8
DEFAULT_255_1_388
10
7.5757865
20
21.0175355
11
7.5757865
21
21.1539737
0
LINE
8
DEFAULT_255_1_388
10
7.5757865
20
21.1539737
11
8.016726
21
21.1539737
0
LINE
8
DEFAULT_255_1_388
10
4.787532
20
28.8818468
11
4.9619199
21
28.8818468
0
LINE
8
DEFAULT_255_1_388
10
3.9490242
20
29.0607525
11
3.9490242
21
29.1872516
0
LINE
8
DEFAULT_255_1_388
10
4.9619199
20
29.3571217
11
4.787532
21
29.3571217
0
LINE
8
DEFAULT_255_1_388
10
4.1234121
20
29.1827337
11
4.1234121
21
29.0553312
0
ARC
8
DEFAULT_255_1_388
10
4.3453433
20
28.9490329
40
0.6202263
50
340.1774904
51
353.7812217
0
ARC
8
DEFAULT_255_1_388
10
4.5221286
20
28.8831893
40
0.4315926
50
311.4560052
51
340.4420756
0
ARC
8
DEFAULT_255_1_388
10
4.5183826
20
28.8956665
40
0.4434573
50
282.4332229
51
310.7514507
0
ARC
8
DEFAULT_255_1_388
10
4.4689644
20
29.0998703
40
0.6535262
50
269.9358869
51
282.8096729
0
ARC
8
DEFAULT_255_1_388
10
4.4631583
20
29.2511329
40
0.8048043
50
269.9995752
51
270.3612856
0
ARC
8
DEFAULT_255_1_388
10
4.4572073
20
28.9712781
40
0.5249831
50
250.7885263
51
270.6488451
0
ARC
8
DEFAULT_255_1_388
10
4.4382898
20
28.8995853
40
0.4510942
50
219.3628377
51
250.0611024
0
ARC
8
DEFAULT_255_1_388
10
4.5315772
20
28.9788653
40
0.5735046
50
193.5480293
51
219.5755675
0
ARC
8
DEFAULT_255_1_388
10
4.7983981
20
29.048152
40
0.849146
50
181.1220183
51
193.8754971
0
ARC
8
DEFAULT_255_1_388
10
5.0307214
20
29.0605914
40
1.0816971
50
179.9914644
51
181.5398227
0
ARC
8
DEFAULT_255_1_388
10
4.8230525
20
29.1914586
40
0.8740384
50
169.5837606
51
180.275782
0
ARC
8
DEFAULT_255_1_388
10
4.6163873
20
29.2296439
40
0.6638751
50
155.0367033
51
169.6002779
0
ARC
8
DEFAULT_255_1_388
10
4.4886331
20
29.2912336
40
0.5220662
50
136.7831557
51
155.2472983
0
ARC
8
DEFAULT_255_1_388
10
4.4448122
20
29.3284577
40
0.4646502
50
121.7633063
51
136.4281161
0
ARC
8
DEFAULT_255_1_388
10
4.4599962
20
29.3004049
40
0.4964979
50
95.6460018
51
121.5489589
0
ARC
8
DEFAULT_255_1_388
10
4.4776936
20
29.1756704
40
0.6223912
50
89.9245727
51
96.1375919
0
ARC
8
DEFAULT_255_1_388
10
4.4833641
20
29.1890721
40
0.6090084
50
76.6779212
51
90.456405
0
ARC
8
DEFAULT_255_1_388
10
4.5276454
20
29.368006
40
0.42469
50
47.4858803
51
76.9287069
0
ARC
8
DEFAULT_255_1_388
10
4.5111068
20
29.3567623
40
0.4441778
50
16.5424081
51
46.8934505
0
ARC
8
DEFAULT_255_1_388
10
4.3302118
20
29.2973265
40
0.6345318
50
5.4072971
51
17.0363711
0
ARC
8
DEFAULT_255_1_388
10
4.1683843
20
29.2713304
40
0.6250632
50
7.8888693
51
15.9242022
0
ARC
8
DEFAULT_255_1_388
10
4.3918828
20
29.3362309
40
0.3923364
50
15.7650676
51
27.9410069
0
ARC
8
DEFAULT_255_1_388
10
4.5160997
20
29.4027317
40
0.2514401
50
27.8167196
51
46.4007942
0
ARC
8
DEFAULT_255_1_388
10
4.5216839
20
29.4020882
40
0.2480958
50
47.4372362
51
75.0695672
0
ARC
8
DEFAULT_255_1_388
10
4.4869675
20
29.2812277
40
0.3738281
50
74.7009379
51
87.8124314
0
ARC
8
DEFAULT_255_1_388
10
4.4787292
20
29.1628659
40
0.4924321
50
87.3802571
51
90.0251599
0
ARC
8
DEFAULT_255_1_388
10
4.4743939
20
29.2948997
40
0.3604218
50
89.3451886
51
108.5744412
0
ARC
8
DEFAULT_255_1_388
10
4.4589931
20
29.3526836
40
0.3007661
50
109.2998307
51
143.3037387
0
ARC
8
DEFAULT_255_1_388
10
4.5447221
20
29.2867584
40
0.4089031
50
143.075267
51
163.1918576
0
ARC
8
DEFAULT_255_1_388
10
4.7643055
20
29.2174652
40
0.6391492
50
162.9375929
51
174.6208776
0
ARC
8
DEFAULT_255_1_388
10
5.0597437
20
29.1850711
40
0.9363344
50
174.342123
51
180.1430283
0
ARC
8
DEFAULT_255_1_388
10
4.9549978
20
29.0507117
40
0.8315986
50
179.6817261
51
189.150555
0
ARC
8
DEFAULT_255_1_388
10
4.6736727
20
29.0038559
40
0.5464044
50
188.9911061
51
203.5772363
0
ARC
8
DEFAULT_255_1_388
10
4.5522019
20
28.9534539
40
0.4149206
50
203.9075402
51
215.1312435
0
ARC
8
DEFAULT_255_1_388
10
4.4483817
20
28.8729907
40
0.2837747
50
213.9071511
51
263.8848919
0
ARC
8
DEFAULT_255_1_388
10
4.462481
20
28.9612519
40
0.3730641
50
263.1757928
51
270.1031044
0
ARC
8
DEFAULT_255_1_388
10
4.466089
20
29.1015511
40
0.5133712
50
269.6722503
51
279.0606936
0
ARC
8
DEFAULT_255_1_388
10
4.4961045
20
28.920115
40
0.3294739
50
278.8749101
51
293.6349581
0
ARC
8
DEFAULT_255_1_388
10
4.5321249
20
28.8355251
40
0.2375405
50
293.8553806
51
310.0518171
0
ARC
8
DEFAULT_255_1_388
10
4.5326758
20
28.8285021
40
0.2318463
50
311.0644687
51
332.0111037
0
ARC
8
DEFAULT_255_1_388
10
4.3985431
20
28.9024702
40
0.3850112
50
331.6586806
51
343.2877423
0
ARC
8
DEFAULT_255_1_388
10
4.1664896
20
28.9737806
40
0.6277712
50
343.1446576
51
351.0103568
0
ARC
8
DEFAULT_255_1_388
10
4.003222
20
29.0037873
40
0.7937327
50
350.71248
51
351.1626997
0
LINE
8
DEFAULT_255_1_388
10
6.2097424
20
29.7799898
11
6.2097424
21
28.4644
0
LINE
8
DEFAULT_255_1_388
10
6.2097424
20
28.4644
11
6.0353545
21
28.4644
0
LINE
8
DEFAULT_255_1_388
10
6.0353545
20
28.4644
11
6.0353545
21
29.0724989
0
LINE
8
DEFAULT_255_1_388
10
6.0353545
20
29.0724989
11
5.3721382
21
29.0724989
0
LINE
8
DEFAULT_255_1_388
10
5.3721382
20
29.0724989
11
5.3721382
21
28.4644
0
LINE
8
DEFAULT_255_1_388
10
5.3721382
20
28.4644
11
5.1986538
21
28.4644
0
LINE
8
DEFAULT_255_1_388
10
5.1986538
20
28.4644
11
5.1986538
21
29.7799898
0
LINE
8
DEFAULT_255_1_388
10
5.1986538
20
29.7799898
11
5.3721382
21
29.7799898
0
LINE
8
DEFAULT_255_1_388
10
5.3721382
20
29.7799898
11
5.3721382
21
29.2143585
0
LINE
8
DEFAULT_255_1_388
10
5.3721382
20
29.2143585
11
6.0353545
21
29.2143585
0
LINE
8
DEFAULT_255_1_388
10
6.0353545
20
29.2143585
11
6.0353545
21
29.7799898
0
LINE
8
DEFAULT_255_1_388
10
6.0353545
20
29.7799898
11
6.2097424
21
29.7799898
0
LINE
8
DEFAULT_255_1_388
10
6.7175457
20
29.0670775
11
6.7175457
21
29.2035157
0
LINE
8
DEFAULT_255_1_388
10
6.7175457
20
29.2035157
11
6.8431411
21
29.2035157
0
LINE
8
DEFAULT_255_1_388
10
6.6289963
20
29.4348282
11
6.4618369
21
29.4348282
0
LINE
8
DEFAULT_255_1_388
10
6.4500906
20
28.8113687
11
6.6181536
21
28.8113687
0
LINE
8
DEFAULT_255_1_388
10
6.8431411
20
29.0670775
11
6.7175457
21
29.0670775
0
ARC
8
DEFAULT_255_1_388
10
6.8398638
20
29.5851922
40
0.3816905
50
270.491971
51
281.8953028
0
ARC
8
DEFAULT_255_1_388
10
6.8670065
20
29.4612199
40
0.2547877
50
281.6690378
51
301.2943765
0
ARC
8
DEFAULT_255_1_388
10
6.8861516
20
29.4261926
40
0.2149197
50
301.7834992
51
311.754567
0
ARC
8
DEFAULT_255_1_388
10
6.8964557
20
29.414765
40
0.1995326
50
311.7325027
51
354.2803031
0
ARC
8
DEFAULT_255_1_388
10
6.8146973
20
29.428828
40
0.2823461
50
353.0941646
51
0.1174696
0
ARC
8
DEFAULT_255_1_388
10
6.7628531
20
29.4341874
40
0.3342238
50
359.1804452
51
15.0452323
0
ARC
8
DEFAULT_255_1_388
10
6.9142589
20
29.4783546
40
0.1765747
50
13.957816
51
77.6713812
0
ARC
8
DEFAULT_255_1_388
10
6.8707825
20
29.3225464
40
0.3381982
50
76.111571
51
90.7028736
0
ARC
8
DEFAULT_255_1_388
10
6.8641237
20
29.353325
40
0.3074046
50
89.5321574
51
103.5319393
0
ARC
8
DEFAULT_255_1_388
10
6.8415621
20
29.4432443
40
0.2147041
50
103.2930114
51
133.5619756
0
ARC
8
DEFAULT_255_1_388
10
6.8365563
20
29.4499351
40
0.2064084
50
133.8349761
51
173.5343225
0
ARC
8
DEFAULT_255_1_388
10
6.917922
20
29.4355144
40
0.2889266
50
172.5097183
51
180.1360699
0
ARC
8
DEFAULT_255_1_388
10
6.8108984
20
29.439388
40
0.3490913
50
155.3483706
51
180.7484035
0
ARC
8
DEFAULT_255_1_388
10
6.805396
20
29.4361519
40
0.3454798
50
131.5745177
51
154.4799474
0
ARC
8
DEFAULT_255_1_388
10
6.8406242
20
29.4005422
40
0.3955058
50
96.9874487
51
131.9690874
0
ARC
8
DEFAULT_255_1_388
10
6.8653135
20
29.2604407
40
0.537622
50
89.8592909
51
97.7827481
0
ARC
8
DEFAULT_255_1_388
10
6.8707244
20
29.230936
40
0.5671399
50
78.3654493
51
90.4132586
0
ARC
8
DEFAULT_255_1_388
10
6.9109885
20
29.4175918
40
0.3762034
50
56.6229818
51
78.6387103
0
ARC
8
DEFAULT_255_1_388
10
6.9351714
20
29.4598846
40
0.3275964
50
47.0254604
51
56.085558
0
ARC
8
DEFAULT_255_1_388
10
6.9373965
20
29.4643189
40
0.3228382
50
10.9207523
51
46.777927
0
ARC
8
DEFAULT_255_1_388
10
6.7839559
20
29.4288401
40
0.4802559
50
359.6364235
51
11.6087615
0
ARC
8
DEFAULT_255_1_388
10
6.9903725
20
29.4271404
40
0.273833
50
332.3549969
51
359.7179765
0
ARC
8
DEFAULT_255_1_388
10
6.9172125
20
29.4618285
40
0.3547505
50
325.2332381
51
332.8746682
0
ARC
8
DEFAULT_255_1_388
10
6.9343708
20
29.4498763
40
0.3338396
50
292.9803892
51
325.2391113
0
ARC
8
DEFAULT_255_1_388
10
6.9032904
20
29.5103679
40
0.4016959
50
292.542178
51
293.6931461
0
ARC
8
DEFAULT_255_1_388
10
6.9476476
20
28.7838036
40
0.372079
50
57.643292
51
72.8626085
0
ARC
8
DEFAULT_255_1_388
10
6.9875311
20
28.8484273
40
0.2961455
50
36.7246661
51
57.4701329
0
ARC
8
DEFAULT_255_1_388
10
6.9862467
20
28.849847
40
0.2963321
50
8.054535
51
36.3561529
0
ARC
8
DEFAULT_255_1_388
10
6.889214
20
28.8324073
40
0.3948682
50
359.8316595
51
8.5873361
0
ARC
8
DEFAULT_255_1_388
10
6.8469614
20
28.826997
40
0.4371398
50
343.9831631
51
0.557075
0
ARC
8
DEFAULT_255_1_388
10
6.9466664
20
28.7996963
40
0.3337749
50
311.6358204
51
343.7652116
0
ARC
8
DEFAULT_255_1_388
10
6.9040917
20
28.8476955
40
0.3979351
50
279.7829743
51
311.625622
0
ARC
8
DEFAULT_255_1_388
10
6.8702053
20
29.0093642
40
0.5630417
50
269.7285092
51
280.3857694
0
ARC
8
DEFAULT_255_1_388
10
6.8632366
20
29.0047241
40
0.5584119
50
256.6827433
51
270.4412869
0
ARC
8
DEFAULT_255_1_388
10
6.8251352
20
28.8489698
40
0.3980715
50
229.4223821
51
256.8554507
0
ARC
8
DEFAULT_255_1_388
10
6.7784905
20
28.7964683
40
0.3278564
50
181.8183354
51
229.6455015
0
ARC
8
DEFAULT_255_1_388
10
6.8954515
20
28.8111825
40
0.4453611
50
179.9760419
51
183.2330638
0
ARC
8
DEFAULT_255_1_388
10
6.8761067
20
28.8088781
40
0.2579652
50
179.4467996
51
196.2871626
0
ARC
8
DEFAULT_255_1_388
10
6.8212521
20
28.7938709
40
0.2011057
50
196.5661293
51
227.7059371
0
ARC
8
DEFAULT_255_1_388
10
6.8397128
20
28.8145155
40
0.2287994
50
227.7653015
51
257.8763321
0
ARC
8
DEFAULT_255_1_388
10
6.8650211
20
28.9205961
40
0.3378385
50
257.4583525
51
270.4267406
0
ARC
8
DEFAULT_255_1_388
10
6.8701461
20
28.953223
40
0.3704652
50
269.5965319
51
280.8788143
0
ARC
8
DEFAULT_255_1_388
10
6.8959689
20
28.8242529
40
0.2389415
50
280.6347277
51
299.8594068
0
ARC
8
DEFAULT_255_1_388
10
6.9174459
20
28.7834736
40
0.19289
50
300.3575552
51
314.5515667
0
ARC
8
DEFAULT_255_1_388
10
6.9081134
20
28.7903025
40
0.204312
50
315.0730962
51
345.0429362
0
ARC
8
DEFAULT_255_1_388
10
6.8042642
20
28.8205539
40
0.31246
50
344.598526
51
357.9270698
0
ARC
8
DEFAULT_255_1_388
10
6.7032947
20
28.8274705
40
0.4136265
50
357.4755098
51
0.0224936
0
ARC
8
DEFAULT_255_1_388
10
6.8185824
20
28.8302099
40
0.2983498
50
359.5051035
51
13.4236939
0
ARC
8
DEFAULT_255_1_388
10
6.9160914
20
28.8551637
40
0.1977186
50
12.9497905
51
48.7550905
0
ARC
8
DEFAULT_255_1_388
10
6.8955836
20
28.8271373
40
0.2323321
50
49.509109
51
72.1832965
0
ARC
8
DEFAULT_255_1_388
10
6.8553304
20
28.7076632
40
0.358397
50
71.9008458
51
84.3555134
0
ARC
8
DEFAULT_255_1_388
10
6.8371699
20
28.5544712
40
0.512641
50
84.019632
51
89.3326067
0
LINE
8
DEFAULT_255_1_388
10
8.0096428
20
29.5540987
11
8.0096428
21
29.1700838
0
LINE
8
DEFAULT_255_1_388
10
8.0096428
20
29.1700838
11
8.37649
21
29.1700838
0
LINE
8
DEFAULT_255_1_388
10
8.37649
20
29.1700838
11
8.37649
21
29.0119601
0
LINE
8
DEFAULT_255_1_388
10
8.37649
20
29.0119601
11
8.0096428
21
29.0119601
0
LINE
8
DEFAULT_255_1_388
10
8.0096428
20
29.0119601
11
8.0096428
21
28.5963204
0
LINE
8
DEFAULT_255_1_388
10
8.0096428
20
28.5963204
11
7.8415798
21
28.5963204
0
LINE
8
DEFAULT_255_1_388
10
7.8415798
20
28.5963204
11
7.8415798
21
29.0119601
0
LINE
8
DEFAULT_255_1_388
10
7.8415798
20
29.0119601
11
7.4747327
21
29.0119601
0
LINE
8
DEFAULT_255_1_388
10
7.4747327
20
29.0119601
11
7.4747327
21
29.1700838
0
LINE
8
DEFAULT_255_1_388
10
7.4747327
20
29.1700838
11
7.8415798
21
29.1700838
0
LINE
8
DEFAULT_255_1_388
10
7.8415798
20
29.1700838
11
7.8415798
21
29.5540987
0
LINE
8
DEFAULT_255_1_388
10
7.8415798
20
29.5540987
11
8.0096428
21
29.5540987
0
LINE
8
DEFAULT_255_1_388
10
4.925632
20
36.8193468
11
5.1000199
21
36.8193468
0
LINE
8
DEFAULT_255_1_388
10
4.0871242
20
36.9982525
11
4.0871242
21
37.1247516
0
LINE
8
DEFAULT_255_1_388
10
5.1000199
20
37.2946217
11
4.925632
21
37.2946217
0
LINE
8
DEFAULT_255_1_388
10
4.2615121
20
37.1202337
11
4.2615121
21
36.9928312
0
ARC
8
DEFAULT_255_1_388
10
4.4834433
20
36.8865329
40
0.6202263
50
340.1774904
51
353.7812217
0
ARC
8
DEFAULT_255_1_388
10
4.6602286
20
36.8206893
40
0.4315926
50
311.4560052
51
340.4420756
0
ARC
8
DEFAULT_255_1_388
10
4.6564826
20
36.8331665
40
0.4434573
50
282.4332229
51
310.7514507
0
ARC
8
DEFAULT_255_1_388
10
4.6070644
20
37.0373703
40
0.6535262
50
269.9358869
51
282.8096729
0
ARC
8
DEFAULT_255_1_388
10
4.6012583
20
37.1886329
40
0.8048043
50
269.9995752
51
270.3612856
0
ARC
8
DEFAULT_255_1_388
10
4.5953073
20
36.9087781
40
0.5249831
50
250.7885263
51
270.6488451
0
ARC
8
DEFAULT_255_1_388
10
4.5763898
20
36.8370853
40
0.4510942
50
219.3628377
51
250.0611024
0
ARC
8
DEFAULT_255_1_388
10
4.6696772
20
36.9163653
40
0.5735046
50
193.5480293
51
219.5755675
0
ARC
8
DEFAULT_255_1_388
10
4.9364981
20
36.985652
40
0.849146
50
181.1220183
51
193.8754971
0
ARC
8
DEFAULT_255_1_388
10
5.1688214
20
36.9980914
40
1.0816971
50
179.9914644
51
181.5398227
0
ARC
8
DEFAULT_255_1_388
10
4.9611525
20
37.1289586
40
0.8740384
50
169.5837606
51
180.275782
0
ARC
8
DEFAULT_255_1_388
10
4.7544873
20
37.1671439
40
0.6638751
50
155.0367033
51
169.6002779
0
ARC
8
DEFAULT_255_1_388
10
4.6267331
20
37.2287336
40
0.5220662
50
136.7831557
51
155.2472983
0
ARC
8
DEFAULT_255_1_388
10
4.5829122
20
37.2659577
40
0.4646502
50
121.7633063
51
136.4281161
0
ARC
8
DEFAULT_255_1_388
10
4.5980962
20
37.2379049
40
0.4964979
50
95.6460018
51
121.5489589
0
ARC
8
DEFAULT_255_1_388
10
4.6157936
20
37.1131704
40
0.6223912
50
89.9245727
51
96.1375919
0
ARC
8
DEFAULT_255_1_388
10
4.6214641
20
37.1265721
40
0.6090084
50
76.6779212
51
90.456405
0
ARC
8
DEFAULT_255_1_388
10
4.6657454
20
37.305506
40
0.42469
50
47.4858803
51
76.9287069
0
ARC
8
DEFAULT_255_1_388
10
4.6492068
20
37.2942623
40
0.4441778
50
16.5424081
51
46.8934505
0
ARC
8
DEFAULT_255_1_388
10
4.4683118
20
37.2348265
40
0.6345318
50
5.4072971
51
17.0363711
0
ARC
8
DEFAULT_255_1_388
10
4.3064843
20
37.2088304
40
0.6250632
50
7.8888693
51
15.9242022
0
ARC
8
DEFAULT_255_1_388
10
4.5299828
20
37.2737309
40
0.3923364
50
15.7650676
51
27.9410069
0
ARC
8
DEFAULT_255_1_388
10
4.6541997
20
37.3402317
40
0.2514401
50
27.8167196
51
46.4007942
0
ARC
8
DEFAULT_255_1_388
10
4.6597839
20
37.3395882
40
0.2480958
50
47.4372362
51
75.0695672
0
ARC
8
DEFAULT_255_1_388
10
4.6250675
20
37.2187277
40
0.3738281
50
74.7009379
51
87.8124314
0
ARC
8
DEFAULT_255_1_388
10
4.6168292
20
37.1003659
40
0.4924321
50
87.3802571
51
90.0251599
0
ARC
8
DEFAULT_255_1_388
10
4.6124939
20
37.2323997
40
0.3604218
50
89.3451886
51
108.5744412
0
ARC
8
DEFAULT_255_1_388
10
4.5970931
20
37.2901836
40
0.3007661
50
109.2998307
51
143.3037387
0
ARC
8
DEFAULT_255_1_388
10
4.6828221
20
37.2242584
40
0.4089031
50
143.075267
51
163.1918576
0
ARC
8
DEFAULT_255_1_388
10
4.9024055
20
37.1549652
40
0.6391492
50
162.9375929
51
174.6208776
0
ARC
8
DEFAULT_255_1_388
10
5.1978437
20
37.1225711
40
0.9363344
50
174.342123
51
180.1430283
0
ARC
8
DEFAULT_255_1_388
10
5.0930978
20
36.9882117
40
0.8315986
50
179.6817261
51
189.150555
0
ARC
8
DEFAULT_255_1_388
10
4.8117727
20
36.9413559
40
0.5464044
50
188.9911061
51
203.5772363
0
ARC
8
DEFAULT_255_1_388
10
4.6903019
20
36.8909539
40
0.4149206
50
203.9075402
51
215.1312435
0
ARC
8
DEFAULT_255_1_388
10
4.5864817
20
36.8104907
40
0.2837747
50
213.9071511
51
263.8848919
0
ARC
8
DEFAULT_255_1_388
10
4.600581
20
36.8987519
40
0.3730641
50
263.1757928
51
270.1031044
0
ARC
8
DEFAULT_255_1_388
10
4.604189
20
37.0390511
40
0.5133712
50
269.6722503
51
279.0606936
0
ARC
8
DEFAULT_255_1_388
10
4.6342045
20
36.857615
40
0.3294739
50
278.8749101
51
293.6349581
0
ARC
8
DEFAULT_255_1_388
10
4.6702249
20
36.7730251
40
0.2375405
50
293.8553806
51
310.0518171
0
ARC
8
DEFAULT_255_1_388
10
4.6707758
20
36.7660021
40
0.2318463
50
311.0644687
51
332.0111037
0
ARC
8
DEFAULT_255_1_388
10
4.5366431
20
36.8399702
40
0.3850112
50
331.6586806
51
343.2877423
0
ARC
8
DEFAULT_255_1_388
10
4.3045896
20
36.9112806
40
0.6277712
50
343.1446576
51
351.0103568
0
ARC
8
DEFAULT_255_1_388
10
4.141322
20
36.9412873
40
0.7937327
50
350.71248
51
351.1626997
0
LINE
8
DEFAULT_255_1_388
10
6.3478424
20
37.7174898
11
6.3478424
21
36.4019
0
LINE
8
DEFAULT_255_1_388
10
6.3478424
20
36.4019
11
6.1734545
21
36.4019
0
LINE
8
DEFAULT_255_1_388
10
6.1734545
20
36.4019
11
6.1734545
21
37.0099989
0
LINE
8
DEFAULT_255_1_388
10
6.1734545
20
37.0099989
11
5.5102382
21
37.0099989
0
LINE
8
DEFAULT_255_1_388
10
5.5102382
20
37.0099989
11
5.5102382
21
36.4019
0
LINE
8
DEFAULT_255_1_388
10
5.5102382
20
36.4019
11
5.3367538
21
36.4019
0
LINE
8
DEFAULT_255_1_388
10
5.3367538
20
36.4019
11
5.3367538
21
37.7174898
0
LINE
8
DEFAULT_255_1_388
10
5.3367538
20
37.7174898
11
5.5102382
21
37.7174898
0
LINE
8
DEFAULT_255_1_388
10
5.5102382
20
37.7174898
11
5.5102382
21
37.1518585
0
LINE
8
DEFAULT_255_1_388
10
5.5102382
20
37.1518585
11
6.1734545
21
37.1518585
0
LINE
8
DEFAULT_255_1_388
10
6.1734545
20
37.1518585
11
6.1734545
21
37.7174898
0
LINE
8
DEFAULT_255_1_388
10
6.1734545
20
37.7174898
11
6.3478424
21
37.7174898
0
LINE
8
DEFAULT_255_1_388
10
7.4745873
20
36.5383382
11
7.4745873
21
36.4019
0
LINE
8
DEFAULT_255_1_388
10
7.4745873
20
36.4019
11
6.6125868
21
36.4019
0
LINE
8
DEFAULT_255_1_388
10
6.6125868
20
36.4019
11
6.6125868
21
36.5220741
0
LINE
8
DEFAULT_255_1_388
10
6.6125868
20
36.5220741
11
7.0679833
21
37.0280702
0
LINE
8
DEFAULT_255_1_388
10
6.7544464
20
37.3298607
11
6.587287
21
37.3298607
0
LINE
8
DEFAULT_255_1_388
10
7.1664718
20
36.920546
11
6.8140817
21
36.5383382
0
LINE
8
DEFAULT_255_1_388
10
6.8140817
20
36.5383382
11
7.4745873
21
36.5383382
0
ARC
8
DEFAULT_255_1_388
10
5.5503893
20
38.3700983
40
2.0258655
50
318.5132526
51
320.7829045
0
ARC
8
DEFAULT_255_1_388
10
6.1451849
20
37.8859929
40
1.2589638
50
320.7372878
51
323.9739031
0
ARC
8
DEFAULT_255_1_388
10
6.5860781
20
37.5665554
40
0.7145141
50
323.8962701
51
328.64194
0
ARC
8
DEFAULT_255_1_388
10
6.8163039
20
37.4245545
40
0.4440242
50
328.8294576
51
331.7891185
0
ARC
8
DEFAULT_255_1_388
10
6.9285359
20
37.3666374
40
0.3177517
50
331.4254512
51
352.9365785
0
ARC
8
DEFAULT_255_1_388
10
6.9438359
20
37.363205
40
0.3021496
50
353.2257659
51
0.0166158
0
ARC
8
DEFAULT_255_1_388
10
6.9675119
20
37.3657894
40
0.2784847
50
359.486299
51
15.9343185
0
ARC
8
DEFAULT_255_1_388
10
7.0245386
20
37.3811269
40
0.2194403
50
16.1712913
51
43.5286088
0
ARC
8
DEFAULT_255_1_388
10
7.0332331
20
37.3898191
40
0.2071504
50
43.4417391
51
83.1661095
0
ARC
8
DEFAULT_255_1_388
10
7.0181492
20
37.3069316
40
0.2912888
50
82.160179
51
90.1505708
0
ARC
8
DEFAULT_255_1_388
10
7.0145974
20
37.2465279
40
0.3517025
50
89.5460741
51
102.5418361
0
ARC
8
DEFAULT_255_1_388
10
6.9872694
20
37.3624933
40
0.2325748
50
102.1738499
51
129.206123
0
ARC
8
DEFAULT_255_1_388
10
6.9784147
20
37.3764664
40
0.2161591
50
129.72865
51
135.753947
0
ARC
8
DEFAULT_255_1_388
10
6.9920629
20
37.3655728
40
0.2335433
50
136.1757367
51
166.3673339
0
ARC
8
DEFAULT_255_1_388
10
7.1053317
20
37.3352148
40
0.3507873
50
165.9090694
51
178.8684636
0
ARC
8
DEFAULT_255_1_388
10
7.2029089
20
37.3299263
40
0.4484624
50
178.4391136
51
180.0083808
0
ARC
8
DEFAULT_255_1_388
10
7.044979
20
37.3343197
40
0.4577138
50
163.2878482
51
180.5581842
0
ARC
8
DEFAULT_255_1_388
10
6.9547832
20
37.3591393
40
0.3641968
50
133.4540601
51
162.947111
0
ARC
8
DEFAULT_255_1_388
10
6.9748713
20
37.3377789
40
0.3935189
50
100.7869829
51
133.4382499
0
ARC
8
DEFAULT_255_1_388
10
7.0139958
20
37.1635399
40
0.5720313
50
89.660664
51
101.3702276
0
ARC
8
DEFAULT_255_1_388
10
7.0214567
20
37.1704263
40
0.5651495
50
78.2172678
51
90.412935
0
ARC
8
DEFAULT_255_1_388
10
7.0614033
20
37.3531511
40
0.378122
50
55.9269121
51
78.4888449
0
ARC
8
DEFAULT_255_1_388
10
7.0834748
20
37.3912187
40
0.3342379
50
47.929771
51
55.4049217
0
ARC
8
DEFAULT_255_1_388
10
7.0949279
20
37.4028618
40
0.3179217
50
4.334829
51
48.0560205
0
ARC
8
DEFAULT_255_1_388
10
6.971708
20
37.3837487
40
0.442341
50
359.9251713
51
5.5971671
0
ARC
8
DEFAULT_255_1_388
10
7.0199235
20
37.3900728
40
0.3941854
50
337.8914027
51
358.9967534
0
ARC
8
DEFAULT_255_1_388
10
6.7146805
20
37.5078295
40
0.7213271
50
326.9132501
51
338.3508308
0
ARC
8
DEFAULT_255_1_388
10
6.2662917
20
37.7952105
40
1.2538973
50
319.6471833
51
327.0959558
0
ARC
8
DEFAULT_255_1_388
10
5.8349575
20
38.151005
40
1.8129975
50
317.2588228
51
319.9045804
0
LINE
8
DEFAULT_255_1_388
10
8.016726
20
37.0289737
11
8.016726
21
36.8925355
0
LINE
8
DEFAULT_255_1_388
10
8.016726
20
36.8925355
11
7.5757865
21
36.8925355
0
LINE
8
DEFAULT_255_1_388
10
7.5757865
20
36.8925355
11
7.5757865
21
37.0289737
0
LINE
8
DEFAULT_255_1_388
10
7.5757865
20
37.0289737
11
8.016726
21
37.0289737
0
LINE
8
DEFAULT_255_1_388
10
4.787532
20
44.7568468
11
4.9619199
21
44.7568468
0
LINE
8
DEFAULT_255_1_388
10
3.9490242
20
44.9357525
11
3.9490242
21
45.0622516
0
LINE
8
DEFAULT_255_1_388
10
4.9619199
20
45.2321217
11
4.787532
21
45.2321217
0
LINE
8
DEFAULT_255_1_388
10
4.1234121
20
45.0577337
11
4.1234121
21
44.9303312
0
ARC
8
DEFAULT_255_1_388
10
4.3453433
20
44.8240329
40
0.6202263
50
340.1774904
51
353.7812217
0
ARC
8
DEFAULT_255_1_388
10
4.5221286
20
44.7581893
40
0.4315926
50
311.4560052
51
340.4420756
0
ARC
8
DEFAULT_255_1_388
10
4.5183826
20
44.7706665
40
0.4434573
50
282.4332229
51
310.7514507
0
ARC
8
DEFAULT_255_1_388
10
4.4689644
20
44.9748703
40
0.6535262
50
269.9358869
51
282.8096729
0
ARC
8
DEFAULT_255_1_388
10
4.4631583
20
45.1261329
40
0.8048043
50
269.9995752
51
270.3612856
0
ARC
8
DEFAULT_255_1_388
10
4.4572073
20
44.8462781
40
0.5249831
50
250.7885263
51
270.6488451
0
ARC
8
DEFAULT_255_1_388
10
4.4382898
20
44.7745853
40
0.4510942
50
219.3628377
51
250.0611024
0
ARC
8
DEFAULT_255_1_388
10
4.5315772
20
44.8538653
40
0.5735046
50
193.5480293
51
219.5755675
0
ARC
8
DEFAULT_255_1_388
10
4.7983981
20
44.923152
40
0.849146
50
181.1220183
51
193.8754971
0
ARC
8
DEFAULT_255_1_388
10
5.0307214
20
44.9355914
40
1.0816971
50
179.9914644
51
181.5398227
0
ARC
8
DEFAULT_255_1_388
10
4.8230525
20
45.0664586
40
0.8740384
50
169.5837606
51
180.275782
0
ARC
8
DEFAULT_255_1_388
10
4.6163873
20
45.1046439
40
0.6638751
50
155.0367033
51
169.6002779
0
ARC
8
DEFAULT_255_1_388
10
4.4886331
20
45.1662336
40
0.5220662
50
136.7831557
51
155.2472983
0
ARC
8
DEFAULT_255_1_388
10
4.4448122
20
45.2034577
40
0.4646502
50
121.7633063
51
136.4281161
0
ARC
8
DEFAULT_255_1_388
10
4.4599962
20
45.1754049
40
0.4964979
50
95.6460018
51
121.5489589
0
ARC
8
DEFAULT_255_1_388
10
4.4776936
20
45.0506704
40
0.6223912
50
89.9245727
51
96.1375919
0
ARC
8
DEFAULT_255_1_388
10
4.4833641
20
45.0640721
40
0.6090084
50
76.6779212
51
90.456405
0
ARC
8
DEFAULT_255_1_388
10
4.5276454
20
45.243006
40
0.42469
50
47.4858803
51
76.9287069
0
ARC
8
DEFAULT_255_1_388
10
4.5111068
20
45.2317623
40
0.4441778
50
16.5424081
51
46.8934505
0
ARC
8
DEFAULT_255_1_388
10
4.3302118
20
45.1723265
40
0.6345318
50
5.4072971
51
17.0363711
0
ARC
8
DEFAULT_255_1_388
10
4.1683843
20
45.1463304
40
0.6250632
50
7.8888693
51
15.9242022
0
ARC
8
DEFAULT_255_1_388
10
4.3918828
20
45.2112309
40
0.3923364
50
15.7650676
51
27.9410069
0
ARC
8
DEFAULT_255_1_388
10
4.5160997
20
45.2777317
40
0.2514401
50
27.8167196
51
46.4007942
0
ARC
8
DEFAULT_255_1_388
10
4.5216839
20
45.2770882
40
0.2480958
50
47.4372362
51
75.0695672
0
ARC
8
DEFAULT_255_1_388
10
4.4869675
20
45.1562277
40
0.3738281
50
74.7009379
51
87.8124314
0
ARC
8
DEFAULT_255_1_388
10
4.4787292
20
45.0378659
40
0.4924321
50
87.3802571
51
90.0251599
0
ARC
8
DEFAULT_255_1_388
10
4.4743939
20
45.1698997
40
0.3604218
50
89.3451886
51
108.5744412
0
ARC
8
DEFAULT_255_1_388
10
4.4589931
20
45.2276836
40
0.3007661
50
109.2998307
51
143.3037387
0
ARC
8
DEFAULT_255_1_388
10
4.5447221
20
45.1617584
40
0.4089031
50
143.075267
51
163.1918576
0
ARC
8
DEFAULT_255_1_388
10
4.7643055
20
45.0924652
40
0.6391492
50
162.9375929
51
174.6208776
0
ARC
8
DEFAULT_255_1_388
10
5.0597437
20
45.0600711
40
0.9363344
50
174.342123
51
180.1430283
0
ARC
8
DEFAULT_255_1_388
10
4.9549978
20
44.9257117
40
0.8315986
50
179.6817261
51
189.150555
0
ARC
8
DEFAULT_255_1_388
10
4.6736727
20
44.8788559
40
0.5464044
50
188.9911061
51
203.5772363
0
ARC
8
DEFAULT_255_1_388
10
4.5522019
20
44.8284539
40
0.4149206
50
203.9075402
51
215.1312435
0
ARC
8
DEFAULT_255_1_388
10
4.4483817
20
44.7479907
40
0.2837747
50
213.9071511
51
263.8848919
0
ARC
8
DEFAULT_255_1_388
10
4.462481
20
44.8362519
40
0.3730641
50
263.1757928
51
270.1031044
0
ARC
8
DEFAULT_255_1_388
10
4.466089
20
44.9765511
40
0.5133712
50
269.6722503
51
279.0606936
0
ARC
8
DEFAULT_255_1_388
10
4.4961045
20
44.795115
40
0.3294739
50
278.8749101
51
293.6349581
0
ARC
8
DEFAULT_255_1_388
10
4.5321249
20
44.7105251
40
0.2375405
50
293.8553806
51
310.0518171
0
ARC
8
DEFAULT_255_1_388
10
4.5326758
20
44.7035021
40
0.2318463
50
311.0644687
51
332.0111037
0
ARC
8
DEFAULT_255_1_388
10
4.3985431
20
44.7774702
40
0.3850112
50
331.6586806
51
343.2877423
0
ARC
8
DEFAULT_255_1_388
10
4.1664896
20
44.8487806
40
0.6277712
50
343.1446576
51
351.0103568
0
ARC
8
DEFAULT_255_1_388
10
4.003222
20
44.8787873
40
0.7937327
50
350.71248
51
351.1626997
0
LINE
8
DEFAULT_255_1_388
10
6.2097424
20
45.6549898
11
6.2097424
21
44.3394
0
LINE
8
DEFAULT_255_1_388
10
6.2097424
20
44.3394
11
6.0353545
21
44.3394
0
LINE
8
DEFAULT_255_1_388
10
6.0353545
20
44.3394
11
6.0353545
21
44.9474989
0
LINE
8
DEFAULT_255_1_388
10
6.0353545
20
44.9474989
11
5.3721382
21
44.9474989
0
LINE
8
DEFAULT_255_1_388
10
5.3721382
20
44.9474989
11
5.3721382
21
44.3394
0
LINE
8
DEFAULT_255_1_388
10
5.3721382
20
44.3394
11
5.1986538
21
44.3394
0
LINE
8
DEFAULT_255_1_388
10
5.1986538
20
44.3394
11
5.1986538
21
45.6549898
0
LINE
8
DEFAULT_255_1_388
10
5.1986538
20
45.6549898
11
5.3721382
21
45.6549898
0
LINE
8
DEFAULT_255_1_388
10
5.3721382
20
45.6549898
11
5.3721382
21
45.0893585
0
LINE
8
DEFAULT_255_1_388
10
5.3721382
20
45.0893585
11
6.0353545
21
45.0893585
0
LINE
8
DEFAULT_255_1_388
10
6.0353545
20
45.0893585
11
6.0353545
21
45.6549898
0
LINE
8
DEFAULT_255_1_388
10
6.0353545
20
45.6549898
11
6.2097424
21
45.6549898
0
LINE
8
DEFAULT_255_1_388
10
7.3364873
20
44.4758382
11
7.3364873
21
44.3394
0
LINE
8
DEFAULT_255_1_388
10
7.3364873
20
44.3394
11
6.4744868
21
44.3394
0
LINE
8
DEFAULT_255_1_388
10
6.4744868
20
44.3394
11
6.4744868
21
44.4595741
0
LINE
8
DEFAULT_255_1_388
10
6.4744868
20
44.4595741
11
6.9298833
21
44.9655702
0
LINE
8
DEFAULT_255_1_388
10
6.6163464
20
45.2673607
11
6.449187
21
45.2673607
0
LINE
8
DEFAULT_255_1_388
10
7.0283718
20
44.858046
11
6.6759817
21
44.4758382
0
LINE
8
DEFAULT_255_1_388
10
6.6759817
20
44.4758382
11
7.3364873
21
44.4758382
0
ARC
8
DEFAULT_255_1_388
10
5.4122893
20
46.3075983
40
2.0258655
50
318.5132526
51
320.7829045
0
ARC
8
DEFAULT_255_1_388
10
6.0070849
20
45.8234929
40
1.2589638
50
320.7372878
51
323.9739031
0
ARC
8
DEFAULT_255_1_388
10
6.4479781
20
45.5040554
40
0.7145141
50
323.8962701
51
328.64194
0
ARC
8
DEFAULT_255_1_388
10
6.6782039
20
45.3620545
40
0.4440242
50
328.8294576
51
331.7891185
0
ARC
8
DEFAULT_255_1_388
10
6.7904359
20
45.3041374
40
0.3177517
50
331.4254512
51
352.9365785
0
ARC
8
DEFAULT_255_1_388
10
6.8057359
20
45.300705
40
0.3021496
50
353.2257659
51
0.0166158
0
ARC
8
DEFAULT_255_1_388
10
6.8294119
20
45.3032894
40
0.2784847
50
359.486299
51
15.9343185
0
ARC
8
DEFAULT_255_1_388
10
6.8864386
20
45.3186269
40
0.2194403
50
16.1712913
51
43.5286088
0
ARC
8
DEFAULT_255_1_388
10
6.8951331
20
45.3273191
40
0.2071504
50
43.4417391
51
83.1661095
0
ARC
8
DEFAULT_255_1_388
10
6.8800492
20
45.2444316
40
0.2912888
50
82.160179
51
90.1505708
0
ARC
8
DEFAULT_255_1_388
10
6.8764974
20
45.1840279
40
0.3517025
50
89.5460741
51
102.5418361
0
ARC
8
DEFAULT_255_1_388
10
6.8491694
20
45.2999933
40
0.2325748
50
102.1738499
51
129.206123
0
ARC
8
DEFAULT_255_1_388
10
6.8403147
20
45.3139664
40
0.2161591
50
129.72865
51
135.753947
0
ARC
8
DEFAULT_255_1_388
10
6.8539629
20
45.3030728
40
0.2335433
50
136.1757367
51
166.3673339
0
ARC
8
DEFAULT_255_1_388
10
6.9672317
20
45.2727148
40
0.3507873
50
165.9090694
51
178.8684636
0
ARC
8
DEFAULT_255_1_388
10
7.0648089
20
45.2674263
40
0.4484624
50
178.4391136
51
180.0083808
0
ARC
8
DEFAULT_255_1_388
10
6.906879
20
45.2718197
40
0.4577138
50
163.2878482
51
180.5581842
0
ARC
8
DEFAULT_255_1_388
10
6.8166832
20
45.2966393
40
0.3641968
50
133.4540601
51
162.947111
0
ARC
8
DEFAULT_255_1_388
10
6.8367713
20
45.2752789
40
0.3935189
50
100.7869829
51
133.4382499
0
ARC
8
DEFAULT_255_1_388
10
6.8758958
20
45.1010399
40
0.5720313
50
89.660664
51
101.3702276
0
ARC
8
DEFAULT_255_1_388
10
6.8833567
20
45.1079263
40
0.5651495
50
78.2172678
51
90.412935
0
ARC
8
DEFAULT_255_1_388
10
6.9233033
20
45.2906511
40
0.378122
50
55.9269121
51
78.4888449
0
ARC
8
DEFAULT_255_1_388
10
6.9453748
20
45.3287187
40
0.3342379
50
47.929771
51
55.4049217
0
ARC
8
DEFAULT_255_1_388
10
6.9568279
20
45.3403618
40
0.3179217
50
4.334829
51
48.0560205
0
ARC
8
DEFAULT_255_1_388
10
6.833608
20
45.3212487
40
0.442341
50
359.9251713
51
5.5971671
0
ARC
8
DEFAULT_255_1_388
10
6.8818235
20
45.3275728
40
0.3941854
50
337.8914027
51
358.9967534
0
ARC
8
DEFAULT_255_1_388
10
6.5765805
20
45.4453295
40
0.7213271
50
326.9132501
51
338.3508308
0
ARC
8
DEFAULT_255_1_388
10
6.1281917
20
45.7327105
40
1.2538973
50
319.6471833
51
327.0959558
0
ARC
8
DEFAULT_255_1_388
10
5.6968575
20
46.088505
40
1.8129975
50
317.2588228
51
319.9045804
0
LINE
8
DEFAULT_255_1_388
10
8.0096428
20
45.4290987
11
8.0096428
21
45.0450838
0
LINE
8
DEFAULT_255_1_388
10
8.0096428
20
45.0450838
11
8.37649
21
45.0450838
0
LINE
8
DEFAULT_255_1_388
10
8.37649
20
45.0450838
11
8.37649
21
44.8869601
0
LINE
8
DEFAULT_255_1_388
10
8.37649
20
44.8869601
11
8.0096428
21
44.8869601
0
LINE
8
DEFAULT_255_1_388
10
8.0096428
20
44.8869601
11
8.0096428
21
44.4713204
0
LINE
8
DEFAULT_255_1_388
10
8.0096428
20
44.4713204
11
7.8415798
21
44.4713204
0
LINE
8
DEFAULT_255_1_388
10
7.8415798
20
44.4713204
11
7.8415798
21
44.8869601
0
LINE
8
DEFAULT_255_1_388
10
7.8415798
20
44.8869601
11
7.4747327
21
44.8869601
0
LINE
8
DEFAULT_255_1_388
10
7.4747327
20
44.8869601
11
7.4747327
21
45.0450838
0
LINE
8
DEFAULT_255_1_388
10
7.4747327
20
45.0450838
11
7.8415798
21
45.0450838
0
LINE
8
DEFAULT_255_1_388
10
7.8415798
20
45.0450838
11
7.8415798
21
45.4290987
0
LINE
8
DEFAULT_255_1_388
10
7.8415798
20
45.4290987
11
8.0096428
21
45.4290987
0
LINE
8
DEFAULT_255_1_388
10
4.925632
20
52.6943468
11
5.1000199
21
52.6943468
0
LINE
8
DEFAULT_255_1_388
10
4.0871242
20
52.8732525
11
4.0871242
21
52.9997516
0
LINE
8
DEFAULT_255_1_388
10
5.1000199
20
53.1696217
11
4.925632
21
53.1696217
0
LINE
8
DEFAULT_255_1_388
10
4.2615121
20
52.9952337
11
4.2615121
21
52.8678312
0
ARC
8
DEFAULT_255_1_388
10
4.4834433
20
52.7615329
40
0.6202263
50
340.1774904
51
353.7812217
0
ARC
8
DEFAULT_255_1_388
10
4.6602286
20
52.6956893
40
0.4315926
50
311.4560052
51
340.4420756
0
ARC
8
DEFAULT_255_1_388
10
4.6564826
20
52.7081665
40
0.4434573
50
282.4332229
51
310.7514507
0
ARC
8
DEFAULT_255_1_388
10
4.6070644
20
52.9123703
40
0.6535262
50
269.9358869
51
282.8096729
0
ARC
8
DEFAULT_255_1_388
10
4.6012583
20
53.0636329
40
0.8048043
50
269.9995752
51
270.3612856
0
ARC
8
DEFAULT_255_1_388
10
4.5953073
20
52.7837781
40
0.5249831
50
250.7885263
51
270.6488451
0
ARC
8
DEFAULT_255_1_388
10
4.5763898
20
52.7120853
40
0.4510942
50
219.3628377
51
250.0611024
0
ARC
8
DEFAULT_255_1_388
10
4.6696772
20
52.7913653
40
0.5735046
50
193.5480293
51
219.5755675
0
ARC
8
DEFAULT_255_1_388
10
4.9364981
20
52.860652
40
0.849146
50
181.1220183
51
193.8754971
0
ARC
8
DEFAULT_255_1_388
10
5.1688214
20
52.8730914
40
1.0816971
50
179.9914644
51
181.5398227
0
ARC
8
DEFAULT_255_1_388
10
4.9611525
20
53.0039586
40
0.8740384
50
169.5837606
51
180.275782
0
ARC
8
DEFAULT_255_1_388
10
4.7544873
20
53.0421439
40
0.6638751
50
155.0367033
51
169.6002779
0
ARC
8
DEFAULT_255_1_388
10
4.6267331
20
53.1037336
40
0.5220662
50
136.7831557
51
155.2472983
0
ARC
8
DEFAULT_255_1_388
10
4.5829122
20
53.1409577
40
0.4646502
50
121.7633063
51
136.4281161
0
ARC
8
DEFAULT_255_1_388
10
4.5980962
20
53.1129049
40
0.4964979
50
95.6460018
51
121.5489589
0
ARC
8
DEFAULT_255_1_388
10
4.6157936
20
52.9881704
40
0.6223912
50
89.9245727
51
96.1375919
0
ARC
8
DEFAULT_255_1_388
10
4.6214641
20
53.0015721
40
0.6090084
50
76.6779212
51
90.456405
0
ARC
8
DEFAULT_255_1_388
10
4.6657454
20
53.180506
40
0.42469
50
47.4858803
51
76.9287069
0
ARC
8
DEFAULT_255_1_388
10
4.6492068
20
53.1692623
40
0.4441778
50
16.5424081
51
46.8934505
0
ARC
8
DEFAULT_255_1_388
10
4.4683118
20
53.1098265
40
0.6345318
50
5.4072971
51
17.0363711
0
ARC
8
DEFAULT_255_1_388
10
4.3064843
20
53.0838304
40
0.6250632
50
7.8888693
51
15.9242022
0
ARC
8
DEFAULT_255_1_388
10
4.5299828
20
53.1487309
40
0.3923364
50
15.7650676
51
27.9410069
0
ARC
8
DEFAULT_255_1_388
10
4.6541997
20
53.2152317
40
0.2514401
50
27.8167196
51
46.4007942
0
ARC
8
DEFAULT_255_1_388
10
4.6597839
20
53.2145882
40
0.2480958
50
47.4372362
51
75.0695672
0
ARC
8
DEFAULT_255_1_388
10
4.6250675
20
53.0937277
40
0.3738281
50
74.7009379
51
87.8124314
0
ARC
8
DEFAULT_255_1_388
10
4.6168292
20
52.9753659
40
0.4924321
50
87.3802571
51
90.0251599
0
ARC
8
DEFAULT_255_1_388
10
4.6124939
20
53.1073997
40
0.3604218
50
89.3451886
51
108.5744412
0
ARC
8
DEFAULT_255_1_388
10
4.5970931
20
53.1651836
40
0.3007661
50
109.2998307
51
143.3037387
0
ARC
8
DEFAULT_255_1_388
10
4.6828221
20
53.0992584
40
0.4089031
50
143.075267
51
163.1918576
0
ARC
8
DEFAULT_255_1_388
10
4.9024055
20
53.0299652
40
0.6391492
50
162.9375929
51
174.6208776
0
ARC
8
DEFAULT_255_1_388
10
5.1978437
20
52.9975711
40
0.9363344
50
174.342123
51
180.1430283
0
ARC
8
DEFAULT_255_1_388
10
5.0930978
20
52.8632117
40
0.8315986
50
179.6817261
51
189.150555
0
ARC
8
DEFAULT_255_1_388
10
4.8117727
20
52.8163559
40
0.5464044
50
188.9911061
51
203.5772363
0
ARC
8
DEFAULT_255_1_388
10
4.6903019
20
52.7659539
40
0.4149206
50
203.9075402
51
215.1312435
0
ARC
8
DEFAULT_255_1_388
10
4.5864817
20
52.6854907
40
0.2837747
50
213.9071511
51
263.8848919
0
ARC
8
DEFAULT_255_1_388
10
4.600581
20
52.7737519
40
0.3730641
50
263.1757928
51
270.1031044
0
ARC
8
DEFAULT_255_1_388
10
4.604189
20
52.9140511
40
0.5133712
50
269.6722503
51
279.0606936
0
ARC
8
DEFAULT_255_1_388
10
4.6342045
20
52.732615
40
0.3294739
50
278.8749101
51
293.6349581
0
ARC
8
DEFAULT_255_1_388
10
4.6702249
20
52.6480251
40
0.2375405
50
293.8553806
51
310.0518171
0
ARC
8
DEFAULT_255_1_388
10
4.6707758
20
52.6410021
40
0.2318463
50
311.0644687
51
332.0111037
0
ARC
8
DEFAULT_255_1_388
10
4.5366431
20
52.7149702
40
0.3850112
50
331.6586806
51
343.2877423
0
ARC
8
DEFAULT_255_1_388
10
4.3045896
20
52.7862806
40
0.6277712
50
343.1446576
51
351.0103568
0
ARC
8
DEFAULT_255_1_388
10
4.141322
20
52.8162873
40
0.7937327
50
350.71248
51
351.1626997
0
LINE
8
DEFAULT_255_1_388
10
6.3478424
20
53.5924898
11
6.3478424
21
52.2769
0
LINE
8
DEFAULT_255_1_388
10
6.3478424
20
52.2769
11
6.1734545
21
52.2769
0
LINE
8
DEFAULT_255_1_388
10
6.1734545
20
52.2769
11
6.1734545
21
52.8849989
0
LINE
8
DEFAULT_255_1_388
10
6.1734545
20
52.8849989
11
5.5102382
21
52.8849989
0
LINE
8
DEFAULT_255_1_388
10
5.5102382
20
52.8849989
11
5.5102382
21
52.2769
0
LINE
8
DEFAULT_255_1_388
10
5.5102382
20
52.2769
11
5.3367538
21
52.2769
0
LINE
8
DEFAULT_255_1_388
10
5.3367538
20
52.2769
11
5.3367538
21
53.5924898
0
LINE
8
DEFAULT_255_1_388
10
5.3367538
20
53.5924898
11
5.5102382
21
53.5924898
0
LINE
8
DEFAULT_255_1_388
10
5.5102382
20
53.5924898
11
5.5102382
21
53.0268585
0
LINE
8
DEFAULT_255_1_388
10
5.5102382
20
53.0268585
11
6.1734545
21
53.0268585
0
LINE
8
DEFAULT_255_1_388
10
6.1734545
20
53.0268585
11
6.1734545
21
53.5924898
0
LINE
8
DEFAULT_255_1_388
10
6.1734545
20
53.5924898
11
6.3478424
21
53.5924898
0
LINE
8
DEFAULT_255_1_388
10
7.161954
20
53.5988148
11
7.161954
21
52.2769
0
LINE
8
DEFAULT_255_1_388
10
7.161954
20
52.2769
11
6.993891
21
52.2769
0
LINE
8
DEFAULT_255_1_388
10
6.993891
20
52.2769
11
6.993891
21
53.390995
0
LINE
8
DEFAULT_255_1_388
10
6.993891
20
53.390995
11
6.6568615
21
53.2672066
0
LINE
8
DEFAULT_255_1_388
10
6.6568615
20
53.2672066
11
6.6568615
21
53.4190055
0
LINE
8
DEFAULT_255_1_388
10
6.6568615
20
53.4190055
11
7.1357506
21
53.5988148
0
LINE
8
DEFAULT_255_1_388
10
7.1357506
20
53.5988148
11
7.161954
21
53.5988148
0
LINE
8
DEFAULT_255_1_388
10
8.016726
20
52.9039737
11
8.016726
21
52.7675355
0
LINE
8
DEFAULT_255_1_388
10
8.016726
20
52.7675355
11
7.5757865
21
52.7675355
0
LINE
8
DEFAULT_255_1_388
10
7.5757865
20
52.7675355
11
7.5757865
21
52.9039737
0
LINE
8
DEFAULT_255_1_388
10
7.5757865
20
52.9039737
11
8.016726
21
52.9039737
0
LINE
8
DEFAULT_255_1_388
10
4.787532
20
60.6318468
11
4.9619199
21
60.6318468
0
LINE
8
DEFAULT_255_1_388
10
3.9490242
20
60.8107525
11
3.9490242
21
60.9372516
0
LINE
8
DEFAULT_255_1_388
10
4.9619199
20
61.1071217
11
4.787532
21
61.1071217
0
LINE
8
DEFAULT_255_1_388
10
4.1234121
20
60.9327337
11
4.1234121
21
60.8053312
0
ARC
8
DEFAULT_255_1_388
10
4.3453433
20
60.6990329
40
0.6202263
50
340.1774904
51
353.7812217
0
ARC
8
DEFAULT_255_1_388
10
4.5221286
20
60.6331893
40
0.4315926
50
311.4560052
51
340.4420756
0
ARC
8
DEFAULT_255_1_388
10
4.5183826
20
60.6456665
40
0.4434573
50
282.4332229
51
310.7514507
0
ARC
8
DEFAULT_255_1_388
10
4.4689644
20
60.8498703
40
0.6535262
50
269.9358869
51
282.8096729
0
ARC
8
DEFAULT_255_1_388
10
4.4631583
20
61.0011329
40
0.8048043
50
269.9995752
51
270.3612856
0
ARC
8
DEFAULT_255_1_388
10
4.4572073
20
60.7212781
40
0.5249831
50
250.7885263
51
270.6488451
0
ARC
8
DEFAULT_255_1_388
10
4.4382898
20
60.6495853
40
0.4510942
50
219.3628377
51
250.0611024
0
ARC
8
DEFAULT_255_1_388
10
4.5315772
20
60.7288653
40
0.5735046
50
193.5480293
51
219.5755675
0
ARC
8
DEFAULT_255_1_388
10
4.7983981
20
60.798152
40
0.849146
50
181.1220183
51
193.8754971
0
ARC
8
DEFAULT_255_1_388
10
5.0307214
20
60.8105914
40
1.0816971
50
179.9914644
51
181.5398227
0
ARC
8
DEFAULT_255_1_388
10
4.8230525
20
60.9414586
40
0.8740384
50
169.5837606
51
180.275782
0
ARC
8
DEFAULT_255_1_388
10
4.6163873
20
60.9796439
40
0.6638751
50
155.0367033
51
169.6002779
0
ARC
8
DEFAULT_255_1_388
10
4.4886331
20
61.0412336
40
0.5220662
50
136.7831557
51
155.2472983
0
ARC
8
DEFAULT_255_1_388
10
4.4448122
20
61.0784577
40
0.4646502
50
121.7633063
51
136.4281161
0
ARC
8
DEFAULT_255_1_388
10
4.4599962
20
61.0504049
40
0.4964979
50
95.6460018
51
121.5489589
0
ARC
8
DEFAULT_255_1_388
10
4.4776936
20
60.9256704
40
0.6223912
50
89.9245727
51
96.1375919
0
ARC
8
DEFAULT_255_1_388
10
4.4833641
20
60.9390721
40
0.6090084
50
76.6779212
51
90.456405
0
ARC
8
DEFAULT_255_1_388
10
4.5276454
20
61.118006
40
0.42469
50
47.4858803
51
76.9287069
0
ARC
8
DEFAULT_255_1_388
10
4.5111068
20
61.1067623
40
0.4441778
50
16.5424081
51
46.8934505
0
ARC
8
DEFAULT_255_1_388
10
4.3302118
20
61.0473265
40
0.6345318
50
5.4072971
51
17.0363711
0
ARC
8
DEFAULT_255_1_388
10
4.1683843
20
61.0213304
40
0.6250632
50
7.8888693
51
15.9242022
0
ARC
8
DEFAULT_255_1_388
10
4.3918828
20
61.0862309
40
0.3923364
50
15.7650676
51
27.9410069
0
ARC
8
DEFAULT_255_1_388
10
4.5160997
20
61.1527317
40
0.2514401
50
27.8167196
51
46.4007942
0
ARC
8
DEFAULT_255_1_388
10
4.5216839
20
61.1520882
40
0.2480958
50
47.4372362
51
75.0695672
0
ARC
8
DEFAULT_255_1_388
10
4.4869675
20
61.0312277
40
0.3738281
50
74.7009379
51
87.8124314
0
ARC
8
DEFAULT_255_1_388
10
4.4787292
20
60.9128659
40
0.4924321
50
87.3802571
51
90.0251599
0
ARC
8
DEFAULT_255_1_388
10
4.4743939
20
61.0448997
40
0.3604218
50
89.3451886
51
108.5744412
0
ARC
8
DEFAULT_255_1_388
10
4.4589931
20
61.1026836
40
0.3007661
50
109.2998307
51
143.3037387
0
ARC
8
DEFAULT_255_1_388
10
4.5447221
20
61.0367584
40
0.4089031
50
143.075267
51
163.1918576
0
ARC
8
DEFAULT_255_1_388
10
4.7643055
20
60.9674652
40
0.6391492
50
162.9375929
51
174.6208776
0
ARC
8
DEFAULT_255_1_388
10
5.0597437
20
60.9350711
40
0.9363344
50
174.342123
51
180.1430283
0
ARC
8
DEFAULT_255_1_388
10
4.9549978
20
60.8007117
40
0.8315986
50
179.6817261
51
189.150555
0
ARC
8
DEFAULT_255_1_388
10
4.6736727
20
60.7538559
40
0.5464044
50
188.9911061
51
203.5772363
0
ARC
8
DEFAULT_255_1_388
10
4.5522019
20
60.7034539
40
0.4149206
50
203.9075402
51
215.1312435
0
ARC
8
DEFAULT_255_1_388
10
4.4483817
20
60.6229907
40
0.2837747
50
213.9071511
51
263.8848919
0
ARC
8
DEFAULT_255_1_388
10
4.462481
20
60.7112519
40
0.3730641
50
263.1757928
51
270.1031044
0
ARC
8
DEFAULT_255_1_388
10
4.466089
20
60.8515511
40
0.5133712
50
269.6722503
51
279.0606936
0
ARC
8
DEFAULT_255_1_388
10
4.4961045
20
60.670115
40
0.3294739
50
278.8749101
51
293.6349581
0
ARC
8
DEFAULT_255_1_388
10
4.5321249
20
60.5855251
40
0.2375405
50
293.8553806
51
310.0518171
0
ARC
8
DEFAULT_255_1_388
10
4.5326758
20
60.5785021
40
0.2318463
50
311.0644687
51
332.0111037
0
ARC
8
DEFAULT_255_1_388
10
4.3985431
20
60.6524702
40
0.3850112
50
331.6586806
51
343.2877423
0
ARC
8
DEFAULT_255_1_388
10
4.1664896
20
60.7237806
40
0.6277712
50
343.1446576
51
351.0103568
0
ARC
8
DEFAULT_255_1_388
10
4.003222
20
60.7537873
40
0.7937327
50
350.71248
51
351.1626997
0
LINE
8
DEFAULT_255_1_388
10
6.2097424
20
61.5299898
11
6.2097424
21
60.2144
0
LINE
8
DEFAULT_255_1_388
10
6.2097424
20
60.2144
11
6.0353545
21
60.2144
0
LINE
8
DEFAULT_255_1_388
10
6.0353545
20
60.2144
11
6.0353545
21
60.8224989
0
LINE
8
DEFAULT_255_1_388
10
6.0353545
20
60.8224989
11
5.3721382
21
60.8224989
0
LINE
8
DEFAULT_255_1_388
10
5.3721382
20
60.8224989
11
5.3721382
21
60.2144
0
LINE
8
DEFAULT_255_1_388
10
5.3721382
20
60.2144
11
5.1986538
21
60.2144
0
LINE
8
DEFAULT_255_1_388
10
5.1986538
20
60.2144
11
5.1986538
21
61.5299898
0
LINE
8
DEFAULT_255_1_388
10
5.1986538
20
61.5299898
11
5.3721382
21
61.5299898
0
LINE
8
DEFAULT_255_1_388
10
5.3721382
20
61.5299898
11
5.3721382
21
60.9643585
0
LINE
8
DEFAULT_255_1_388
10
5.3721382
20
60.9643585
11
6.0353545
21
60.9643585
0
LINE
8
DEFAULT_255_1_388
10
6.0353545
20
60.9643585
11
6.0353545
21
61.5299898
0
LINE
8
DEFAULT_255_1_388
10
6.0353545
20
61.5299898
11
6.2097424
21
61.5299898
0
LINE
8
DEFAULT_255_1_388
10
7.023854
20
61.5363148
11
7.023854
21
60.2144
0
LINE
8
DEFAULT_255_1_388
10
7.023854
20
60.2144
11
6.855791
21
60.2144
0
LINE
8
DEFAULT_255_1_388
10
6.855791
20
60.2144
11
6.855791
21
61.328495
0
LINE
8
DEFAULT_255_1_388
10
6.855791
20
61.328495
11
6.5187615
21
61.2047066
0
LINE
8
DEFAULT_255_1_388
10
6.5187615
20
61.2047066
11
6.5187615
21
61.3565055
0
LINE
8
DEFAULT_255_1_388
10
6.5187615
20
61.3565055
11
6.9976506
21
61.5363148
0
LINE
8
DEFAULT_255_1_388
10
6.9976506
20
61.5363148
11
7.023854
21
61.5363148
0
LINE
8
DEFAULT_255_1_388
10
8.0096428
20
61.3040987
11
8.0096428
21
60.9200838
0
LINE
8
DEFAULT_255_1_388
10
8.0096428
20
60.9200838
11
8.37649
21
60.9200838
0
LINE
8
DEFAULT_255_1_388
10
8.37649
20
60.9200838
11
8.37649
21
60.7619601
0
LINE
8
DEFAULT_255_1_388
10
8.37649
20
60.7619601
11
8.0096428
21
60.7619601
0
LINE
8
DEFAULT_255_1_388
10
8.0096428
20
60.7619601
11
8.0096428
21
60.3463204
0
LINE
8
DEFAULT_255_1_388
10
8.0096428
20
60.3463204
11
7.8415798
21
60.3463204
0
LINE
8
DEFAULT_255_1_388
10
7.8415798
20
60.3463204
11
7.8415798
21
60.7619601
0
LINE
8
DEFAULT_255_1_388
10
7.8415798
20
60.7619601
11
7.4747327
21
60.7619601
0
LINE
8
DEFAULT_255_1_388
10
7.4747327
20
60.7619601
11
7.4747327
21
60.9200838
0
LINE
8
DEFAULT_255_1_388
10
7.4747327
20
60.9200838
11
7.8415798
21
60.9200838
0
LINE
8
DEFAULT_255_1_388
10
7.8415798
20
60.9200838
11
7.8415798
21
61.3040987
0
LINE
8
DEFAULT_255_1_388
10
7.8415798
20
61.3040987
11
8.0096428
21
61.3040987
0
LINE
8
DEFAULT_255_1_388
10
23.1190856
20
68.929869
11
23.1190856
21
68.7130135
0
LINE
8
DEFAULT_255_1_388
10
22.2887099
20
68.6904244
11
22.2887099
21
68.9136048
0
LINE
8
DEFAULT_255_1_388
10
22.9519262
20
68.6678353
11
22.9519262
21
68.9416153
0
LINE
8
DEFAULT_255_1_388
10
22.4558693
20
68.9542652
11
22.4558693
21
68.6868102
0
ARC
8
DEFAULT_255_1_388
10
21.741319
20
68.7075118
40
1.3777776
50
353.8440855
51
0.2287917
0
ARC
8
DEFAULT_255_1_388
10
22.2632208
20
68.6492414
40
0.852639
50
344.4934746
51
353.9763743
0
ARC
8
DEFAULT_255_1_388
10
22.5999015
20
68.5535191
40
0.5026273
50
329.2803599
51
344.7473406
0
ARC
8
DEFAULT_255_1_388
10
22.7114511
20
68.4923038
40
0.3754848
50
324.9361395
51
328.6153007
0
ARC
8
DEFAULT_255_1_388
10
22.7540161
20
68.4625586
40
0.3235566
50
280.5801797
51
324.9173226
0
ARC
8
DEFAULT_255_1_388
10
22.7088789
20
68.6505236
40
0.5167077
50
269.5979457
51
281.6732777
0
ARC
8
DEFAULT_255_1_388
10
22.7007693
20
68.6370113
40
0.5032026
50
256.6228565
51
270.5105488
0
ARC
8
DEFAULT_255_1_388
10
22.6555435
20
68.4628345
40
0.3233092
50
215.8618351
51
257.2787793
0
ARC
8
DEFAULT_255_1_388
10
22.7704142
20
68.5399106
40
0.4615831
50
197.9695203
51
215.2622745
0
ARC
8
DEFAULT_255_1_388
10
23.0499818
20
68.6342641
40
0.7566307
50
187.8816486
51
198.2346584
0
ARC
8
DEFAULT_255_1_388
10
23.4953056
20
68.6985453
40
1.2065653
50
180.8977266
51
188.0054894
0
ARC
8
DEFAULT_255_1_388
10
23.800327
20
68.71004
40
1.5117443
50
180.7434591
51
181.152202
0
ARC
8
DEFAULT_255_1_388
10
23.6328266
20
68.9190371
40
1.3441277
50
173.7674302
51
180.2315596
0
ARC
8
DEFAULT_255_1_388
10
23.1246135
20
68.9764779
40
0.8326847
50
164.3058537
51
173.9000553
0
ARC
8
DEFAULT_255_1_388
10
22.7970135
20
69.0708652
40
0.4917711
50
148.7922028
51
164.5682288
0
ARC
8
DEFAULT_255_1_388
10
22.6900872
20
69.1305457
40
0.3694204
50
144.5883979
51
148.1161588
0
ARC
8
DEFAULT_255_1_388
10
22.6513618
20
69.1575667
40
0.322202
50
101.6440149
51
144.5142619
0
ARC
8
DEFAULT_255_1_388
10
22.699181
20
68.9675337
40
0.5180451
50
89.528284
51
102.5820197
0
ARC
8
DEFAULT_255_1_388
10
22.7080802
20
68.9631376
40
0.5224441
50
77.0437914
51
90.508231
0
ARC
8
DEFAULT_255_1_388
10
22.7533055
20
69.1479272
40
0.3322297
50
48.2777708
51
77.4996087
0
ARC
8
DEFAULT_255_1_388
10
22.7614795
20
69.1624557
40
0.315966
50
36.3141586
51
47.6307332
0
ARC
8
DEFAULT_255_1_388
10
22.6637518
20
69.0966159
40
0.4337313
50
18.2931065
51
35.6770203
0
ARC
8
DEFAULT_255_1_388
10
22.3776358
20
68.9984107
40
0.7362203
50
8.0246996
51
18.5605636
0
ARC
8
DEFAULT_255_1_388
10
21.9092714
20
68.9292432
40
1.2096583
50
1.127539
51
8.1718423
0
ARC
8
DEFAULT_255_1_388
10
21.5443847
20
68.9149374
40
1.5747719
50
0.5432713
51
1.38669
0
ARC
8
DEFAULT_255_1_388
10
21.7501226
20
68.9456163
40
1.2018103
50
359.8092569
51
4.9408001
0
ARC
8
DEFAULT_255_1_388
10
22.2237807
20
68.98789
40
0.7262727
50
4.8364937
51
12.2906017
0
ARC
8
DEFAULT_255_1_388
10
22.5337272
20
69.0569485
40
0.4087324
50
12.0806994
51
23.8171225
0
ARC
8
DEFAULT_255_1_388
10
22.6657668
20
69.1128508
40
0.2653719
50
24.2874621
51
31.3934353
0
ARC
8
DEFAULT_255_1_388
10
22.7248104
20
69.1514822
40
0.1948607
50
30.7407708
51
82.4658033
0
ARC
8
DEFAULT_255_1_388
10
22.7045765
20
69.0521017
40
0.2961198
50
81.1057101
51
90.2187368
0
ARC
8
DEFAULT_255_1_388
10
22.7005577
20
69.0811421
40
0.2670929
50
89.380395
51
105.6763916
0
ARC
8
DEFAULT_255_1_388
10
22.6799299
20
69.156132
40
0.1893189
50
105.7980655
51
149.7387869
0
ARC
8
DEFAULT_255_1_388
10
22.7996439
20
69.0841719
40
0.3289892
50
149.4208441
51
163.628295
0
ARC
8
DEFAULT_255_1_388
10
23.0348668
20
69.0124345
40
0.5749004
50
163.3764549
51
172.141138
0
ARC
8
DEFAULT_255_1_388
10
23.406139
20
68.9592582
40
0.9499585
50
172.0258462
51
178.0705453
0
ARC
8
DEFAULT_255_1_388
10
23.7482943
20
68.9430682
40
1.2924734
50
177.8639301
51
179.5036263
0
ARC
8
DEFAULT_255_1_388
10
23.6263961
20
68.6827151
40
1.170534
50
179.7995545
51
185.246089
0
ARC
8
DEFAULT_255_1_388
10
23.1715554
20
68.6396404
40
0.7136613
50
185.1411911
51
193.0082205
0
ARC
8
DEFAULT_255_1_388
10
22.8741815
20
68.5693441
40
0.4080987
50
192.7897338
51
205.2507384
0
ARC
8
DEFAULT_255_1_388
10
22.7564025
20
68.5167538
40
0.2791522
50
205.8001921
51
211.2545876
0
ARC
8
DEFAULT_255_1_388
10
22.6975564
20
68.4773132
40
0.2084074
50
210.3789935
51
238.4007996
0
ARC
8
DEFAULT_255_1_388
10
22.695365
20
68.4825786
40
0.2117943
50
239.6521916
51
265.9793852
0
ARC
8
DEFAULT_255_1_388
10
22.7049499
20
68.5582358
40
0.2879689
50
265.1324455
51
270.0603288
0
ARC
8
DEFAULT_255_1_388
10
22.7081876
20
68.5217418
40
0.2514919
50
269.3314378
51
287.2180039
0
ARC
8
DEFAULT_255_1_388
10
22.7236958
20
68.4651291
40
0.1928357
50
287.7957942
51
329.0808983
0
ARC
8
DEFAULT_255_1_388
10
22.6159715
20
68.5323651
40
0.319808
50
328.6635261
51
343.3325043
0
ARC
8
DEFAULT_255_1_388
10
22.3715174
20
68.6085195
40
0.5758408
50
343.0498092
51
351.9392499
0
ARC
8
DEFAULT_255_1_388
10
21.9814496
20
68.6660205
40
0.9701202
50
351.8071632
51
357.7957897
0
ARC
8
DEFAULT_255_1_388
10
21.6179973
20
68.6848724
40
1.3340376
50
357.5870923
51
359.2682493
0
LINE
8
DEFAULT_255_1_388
10
23.4380439
20
69.4674898
11
23.8121196
21
68.3823089
0
LINE
8
DEFAULT_255_1_388
10
23.8121196
20
68.3823089
11
24.1880024
21
69.4674898
0
LINE
8
DEFAULT_255_1_388
10
24.1880024
20
69.4674898
11
24.3777509
21
69.4674898
0
LINE
8
DEFAULT_255_1_388
10
24.3777509
20
69.4674898
11
23.8898261
21
68.1519
0
LINE
8
DEFAULT_255_1_388
10
23.8898261
20
68.1519
11
23.7362202
21
68.1519
0
LINE
8
DEFAULT_255_1_388
10
23.7362202
20
68.1519
11
23.2491989
21
69.4674898
0
LINE
8
DEFAULT_255_1_388
10
23.2491989
20
69.4674898
11
23.4380439
21
69.4674898
0
ENDSEC
0
EOF