0
SECTION
2
HEADER
9
$MEASUREMENT
70
1
0
ENDSEC
0
SECTION
2
TABLES
0
TABLE
2
LTYPE
0
LTYPE
72
65
70
64
2
CONTINUOUS
3
______
73
0
40
0
0
ENDTAB
0
TABLE
2
LAYER
0
LAYER
2
DEFAULT_255_2_778
70
0
62
255
6
CONTINUOUS
0
LAYER
2
DEFAULT_255_1_234
70
0
62
255
6
CONTINUOUS
0
LAYER
2
DEFAULT_255_2_778_1
70
0
62
255
6
CONTINUOUS
0
ENDTAB
0
ENDSEC
0
SECTION
2
ENTITIES
0
ARC
8
DEFAULT_255_2_778
10
3.5700693
20
67.8676531
40
0.7914215
50
129.1312896
51
180.1450914
0
ARC
8
DEFAULT_255_2_778
10
3.5703345
20
67.8681402
40
0.7912112
50
89.854026
51
129.1684493
0
ARC
8
DEFAULT_255_2_778
10
25.7993937
20
67.8678268
40
0.7915249
50
39.4792447
51
90.147911
0
ARC
8
DEFAULT_255_2_778
10
25.7999935
20
67.8676734
40
0.7911595
50
359.8533901
51
39.5154338
0
ARC
8
DEFAULT_255_2_778
10
25.7996693
20
-1.9863991
40
0.7914836
50
309.4761667
51
0.1482649
0
ARC
8
DEFAULT_255_2_778
10
25.799398
20
-1.9868302
40
0.7913235
50
269.8517415
51
309.511178
0
ARC
8
DEFAULT_255_2_778
10
3.570342
20
-1.986772
40
0.7913815
50
219.1282118
51
270.1454017
0
ARC
8
DEFAULT_255_2_778
10
3.5700247
20
-1.9863896
40
0.7913769
50
179.8524075
51
219.1641908
0
LINE
8
DEFAULT_255_2_778
10
3.5723503
20
68.659349
11
25.7973503
21
68.659349
0
LINE
8
DEFAULT_255_2_778
10
26.5911503
20
67.865649
11
26.5911503
21
-1.984351
0
LINE
8
DEFAULT_255_2_778
10
25.7973503
20
-2.778151
11
3.5723503
21
-2.778151
0
LINE
8
DEFAULT_255_2_778
10
2.7786503
20
-1.984351
11
2.7786503
21
67.865649
0
LINE
8
DEFAULT_255_1_234
10
10.627285
20
-0.0087609
11
10.627285
21
-0.1348592
0
LINE
8
DEFAULT_255_1_234
10
10.627285
20
-0.1348592
11
10.1365458
21
-0.1348592
0
LINE
8
DEFAULT_255_1_234
10
10.1365458
20
-0.1348592
11
10.1365458
21
-0.6513
0
LINE
8
DEFAULT_255_1_234
10
10.1365458
20
-0.6513
11
9.9823364
21
-0.6513
0
LINE
8
DEFAULT_255_1_234
10
9.9823364
20
-0.6513
11
9.9823364
21
0.5181211
0
LINE
8
DEFAULT_255_1_234
10
9.9823364
20
0.5181211
11
10.7067992
21
0.5181211
0
LINE
8
DEFAULT_255_1_234
10
10.7067992
20
0.5181211
11
10.7067992
21
0.3912196
0
LINE
8
DEFAULT_255_1_234
10
10.7067992
20
0.3912196
11
10.1365458
21
0.3912196
0
LINE
8
DEFAULT_255_1_234
10
10.1365458
20
0.3912196
11
10.1365458
21
-0.0087609
0
LINE
8
DEFAULT_255_1_234
10
10.1365458
20
-0.0087609
11
10.627285
21
-0.0087609
0
LINE
8
DEFAULT_255_1_234
10
11.6192046
20
-0.5300208
11
11.6192046
21
-0.6513
0
LINE
8
DEFAULT_255_1_234
10
11.6192046
20
-0.6513
11
10.8529768
21
-0.6513
0
LINE
8
DEFAULT_255_1_234
10
10.8529768
20
-0.6513
11
10.8529768
21
-0.5444779
0
LINE
8
DEFAULT_255_1_234
10
10.8529768
20
-0.5444779
11
11.2577764
21
-0.0947005
0
LINE
8
DEFAULT_255_1_234
10
10.9790751
20
0.1735595
11
10.8304879
21
0.1735595
0
LINE
8
DEFAULT_255_1_234
10
11.3453224
20
-0.1902782
11
11.0320846
21
-0.5300208
0
LINE
8
DEFAULT_255_1_234
10
11.0320846
20
-0.5300208
11
11.6192046
21
-0.5300208
0
ARC
8
DEFAULT_255_1_234
10
9.9087597
20
1.0982527
40
1.8008286
50
318.5132453
51
320.7828378
0
ARC
8
DEFAULT_255_1_234
10
10.4374572
20
0.6679426
40
1.1191493
50
320.7372736
51
323.9737074
0
ARC
8
DEFAULT_255_1_234
10
10.8294428
20
0.3839361
40
0.6350923
50
323.8961724
51
328.6421089
0
ARC
8
DEFAULT_255_1_234
10
11.0341024
20
0.2577031
40
0.3946393
50
328.8299013
51
331.789948
0
ARC
8
DEFAULT_255_1_234
10
11.1338202
20
0.2062509
40
0.2824501
50
331.4255242
51
352.9364833
0
ARC
8
DEFAULT_255_1_234
10
11.1474703
20
0.2031976
40
0.2685315
50
353.2248685
51
0.0169286
0
ARC
8
DEFAULT_255_1_234
10
11.168458
20
0.205495
40
0.2475536
50
359.4866256
51
15.9339782
0
ARC
8
DEFAULT_255_1_234
10
11.2191565
20
0.2191286
40
0.1950618
50
16.1714718
51
43.5284424
0
ARC
8
DEFAULT_255_1_234
10
11.2268873
20
0.2268573
40
0.184134
50
43.4415429
51
83.1661404
0
ARC
8
DEFAULT_255_1_234
10
11.2134792
20
0.1531771
40
0.258926
50
82.160215
51
90.1505798
0
ARC
8
DEFAULT_255_1_234
10
11.2103219
20
0.0994865
40
0.3126255
50
89.5460705
51
102.5418777
0
ARC
8
DEFAULT_255_1_234
10
11.1860305
20
0.2025665
40
0.2067346
50
102.1739365
51
129.2061916
0
ARC
8
DEFAULT_255_1_234
10
11.1781377
20
0.2150094
40
0.1921118
50
129.7279328
51
135.7542026
0
ARC
8
DEFAULT_255_1_234
10
11.1902904
20
0.2053045
40
0.2075944
50
136.175737
51
166.3674722
0
ARC
8
DEFAULT_255_1_234
10
11.2909824
20
0.1783182
40
0.3118201
50
165.9092917
51
178.8683903
0
ARC
8
DEFAULT_255_1_234
10
11.3774685
20
0.1736179
40
0.3983935
50
178.438168
51
180.0083905
0
ARC
8
DEFAULT_255_1_234
10
11.2373287
20
0.1775231
40
0.4068601
50
163.2878735
51
180.5581814
0
ARC
8
DEFAULT_255_1_234
10
11.1571548
20
0.199584
40
0.3237344
50
133.454115
51
162.9470031
0
ARC
8
DEFAULT_255_1_234
10
11.175009
20
0.1806
40
0.349795
50
100.7869394
51
133.4384016
0
ARC
8
DEFAULT_255_1_234
10
11.2097861
20
0.0257319
40
0.5084616
50
89.6605301
51
101.3704185
0
ARC
8
DEFAULT_255_1_234
10
11.21642
20
0.0318496
40
0.502348
50
78.2171172
51
90.4130393
0
ARC
8
DEFAULT_255_1_234
10
11.2519278
20
0.1942637
40
0.3361092
50
55.9268222
51
78.4888551
0
ARC
8
DEFAULT_255_1_234
10
11.2715719
20
0.2281324
40
0.2970617
50
47.9292255
51
55.4054003
0
ARC
8
DEFAULT_255_1_234
10
11.2817279
20
0.2384502
40
0.2825983
50
4.3347696
51
48.0560701
0
ARC
8
DEFAULT_255_1_234
10
11.1721673
20
0.2214601
40
0.393225
50
359.925209
51
5.5967654
0
ARC
8
DEFAULT_255_1_234
10
11.2150565
20
0.2270816
40
0.3503892
50
337.8914096
51
358.9967724
0
ARC
8
DEFAULT_255_1_234
10
10.9436977
20
0.3317706
40
0.6412172
50
326.9135351
51
338.3505194
0
ARC
8
DEFAULT_255_1_234
10
10.5451281
20
0.5872284
40
1.1146189
50
319.6472867
51
327.095818
0
ARC
8
DEFAULT_255_1_234
10
10.1618284
20
0.9034
40
1.6114559
50
317.2586784
51
319.9046139
0
LINE
8
DEFAULT_255_1_234
10
12.1011089
20
-0.0938974
11
12.1011089
21
-0.2151766
0
LINE
8
DEFAULT_255_1_234
10
12.1011089
20
-0.2151766
11
11.7091601
21
-0.2151766
0
LINE
8
DEFAULT_255_1_234
10
11.7091601
20
-0.2151766
11
11.7091601
21
-0.0938974
0
LINE
8
DEFAULT_255_1_234
10
11.7091601
20
-0.0938974
11
12.1011089
21
-0.0938974
0
LINE
8
DEFAULT_255_1_234
10
12.9637176
20
0.0402327
11
12.9637176
21
-0.1525291
0
LINE
8
DEFAULT_255_1_234
10
12.2256009
20
-0.1726084
11
12.2256009
21
0.0257755
0
LINE
8
DEFAULT_255_1_234
10
12.8151305
20
-0.1926877
11
12.8151305
21
0.0506739
0
LINE
8
DEFAULT_255_1_234
10
12.374188
20
0.0619184
11
12.374188
21
-0.1758211
0
ARC
8
DEFAULT_255_1_234
10
11.7390066
20
-0.1574195
40
1.2247208
50
353.8441951
51
0.2287902
0
ARC
8
DEFAULT_255_1_234
10
12.2029569
20
-0.2092194
40
0.7578929
50
344.4934747
51
353.9765454
0
ARC
8
DEFAULT_255_1_234
10
12.502216
20
-0.2943019
40
0.4467846
50
329.2803592
51
344.7472793
0
ARC
8
DEFAULT_255_1_234
10
12.6014985
20
-0.3487982
40
0.3336173
50
324.9352394
51
328.6160465
0
ARC
8
DEFAULT_255_1_234
10
12.6392093
20
-0.3751573
40
0.2876076
50
280.580143
51
324.9173126
0
ARC
8
DEFAULT_255_1_234
10
12.5990886
20
-0.2080901
40
0.4592847
50
269.5977311
51
281.6734359
0
ARC
8
DEFAULT_255_1_234
10
12.5918791
20
-0.2200827
40
0.4472986
50
256.6228859
51
270.51044
0
ARC
8
DEFAULT_255_1_234
10
12.5516769
20
-0.3749123
40
0.2873874
50
215.8618325
51
257.2788573
0
ARC
8
DEFAULT_255_1_234
10
12.6537801
20
-0.3064023
40
0.4102928
50
197.9693508
51
215.2623606
0
ARC
8
DEFAULT_255_1_234
10
12.9022917
20
-0.2225291
40
0.6725652
50
187.8816417
51
198.2346507
0
ARC
8
DEFAULT_255_1_234
10
13.2981125
20
-0.1653921
40
1.0724845
50
180.8976217
51
188.0055519
0
ARC
8
DEFAULT_255_1_234
10
13.5781313
20
-0.1550223
40
1.3526448
50
180.7449369
51
181.1510016
0
ARC
8
DEFAULT_255_1_234
10
13.4204042
20
0.0306042
40
1.1948131
50
173.7675579
51
180.231553
0
ARC
8
DEFAULT_255_1_234
10
12.9686189
20
0.0816666
40
0.7401564
50
164.3058563
51
173.9002247
0
ARC
8
DEFAULT_255_1_234
10
12.6774257
20
0.1655656
40
0.4371288
50
148.7922025
51
164.568378
0
ARC
8
DEFAULT_255_1_234
10
12.582271
20
0.2186929
40
0.3282386
50
144.5883898
51
148.1176286
0
ARC
8
DEFAULT_255_1_234
10
12.5479608
20
0.2426315
40
0.2864044
50
101.6440918
51
144.514236
0
ARC
8
DEFAULT_255_1_234
10
12.5904674
20
0.0737069
40
0.4604934
50
89.5284041
51
102.5819763
0
ARC
8
DEFAULT_255_1_234
10
12.5983762
20
0.0698018
40
0.464401
50
77.0437873
51
90.5081339
0
ARC
8
DEFAULT_255_1_234
10
12.6385764
20
0.2340615
40
0.2953195
50
48.2778575
51
77.4994676
0
ARC
8
DEFAULT_255_1_234
10
12.6458395
20
0.2469746
40
0.2808655
50
36.3142134
51
47.6305865
0
ARC
8
DEFAULT_255_1_234
10
12.5589702
20
0.1884515
40
0.3855453
50
18.2931786
51
35.6769206
0
ARC
8
DEFAULT_255_1_234
10
12.3046461
20
0.1011593
40
0.654423
50
8.024666
51
18.5605216
0
ARC
8
DEFAULT_255_1_234
10
11.8883381
20
0.0396792
40
1.0752407
50
1.1274072
51
8.1718305
0
ARC
8
DEFAULT_255_1_234
10
11.5647571
20
0.0269885
40
1.3990231
50
0.5424119
51
1.3863029
0
ARC
8
DEFAULT_255_1_234
10
11.7468949
20
0.0542342
40
1.0682415
50
359.8090433
51
4.9407866
0
ARC
8
DEFAULT_255_1_234
10
12.1678963
20
0.0918113
40
0.6455691
50
4.8362157
51
12.2904523
0
ARC
8
DEFAULT_255_1_234
10
12.4434078
20
0.1531965
40
0.3633074
50
12.0805627
51
23.8173984
0
ARC
8
DEFAULT_255_1_234
10
12.5607783
20
0.2028919
40
0.2358723
50
24.2871213
51
31.3935614
0
ARC
8
DEFAULT_255_1_234
10
12.6132481
20
0.2372233
40
0.1732111
50
30.7407893
51
82.4657128
0
ARC
8
DEFAULT_255_1_234
10
12.5952615
20
0.1488691
40
0.263235
50
81.1060089
51
90.2184952
0
ARC
8
DEFAULT_255_1_234
10
12.5916914
20
0.1746924
40
0.2374236
50
89.3806855
51
105.6762551
0
ARC
8
DEFAULT_255_1_234
10
12.5733545
20
0.2413567
40
0.1682847
50
105.7981136
51
149.7388061
0
ARC
8
DEFAULT_255_1_234
10
12.6797623
20
0.177395
40
0.2924306
50
149.4208916
51
163.6286378
0
ARC
8
DEFAULT_255_1_234
10
12.8888511
20
0.113625
40
0.5110213
50
163.3763315
51
172.1410975
0
ARC
8
DEFAULT_255_1_234
10
13.218923
20
0.0663518
40
0.8444586
50
172.0259487
51
178.0703232
0
ARC
8
DEFAULT_255_1_234
10
13.5219319
20
0.0519906
40
1.1477868
50
177.8631668
51
179.5044149
0
ARC
8
DEFAULT_255_1_234
10
13.4146724
20
-0.1794611
40
1.0404907
50
179.7995573
51
185.2460446
0
ARC
8
DEFAULT_255_1_234
10
13.0103763
20
-0.2177487
40
0.6343885
50
185.1411642
51
193.0079639
0
ARC
8
DEFAULT_255_1_234
10
12.7460236
20
-0.2802359
40
0.3627568
50
192.7897626
51
205.2507664
0
ARC
8
DEFAULT_255_1_234
10
12.6413783
20
-0.3269585
40
0.2481908
50
205.8005384
51
211.2537509
0
ARC
8
DEFAULT_255_1_234
10
12.5890223
20
-0.362042
40
0.1852521
50
210.3789793
51
238.4008143
0
ARC
8
DEFAULT_255_1_234
10
12.5870745
20
-0.3573624
40
0.1882621
50
239.6520629
51
265.9793761
0
ARC
8
DEFAULT_255_1_234
10
12.5955945
20
-0.2901573
40
0.2559272
50
265.1315437
51
270.060332
0
ARC
8
DEFAULT_255_1_234
10
12.5984724
20
-0.3225466
40
0.2235528
50
269.3314664
51
287.2178029
0
ARC
8
DEFAULT_255_1_234
10
12.6122576
20
-0.3728721
40
0.1714108
50
287.7958004
51
329.080874
0
ARC
8
DEFAULT_255_1_234
10
12.5165033
20
-0.313107
40
0.2842745
50
328.6634704
51
343.3325132
0
ARC
8
DEFAULT_255_1_234
10
12.2992053
20
-0.2454137
40
0.5118644
50
343.0499468
51
351.9393422
0
ARC
8
DEFAULT_255_1_234
10
11.9525353
20
-0.1943051
40
0.8622784
50
351.8069023
51
357.7959224
0
ARC
8
DEFAULT_255_1_234
10
11.6289909
20
-0.1775279
40
1.1862365
50
357.5871873
51
359.2677531
0
LINE
8
DEFAULT_255_1_234
10
13.9202977
20
-0.5300208
11
13.9202977
21
-0.6513
0
LINE
8
DEFAULT_255_1_234
10
13.9202977
20
-0.6513
11
13.1540698
21
-0.6513
0
LINE
8
DEFAULT_255_1_234
10
13.1540698
20
-0.6513
11
13.1540698
21
-0.5444779
0
LINE
8
DEFAULT_255_1_234
10
13.1540698
20
-0.5444779
11
13.5588694
21
-0.0947005
0
LINE
8
DEFAULT_255_1_234
10
13.2801681
20
0.1735595
11
13.131581
21
0.1735595
0
LINE
8
DEFAULT_255_1_234
10
13.6464154
20
-0.1902782
11
13.3331776
21
-0.5300208
0
LINE
8
DEFAULT_255_1_234
10
13.3331776
20
-0.5300208
11
13.9202977
21
-0.5300208
0
ARC
8
DEFAULT_255_1_234
10
12.2098528
20
1.0982527
40
1.8008286
50
318.5132453
51
320.7828378
0
ARC
8
DEFAULT_255_1_234
10
12.7385502
20
0.6679426
40
1.1191493
50
320.7372736
51
323.9737074
0
ARC
8
DEFAULT_255_1_234
10
13.1305358
20
0.3839361
40
0.6350923
50
323.8961724
51
328.6421089
0
ARC
8
DEFAULT_255_1_234
10
13.3351954
20
0.2577031
40
0.3946393
50
328.8299013
51
331.789948
0
ARC
8
DEFAULT_255_1_234
10
13.4349132
20
0.2062509
40
0.2824501
50
331.4255242
51
352.9364833
0
ARC
8
DEFAULT_255_1_234
10
13.4485633
20
0.2031976
40
0.2685315
50
353.2248685
51
0.0169286
0
ARC
8
DEFAULT_255_1_234
10
13.469551
20
0.205495
40
0.2475536
50
359.4866256
51
15.9339782
0
ARC
8
DEFAULT_255_1_234
10
13.5202495
20
0.2191286
40
0.1950618
50
16.1714718
51
43.5284424
0
ARC
8
DEFAULT_255_1_234
10
13.5279804
20
0.2268573
40
0.184134
50
43.4415429
51
83.1661404
0
ARC
8
DEFAULT_255_1_234
10
13.5145722
20
0.1531771
40
0.258926
50
82.160215
51
90.1505798
0
ARC
8
DEFAULT_255_1_234
10
13.5114149
20
0.0994865
40
0.3126255
50
89.5460705
51
102.5418777
0
ARC
8
DEFAULT_255_1_234
10
13.4871235
20
0.2025665
40
0.2067346
50
102.1739365
51
129.2061916
0
ARC
8
DEFAULT_255_1_234
10
13.4792307
20
0.2150094
40
0.1921118
50
129.7279328
51
135.7542026
0
ARC
8
DEFAULT_255_1_234
10
13.4913835
20
0.2053045
40
0.2075944
50
136.175737
51
166.3674722
0
ARC
8
DEFAULT_255_1_234
10
13.5920754
20
0.1783182
40
0.3118201
50
165.9092917
51
178.8683903
0
ARC
8
DEFAULT_255_1_234
10
13.6785615
20
0.1736179
40
0.3983935
50
178.438168
51
180.0083905
0
ARC
8
DEFAULT_255_1_234
10
13.5384217
20
0.1775231
40
0.4068601
50
163.2878735
51
180.5581814
0
ARC
8
DEFAULT_255_1_234
10
13.4582479
20
0.199584
40
0.3237344
50
133.454115
51
162.9470031
0
ARC
8
DEFAULT_255_1_234
10
13.476102
20
0.1806
40
0.349795
50
100.7869394
51
133.4384016
0
ARC
8
DEFAULT_255_1_234
10
13.5108791
20
0.0257319
40
0.5084616
50
89.6605301
51
101.3704185
0
ARC
8
DEFAULT_255_1_234
10
13.517513
20
0.0318496
40
0.502348
50
78.2171172
51
90.4130393
0
ARC
8
DEFAULT_255_1_234
10
13.5530209
20
0.1942637
40
0.3361092
50
55.9268222
51
78.4888551
0
ARC
8
DEFAULT_255_1_234
10
13.5726649
20
0.2281324
40
0.2970617
50
47.9292255
51
55.4054003
0
ARC
8
DEFAULT_255_1_234
10
13.5828209
20
0.2384502
40
0.2825983
50
4.3347696
51
48.0560701
0
ARC
8
DEFAULT_255_1_234
10
13.4732603
20
0.2214601
40
0.393225
50
359.925209
51
5.5967654
0
ARC
8
DEFAULT_255_1_234
10
13.5161495
20
0.2270816
40
0.3503892
50
337.8914096
51
358.9967724
0
ARC
8
DEFAULT_255_1_234
10
13.2447907
20
0.3317706
40
0.6412172
50
326.9135351
51
338.3505194
0
ARC
8
DEFAULT_255_1_234
10
12.8462211
20
0.5872284
40
1.1146189
50
319.6472867
51
327.095818
0
ARC
8
DEFAULT_255_1_234
10
12.4629214
20
0.9034
40
1.6114559
50
317.2586784
51
319.9046139
0
LINE
8
DEFAULT_255_1_234
10
14.4399511
20
-0.6513
11
14.1162721
21
-0.6513
0
LINE
8
DEFAULT_255_1_234
10
14.1162721
20
-0.6513
11
14.1162721
21
0.5181211
0
LINE
8
DEFAULT_255_1_234
10
14.1162721
20
0.5181211
11
14.4463765
21
0.5181211
0
LINE
8
DEFAULT_255_1_234
10
14.9620141
20
-0.0272339
11
14.9620141
21
-0.1019291
0
LINE
8
DEFAULT_255_1_234
10
14.4503924
20
0.3912196
11
14.2704814
21
0.3912196
0
LINE
8
DEFAULT_255_1_234
10
14.2704814
20
0.3912196
11
14.2704814
21
-0.5252017
0
LINE
8
DEFAULT_255_1_234
10
14.2704814
20
-0.5252017
11
14.4327226
21
-0.5252017
0
LINE
8
DEFAULT_255_1_234
10
14.8094111
20
-0.0987164
11
14.8094111
21
-0.0304466
0
ARC
8
DEFAULT_255_1_234
10
14.4502708
20
-0.0684106
40
0.5865446
50
75.4101064
51
90.3804066
0
ARC
8
DEFAULT_255_1_234
10
14.4732221
20
0.0272492
40
0.4881916
50
60.145586
51
75.1888407
0
ARC
8
DEFAULT_255_1_234
10
14.4890997
20
0.0549199
40
0.4562893
50
26.5253612
51
60.1450928
0
ARC
8
DEFAULT_255_1_234
10
14.3770746
20
-0.0044842
40
0.5830602
50
7.4030428
51
26.8320788
0
ARC
8
DEFAULT_255_1_234
10
14.2176503
20
-0.0293196
40
0.7443669
50
0.1605367
51
7.7176192
0
ARC
8
DEFAULT_255_1_234
10
14.2340407
20
-0.1057566
40
0.7279835
50
348.7289388
51
0.3012466
0
ARC
8
DEFAULT_255_1_234
10
14.3996838
20
-0.1386614
40
0.559104
50
333.0706509
51
348.7181832
0
ARC
8
DEFAULT_255_1_234
10
14.4963595
20
-0.1911681
40
0.4491417
50
299.2531685
51
333.4571258
0
ARC
8
DEFAULT_255_1_234
10
14.4602735
20
-0.1226172
40
0.5265881
50
278.107187
51
299.0339503
0
ARC
8
DEFAULT_255_1_234
10
14.4346814
20
0.0281216
40
0.679442
50
270.4443897
51
278.4511052
0
ARC
8
DEFAULT_255_1_234
10
14.4367644
20
-0.0647787
40
0.4604407
50
269.4970433
51
284.0205042
0
ARC
8
DEFAULT_255_1_234
10
14.4722945
20
-0.2013022
40
0.3193797
50
283.7700273
51
318.1555492
0
ARC
8
DEFAULT_255_1_234
10
14.4385703
20
-0.1760633
40
0.3613588
50
318.7415601
51
343.6873628
0
ARC
8
DEFAULT_255_1_234
10
14.2581726
20
-0.1197168
40
0.5503313
50
343.3325091
51
355.8548958
0
ARC
8
DEFAULT_255_1_234
10
14.0483411
20
-0.0997681
40
0.7610708
50
355.4988528
51
0.0791727
0
ARC
8
DEFAULT_255_1_234
10
14.1266033
20
-0.026222
40
0.6828208
50
359.6455037
51
9.8607896
0
ARC
8
DEFAULT_255_1_234
10
14.3626731
20
0.0164099
40
0.4429406
50
9.6571907
51
26.1932807
0
ARC
8
DEFAULT_255_1_234
10
14.455472
20
0.0595118
40
0.3406537
50
26.5777228
51
40.1532208
0
ARC
8
DEFAULT_255_1_234
10
14.4810446
20
0.0794619
40
0.308246
50
40.3840491
51
80.1431104
0
ARC
8
DEFAULT_255_1_234
10
14.4483564
20
-0.0654667
40
0.4566909
50
79.2152159
51
89.7445637
0
LINE
8
DEFAULT_255_1_234
10
15.9354608
20
-0.6513
11
15.8238196
21
-0.3460939
0
LINE
8
DEFAULT_255_1_234
10
15.8238196
20
-0.3460939
11
15.3338836
21
-0.3460939
0
LINE
8
DEFAULT_255_1_234
10
15.3338836
20
-0.3460939
11
15.2238488
21
-0.6513
0
LINE
8
DEFAULT_255_1_234
10
15.2238488
20
-0.6513
11
15.0648204
21
-0.6513
0
LINE
8
DEFAULT_255_1_234
10
15.0648204
20
-0.6513
11
15.511385
21
0.5181211
0
LINE
8
DEFAULT_255_1_234
10
15.511385
20
0.5181211
11
15.6463182
21
0.5181211
0
LINE
8
DEFAULT_255_1_234
10
15.6463182
20
0.5181211
11
16.093686
21
-0.6513
0
LINE
8
DEFAULT_255_1_234
10
16.093686
20
-0.6513
11
15.9354608
21
-0.6513
0
LINE
8
DEFAULT_255_1_234
10
15.5788516
20
0.3277689
11
15.3804677
21
-0.2191925
0
LINE
8
DEFAULT_255_1_234
10
15.3804677
20
-0.2191925
11
15.7780387
21
-0.2191925
0
LINE
8
DEFAULT_255_1_234
10
15.7780387
20
-0.2191925
11
15.5788516
21
0.3277689
0
LINE
8
DEFAULT_255_1_234
10
17.026974
20
0.1799849
11
16.8719615
21
0.1799849
0
LINE
8
DEFAULT_255_1_234
10
16.1796256
20
-0.3123606
11
16.3346382
21
-0.3123606
0
ARC
8
DEFAULT_255_1_234
10
16.9378428
20
1.0746768
40
1.252368
50
248.9199003
51
254.1439814
0
ARC
8
DEFAULT_255_1_234
10
16.7697922
20
0.6420234
40
0.788226
50
241.633709
51
249.0064503
0
ARC
8
DEFAULT_255_1_234
10
16.6169317
20
0.3619317
40
0.4691427
50
230.498225
51
241.8087113
0
ARC
8
DEFAULT_255_1_234
10
16.5384891
20
0.2619906
40
0.3421437
50
227.4064532
51
229.9881192
0
ARC
8
DEFAULT_255_1_234
10
16.4897412
20
0.2144088
40
0.2741476
50
200.6781896
51
228.1763934
0
ARC
8
DEFAULT_255_1_234
10
16.4969722
20
0.2129077
40
0.2804109
50
179.5061581
51
199.8694617
0
ARC
8
DEFAULT_255_1_234
10
16.4960474
20
0.220321
40
0.2795204
50
132.4834203
51
181.0242172
0
ARC
8
DEFAULT_255_1_234
10
16.5556056
20
0.1640704
40
0.3612768
50
129.2532479
51
133.4242687
0
ARC
8
DEFAULT_255_1_234
10
16.5702506
20
0.1420965
40
0.3875675
50
101.98776
51
128.8742646
0
ARC
8
DEFAULT_255_1_234
10
16.6101117
20
-0.0300259
40
0.5642249
50
89.5906553
51
102.3169264
0
ARC
8
DEFAULT_255_1_234
10
16.6171609
20
0.0018148
40
0.5323783
50
77.2360837
51
90.3248275
0
ARC
8
DEFAULT_255_1_234
10
16.6378688
20
0.09854
40
0.4334697
50
63.837784
51
77.0809408
0
ARC
8
DEFAULT_255_1_234
10
16.665645
20
0.1502911
40
0.3747796
50
45.9864267
51
64.1607727
0
ARC
8
DEFAULT_255_1_234
10
16.6917331
20
0.1800866
40
0.3352302
50
32.2747395
51
45.6547121
0
ARC
8
DEFAULT_255_1_234
10
16.6983772
20
0.181988
40
0.328603
50
359.6507365
51
32.6130309
0
ARC
8
DEFAULT_255_1_234
10
16.6040867
20
0.182466
40
0.2678863
50
359.469343
51
14.9832209
0
ARC
8
DEFAULT_255_1_234
10
16.6745929
20
0.2013539
40
0.1948938
50
14.9781179
51
48.2004265
0
ARC
8
DEFAULT_255_1_234
10
16.6581573
20
0.1806983
40
0.2212521
50
48.5927837
51
74.1241538
0
ARC
8
DEFAULT_255_1_234
10
16.6248063
20
0.0706248
40
0.3362561
50
73.7888341
51
86.6652678
0
ARC
8
DEFAULT_255_1_234
10
16.6145629
20
-0.0501119
40
0.4573953
50
86.2640471
51
90.0526343
0
ARC
8
DEFAULT_255_1_234
10
16.6117341
20
-0.0105808
40
0.4178709
50
89.6697524
51
99.2309573
0
ARC
8
DEFAULT_255_1_234
10
16.5874792
20
0.1338964
40
0.2713749
50
99.069534
51
113.7658566
0
ARC
8
DEFAULT_255_1_234
10
16.5600983
20
0.1984677
40
0.2012469
50
114.0401004
51
127.9850673
0
ARC
8
DEFAULT_255_1_234
10
16.5360547
20
0.228073
40
0.1631167
50
127.7287463
51
176.7105154
0
ARC
8
DEFAULT_255_1_234
10
16.6039265
20
0.2179693
40
0.2315392
50
175.1779447
51
180.0581938
0
ARC
8
DEFAULT_255_1_234
10
16.5196111
20
0.2167428
40
0.1472271
50
179.6142195
51
228.1246017
0
ARC
8
DEFAULT_255_1_234
10
16.563778
20
0.2576308
40
0.2072299
50
226.5779593
51
230.8800004
0
ARC
8
DEFAULT_255_1_234
10
16.6108859
20
0.3201636
40
0.2854818
50
231.4635071
51
241.9260842
0
ARC
8
DEFAULT_255_1_234
10
16.7306037
20
0.54048
40
0.53622
50
241.7178533
51
248.3259551
0
ARC
8
DEFAULT_255_1_234
10
16.8691408
20
0.8837064
40
0.9063478
50
248.2007737
51
252.4528373
0
ARC
8
DEFAULT_255_1_234
10
16.9895133
20
1.2558441
40
1.2974635
50
252.3391078
51
254.3469452
0
ARC
8
DEFAULT_255_1_234
10
16.2352836
20
-1.4418852
40
1.5037162
50
71.0197183
51
74.4087047
0
ARC
8
DEFAULT_255_1_234
10
16.4047521
20
-0.9526889
40
0.9859993
50
66.1847285
51
71.086374
0
ARC
8
DEFAULT_255_1_234
10
16.5603834
20
-0.60228
40
0.6025855
50
59.3536294
51
66.2691831
0
ARC
8
DEFAULT_255_1_234
10
16.6492486
20
-0.4519391
40
0.4279449
50
49.1020879
51
59.3293958
0
ARC
8
DEFAULT_255_1_234
10
16.7311226
20
-0.3586166
40
0.3038015
50
32.7919921
51
49.2505539
0
ARC
8
DEFAULT_255_1_234
10
16.7632316
20
-0.3357809
40
0.264448
50
31.1181161
51
32.4005348
0
ARC
8
DEFAULT_255_1_234
10
16.7543854
20
-0.3393221
40
0.2738556
50
8.1116974
51
30.7958831
0
ARC
8
DEFAULT_255_1_234
10
16.6733522
20
-0.3531247
40
0.3560327
50
359.8389159
51
8.4706516
0
ARC
8
DEFAULT_255_1_234
10
16.7359313
20
-0.3579863
40
0.2934776
50
337.4731098
51
0.7537279
0
ARC
8
DEFAULT_255_1_234
10
16.7538008
20
-0.3599613
40
0.2762607
50
307.5917067
51
336.4315538
0
ARC
8
DEFAULT_255_1_234
10
16.7077836
20
-0.3086898
40
0.3449979
50
307.6551545
51
308.4529766
0
ARC
8
DEFAULT_255_1_234
10
16.6847555
20
-0.273175
40
0.3871988
50
284.3734338
51
307.1424381
0
ARC
8
DEFAULT_255_1_234
10
16.6352385
20
-0.0910068
40
0.5759636
50
272.4382747
51
284.646547
0
ARC
8
DEFAULT_255_1_234
10
16.6225594
20
0.0889893
40
0.7563528
50
269.9708387
51
272.8178037
0
ARC
8
DEFAULT_255_1_234
10
16.6182633
20
-0.1148284
40
0.5525489
50
248.2707594
51
270.4055579
0
ARC
8
DEFAULT_255_1_234
10
16.6128375
20
-0.1338808
40
0.5328452
50
246.1383403
51
248.0542782
0
ARC
8
DEFAULT_255_1_234
10
16.5709753
20
-0.2218157
40
0.4355005
50
233.1670131
51
246.4950969
0
ARC
8
DEFAULT_255_1_234
10
16.5155658
20
-0.2966188
40
0.3424126
50
215.3403242
51
233.0843104
0
ARC
8
DEFAULT_255_1_234
10
16.488309
20
-0.3164451
40
0.3087104
50
179.2419209
51
215.2648451
0
ARC
8
DEFAULT_255_1_234
10
16.5650683
20
-0.3150334
40
0.2304457
50
179.335461
51
199.1045811
0
ARC
8
DEFAULT_255_1_234
10
16.531836
20
-0.3237234
40
0.1962176
50
199.8828939
51
232.7063202
0
ARC
8
DEFAULT_255_1_234
10
16.5790628
20
-0.2643212
40
0.2720938
50
232.3738199
51
255.5136649
0
ARC
8
DEFAULT_255_1_234
10
16.6131495
20
-0.1399165
40
0.4010747
50
255.2446292
51
267.5320849
0
ARC
8
DEFAULT_255_1_234
10
16.6219118
20
-0.0166298
40
0.5246356
50
267.1557994
51
270.0286766
0
ARC
8
DEFAULT_255_1_234
10
16.6246891
20
-0.061005
40
0.4802668
50
269.7000017
51
278.1660162
0
ARC
8
DEFAULT_255_1_234
10
16.6502895
20
-0.2340485
40
0.3053425
50
278.0231263
51
290.625471
0
ARC
8
DEFAULT_255_1_234
10
16.6850582
20
-0.3267975
40
0.206291
50
290.6619762
51
307.0370976
0
ARC
8
DEFAULT_255_1_234
10
16.7150972
20
-0.3636496
40
0.1587906
50
306.3943566
51
355.3030547
0
ARC
8
DEFAULT_255_1_234
10
16.6638903
20
-0.3559887
40
0.2104809
50
354.3660432
51
0.0698737
0
ARC
8
DEFAULT_255_1_234
10
16.6781248
20
-0.3537383
40
0.1962563
50
359.417946
51
16.1971788
0
ARC
8
DEFAULT_255_1_234
10
16.7236559
20
-0.3412582
40
0.149053
50
16.4723299
51
52.6262157
0
ARC
8
DEFAULT_255_1_234
10
16.6415613
20
-0.4496567
40
0.2850296
50
52.7386432
51
62.4979148
0
ARC
8
DEFAULT_255_1_234
10
16.5030689
20
-0.7102717
40
0.5801521
50
62.2515216
51
68.1220564
0
ARC
8
DEFAULT_255_1_234
10
16.33106
20
-1.1330128
40
1.0365451
50
68.0062803
51
71.8053402
0
ARC
8
DEFAULT_255_1_234
10
16.1514972
20
-1.6715242
40
1.6042013
50
71.7183119
51
73.9258742
0
LINE
8
DEFAULT_255_1_234
10
17.5128942
20
-0.0938974
11
17.5128942
21
-0.2151766
0
LINE
8
DEFAULT_255_1_234
10
17.5128942
20
-0.2151766
11
17.1209454
21
-0.2151766
0
LINE
8
DEFAULT_255_1_234
10
17.1209454
20
-0.2151766
11
17.1209454
21
-0.0938974
0
LINE
8
DEFAULT_255_1_234
10
17.1209454
20
-0.0938974
11
17.5128942
21
-0.0938974
0
LINE
8
DEFAULT_255_1_234
10
18.1305349
20
0.5237433
11
18.1305349
21
-0.6513
0
LINE
8
DEFAULT_255_1_234
10
18.1305349
20
-0.6513
11
17.9811445
21
-0.6513
0
LINE
8
DEFAULT_255_1_234
10
17.9811445
20
-0.6513
11
17.9811445
21
0.3390133
0
LINE
8
DEFAULT_255_1_234
10
17.9811445
20
0.3390133
11
17.6815607
21
0.2289785
0
LINE
8
DEFAULT_255_1_234
10
17.6815607
20
0.2289785
11
17.6815607
21
0.3639117
0
LINE
8
DEFAULT_255_1_234
10
17.6815607
20
0.3639117
11
18.1072428
21
0.5237433
0
LINE
8
DEFAULT_255_1_234
10
18.1072428
20
0.5237433
11
18.1305349
21
0.5237433
0
ARC
8
DEFAULT_255_2_778
10
13.4649021
20
65.9485533
40
2.3035416
50
339.8907409
51
346.994376
0
ARC
8
DEFAULT_255_2_778
10
14.4342357
20
65.5884276
40
1.2694939
50
328.7691853
51
340.1120733
0
ARC
8
DEFAULT_255_2_778
10
14.9618733
20
65.2617249
40
0.6489533
50
308.240385
51
329.2799976
0
ARC
8
DEFAULT_255_2_778
10
15.1031254
20
65.0928956
40
0.42897
50
290.2149747
51
307.3797345
0
ARC
8
DEFAULT_255_2_778
10
14.8246836
20
65.3555832
40
0.5085768
50
279.0582472
51
335.0254579
0
ARC
8
DEFAULT_255_2_778
10
14.3731606
20
65.6038036
40
1.0232605
50
333.100566
51
347.4967948
0
ARC
8
DEFAULT_255_2_778
10
13.8963879
20
65.7277273
40
1.515659
50
346.8251736
51
349.6433145
0
ARC
8
DEFAULT_255_2_778
10
16.7021297
20
66.0002541
40
0.6340004
50
90.2418805
51
180.4975197
0
ARC
8
DEFAULT_255_2_778
10
16.6967765
20
66.000254
40
0.6340006
50
359.5024881
51
89.7581009
0
ARC
8
DEFAULT_255_2_778
10
16.6967768
20
65.9892436
40
0.6340003
50
270.2418684
51
0.4975336
0
ARC
8
DEFAULT_255_2_778
10
16.7021299
20
65.9892437
40
0.6340005
50
179.5024805
51
269.758104
0
ARC
8
DEFAULT_255_2_778
10
17.0885581
20
66.0146235
40
0.5748535
50
158.6224664
51
180.7450103
0
ARC
8
DEFAULT_255_2_778
10
16.7839054
20
66.1416995
40
0.2449488
50
125.6968143
51
160.3264119
0
ARC
8
DEFAULT_255_2_778
10
16.7006393
20
66.2484868
40
0.1097683
50
90.6191325
51
122.9231799
0
ARC
8
DEFAULT_255_2_778
10
16.6857984
20
66.2103461
40
0.1485318
50
26.6299238
51
84.7252528
0
ARC
8
DEFAULT_255_2_778
10
16.4257415
20
66.044902
40
0.4562354
50
6.9672199
51
30.5675002
0
ARC
8
DEFAULT_255_2_778
10
16.230961
20
66.0079325
40
0.6541928
50
359.9313724
51
8.1119436
0
ARC
8
DEFAULT_255_2_778
10
16.3103903
20
65.9997075
40
0.5748111
50
338.6217917
51
0.7417631
0
ARC
8
DEFAULT_255_2_778
10
16.6148775
20
65.8726776
40
0.2450776
50
305.7107467
51
340.3279893
0
ARC
8
DEFAULT_255_2_778
10
16.6982626
20
65.7657757
40
0.1097331
50
270.6216799
51
302.9378787
0
ARC
8
DEFAULT_255_2_778
10
16.7131343
20
65.8039636
40
0.148546
50
206.6181959
51
264.7155805
0
ARC
8
DEFAULT_255_2_778
10
16.9733331
20
65.9694852
40
0.456409
50
186.9714802
51
210.5628916
0
ARC
8
DEFAULT_255_2_778
10
17.1675553
20
66.0063721
40
0.6538026
50
179.9319269
51
188.1143536
0
ARC
8
DEFAULT_255_2_778
10
14.1772298
20
66.0002541
40
0.6340005
50
90.2418914
51
180.4975151
0
ARC
8
DEFAULT_255_2_778
10
14.1718765
20
66.000254
40
0.6340006
50
359.5024881
51
89.7581009
0
ARC
8
DEFAULT_255_2_778
10
14.1718768
20
65.9892436
40
0.6340003
50
270.2418684
51
0.4975336
0
ARC
8
DEFAULT_255_2_778
10
14.1772299
20
65.9892437
40
0.6340005
50
179.5024805
51
269.758104
0
ARC
8
DEFAULT_255_2_778
10
14.5631296
20
66.0146068
40
0.5744248
50
158.6039448
51
180.7439081
0
ARC
8
DEFAULT_255_2_778
10
14.2590145
20
66.141583
40
0.2450547
50
125.6846154
51
160.3063409
0
ARC
8
DEFAULT_255_2_778
10
14.1757439
20
66.248437
40
0.1098183
50
90.6212609
51
122.9155624
0
ARC
8
DEFAULT_255_2_778
10
14.1608984
20
66.2103461
40
0.1485318
50
26.6299238
51
84.7252528
0
ARC
8
DEFAULT_255_2_778
10
13.9008415
20
66.044902
40
0.4562354
50
6.9672199
51
30.5675002
0
ARC
8
DEFAULT_255_2_778
10
13.706061
20
66.0079325
40
0.6541928
50
359.9313724
51
8.1119436
0
ARC
8
DEFAULT_255_2_778
10
13.7854903
20
65.9997075
40
0.5748111
50
338.6217917
51
0.7417631
0
ARC
8
DEFAULT_255_2_778
10
14.0899775
20
65.8726776
40
0.2450776
50
305.7107467
51
340.3279893
0
ARC
8
DEFAULT_255_2_778
10
14.1733626
20
65.7657757
40
0.1097331
50
270.6216799
51
302.9378787
0
ARC
8
DEFAULT_255_2_778
10
14.1879015
20
65.8032507
40
0.1478058
50
207.0367178
51
264.8185874
0
ARC
8
DEFAULT_255_2_778
10
14.4427143
20
65.9674943
40
0.4504617
50
187.4901111
51
210.9147812
0
ARC
8
DEFAULT_255_2_778
10
14.6395142
20
66.0062625
40
0.6507616
50
179.9219565
51
188.6157011
0
LINE
8
DEFAULT_255_2_778
10
14.8553532
20
66.6091489
11
15.3503532
21
66.6091489
0
LINE
8
DEFAULT_255_2_778
10
15.3503532
20
66.6091489
11
15.5236532
21
65.9444489
0
LINE
8
DEFAULT_255_2_778
10
15.5236532
20
65.9444489
11
15.7093532
21
66.6215489
0
LINE
8
DEFAULT_255_2_778
10
15.7093532
20
66.6215489
11
16.0065532
21
66.5337489
0
LINE
8
DEFAULT_255_2_778
10
16.0065532
20
66.5337489
11
15.7093532
21
65.4301489
0
LINE
8
DEFAULT_255_2_778
10
15.2513532
20
64.6903489
11
14.9047532
21
64.8533489
0
LINE
8
DEFAULT_255_2_778
10
15.3873532
20
65.4552489
11
15.1770532
21
65.4552489
0
LINE
8
DEFAULT_255_2_778
10
15.1770532
20
65.4552489
11
14.8553532
21
66.6091489
0
LINE
8
DEFAULT_255_2_778
10
16.0681532
20
65.9947489
11
16.0681532
21
65.9947489
0
LINE
8
DEFAULT_255_2_778
10
16.5137532
20
66.0071489
11
16.5137532
21
66.0071489
0
LINE
8
DEFAULT_255_2_778
10
13.5432532
20
65.9947489
11
13.5432532
21
65.9947489
0
LINE
8
DEFAULT_255_2_778
10
13.9887532
20
66.0071489
11
13.9887532
21
66.0071489
0
LINE
8
DEFAULT_255_2_778
10
12.0086532
20
67.3364489
11
12.5531532
21
67.3364489
0
LINE
8
DEFAULT_255_2_778
10
12.5531532
20
67.3364489
11
12.5531532
21
66.6091489
0
LINE
8
DEFAULT_255_2_778
10
12.5531532
20
66.6091489
11
12.9987532
21
67.3364489
0
LINE
8
DEFAULT_255_2_778
10
12.9987532
20
67.3364489
11
13.4691532
21
67.3364489
0
LINE
8
DEFAULT_255_2_778
10
13.4691532
20
67.3364489
11
12.9492532
21
66.4836489
0
LINE
8
DEFAULT_255_2_778
10
12.9492532
20
66.4836489
11
13.5681532
21
65.4303489
0
LINE
8
DEFAULT_255_2_778
10
13.5681532
20
65.4303489
11
12.9987532
21
65.4303489
0
LINE
8
DEFAULT_255_2_778
10
12.9987532
20
65.4303489
11
12.5285532
21
66.2328489
0
LINE
8
DEFAULT_255_2_778
10
12.5285532
20
66.2328489
11
12.5285532
21
65.4303489
0
LINE
8
DEFAULT_255_2_778
10
12.5285532
20
65.4303489
11
12.0086532
21
65.4303489
0
LINE
8
DEFAULT_255_2_778
10
12.0086532
20
65.4303489
11
12.0086532
21
67.3364489
0
LINE
8
DEFAULT_255_1_234
10
8.5835154
20
62.1872
11
8.2598364
21
62.1872
0
LINE
8
DEFAULT_255_1_234
10
8.2598364
20
62.1872
11
8.2598364
21
63.3566211
0
LINE
8
DEFAULT_255_1_234
10
8.2598364
20
63.3566211
11
8.5899408
21
63.3566211
0
LINE
8
DEFAULT_255_1_234
10
9.1055784
20
62.8112661
11
9.1055784
21
62.7365709
0
LINE
8
DEFAULT_255_1_234
10
8.5939567
20
63.2297196
11
8.4140458
21
63.2297196
0
LINE
8
DEFAULT_255_1_234
10
8.4140458
20
63.2297196
11
8.4140458
21
62.3132983
0
LINE
8
DEFAULT_255_1_234
10
8.4140458
20
62.3132983
11
8.5762869
21
62.3132983
0
LINE
8
DEFAULT_255_1_234
10
8.9529754
20
62.7397836
11
8.9529754
21
62.8080534
0
ARC
8
DEFAULT_255_1_234
10
8.5938351
20
62.7700894
40
0.5865446
50
75.4101064
51
90.3804066
0
ARC
8
DEFAULT_255_1_234
10
8.6167864
20
62.8657492
40
0.4881916
50
60.145586
51
75.1888407
0
ARC
8
DEFAULT_255_1_234
10
8.632664
20
62.8934199
40
0.4562893
50
26.5253612
51
60.1450928
0
ARC
8
DEFAULT_255_1_234
10
8.5206389
20
62.8340158
40
0.5830602
50
7.4030428
51
26.8320788
0
ARC
8
DEFAULT_255_1_234
10
8.3612146
20
62.8091804
40
0.7443669
50
0.1605367
51
7.7176192
0
ARC
8
DEFAULT_255_1_234
10
8.377605
20
62.7327434
40
0.7279835
50
348.7289388
51
0.3012466
0
ARC
8
DEFAULT_255_1_234
10
8.5432481
20
62.6998386
40
0.559104
50
333.0706509
51
348.7181832
0
ARC
8
DEFAULT_255_1_234
10
8.6399238
20
62.6473319
40
0.4491417
50
299.2531685
51
333.4571258
0
ARC
8
DEFAULT_255_1_234
10
8.6038378
20
62.7158828
40
0.5265881
50
278.107187
51
299.0339503
0
ARC
8
DEFAULT_255_1_234
10
8.5782457
20
62.8666216
40
0.679442
50
270.4443897
51
278.4511052
0
ARC
8
DEFAULT_255_1_234
10
8.5803287
20
62.7737213
40
0.4604407
50
269.4970433
51
284.0205042
0
ARC
8
DEFAULT_255_1_234
10
8.6158588
20
62.6371978
40
0.3193797
50
283.7700273
51
318.1555492
0
ARC
8
DEFAULT_255_1_234
10
8.5821346
20
62.6624367
40
0.3613588
50
318.7415601
51
343.6873628
0
ARC
8
DEFAULT_255_1_234
10
8.4017369
20
62.7187832
40
0.5503313
50
343.3325091
51
355.8548958
0
ARC
8
DEFAULT_255_1_234
10
8.1919054
20
62.7387319
40
0.7610708
50
355.4988528
51
0.0791727
0
ARC
8
DEFAULT_255_1_234
10
8.2701676
20
62.812278
40
0.6828208
50
359.6455037
51
9.8607896
0
ARC
8
DEFAULT_255_1_234
10
8.5062374
20
62.8549099
40
0.4429406
50
9.6571907
51
26.1932807
0
ARC
8
DEFAULT_255_1_234
10
8.5990363
20
62.8980118
40
0.3406537
50
26.5777228
51
40.1532208
0
ARC
8
DEFAULT_255_1_234
10
8.6246089
20
62.9179619
40
0.308246
50
40.3840491
51
80.1431104
0
ARC
8
DEFAULT_255_1_234
10
8.5919207
20
62.7730333
40
0.4566909
50
79.2152159
51
89.7445637
0
LINE
8
DEFAULT_255_1_234
10
9.4766447
20
63.0562341
11
9.4766447
21
62.1872
0
LINE
8
DEFAULT_255_1_234
10
9.4766447
20
62.1872
11
9.3280576
21
62.1872
0
LINE
8
DEFAULT_255_1_234
10
9.3280576
20
62.1872
11
9.3280576
21
63.0562341
0
LINE
8
DEFAULT_255_1_234
10
9.3280576
20
63.0562341
11
9.4766447
21
63.0562341
0
ARC
8
DEFAULT_255_1_234
10
9.4138724
20
63.2876889
40
0.097867
50
161.415052
51
180.5526306
0
ARC
8
DEFAULT_255_1_234
10
9.4014503
20
63.2911077
40
0.0850062
50
138.1827368
51
160.9307106
0
ARC
8
DEFAULT_255_1_234
10
9.3904448
20
63.3006588
40
0.0704362
50
104.6368899
51
138.0039868
0
ARC
8
DEFAULT_255_1_234
10
9.4011603
20
63.2639963
40
0.1086221
50
92.0600725
51
105.2189128
0
ARC
8
DEFAULT_255_1_234
10
9.4034951
20
63.2297117
40
0.1429728
50
89.9756393
51
92.5012496
0
ARC
8
DEFAULT_255_1_234
10
9.4044971
20
63.2522731
40
0.1204151
50
78.0235316
51
90.4478182
0
ARC
8
DEFAULT_255_1_234
10
9.4137062
20
63.2936295
40
0.0780493
50
55.051506
51
78.3369085
0
ARC
8
DEFAULT_255_1_234
10
9.4187337
20
63.3020711
40
0.0682538
50
42.0501187
51
54.4513741
0
ARC
8
DEFAULT_255_1_234
10
9.4052204
20
63.2896798
40
0.0865878
50
1.7497075
51
42.1496013
0
ARC
8
DEFAULT_255_1_234
10
9.3797537
20
63.2867738
40
0.1121515
50
359.9852656
51
2.8364544
0
ARC
8
DEFAULT_255_1_234
10
9.3963529
20
63.2858229
40
0.0955566
50
342.1070653
51
0.552888
0
ARC
8
DEFAULT_255_1_234
10
9.4106226
20
63.2818904
40
0.0807713
50
316.7107116
51
341.6516965
0
ARC
8
DEFAULT_255_1_234
10
9.4173263
20
63.2758823
40
0.0717724
50
285.4397031
51
316.5324284
0
ARC
8
DEFAULT_255_1_234
10
9.4063181
20
63.3124554
40
0.1099597
50
272.3547054
51
285.8953117
0
ARC
8
DEFAULT_255_1_234
10
9.4036338
20
63.3490048
40
0.1465932
50
269.9695369
51
272.8160237
0
ARC
8
DEFAULT_255_1_234
10
9.402652
20
63.3270863
40
0.1246779
50
258.8431134
51
270.4153935
0
ARC
8
DEFAULT_255_1_234
10
9.3936562
20
63.2835414
40
0.0802162
50
238.5431189
51
259.1288175
0
ARC
8
DEFAULT_255_1_234
10
9.3868447
20
63.2711856
40
0.0661247
50
222.5062634
51
237.9906969
0
ARC
8
DEFAULT_255_1_234
10
9.3996035
20
63.2827889
40
0.0833707
50
184.1069131
51
222.460413
0
ARC
8
DEFAULT_255_1_234
10
9.4265275
20
63.2866349
40
0.1105176
50
179.9429482
51
185.0960898
0
LINE
8
DEFAULT_255_1_234
10
10.1344441
20
63.0610531
11
10.1344441
21
62.9229072
0
LINE
8
DEFAULT_255_1_234
10
9.8629713
20
62.8040375
11
9.8629713
21
62.1872
0
LINE
8
DEFAULT_255_1_234
10
9.8629713
20
62.1872
11
9.7143842
21
62.1872
0
LINE
8
DEFAULT_255_1_234
10
9.7143842
20
62.1872
11
9.7143842
21
63.0562341
0
LINE
8
DEFAULT_255_1_234
10
9.7143842
20
63.0562341
11
9.8589555
21
63.0562341
0
LINE
8
DEFAULT_255_1_234
10
9.8589555
20
63.0562341
11
9.861365
21
62.9558374
0
ARC
8
DEFAULT_255_1_234
10
10.0677846
20
62.5169342
40
0.4114092
50
80.6754243
51
86.8932892
0
ARC
8
DEFAULT_255_1_234
10
10.0617381
20
62.42017
40
0.5083596
50
86.8038578
51
90.0431435
0
ARC
8
DEFAULT_255_1_234
10
10.0580362
20
62.6658866
40
0.2626638
50
89.2759698
51
106.6213787
0
ARC
8
DEFAULT_255_1_234
10
10.0375925
20
62.740183
40
0.1856317
50
107.1346045
51
157.6458115
0
ARC
8
DEFAULT_255_1_234
10
10.1067527
20
62.7018311
40
0.2643398
50
155.6586782
51
157.2539184
0
ARC
8
DEFAULT_255_1_234
10
10.0862729
20
62.8187157
40
0.2634121
50
127.8165941
51
148.6302098
0
ARC
8
DEFAULT_255_1_234
10
10.0609198
20
62.8447218
40
0.2273596
50
91.3329982
51
126.7875809
0
ARC
8
DEFAULT_255_1_234
10
10.0685139
20
62.7732195
40
0.299078
50
89.986594
51
92.4688449
0
ARC
8
DEFAULT_255_1_234
10
10.0693534
20
62.8007078
40
0.2715908
50
85.3589899
51
90.1623399
0
ARC
8
DEFAULT_255_1_234
10
10.0778049
20
62.9011164
40
0.1708278
50
78.401942
51
85.4594656
0
ARC
8
DEFAULT_255_1_234
10
10.0922933
20
62.9702236
40
0.1002194
50
67.7858312
51
78.5728455
0
ARC
8
DEFAULT_255_1_234
10
10.1030786
20
62.9981887
40
0.0702548
50
63.4835954
51
67.3062642
0
LINE
8
DEFAULT_255_1_234
10
10.2179742
20
62.5976218
11
10.2179742
21
62.6249297
0
LINE
8
DEFAULT_255_1_234
10
10.9552877
20
62.6409932
11
10.9552877
21
62.5791488
0
LINE
8
DEFAULT_255_1_234
10
10.9552877
20
62.5791488
11
10.3665613
21
62.5791488
0
LINE
8
DEFAULT_255_1_234
10
10.8532847
20
62.4096792
11
10.9440433
21
62.3389999
0
LINE
8
DEFAULT_255_1_234
10
10.3713804
20
62.7012313
11
10.8067006
21
62.7012313
0
LINE
8
DEFAULT_255_1_234
10
10.8067006
20
62.7012313
11
10.8067006
21
62.7124757
0
ARC
8
DEFAULT_255_1_234
10
10.6119107
20
62.6087332
40
0.4376191
50
252.3266134
51
270.5810217
0
ARC
8
DEFAULT_255_1_234
10
10.5914196
20
62.5346644
40
0.3608374
50
223.3000567
51
251.8561855
0
ARC
8
DEFAULT_255_1_234
10
10.6125556
20
62.5551937
40
0.3902993
50
190.9374509
51
223.3654032
0
ARC
8
DEFAULT_255_1_234
10
10.7850529
20
62.5941885
40
0.5670891
50
179.6531105
51
191.4989439
0
ARC
8
DEFAULT_255_1_234
10
10.7972541
20
62.6281417
40
0.5792888
50
167.4007466
51
180.3176909
0
ARC
8
DEFAULT_255_1_234
10
10.6920603
20
62.6503885
40
0.471777
50
154.1835823
51
167.250763
0
ARC
8
DEFAULT_255_1_234
10
10.628907
20
62.6836417
40
0.4004528
50
134.3149965
51
154.5315275
0
ARC
8
DEFAULT_255_1_234
10
10.6071565
20
62.7027228
40
0.371612
50
122.8616532
51
133.9707695
0
ARC
8
DEFAULT_255_1_234
10
10.5968139
20
62.7249703
40
0.3473289
50
89.8249009
51
123.4199222
0
ARC
8
DEFAULT_255_1_234
10
10.601818
20
62.6602967
40
0.4120197
50
74.7876118
51
90.5482747
0
ARC
8
DEFAULT_255_1_234
10
10.6311924
20
62.768803
40
0.2996077
50
39.8178249
51
74.7633718
0
ARC
8
DEFAULT_255_1_234
10
10.5799244
20
62.7288351
40
0.3645855
50
16.8990863
51
39.4829761
0
ARC
8
DEFAULT_255_1_234
10
10.390454
20
62.6681526
40
0.5635218
50
4.9636328
51
17.2026414
0
ARC
8
DEFAULT_255_1_234
10
10.148661
20
62.642634
40
0.8066286
50
359.8834553
51
5.2834307
0
ARC
8
DEFAULT_255_1_234
10
10.7524135
20
62.5857803
40
0.3859091
50
180.9846213
51
194.9401313
0
ARC
8
DEFAULT_255_1_234
10
10.6474413
20
62.5570849
40
0.2770883
50
194.80314
51
222.0412631
0
ARC
8
DEFAULT_255_1_234
10
10.6170294
20
62.5269116
40
0.2343055
50
221.5417084
51
268.8614402
0
ARC
8
DEFAULT_255_1_234
10
10.6243289
20
62.5945686
40
0.3021528
50
267.732405
51
270.0097136
0
ARC
8
DEFAULT_255_1_234
10
10.6261099
20
62.6147105
40
0.3222994
50
269.6924892
51
280.4117579
0
ARC
8
DEFAULT_255_1_234
10
10.6437506
20
62.5228193
40
0.2287344
50
280.2255091
51
298.6338936
0
ARC
8
DEFAULT_255_1_234
10
10.6554298
20
62.4984223
40
0.2017294
50
299.0430333
51
300.4643464
0
ARC
8
DEFAULT_255_1_234
10
10.5874303
20
62.6118038
40
0.3339357
50
300.6577328
51
322.0378878
0
ARC
8
DEFAULT_255_1_234
10
10.5523842
20
62.6422021
40
0.3802736
50
321.6750233
51
322.3046845
0
ARC
8
DEFAULT_255_1_234
10
10.6454804
20
62.525537
40
0.3520454
50
276.9728461
51
328.0035423
0
ARC
8
DEFAULT_255_1_234
10
10.6177857
20
62.6735841
40
0.5024498
50
269.8361028
51
278.0581756
0
ARC
8
DEFAULT_255_1_234
10
10.5950594
20
62.7480757
40
0.202159
50
89.2018686
51
117.2851756
0
ARC
8
DEFAULT_255_1_234
10
10.6003763
20
62.7438752
40
0.2083484
50
118.0551165
51
137.4540413
0
ARC
8
DEFAULT_255_1_234
10
10.6378503
20
62.7098304
40
0.2589774
50
137.5109581
51
158.8516286
0
ARC
8
DEFAULT_255_1_234
10
10.7516339
20
62.6639074
40
0.38167
50
158.5845963
51
170.1721436
0
ARC
8
DEFAULT_255_1_234
10
10.8685728
20
62.6406823
40
0.5008657
50
169.8376422
51
173.0566086
0
ARC
8
DEFAULT_255_1_234
10
10.3988802
20
62.6917509
40
0.4083467
50
2.9091802
51
12.8847116
0
ARC
8
DEFAULT_255_1_234
10
10.5359478
20
62.7240101
40
0.2675383
50
12.6957781
51
28.6404489
0
ARC
8
DEFAULT_255_1_234
10
10.5901149
20
62.7520458
40
0.2065654
50
29.0169854
51
41.1487595
0
ARC
8
DEFAULT_255_1_234
10
10.6103934
20
62.7697003
40
0.1796786
50
41.1646065
51
85.0013516
0
ARC
8
DEFAULT_255_1_234
10
10.5983031
20
62.6962431
40
0.2539726
50
83.7280015
51
90.0964893
0
LINE
8
DEFAULT_255_1_234
10
11.6805537
20
62.4610823
11
11.8211091
21
62.4610823
0
LINE
8
DEFAULT_255_1_234
10
11.0886146
20
62.6136853
11
11.0886146
21
62.6385837
0
LINE
8
DEFAULT_255_1_234
10
11.8211091
20
62.7574534
11
11.6805537
21
62.7574534
0
LINE
8
DEFAULT_255_1_234
10
11.2372018
20
62.6329615
11
11.2372018
21
62.6048504
0
ARC
8
DEFAULT_255_1_234
10
11.4793572
20
62.5064121
40
0.2140268
50
269.0327816
51
309.2224514
0
ARC
8
DEFAULT_255_1_234
10
11.5003327
20
62.4849108
40
0.1841255
50
308.396669
51
329.6984113
0
ARC
8
DEFAULT_255_1_234
10
11.5141182
20
62.474482
40
0.166974
50
330.401383
51
355.3970571
0
ARC
8
DEFAULT_255_1_234
10
11.5598048
20
62.4762082
40
0.2617417
50
329.2357853
51
356.6870514
0
ARC
8
DEFAULT_255_1_234
10
11.504807
20
62.5052971
40
0.3238945
50
324.8706984
51
329.7905871
0
ARC
8
DEFAULT_255_1_234
10
11.4969788
20
62.5120106
40
0.3341614
50
298.8769168
51
324.7016144
0
ARC
8
DEFAULT_255_1_234
10
11.463798
20
62.5648917
40
0.3965068
50
296.9023738
51
299.385174
0
ARC
8
DEFAULT_255_1_234
10
11.4767593
20
62.5361422
40
0.365007
50
269.8406811
51
297.1299281
0
ARC
8
DEFAULT_255_1_234
10
11.471425
20
62.5999407
40
0.4288259
50
253.315473
51
270.5771285
0
ARC
8
DEFAULT_255_1_234
10
11.4467285
20
62.5105739
40
0.3361372
50
221.1002312
51
252.9744583
0
ARC
8
DEFAULT_255_1_234
10
11.4927282
20
62.550059
40
0.3967576
50
194.5394537
51
221.0302238
0
ARC
8
DEFAULT_255_1_234
10
11.6776103
20
62.6015952
40
0.5886672
50
182.0499201
51
194.8773585
0
ARC
8
DEFAULT_255_1_234
10
11.8546302
20
62.613406
40
0.7660157
50
179.9791086
51
182.4591564
0
ARC
8
DEFAULT_255_1_234
10
11.6808346
20
62.6415498
40
0.5922274
50
168.614861
51
180.2869651
0
ARC
8
DEFAULT_255_1_234
10
11.5606491
20
62.6651269
40
0.4697532
50
154.9162259
51
168.5402336
0
ARC
8
DEFAULT_255_1_234
10
11.4684998
20
62.710663
40
0.3669966
50
133.5746694
51
155.2558665
0
ARC
8
DEFAULT_255_1_234
10
11.4522157
20
62.7245467
40
0.3457206
50
122.0165146
51
133.2055214
0
ARC
8
DEFAULT_255_1_234
10
11.4557996
20
62.7157361
40
0.355095
50
97.8731644
51
121.7531281
0
ARC
8
DEFAULT_255_1_234
10
11.4737078
20
62.6100159
40
0.4622833
50
89.8471353
51
98.2769494
0
ARC
8
DEFAULT_255_1_234
10
11.4785831
20
62.6710091
40
0.401305
50
73.3760412
51
90.5199766
0
ARC
8
DEFAULT_255_1_234
10
11.4982194
20
62.7432516
40
0.3264695
50
47.7085968
51
73.0509704
0
ARC
8
DEFAULT_255_1_234
10
11.5112065
20
62.7545128
40
0.309407
50
3.7443473
51
48.0843753
0
ARC
8
DEFAULT_255_1_234
10
11.4125014
20
62.7387614
40
0.4090351
50
2.6192045
51
5.0432185
0
ARC
8
DEFAULT_255_1_234
10
11.4581867
20
62.7427592
40
0.2228519
50
3.780656
51
23.9356886
0
ARC
8
DEFAULT_255_1_234
10
11.4810484
20
62.7508155
40
0.198697
50
24.4869552
51
46.9440088
0
ARC
8
DEFAULT_255_1_234
10
11.4811334
20
62.7531484
40
0.1969404
50
46.498716
51
89.3298174
0
ARC
8
DEFAULT_255_1_234
10
11.4749688
20
62.6936723
40
0.2565428
50
88.1083975
51
90.0061569
0
ARC
8
DEFAULT_255_1_234
10
11.4722118
20
62.6990759
40
0.251154
50
89.3773333
51
107.2071161
0
ARC
8
DEFAULT_255_1_234
10
11.4579241
20
62.750819
40
0.1975072
50
107.6883219
51
143.3583002
0
ARC
8
DEFAULT_255_1_234
10
11.5146625
20
62.7081873
40
0.2684762
50
143.2846717
51
162.935323
0
ARC
8
DEFAULT_255_1_234
10
11.6652226
20
62.6598652
40
0.4265927
50
162.6650068
51
174.0805419
0
ARC
8
DEFAULT_255_1_234
10
11.8795065
20
62.6349636
40
0.6423078
50
173.8423985
51
180.1785963
0
ARC
8
DEFAULT_255_1_234
10
11.8247165
20
62.6018039
40
0.5875227
50
179.7028978
51
188.2277152
0
ARC
8
DEFAULT_255_1_234
10
11.6145467
20
62.5703247
40
0.3750127
50
188.0629871
51
201.1160002
0
ARC
8
DEFAULT_255_1_234
10
11.5047666
20
62.5284238
40
0.2575093
50
201.2187293
51
216.9761968
0
ARC
8
DEFAULT_255_1_234
10
11.4596229
20
62.4945993
40
0.2010998
50
217.0135981
51
265.2056839
0
ARC
8
DEFAULT_255_1_234
10
11.4752088
20
62.5867695
40
0.2943543
50
263.681807
51
270.104251
0
LINE
8
DEFAULT_255_1_234
10
12.0411788
20
63.2666656
11
12.1897659
21
63.2666656
0
LINE
8
DEFAULT_255_1_234
10
12.1897659
20
63.2666656
11
12.1897659
21
63.0562341
0
LINE
8
DEFAULT_255_1_234
10
12.1897659
20
63.0562341
11
12.352007
21
63.0562341
0
LINE
8
DEFAULT_255_1_234
10
12.352007
20
63.0562341
11
12.352007
21
62.9413802
0
LINE
8
DEFAULT_255_1_234
10
12.352007
20
62.9413802
11
12.1897659
21
62.9413802
0
LINE
8
DEFAULT_255_1_234
10
12.1897659
20
62.9413802
11
12.1897659
21
62.4024506
0
LINE
8
DEFAULT_255_1_234
10
12.3560229
20
62.3076761
11
12.3560229
21
62.1872
0
LINE
8
DEFAULT_255_1_234
10
12.0411788
20
62.4024506
11
12.0411788
21
62.9413802
0
LINE
8
DEFAULT_255_1_234
10
12.0411788
20
62.9413802
11
11.8829535
21
62.9413802
0
LINE
8
DEFAULT_255_1_234
10
11.8829535
20
62.9413802
11
11.8829535
21
63.0562341
0
LINE
8
DEFAULT_255_1_234
10
11.8829535
20
63.0562341
11
12.0411788
21
63.0562341
0
LINE
8
DEFAULT_255_1_234
10
12.0411788
20
63.0562341
11
12.0411788
21
63.2666656
0
ARC
8
DEFAULT_255_1_234
10
12.3905162
20
62.4014084
40
0.200753
50
179.7025659
51
187.917967
0
ARC
8
DEFAULT_255_1_234
10
12.3159188
20
62.3906724
40
0.1253883
50
187.7545981
51
200.2447476
0
ARC
8
DEFAULT_255_1_234
10
12.2738509
20
62.3749859
40
0.0804913
50
200.130383
51
219.174133
0
ARC
8
DEFAULT_255_1_234
10
12.2602686
20
62.3657515
40
0.0641445
50
220.4434483
51
249.6172
0
ARC
8
DEFAULT_255_1_234
10
12.2757536
20
62.4046968
40
0.1060489
50
249.1032952
51
262.775154
0
ARC
8
DEFAULT_255_1_234
10
12.2845708
20
62.4675715
40
0.1695354
50
262.4913187
51
270.2611758
0
ARC
8
DEFAULT_255_1_234
10
12.2843125
20
62.4891103
40
0.191075
50
270.3091804
51
275.6625139
0
ARC
8
DEFAULT_255_1_234
10
12.270035
20
62.6392435
40
0.3418851
50
275.5610264
51
279.0879356
0
ARC
8
DEFAULT_255_1_234
10
12.2370227
20
62.8487699
40
0.5539959
50
279.0365489
51
281.5011378
0
ARC
8
DEFAULT_255_1_234
10
12.2013304
20
63.0291423
40
0.7378639
50
281.4243939
51
282.1017894
0
ARC
8
DEFAULT_255_1_234
10
12.2356551
20
62.6209858
40
0.4501761
50
275.2597045
51
285.5083879
0
ARC
8
DEFAULT_255_1_234
10
12.2417875
20
62.5653606
40
0.3942242
50
270.0268409
51
275.1132796
0
ARC
8
DEFAULT_255_1_234
10
12.239784
20
62.4326614
40
0.261534
50
257.3573315
51
270.479383
0
ARC
8
DEFAULT_255_1_234
10
12.2184731
20
62.3428406
40
0.1692304
50
230.8037497
51
257.741658
0
ARC
8
DEFAULT_255_1_234
10
12.2116635
20
62.3318777
40
0.1564393
50
219.974146
51
230.1990686
0
ARC
8
DEFAULT_255_1_234
10
12.2448581
20
62.3572579
40
0.1981916
50
196.5084186
51
219.4318458
0
ARC
8
DEFAULT_255_1_234
10
12.3464026
20
62.3891194
40
0.3046086
50
184.6404872
51
196.8269686
0
ARC
8
DEFAULT_255_1_234
10
12.4709091
20
62.4016908
40
0.4297309
50
179.8986958
51
184.9681077
0
LINE
8
DEFAULT_255_1_234
10
12.7037972
20
63.3566211
11
12.7037972
21
62.3132983
0
LINE
8
DEFAULT_255_1_234
10
12.7037972
20
62.3132983
11
13.2579871
21
62.3132983
0
LINE
8
DEFAULT_255_1_234
10
13.2579871
20
62.3132983
11
13.2579871
21
62.1872
0
LINE
8
DEFAULT_255_1_234
10
13.2579871
20
62.1872
11
12.5487846
21
62.1872
0
LINE
8
DEFAULT_255_1_234
10
12.5487846
20
62.1872
11
12.5487846
21
63.3566211
0
LINE
8
DEFAULT_255_1_234
10
12.5487846
20
63.3566211
11
12.7037972
21
63.3566211
0
LINE
8
DEFAULT_255_1_234
10
14.2812306
20
62.8080534
11
14.2812306
21
62.7341614
0
LINE
8
DEFAULT_255_1_234
10
13.340714
20
62.7237201
11
13.340714
21
62.8080534
0
LINE
8
DEFAULT_255_1_234
10
14.1278244
20
62.7229169
11
14.1278244
21
62.8096597
0
LINE
8
DEFAULT_255_1_234
10
13.4941202
20
62.820101
11
13.4941202
21
62.7341614
0
ARC
8
DEFAULT_255_1_234
10
13.4170332
20
62.7302015
40
0.8642064
50
350.487711
51
0.2625388
0
ARC
8
DEFAULT_255_1_234
10
13.6463573
20
62.6907578
40
0.631518
50
336.0277639
51
350.5787438
0
ARC
8
DEFAULT_255_1_234
10
13.7808397
20
62.6299892
40
0.4839466
50
319.8877444
51
336.1328423
0
ARC
8
DEFAULT_255_1_234
10
13.8411038
20
62.581758
40
0.4067874
50
302.4806467
51
319.6143626
0
ARC
8
DEFAULT_255_1_234
10
13.8296048
20
62.6039202
40
0.4316636
50
275.8195682
51
302.1884709
0
ARC
8
DEFAULT_255_1_234
10
13.8129681
20
62.7181665
40
0.5470306
50
269.9171439
51
276.3397983
0
ARC
8
DEFAULT_255_1_234
10
13.8084891
20
62.6495681
40
0.4784458
50
252.5219675
51
270.4416499
0
ARC
8
DEFAULT_255_1_234
10
13.794115
20
62.5956592
40
0.422716
50
237.5352116
51
252.1857531
0
ARC
8
DEFAULT_255_1_234
10
13.8030346
20
62.6070363
40
0.4371052
50
209.063312
51
237.3492538
0
ARC
8
DEFAULT_255_1_234
10
13.8900194
20
62.6616685
40
0.5397041
50
205.1183774
51
209.6470015
0
ARC
8
DEFAULT_255_1_234
10
13.9697231
20
62.695483
40
0.6262326
50
188.7215458
51
204.8240747
0
ARC
8
DEFAULT_255_1_234
10
14.1694759
20
62.7291067
40
0.8287794
50
180.3723947
51
188.9252049
0
ARC
8
DEFAULT_255_1_234
10
14.1667511
20
62.8120402
40
0.8260467
50
169.5253763
51
180.2765336
0
ARC
8
DEFAULT_255_1_234
10
13.9764959
20
62.8470309
40
0.6326007
50
155.8315255
51
169.5089989
0
ARC
8
DEFAULT_255_1_234
10
13.8484461
20
62.9064348
40
0.4914567
50
139.6258461
51
156.0379525
0
ARC
8
DEFAULT_255_1_234
10
13.7894794
20
62.9538799
40
0.4158054
50
122.6416387
51
139.3430715
0
ARC
8
DEFAULT_255_1_234
10
13.7995414
20
62.9355451
40
0.4366739
50
93.0223692
51
122.455762
0
ARC
8
DEFAULT_255_1_234
10
13.8103411
20
62.8390709
40
0.5336137
50
89.975342
51
93.6341897
0
ARC
8
DEFAULT_255_1_234
10
13.814219
20
62.8789242
40
0.4937738
50
73.746375
51
90.4233405
0
ARC
8
DEFAULT_255_1_234
10
13.8317769
20
62.9469287
40
0.4235786
50
57.662753
51
73.4518111
0
ARC
8
DEFAULT_255_1_234
10
13.8309775
20
62.9490832
40
0.4221899
50
29.1440151
51
57.414694
0
ARC
8
DEFAULT_255_1_234
10
13.7374969
20
62.8907005
40
0.5322966
50
24.0982783
51
29.7323517
0
ARC
8
DEFAULT_255_1_234
10
13.6341245
20
62.8478399
40
0.6441673
50
8.6655297
51
23.8241346
0
ARC
8
DEFAULT_255_1_234
10
13.4106983
20
62.8113854
40
0.8705386
50
359.7806941
51
8.8218784
0
ARC
8
DEFAULT_255_1_234
10
13.2959981
20
62.8139345
40
0.8318373
50
359.7055579
51
8.036044
0
ARC
8
DEFAULT_255_1_234
10
13.5959987
20
62.8576239
40
0.5286768
50
7.8928306
51
20.2962107
0
ARC
8
DEFAULT_255_1_234
10
13.7587557
20
62.9176395
40
0.3552073
50
20.3231126
51
36.4992797
0
ARC
8
DEFAULT_255_1_234
10
13.8273103
20
62.9704402
40
0.2686974
50
36.1437156
51
85.6627023
0
ARC
8
DEFAULT_255_1_234
10
13.8110649
20
62.8664221
40
0.373739
50
84.3852322
51
90.0757696
0
ARC
8
DEFAULT_255_1_234
10
13.8068322
20
62.9324839
40
0.3076997
50
89.3038458
51
109.9045693
0
ARC
8
DEFAULT_255_1_234
10
13.7975713
20
62.9707062
40
0.2686424
50
110.8228367
51
143.9179474
0
ARC
8
DEFAULT_255_1_234
10
13.8909373
20
62.8994236
40
0.3860887
50
143.5289163
51
163.2980757
0
ARC
8
DEFAULT_255_1_234
10
14.0817194
20
62.8394433
40
0.5860659
50
163.0418846
51
174.3140048
0
ARC
8
DEFAULT_255_1_234
10
14.3221306
20
62.8116854
40
0.8280531
50
174.0509143
51
179.4176892
0
ARC
8
DEFAULT_255_1_234
10
14.2717045
20
62.7299954
40
0.7775954
50
179.6930361
51
188.7906598
0
ARC
8
DEFAULT_255_1_234
10
14.0053524
20
62.6873935
40
0.5078633
50
188.6331305
51
202.5629587
0
ARC
8
DEFAULT_255_1_234
10
13.8799116
20
62.6369996
40
0.3726913
50
202.8081362
51
216.1193925
0
ARC
8
DEFAULT_255_1_234
10
13.7989686
20
62.5718676
40
0.2689577
50
215.0755913
51
264.6379694
0
ARC
8
DEFAULT_255_1_234
10
13.8116635
20
62.6549513
40
0.3528978
50
263.846392
51
270.0833719
0
ARC
8
DEFAULT_255_1_234
10
13.8158026
20
62.6291374
40
0.3271036
50
269.3649385
51
287.5152008
0
ARC
8
DEFAULT_255_1_234
10
13.8336183
20
62.5644238
40
0.2600406
50
288.0630309
51
323.8113348
0
ARC
8
DEFAULT_255_1_234
10
13.7465025
20
62.6294049
40
0.3687189
50
323.6547608
51
342.6590488
0
ARC
8
DEFAULT_255_1_234
10
13.543364
20
62.6954952
40
0.5823286
50
342.4091907
51
353.6451149
0
ARC
8
DEFAULT_255_1_234
10
13.2602151
20
62.730719
40
0.8676442
50
353.4029884
51
359.4847795
0
LINE
8
DEFAULT_255_1_234
10
15.3759565
20
62.769501
11
15.3759565
21
62.3406062
0
LINE
8
DEFAULT_255_1_234
10
14.4747955
20
62.7156884
11
14.4747955
21
62.8176915
0
LINE
8
DEFAULT_255_1_234
10
15.3759565
20
63.0136659
11
15.2217471
21
63.0136659
0
LINE
8
DEFAULT_255_1_234
10
14.629808
20
62.8217073
11
14.629808
21
62.7261296
0
LINE
8
DEFAULT_255_1_234
10
15.2225503
20
62.3815681
11
15.2225503
21
62.6442059
0
LINE
8
DEFAULT_255_1_234
10
15.2225503
20
62.6442059
11
14.9518807
21
62.6442059
0
LINE
8
DEFAULT_255_1_234
10
14.9518807
20
62.6442059
11
14.9518807
21
62.769501
0
LINE
8
DEFAULT_255_1_234
10
14.9518807
20
62.769501
11
15.3759565
21
62.769501
0
ARC
8
DEFAULT_255_1_234
10
15.0928071
20
62.5399396
40
0.3462765
50
295.8437914
51
324.8549609
0
ARC
8
DEFAULT_255_1_234
10
15.0512038
20
62.6152567
40
0.4322211
50
291.5695085
51
296.4549398
0
ARC
8
DEFAULT_255_1_234
10
15.000129
20
62.7517275
40
0.5779178
50
278.6622409
51
291.3045483
0
ARC
8
DEFAULT_255_1_234
10
14.9661781
20
62.9665408
40
0.7953952
50
270.020006
51
278.7494541
0
ARC
8
DEFAULT_255_1_234
10
14.9623705
20
63.0982036
40
0.927067
50
269.9969998
51
270.2524872
0
ARC
8
DEFAULT_255_1_234
10
14.9585418
20
62.6898589
40
0.5187361
50
253.5786322
51
270.4175299
0
ARC
8
DEFAULT_255_1_234
10
14.9412074
20
62.6227236
40
0.4494451
50
238.8203306
51
253.2788235
0
ARC
8
DEFAULT_255_1_234
10
14.9392448
20
62.6176231
40
0.4440665
50
206.7883783
51
238.6962764
0
ARC
8
DEFAULT_255_1_234
10
15.0166358
20
62.6640405
40
0.5341121
50
206.1129412
51
207.4916643
0
ARC
8
DEFAULT_255_1_234
10
15.0763273
20
62.6894488
40
0.5989041
50
188.6921119
51
205.7821245
0
ARC
8
DEFAULT_255_1_234
10
15.2619634
20
62.721023
40
0.7871862
50
180.3882829
51
188.9219216
0
ARC
8
DEFAULT_255_1_234
10
15.3847449
20
62.8233464
40
0.909967
50
170.2024264
51
180.3560651
0
ARC
8
DEFAULT_255_1_234
10
15.0683967
20
62.8799237
40
0.5886083
50
154.2857445
51
170.3893044
0
ARC
8
DEFAULT_255_1_234
10
14.940217
20
62.938595
40
0.4476743
50
139.8401567
51
153.9332699
0
ARC
8
DEFAULT_255_1_234
10
14.9042906
20
62.9673577
40
0.4016697
50
98.4190291
51
139.6707122
0
ARC
8
DEFAULT_255_1_234
10
14.9422423
20
62.7828328
40
0.5898566
50
89.7659205
51
99.4415478
0
ARC
8
DEFAULT_255_1_234
10
14.9487673
20
62.7893844
40
0.5833147
50
78.0551672
51
90.4042112
0
ARC
8
DEFAULT_255_1_234
10
14.9892183
20
62.9712644
40
0.3970055
50
54.6380464
51
78.3339173
0
ARC
8
DEFAULT_255_1_234
10
15.0082239
20
63.0032795
40
0.3599102
50
50.031736
51
54.1558201
0
ARC
8
DEFAULT_255_1_234
10
14.9975026
20
62.9936766
40
0.3741624
50
18.1092409
51
49.7180913
0
ARC
8
DEFAULT_255_1_234
10
14.8518226
20
62.9403089
40
0.5292424
50
7.9672797
51
18.6984571
0
ARC
8
DEFAULT_255_1_234
10
14.8668704
20
62.9526504
40
0.3600838
50
9.7557294
51
27.3215714
0
ARC
8
DEFAULT_255_1_234
10
14.9796176
20
63.0089912
40
0.2340608
50
27.7361077
51
84.5257964
0
ARC
8
DEFAULT_255_1_234
10
14.9468563
20
62.844664
40
0.4011215
50
82.106034
51
90.2001166
0
ARC
8
DEFAULT_255_1_234
10
14.941878
20
62.8954215
40
0.3503799
50
89.4150119
51
105.5823402
0
ARC
8
DEFAULT_255_1_234
10
14.9161778
20
62.9889867
40
0.2533503
50
105.6678618
51
144.2648758
0
ARC
8
DEFAULT_255_1_234
10
15.0055034
20
62.9254289
40
0.3629787
50
144.3561283
51
162.8564086
0
ARC
8
DEFAULT_255_1_234
10
15.2138943
20
62.8585017
40
0.5818441
50
162.6076014
51
173.6780284
0
ARC
8
DEFAULT_255_1_234
10
15.5200086
20
62.821289
40
0.8902007
50
173.4670142
51
179.9730753
0
ARC
8
DEFAULT_255_1_234
10
15.3291758
20
62.721926
40
0.6993804
50
179.6556203
51
190.0080463
0
ARC
8
DEFAULT_255_1_234
10
15.0975586
20
62.6794375
40
0.4639066
50
189.8116607
51
206.6796816
0
ARC
8
DEFAULT_255_1_234
10
15.0130739
20
62.6400503
40
0.3707421
50
207.1031645
51
217.7074368
0
ARC
8
DEFAULT_255_1_234
10
14.9496427
20
62.5848559
40
0.2868417
50
216.7345547
51
265.6812148
0
ARC
8
DEFAULT_255_1_234
10
14.9627218
20
62.6752855
40
0.3780509
50
264.7366618
51
270.0611241
0
ARC
8
DEFAULT_255_1_234
10
14.9650482
20
62.9593111
40
0.662079
50
269.8335834
51
276.0539546
0
ARC
8
DEFAULT_255_1_234
10
14.9857486
20
62.769156
40
0.4708016
50
275.9894168
51
284.4615085
0
ARC
8
DEFAULT_255_1_234
10
15.0055493
20
62.6858663
40
0.3852094
50
284.7034461
51
286.4953897
0
ARC
8
DEFAULT_255_1_234
10
15.0462507
20
62.5547965
40
0.2479842
50
286.0770838
51
304.2625829
0
ARC
8
DEFAULT_255_1_234
10
15.059592
20
62.5329594
40
0.2224291
50
304.5891602
51
317.1073298
0
LINE
8
DEFAULT_255_1_234
10
15.7984259
20
63.3566211
11
15.7984259
21
62.1872
0
LINE
8
DEFAULT_255_1_234
10
15.7984259
20
62.1872
11
15.6442166
21
62.1872
0
LINE
8
DEFAULT_255_1_234
10
15.6442166
20
62.1872
11
15.6442166
21
63.3566211
0
LINE
8
DEFAULT_255_1_234
10
15.6442166
20
63.3566211
11
15.7984259
21
63.3566211
0
LINE
8
DEFAULT_255_1_234
10
16.7855266
20
62.5582663
11
16.9405391
21
62.5582663
0
LINE
8
DEFAULT_255_1_234
10
16.0401813
20
62.7172947
11
16.0401813
21
62.8297391
0
LINE
8
DEFAULT_255_1_234
10
16.9405391
20
62.9807357
11
16.7855266
21
62.9807357
0
LINE
8
DEFAULT_255_1_234
10
16.1951938
20
62.8257232
11
16.1951938
21
62.7124757
0
ARC
8
DEFAULT_255_1_234
10
16.3924778
20
62.6179846
40
0.5513052
50
340.1774281
51
353.7814284
0
ARC
8
DEFAULT_255_1_234
10
16.549613
20
62.5594582
40
0.3836379
50
311.4558989
51
340.4421614
0
ARC
8
DEFAULT_255_1_234
10
16.5462799
20
62.5705528
40
0.3941894
50
282.4333181
51
310.7513653
0
ARC
8
DEFAULT_255_1_234
10
16.5023538
20
62.7520679
40
0.5809175
50
269.9358511
51
282.809604
0
ARC
8
DEFAULT_255_1_234
10
16.4971604
20
62.8978212
40
0.7266847
50
270.0021091
51
270.3581957
0
ARC
8
DEFAULT_255_1_234
10
16.4919021
20
62.6377585
40
0.4666519
50
250.7884749
51
270.6489167
0
ARC
8
DEFAULT_255_1_234
10
16.4750855
20
62.5740319
40
0.4009729
50
219.3627325
51
250.0611886
0
ARC
8
DEFAULT_255_1_234
10
16.5580067
20
62.6445042
40
0.5097822
50
193.5479632
51
219.5756669
0
ARC
8
DEFAULT_255_1_234
10
16.7951687
20
62.7060919
40
0.7547848
50
181.1218675
51
193.87563
0
ARC
8
DEFAULT_255_1_234
10
17.0021868
20
62.717158
40
0.9620055
50
179.9918545
51
181.5394234
0
ARC
8
DEFAULT_255_1_234
10
16.817097
20
62.8334788
40
0.7769248
50
169.5837241
51
180.2757934
0
ARC
8
DEFAULT_255_1_234
10
16.6333909
20
62.8674229
40
0.590109
50
155.0365899
51
169.6003176
0
ARC
8
DEFAULT_255_1_234
10
16.5198373
20
62.9221677
40
0.4640625
50
136.783148
51
155.2472683
0
ARC
8
DEFAULT_255_1_234
10
16.4808849
20
62.9552562
40
0.4130255
50
121.7633186
51
136.428115
0
ARC
8
DEFAULT_255_1_234
10
16.4943812
20
62.9303227
40
0.4413323
50
95.6459699
51
121.5490577
0
ARC
8
DEFAULT_255_1_234
10
16.5101093
20
62.8194949
40
0.55319
50
89.924208
51
96.1377933
0
ARC
8
DEFAULT_255_1_234
10
16.5151526
20
62.8313542
40
0.5413475
50
76.6779277
51
90.4563316
0
ARC
8
DEFAULT_255_1_234
10
16.554515
20
62.9904114
40
0.3775041
50
47.485847
51
76.9287264
0
ARC
8
DEFAULT_255_1_234
10
16.5398122
20
62.9804159
40
0.3948286
50
16.5424086
51
46.8933463
0
ARC
8
DEFAULT_255_1_234
10
16.3790279
20
62.9275861
40
0.564021
50
5.4072051
51
17.0365086
0
ARC
8
DEFAULT_255_1_234
10
16.2351297
20
62.9044679
40
0.5556559
50
7.8891745
51
15.9239216
0
ARC
8
DEFAULT_255_1_234
10
16.433831
20
62.9621631
40
0.3487515
50
15.7653144
51
27.9410532
0
ARC
8
DEFAULT_255_1_234
10
16.5442528
20
63.021279
40
0.2235026
50
27.8166557
51
46.4008329
0
ARC
8
DEFAULT_255_1_234
10
16.5492171
20
63.0207082
40
0.2205286
50
47.4371857
51
75.0698205
0
ARC
8
DEFAULT_255_1_234
10
16.5183565
20
62.9132765
40
0.3322915
50
74.7008593
51
87.8124495
0
ARC
8
DEFAULT_255_1_234
10
16.5110253
20
62.8076844
40
0.4380987
50
87.3814673
51
90.0240855
0
ARC
8
DEFAULT_255_1_234
10
16.5071796
20
62.9254291
40
0.3203749
50
89.3451631
51
108.5745436
0
ARC
8
DEFAULT_255_1_234
10
16.4934901
20
62.9767908
40
0.2673494
50
109.2998449
51
143.3037509
0
ARC
8
DEFAULT_255_1_234
10
16.5696974
20
62.9181881
40
0.3634757
50
143.0753173
51
163.1916937
0
ARC
8
DEFAULT_255_1_234
10
16.7648701
20
62.8565967
40
0.5681262
50
162.9373603
51
174.6208611
0
ARC
8
DEFAULT_255_1_234
10
17.0274744
20
62.827801
40
0.8322832
50
174.3419979
51
180.1430411
0
ARC
8
DEFAULT_255_1_234
10
16.93439
20
62.7083698
40
0.7392076
50
179.6817502
51
189.150529
0
ARC
8
DEFAULT_255_1_234
10
16.6843148
20
62.666719
40
0.4856932
50
188.9910863
51
203.5773039
0
ARC
8
DEFAULT_255_1_234
10
16.5763481
20
62.6219211
40
0.3688271
50
203.9077269
51
215.1312379
0
ARC
8
DEFAULT_255_1_234
10
16.4840574
20
62.5503941
40
0.2522457
50
213.9071664
51
263.8849284
0
ARC
8
DEFAULT_255_1_234
10
16.4965904
20
62.6288518
40
0.3316174
50
263.1758525
51
270.1031083
0
ARC
8
DEFAULT_255_1_234
10
16.4997995
20
62.7535365
40
0.4563091
50
269.6719807
51
279.0609165
0
ARC
8
DEFAULT_255_1_234
10
16.5264763
20
62.5922907
40
0.2928759
50
278.8750225
51
293.6346586
0
ARC
8
DEFAULT_255_1_234
10
16.5584972
20
62.51709
40
0.2111472
50
293.8553404
51
310.0518804
0
ARC
8
DEFAULT_255_1_234
10
16.5589825
20
62.5108516
40
0.2060917
50
311.0646779
51
332.0108348
0
ARC
8
DEFAULT_255_1_234
10
16.4397552
20
62.5765978
40
0.3422352
50
331.6588543
51
343.2878891
0
ARC
8
DEFAULT_255_1_234
10
16.2335067
20
62.6399798
40
0.5580003
50
343.1446044
51
351.010618
0
ARC
8
DEFAULT_255_1_234
10
16.0793714
20
62.6680871
40
0.7146438
50
350.7157277
51
351.1602153
0
LINE
8
DEFAULT_255_1_234
10
18.2858553
20
62.3084792
11
18.2858553
21
62.1872
0
LINE
8
DEFAULT_255_1_234
10
18.2858553
20
62.1872
11
17.5196274
21
62.1872
0
LINE
8
DEFAULT_255_1_234
10
17.5196274
20
62.1872
11
17.5196274
21
62.2940221
0
LINE
8
DEFAULT_255_1_234
10
17.5196274
20
62.2940221
11
17.9244271
21
62.7437995
0
LINE
8
DEFAULT_255_1_234
10
17.6457257
20
63.0120595
11
17.4971386
21
63.0120595
0
LINE
8
DEFAULT_255_1_234
10
18.011973
20
62.6482218
11
17.6987352
21
62.3084792
0
LINE
8
DEFAULT_255_1_234
10
17.6987352
20
62.3084792
11
18.2858553
21
62.3084792
0
ARC
8
DEFAULT_255_1_234
10
16.5754104
20
63.9367527
40
1.8008286
50
318.5132453
51
320.7828378
0
ARC
8
DEFAULT_255_1_234
10
17.1041078
20
63.5064426
40
1.1191493
50
320.7372736
51
323.9737074
0
ARC
8
DEFAULT_255_1_234
10
17.4960935
20
63.2224361
40
0.6350923
50
323.8961724
51
328.6421089
0
ARC
8
DEFAULT_255_1_234
10
17.700753
20
63.0962031
40
0.3946393
50
328.8299013
51
331.789948
0
ARC
8
DEFAULT_255_1_234
10
17.8004709
20
63.0447509
40
0.2824501
50
331.4255242
51
352.9364833
0
ARC
8
DEFAULT_255_1_234
10
17.8141209
20
63.0416976
40
0.2685315
50
353.2248685
51
0.0169286
0
ARC
8
DEFAULT_255_1_234
10
17.8351086
20
63.043995
40
0.2475536
50
359.4866256
51
15.9339782
0
ARC
8
DEFAULT_255_1_234
10
17.8858071
20
63.0576286
40
0.1950618
50
16.1714718
51
43.5284424
0
ARC
8
DEFAULT_255_1_234
10
17.893538
20
63.0653573
40
0.184134
50
43.4415429
51
83.1661404
0
ARC
8
DEFAULT_255_1_234
10
17.8801298
20
62.9916771
40
0.258926
50
82.160215
51
90.1505798
0
ARC
8
DEFAULT_255_1_234
10
17.8769725
20
62.9379865
40
0.3126255
50
89.5460705
51
102.5418777
0
ARC
8
DEFAULT_255_1_234
10
17.8526812
20
63.0410665
40
0.2067346
50
102.1739365
51
129.2061916
0
ARC
8
DEFAULT_255_1_234
10
17.8447883
20
63.0535094
40
0.1921118
50
129.7279328
51
135.7542026
0
ARC
8
DEFAULT_255_1_234
10
17.8569411
20
63.0438045
40
0.2075944
50
136.175737
51
166.3674722
0
ARC
8
DEFAULT_255_1_234
10
17.957633
20
63.0168182
40
0.3118201
50
165.9092917
51
178.8683903
0
ARC
8
DEFAULT_255_1_234
10
18.0441191
20
63.0121179
40
0.3983935
50
178.438168
51
180.0083905
0
ARC
8
DEFAULT_255_1_234
10
17.9039794
20
63.0160231
40
0.4068601
50
163.2878735
51
180.5581814
0
ARC
8
DEFAULT_255_1_234
10
17.8238055
20
63.038084
40
0.3237344
50
133.454115
51
162.9470031
0
ARC
8
DEFAULT_255_1_234
10
17.8416596
20
63.0191
40
0.349795
50
100.7869394
51
133.4384016
0
ARC
8
DEFAULT_255_1_234
10
17.8764368
20
62.8642319
40
0.5084616
50
89.6605301
51
101.3704185
0
ARC
8
DEFAULT_255_1_234
10
17.8830707
20
62.8703496
40
0.502348
50
78.2171172
51
90.4130393
0
ARC
8
DEFAULT_255_1_234
10
17.9185785
20
63.0327637
40
0.3361092
50
55.9268222
51
78.4888551
0
ARC
8
DEFAULT_255_1_234
10
17.9382225
20
63.0666324
40
0.2970617
50
47.9292255
51
55.4054003
0
ARC
8
DEFAULT_255_1_234
10
17.9483786
20
63.0769502
40
0.2825983
50
4.3347696
51
48.0560701
0
ARC
8
DEFAULT_255_1_234
10
17.8388179
20
63.0599601
40
0.393225
50
359.925209
51
5.5967654
0
ARC
8
DEFAULT_255_1_234
10
17.8817071
20
63.0655816
40
0.3503892
50
337.8914096
51
358.9967724
0
ARC
8
DEFAULT_255_1_234
10
17.6103483
20
63.1702706
40
0.6412172
50
326.9135351
51
338.3505194
0
ARC
8
DEFAULT_255_1_234
10
17.2117787
20
63.4257284
40
1.1146189
50
319.6472867
51
327.095818
0
ARC
8
DEFAULT_255_1_234
10
16.828479
20
63.7419
40
1.6114559
50
317.2586784
51
319.9046139
0
LINE
8
DEFAULT_255_1_234
10
19.176575
20
62.8787327
11
19.176575
21
62.6859709
0
LINE
8
DEFAULT_255_1_234
10
18.4384583
20
62.6658916
11
18.4384583
21
62.8642755
0
LINE
8
DEFAULT_255_1_234
10
19.0279879
20
62.6458123
11
19.0279879
21
62.8891739
0
LINE
8
DEFAULT_255_1_234
10
18.5870455
20
62.9004184
11
18.5870455
21
62.6626789
0
ARC
8
DEFAULT_255_1_234
10
17.951864
20
62.6810805
40
1.2247208
50
353.8441951
51
0.2287902
0
ARC
8
DEFAULT_255_1_234
10
18.4158144
20
62.6292806
40
0.7578929
50
344.4934747
51
353.9765454
0
ARC
8
DEFAULT_255_1_234
10
18.7150734
20
62.5441981
40
0.4467846
50
329.2803592
51
344.7472793
0
ARC
8
DEFAULT_255_1_234
10
18.8143559
20
62.4897018
40
0.3336173
50
324.9352394
51
328.6160465
0
ARC
8
DEFAULT_255_1_234
10
18.8520668
20
62.4633427
40
0.2876076
50
280.580143
51
324.9173126
0
ARC
8
DEFAULT_255_1_234
10
18.811946
20
62.6304099
40
0.4592847
50
269.5977311
51
281.6734359
0
ARC
8
DEFAULT_255_1_234
10
18.8047366
20
62.6184173
40
0.4472986
50
256.6228859
51
270.51044
0
ARC
8
DEFAULT_255_1_234
10
18.7645344
20
62.4635877
40
0.2873874
50
215.8618325
51
257.2788573
0
ARC
8
DEFAULT_255_1_234
10
18.8666375
20
62.5320977
40
0.4102928
50
197.9693508
51
215.2623606
0
ARC
8
DEFAULT_255_1_234
10
19.1151491
20
62.6159709
40
0.6725652
50
187.8816417
51
198.2346507
0
ARC
8
DEFAULT_255_1_234
10
19.5109699
20
62.6731079
40
1.0724845
50
180.8976217
51
188.0055519
0
ARC
8
DEFAULT_255_1_234
10
19.7909887
20
62.6834777
40
1.3526448
50
180.7449369
51
181.1510016
0
ARC
8
DEFAULT_255_1_234
10
19.6332616
20
62.8691042
40
1.1948131
50
173.7675579
51
180.231553
0
ARC
8
DEFAULT_255_1_234
10
19.1814763
20
62.9201666
40
0.7401564
50
164.3058563
51
173.9002247
0
ARC
8
DEFAULT_255_1_234
10
18.8902832
20
63.0040656
40
0.4371288
50
148.7922025
51
164.568378
0
ARC
8
DEFAULT_255_1_234
10
18.7951284
20
63.0571929
40
0.3282386
50
144.5883898
51
148.1176286
0
ARC
8
DEFAULT_255_1_234
10
18.7608182
20
63.0811315
40
0.2864044
50
101.6440918
51
144.514236
0
ARC
8
DEFAULT_255_1_234
10
18.8033249
20
62.9122069
40
0.4604934
50
89.5284041
51
102.5819763
0
ARC
8
DEFAULT_255_1_234
10
18.8112336
20
62.9083018
40
0.464401
50
77.0437873
51
90.5081339
0
ARC
8
DEFAULT_255_1_234
10
18.8514338
20
63.0725615
40
0.2953195
50
48.2778575
51
77.4994676
0
ARC
8
DEFAULT_255_1_234
10
18.8586969
20
63.0854746
40
0.2808655
50
36.3142134
51
47.6305865
0
ARC
8
DEFAULT_255_1_234
10
18.7718276
20
63.0269515
40
0.3855453
50
18.2931786
51
35.6769206
0
ARC
8
DEFAULT_255_1_234
10
18.5175035
20
62.9396593
40
0.654423
50
8.024666
51
18.5605216
0
ARC
8
DEFAULT_255_1_234
10
18.1011955
20
62.8781792
40
1.0752407
50
1.1274072
51
8.1718305
0
ARC
8
DEFAULT_255_1_234
10
17.7776146
20
62.8654885
40
1.3990231
50
0.5424119
51
1.3863029
0
ARC
8
DEFAULT_255_1_234
10
17.9597524
20
62.8927342
40
1.0682415
50
359.8090433
51
4.9407866
0
ARC
8
DEFAULT_255_1_234
10
18.3807538
20
62.9303113
40
0.6455691
50
4.8362157
51
12.2904523
0
ARC
8
DEFAULT_255_1_234
10
18.6562652
20
62.9916965
40
0.3633074
50
12.0805627
51
23.8173984
0
ARC
8
DEFAULT_255_1_234
10
18.7736358
20
63.0413919
40
0.2358723
50
24.2871213
51
31.3935614
0
ARC
8
DEFAULT_255_1_234
10
18.8261055
20
63.0757233
40
0.1732111
50
30.7407893
51
82.4657128
0
ARC
8
DEFAULT_255_1_234
10
18.8081189
20
62.9873691
40
0.263235
50
81.1060089
51
90.2184952
0
ARC
8
DEFAULT_255_1_234
10
18.8045488
20
63.0131924
40
0.2374236
50
89.3806855
51
105.6762551
0
ARC
8
DEFAULT_255_1_234
10
18.7862119
20
63.0798567
40
0.1682847
50
105.7981136
51
149.7388061
0
ARC
8
DEFAULT_255_1_234
10
18.8926197
20
63.015895
40
0.2924306
50
149.4208916
51
163.6286378
0
ARC
8
DEFAULT_255_1_234
10
19.1017085
20
62.952125
40
0.5110213
50
163.3763315
51
172.1410975
0
ARC
8
DEFAULT_255_1_234
10
19.4317804
20
62.9048518
40
0.8444586
50
172.0259487
51
178.0703232
0
ARC
8
DEFAULT_255_1_234
10
19.7347894
20
62.8904906
40
1.1477868
50
177.8631668
51
179.5044149
0
ARC
8
DEFAULT_255_1_234
10
19.6275298
20
62.6590389
40
1.0404907
50
179.7995573
51
185.2460446
0
ARC
8
DEFAULT_255_1_234
10
19.2232337
20
62.6207513
40
0.6343885
50
185.1411642
51
193.0079639
0
ARC
8
DEFAULT_255_1_234
10
18.958881
20
62.5582641
40
0.3627568
50
192.7897626
51
205.2507664
0
ARC
8
DEFAULT_255_1_234
10
18.8542357
20
62.5115415
40
0.2481908
50
205.8005384
51
211.2537509
0
ARC
8
DEFAULT_255_1_234
10
18.8018797
20
62.476458
40
0.1852521
50
210.3789793
51
238.4008143
0
ARC
8
DEFAULT_255_1_234
10
18.7999319
20
62.4811376
40
0.1882621
50
239.6520629
51
265.9793761
0
ARC
8
DEFAULT_255_1_234
10
18.8084519
20
62.5483427
40
0.2559272
50
265.1315437
51
270.060332
0
ARC
8
DEFAULT_255_1_234
10
18.8113298
20
62.5159534
40
0.2235528
50
269.3314664
51
287.2178029
0
ARC
8
DEFAULT_255_1_234
10
18.825115
20
62.4656279
40
0.1714108
50
287.7958004
51
329.080874
0
ARC
8
DEFAULT_255_1_234
10
18.7293607
20
62.525393
40
0.2842745
50
328.6634704
51
343.3325132
0
ARC
8
DEFAULT_255_1_234
10
18.5120627
20
62.5930863
40
0.5118644
50
343.0499468
51
351.9393422
0
ARC
8
DEFAULT_255_1_234
10
18.1653927
20
62.6441949
40
0.8622784
50
351.8069023
51
357.7959224
0
ARC
8
DEFAULT_255_1_234
10
17.8418483
20
62.6609721
40
1.1862365
50
357.5871873
51
359.2677531
0
LINE
8
DEFAULT_255_1_234
10
19.5540667
20
62.7429963
11
19.435197
21
62.7735169
0
LINE
8
DEFAULT_255_1_234
10
19.435197
20
62.7735169
11
19.4946319
21
63.3566211
0
LINE
8
DEFAULT_255_1_234
10
19.4946319
20
63.3566211
11
20.0937996
21
63.3566211
0
LINE
8
DEFAULT_255_1_234
10
20.0937996
20
63.3566211
11
20.0937996
21
63.2192784
0
LINE
8
DEFAULT_255_1_234
10
20.0937996
20
63.2192784
11
19.6207302
21
63.2192784
0
LINE
8
DEFAULT_255_1_234
10
19.6207302
20
63.2192784
11
19.5853905
21
62.9004184
0
LINE
8
DEFAULT_255_1_234
10
19.393432
20
62.4948156
11
19.5339874
21
62.4948156
0
LINE
8
DEFAULT_255_1_234
10
19.5934223
20
62.7751232
11
19.5540667
21
62.7429963
0
ARC
8
DEFAULT_255_1_234
10
19.7708689
20
62.582423
40
0.3681349
50
93.7182161
51
120.2538958
0
ARC
8
DEFAULT_255_1_234
10
19.7802952
20
62.5016394
40
0.449379
50
89.9660152
51
94.2496022
0
ARC
8
DEFAULT_255_1_234
10
19.7843686
20
62.5605549
40
0.390482
50
73.8043271
51
90.5585896
0
ARC
8
DEFAULT_255_1_234
10
19.8078583
20
62.6463602
40
0.3015334
50
41.3071453
51
73.5430202
0
ARC
8
DEFAULT_255_1_234
10
19.766241
20
62.6105324
40
0.3564457
50
13.5075983
51
41.2174222
0
ARC
8
DEFAULT_255_1_234
10
19.6020614
20
62.5675486
40
0.5261351
50
1.1331335
51
13.8829381
0
ARC
8
DEFAULT_255_1_234
10
19.4608983
20
62.5599665
40
0.6674378
50
359.9919444
51
1.544251
0
ARC
8
DEFAULT_255_1_234
10
19.5885809
20
62.555828
40
0.5397702
50
347.8572367
51
0.4293338
0
ARC
8
DEFAULT_255_1_234
10
19.7636127
20
62.5161736
40
0.3603188
50
323.673004
51
348.1672506
0
ARC
8
DEFAULT_255_1_234
10
19.7930635
20
62.4982168
40
0.3259678
50
316.8171152
51
323.1492751
0
ARC
8
DEFAULT_255_1_234
10
19.7991824
20
62.494546
40
0.3189975
50
281.8396411
51
316.5457803
0
ARC
8
DEFAULT_255_1_234
10
19.7616088
20
62.6500762
40
0.4789527
50
269.5770101
51
282.4214771
0
ARC
8
DEFAULT_255_1_234
10
19.75449
20
62.6287125
40
0.45759
50
256.2427136
51
270.4486331
0
ARC
8
DEFAULT_255_1_234
10
19.7245802
20
62.5087229
40
0.3339303
50
228.9023911
51
256.3314342
0
ARC
8
DEFAULT_255_1_234
10
19.7172034
20
62.4970746
40
0.32031
50
193.753695
51
228.5271154
0
ARC
8
DEFAULT_255_1_234
10
19.8409988
20
62.53338
40
0.4492253
50
184.924711
51
194.497588
0
ARC
8
DEFAULT_255_1_234
10
19.8602555
20
62.5369591
40
0.3289787
50
187.3600538
51
198.6732863
0
ARC
8
DEFAULT_255_1_234
10
19.7552849
20
62.5005674
40
0.217884
50
198.4451669
51
217.794479
0
ARC
8
DEFAULT_255_1_234
10
19.7257024
20
62.4796085
40
0.1816698
50
218.2887171
51
228.5612368
0
ARC
8
DEFAULT_255_1_234
10
19.7354811
20
62.4927963
40
0.1980329
50
228.9654866
51
258.1234728
0
ARC
8
DEFAULT_255_1_234
10
19.7560521
20
62.5808833
40
0.2884748
50
257.7258293
51
270.401361
0
ARC
8
DEFAULT_255_1_234
10
19.7605408
20
62.5363821
40
0.2439788
50
269.4204404
51
286.4209037
0
ARC
8
DEFAULT_255_1_234
10
19.7753895
20
62.4824657
40
0.1880666
50
286.7251356
51
320.600362
0
ARC
8
DEFAULT_255_1_234
10
19.737072
20
62.5135595
40
0.2374121
50
320.6712579
51
344.5441685
0
ARC
8
DEFAULT_255_1_234
10
19.6214046
20
62.5475045
40
0.3579479
50
344.2412205
51
356.7357071
0
ARC
8
DEFAULT_255_1_234
10
19.4965195
20
62.5578444
40
0.4832297
50
356.3548756
51
0.0500261
0
ARC
8
DEFAULT_255_1_234
10
19.6301704
20
62.560965
40
0.3495889
50
359.5576869
51
12.953486
0
ARC
8
DEFAULT_255_1_234
10
19.7356601
20
62.5865434
40
0.2410532
50
12.6490276
51
41.6081334
0
ARC
8
DEFAULT_255_1_234
10
19.7586972
20
62.6061321
40
0.2108218
50
41.7850273
51
85.9892764
0
ARC
8
DEFAULT_255_1_234
10
19.7463709
20
62.5248462
40
0.2928454
50
84.6957577
51
90.0676183
0
ARC
8
DEFAULT_255_1_234
10
19.7440193
20
62.4579716
40
0.3597255
50
89.6804936
51
99.1614436
0
ARC
8
DEFAULT_255_1_234
10
19.7234824
20
62.5807131
40
0.235281
50
98.9830931
51
113.8908934
0
ARC
8
DEFAULT_255_1_234
10
19.7005234
20
62.6348587
40
0.176479
50
114.1950727
51
127.3641004
0
LINE
8
DEFAULT_255_2_778
10
19.9765417
20
52.784333
11
18.6536417
21
52.784333
0
LINE
8
DEFAULT_255_2_778
10
18.6536417
20
52.784333
11
18.6536417
21
31.617633
0
LINE
8
DEFAULT_255_2_778
10
17.3307834
20
31.6177333
11
19.9765834
21
31.6177333
0
LINE
8
DEFAULT_255_2_778
10
19.9765834
20
31.6177333
11
19.9765834
21
26.3260333
0
LINE
8
DEFAULT_255_2_778
10
19.9765834
20
26.3260333
11
17.3307834
21
26.3260333
0
LINE
8
DEFAULT_255_2_778
10
17.3307834
20
26.3260333
11
17.3307834
21
31.6177333
0
ARC
8
DEFAULT_255_2_778_1
10
21.1303591
20
26.428477
40
4.816461
50
120.9442904
51
122.351755
0
ARC
8
DEFAULT_255_2_778_1
10
20.6837523
20
27.1321039
40
3.9830657
50
122.3407904
51
124.1946752
0
ARC
8
DEFAULT_255_2_778_1
10
20.2438464
20
27.7786306
40
3.2010724
50
124.1855758
51
126.4338849
0
ARC
8
DEFAULT_255_2_778_1
10
19.8579129
20
28.3013611
40
2.5513094
50
126.4326926
51
128.8877368
0
ARC
8
DEFAULT_255_2_778_1
10
19.5230968
20
28.7157658
40
2.0185498
50
128.8749205
51
131.8726567
0
ARC
8
DEFAULT_255_2_778_1
10
19.2259677
20
29.0467854
40
1.5737356
50
131.8616166
51
135.4168838
0
ARC
8
DEFAULT_255_2_778_1
10
18.963168
20
29.3049765
40
1.2053256
50
135.3893975
51
139.9687014
0
ARC
8
DEFAULT_255_2_778_1
10
18.7302889
20
29.4998102
40
0.9016937
50
139.9301659
51
145.9260426
0
ARC
8
DEFAULT_255_2_778_1
10
18.534154
20
29.6318104
40
0.6652776
50
145.8787362
51
153.8146208
0
ARC
8
DEFAULT_255_2_778_1
10
18.3820553
20
29.7061797
40
0.4959714
50
153.770634
51
164.3484794
0
ARC
8
DEFAULT_255_2_778_1
10
18.2807387
20
29.7343786
40
0.3908039
50
164.3220276
51
179.8083066
0
ARC
8
DEFAULT_255_2_778_1
10
18.3017789
20
29.742515
40
0.4118985
50
180.9499449
51
213.8111542
0
ARC
8
DEFAULT_255_2_778_1
10
18.5776828
20
29.9120896
40
0.73561
50
212.8271214
51
224.258472
0
ARC
8
DEFAULT_255_2_778_1
10
18.9605335
20
30.2814236
40
1.267567
50
224.1376218
51
231.4508261
0
ARC
8
DEFAULT_255_2_778_1
10
19.6032195
20
31.0844168
40
2.2960809
50
231.3955893
51
236.1256478
0
ARC
8
DEFAULT_255_2_778_1
10
21.4355223
20
33.8309293
40
5.5976905
50
236.2233172
51
239.1314682
0
ARC
8
DEFAULT_255_2_778_1
10
33.385427
20
53.5586568
40
28.6623793
50
238.8606853
51
239.0711101
0
ARC
8
DEFAULT_255_2_778_1
10
14.2132281
20
21.4615653
40
8.7248518
50
57.2420924
51
59.4062964
0
ARC
8
DEFAULT_255_2_778_1
10
17.4409241
20
26.4925102
40
2.747542
50
52.8289294
51
57.079028
0
ARC
8
DEFAULT_255_2_778_1
10
18.2155783
20
27.5128488
40
1.466457
50
46.3041868
51
52.8596521
0
ARC
8
DEFAULT_255_2_778_1
10
18.6478073
20
27.9629842
40
0.8424061
50
36.2174211
51
46.4090895
0
ARC
8
DEFAULT_255_2_778_1
10
18.9323088
20
28.1678128
40
0.4918609
50
17.400375
51
36.5489745
0
ARC
8
DEFAULT_255_2_778_1
10
19.0463994
20
28.2076754
40
0.3710912
50
0.0676858
51
16.7951297
0
ARC
8
DEFAULT_255_2_778_1
10
19.0253613
20
28.2095428
40
0.3921317
50
343.8035191
51
359.7912046
0
ARC
8
DEFAULT_255_2_778_1
10
18.9190912
20
28.2400167
40
0.5026844
50
333.2506233
51
343.8465691
0
ARC
8
DEFAULT_255_2_778_1
10
18.7652757
20
28.3167313
40
0.6745679
50
325.6600948
51
333.3122657
0
ARC
8
DEFAULT_255_2_778_1
10
18.5698344
20
28.4495296
40
0.9108568
50
319.7560915
51
325.6976089
0
ARC
8
DEFAULT_255_2_778_1
10
18.341699
20
28.6413002
40
1.2088854
50
315.4577584
51
319.8037947
0
ARC
8
DEFAULT_255_2_778_1
10
18.0783127
20
28.9001507
40
1.5781764
50
311.7298824
51
315.4670864
0
ARC
8
DEFAULT_255_2_778_1
10
17.7692879
20
29.2457074
40
2.0417554
50
308.723055
51
311.7470879
0
ARC
8
DEFAULT_255_2_778_1
10
17.415089
20
29.6869492
40
2.6075745
50
306.1165163
51
308.7300151
0
ARC
8
DEFAULT_255_2_778_1
10
17.0121091
20
30.2382523
40
3.2904564
50
303.9559446
51
306.1266333
0
ARC
8
DEFAULT_255_2_778_1
10
16.6005432
20
30.847515
40
4.0257023
50
302.3733397
51
303.9712246
0
ARC
8
DEFAULT_255_2_778_1
10
16.1809347
20
31.5090058
40
4.8090549
50
300.9434827
51
302.3758078
0
LINE
8
DEFAULT_255_2_778
10
18.6536417
20
26.326033
11
18.6536417
21
5.159333
0
LINE
8
DEFAULT_255_2_778
10
18.6536417
20
5.159333
11
19.9765417
21
5.159333
0
LINE
8
DEFAULT_255_1_234
10
4.9274119
20
60.3241792
11
4.9274119
21
60.2029
0
LINE
8
DEFAULT_255_1_234
10
4.9274119
20
60.2029
11
4.161184
21
60.2029
0
LINE
8
DEFAULT_255_1_234
10
4.161184
20
60.2029
11
4.161184
21
60.3097221
0
LINE
8
DEFAULT_255_1_234
10
4.161184
20
60.3097221
11
4.5659836
21
60.7594995
0
LINE
8
DEFAULT_255_1_234
10
4.2872823
20
61.0277595
11
4.1386952
21
61.0277595
0
LINE
8
DEFAULT_255_1_234
10
4.6535296
20
60.6639218
11
4.3402918
21
60.3241792
0
LINE
8
DEFAULT_255_1_234
10
4.3402918
20
60.3241792
11
4.9274119
21
60.3241792
0
ARC
8
DEFAULT_255_1_234
10
3.216967
20
61.9524527
40
1.8008286
50
318.5132453
51
320.7828378
0
ARC
8
DEFAULT_255_1_234
10
3.7456644
20
61.5221426
40
1.1191493
50
320.7372736
51
323.9737074
0
ARC
8
DEFAULT_255_1_234
10
4.1376501
20
61.2381361
40
0.6350923
50
323.8961724
51
328.6421089
0
ARC
8
DEFAULT_255_1_234
10
4.3423096
20
61.1119031
40
0.3946393
50
328.8299013
51
331.789948
0
ARC
8
DEFAULT_255_1_234
10
4.4420274
20
61.0604509
40
0.2824501
50
331.4255242
51
352.9364833
0
ARC
8
DEFAULT_255_1_234
10
4.4556775
20
61.0573976
40
0.2685315
50
353.2248685
51
0.0169286
0
ARC
8
DEFAULT_255_1_234
10
4.4766652
20
61.059695
40
0.2475536
50
359.4866256
51
15.9339782
0
ARC
8
DEFAULT_255_1_234
10
4.5273637
20
61.0733286
40
0.1950618
50
16.1714718
51
43.5284424
0
ARC
8
DEFAULT_255_1_234
10
4.5350946
20
61.0810573
40
0.184134
50
43.4415429
51
83.1661404
0
ARC
8
DEFAULT_255_1_234
10
4.5216864
20
61.0073771
40
0.258926
50
82.160215
51
90.1505798
0
ARC
8
DEFAULT_255_1_234
10
4.5185291
20
60.9536865
40
0.3126255
50
89.5460705
51
102.5418777
0
ARC
8
DEFAULT_255_1_234
10
4.4942377
20
61.0567665
40
0.2067346
50
102.1739365
51
129.2061916
0
ARC
8
DEFAULT_255_1_234
10
4.4863449
20
61.0692094
40
0.1921118
50
129.7279328
51
135.7542026
0
ARC
8
DEFAULT_255_1_234
10
4.4984977
20
61.0595045
40
0.2075944
50
136.175737
51
166.3674722
0
ARC
8
DEFAULT_255_1_234
10
4.5991896
20
61.0325182
40
0.3118201
50
165.9092917
51
178.8683903
0
ARC
8
DEFAULT_255_1_234
10
4.6856757
20
61.0278179
40
0.3983935
50
178.438168
51
180.0083905
0
ARC
8
DEFAULT_255_1_234
10
4.5455359
20
61.0317231
40
0.4068601
50
163.2878735
51
180.5581814
0
ARC
8
DEFAULT_255_1_234
10
4.4653621
20
61.053784
40
0.3237344
50
133.454115
51
162.9470031
0
ARC
8
DEFAULT_255_1_234
10
4.4832162
20
61.0348
40
0.349795
50
100.7869394
51
133.4384016
0
ARC
8
DEFAULT_255_1_234
10
4.5179934
20
60.8799319
40
0.5084616
50
89.6605301
51
101.3704185
0
ARC
8
DEFAULT_255_1_234
10
4.5246273
20
60.8860496
40
0.502348
50
78.2171172
51
90.4130393
0
ARC
8
DEFAULT_255_1_234
10
4.5601351
20
61.0484637
40
0.3361092
50
55.9268222
51
78.4888551
0
ARC
8
DEFAULT_255_1_234
10
4.5797791
20
61.0823324
40
0.2970617
50
47.9292255
51
55.4054003
0
ARC
8
DEFAULT_255_1_234
10
4.5899352
20
61.0926502
40
0.2825983
50
4.3347696
51
48.0560701
0
ARC
8
DEFAULT_255_1_234
10
4.4803745
20
61.0756601
40
0.393225
50
359.925209
51
5.5967654
0
ARC
8
DEFAULT_255_1_234
10
4.5232637
20
61.0812816
40
0.3503892
50
337.8914096
51
358.9967724
0
ARC
8
DEFAULT_255_1_234
10
4.2519049
20
61.1859706
40
0.6412172
50
326.9135351
51
338.3505194
0
ARC
8
DEFAULT_255_1_234
10
3.8533353
20
61.4414284
40
1.1146189
50
319.6472867
51
327.095818
0
ARC
8
DEFAULT_255_1_234
10
3.4700356
20
61.7576
40
1.6114559
50
317.2586784
51
319.9046139
0
LINE
8
DEFAULT_255_1_234
10
5.7121127
20
61.3723211
11
5.7121127
21
60.595652
0
LINE
8
DEFAULT_255_1_234
10
5.7121127
20
60.595652
11
5.8743538
21
60.595652
0
LINE
8
DEFAULT_255_1_234
10
5.8743538
20
60.595652
11
5.8743538
21
60.4743728
0
LINE
8
DEFAULT_255_1_234
10
5.8743538
20
60.4743728
11
5.7121127
21
60.4743728
0
LINE
8
DEFAULT_255_1_234
10
5.7121127
20
60.4743728
11
5.7121127
21
60.2029
0
LINE
8
DEFAULT_255_1_234
10
5.7121127
20
60.2029
11
5.5627224
21
60.2029
0
LINE
8
DEFAULT_255_1_234
10
5.5627224
20
60.2029
11
5.5627224
21
60.4743728
0
LINE
8
DEFAULT_255_1_234
10
5.5627224
20
60.4743728
11
5.0302181
21
60.4743728
0
LINE
8
DEFAULT_255_1_234
10
5.0302181
20
60.4743728
11
5.0302181
21
60.5619187
0
LINE
8
DEFAULT_255_1_234
10
5.0302181
20
60.5619187
11
5.5538875
21
61.3723211
0
LINE
8
DEFAULT_255_1_234
10
5.5538875
20
61.3723211
11
5.7121127
21
61.3723211
0
LINE
8
DEFAULT_255_1_234
10
5.5450525
20
61.1369912
11
5.1988846
21
60.595652
0
LINE
8
DEFAULT_255_1_234
10
5.1988846
20
60.595652
11
5.5627224
21
60.595652
0
LINE
8
DEFAULT_255_1_234
10
5.5627224
20
60.595652
11
5.5627224
21
61.1691181
0
LINE
8
DEFAULT_255_1_234
10
5.5627224
20
61.1691181
11
5.5450525
21
61.1369912
0
LINE
8
DEFAULT_255_1_234
10
6.101652
20
61.3723211
11
6.434166
21
60.4077093
0
LINE
8
DEFAULT_255_1_234
10
6.434166
20
60.4077093
11
6.7682863
21
61.3723211
0
LINE
8
DEFAULT_255_1_234
10
6.7682863
20
61.3723211
11
6.9369528
21
61.3723211
0
LINE
8
DEFAULT_255_1_234
10
6.9369528
20
61.3723211
11
6.5032389
21
60.2029
0
LINE
8
DEFAULT_255_1_234
10
6.5032389
20
60.2029
11
6.3666994
21
60.2029
0
LINE
8
DEFAULT_255_1_234
10
6.3666994
20
60.2029
11
5.9337887
21
61.3723211
0
LINE
8
DEFAULT_255_1_234
10
5.9337887
20
61.3723211
11
6.101652
21
61.3723211
0
LINE
8
DEFAULT_255_1_234
10
22.2285817
20
60.8944327
11
22.2285817
21
60.7016709
0
LINE
8
DEFAULT_255_1_234
10
21.490465
20
60.6815916
11
21.490465
21
60.8799755
0
LINE
8
DEFAULT_255_1_234
10
22.0799946
20
60.6615123
11
22.0799946
21
60.9048739
0
LINE
8
DEFAULT_255_1_234
10
21.6390521
20
60.9161184
11
21.6390521
21
60.6783789
0
ARC
8
DEFAULT_255_1_234
10
21.0038707
20
60.6967805
40
1.2247208
50
353.8441951
51
0.2287902
0
ARC
8
DEFAULT_255_1_234
10
21.4678211
20
60.6449806
40
0.7578929
50
344.4934747
51
353.9765454
0
ARC
8
DEFAULT_255_1_234
10
21.7670801
20
60.5598981
40
0.4467846
50
329.2803592
51
344.7472793
0
ARC
8
DEFAULT_255_1_234
10
21.8663626
20
60.5054018
40
0.3336173
50
324.9352394
51
328.6160465
0
ARC
8
DEFAULT_255_1_234
10
21.9040734
20
60.4790427
40
0.2876076
50
280.580143
51
324.9173126
0
ARC
8
DEFAULT_255_1_234
10
21.8639527
20
60.6461099
40
0.4592847
50
269.5977311
51
281.6734359
0
ARC
8
DEFAULT_255_1_234
10
21.8567433
20
60.6341173
40
0.4472986
50
256.6228859
51
270.51044
0
ARC
8
DEFAULT_255_1_234
10
21.816541
20
60.4792877
40
0.2873874
50
215.8618325
51
257.2788573
0
ARC
8
DEFAULT_255_1_234
10
21.9186442
20
60.5477977
40
0.4102928
50
197.9693508
51
215.2623606
0
ARC
8
DEFAULT_255_1_234
10
22.1671558
20
60.6316709
40
0.6725652
50
187.8816417
51
198.2346507
0
ARC
8
DEFAULT_255_1_234
10
22.5629766
20
60.6888079
40
1.0724845
50
180.8976217
51
188.0055519
0
ARC
8
DEFAULT_255_1_234
10
22.8429954
20
60.6991777
40
1.3526448
50
180.7449369
51
181.1510016
0
ARC
8
DEFAULT_255_1_234
10
22.6852683
20
60.8848042
40
1.1948131
50
173.7675579
51
180.231553
0
ARC
8
DEFAULT_255_1_234
10
22.233483
20
60.9358666
40
0.7401564
50
164.3058563
51
173.9002247
0
ARC
8
DEFAULT_255_1_234
10
21.9422899
20
61.0197656
40
0.4371288
50
148.7922025
51
164.568378
0
ARC
8
DEFAULT_255_1_234
10
21.8471351
20
61.0728929
40
0.3282386
50
144.5883898
51
148.1176286
0
ARC
8
DEFAULT_255_1_234
10
21.8128249
20
61.0968315
40
0.2864044
50
101.6440918
51
144.514236
0
ARC
8
DEFAULT_255_1_234
10
21.8553315
20
60.9279069
40
0.4604934
50
89.5284041
51
102.5819763
0
ARC
8
DEFAULT_255_1_234
10
21.8632403
20
60.9240018
40
0.464401
50
77.0437873
51
90.5081339
0
ARC
8
DEFAULT_255_1_234
10
21.9034405
20
61.0882615
40
0.2953195
50
48.2778575
51
77.4994676
0
ARC
8
DEFAULT_255_1_234
10
21.9107036
20
61.1011746
40
0.2808655
50
36.3142134
51
47.6305865
0
ARC
8
DEFAULT_255_1_234
10
21.8238343
20
61.0426515
40
0.3855453
50
18.2931786
51
35.6769206
0
ARC
8
DEFAULT_255_1_234
10
21.5695102
20
60.9553593
40
0.654423
50
8.024666
51
18.5605216
0
ARC
8
DEFAULT_255_1_234
10
21.1532022
20
60.8938792
40
1.0752407
50
1.1274072
51
8.1718305
0
ARC
8
DEFAULT_255_1_234
10
20.8296213
20
60.8811885
40
1.3990231
50
0.5424119
51
1.3863029
0
ARC
8
DEFAULT_255_1_234
10
21.011759
20
60.9084342
40
1.0682415
50
359.8090433
51
4.9407866
0
ARC
8
DEFAULT_255_1_234
10
21.4327604
20
60.9460113
40
0.6455691
50
4.8362157
51
12.2904523
0
ARC
8
DEFAULT_255_1_234
10
21.7082719
20
61.0073965
40
0.3633074
50
12.0805627
51
23.8173984
0
ARC
8
DEFAULT_255_1_234
10
21.8256425
20
61.0570919
40
0.2358723
50
24.2871213
51
31.3935614
0
ARC
8
DEFAULT_255_1_234
10
21.8781122
20
61.0914233
40
0.1732111
50
30.7407893
51
82.4657128
0
ARC
8
DEFAULT_255_1_234
10
21.8601256
20
61.0030691
40
0.263235
50
81.1060089
51
90.2184952
0
ARC
8
DEFAULT_255_1_234
10
21.8565555
20
61.0288924
40
0.2374236
50
89.3806855
51
105.6762551
0
ARC
8
DEFAULT_255_1_234
10
21.8382186
20
61.0955567
40
0.1682847
50
105.7981136
51
149.7388061
0
ARC
8
DEFAULT_255_1_234
10
21.9446264
20
61.031595
40
0.2924306
50
149.4208916
51
163.6286378
0
ARC
8
DEFAULT_255_1_234
10
22.1537152
20
60.967825
40
0.5110213
50
163.3763315
51
172.1410975
0
ARC
8
DEFAULT_255_1_234
10
22.4837871
20
60.9205518
40
0.8444586
50
172.0259487
51
178.0703232
0
ARC
8
DEFAULT_255_1_234
10
22.786796
20
60.9061906
40
1.1477868
50
177.8631668
51
179.5044149
0
ARC
8
DEFAULT_255_1_234
10
22.6795365
20
60.6747389
40
1.0404907
50
179.7995573
51
185.2460446
0
ARC
8
DEFAULT_255_1_234
10
22.2752404
20
60.6364513
40
0.6343885
50
185.1411642
51
193.0079639
0
ARC
8
DEFAULT_255_1_234
10
22.0108877
20
60.5739641
40
0.3627568
50
192.7897626
51
205.2507664
0
ARC
8
DEFAULT_255_1_234
10
21.9062424
20
60.5272415
40
0.2481908
50
205.8005384
51
211.2537509
0
ARC
8
DEFAULT_255_1_234
10
21.8538864
20
60.492158
40
0.1852521
50
210.3789793
51
238.4008143
0
ARC
8
DEFAULT_255_1_234
10
21.8519386
20
60.4968376
40
0.1882621
50
239.6520629
51
265.9793761
0
ARC
8
DEFAULT_255_1_234
10
21.8604586
20
60.5640427
40
0.2559272
50
265.1315437
51
270.060332
0
ARC
8
DEFAULT_255_1_234
10
21.8633365
20
60.5316534
40
0.2235528
50
269.3314664
51
287.2178029
0
ARC
8
DEFAULT_255_1_234
10
21.8771217
20
60.4813279
40
0.1714108
50
287.7958004
51
329.080874
0
ARC
8
DEFAULT_255_1_234
10
21.7813674
20
60.541093
40
0.2842745
50
328.6634704
51
343.3325132
0
ARC
8
DEFAULT_255_1_234
10
21.5640694
20
60.6087863
40
0.5118644
50
343.0499468
51
351.9393422
0
ARC
8
DEFAULT_255_1_234
10
21.2173994
20
60.6598949
40
0.8622784
50
351.8069023
51
357.7959224
0
ARC
8
DEFAULT_255_1_234
10
20.893855
20
60.6766721
40
1.1862365
50
357.5871873
51
359.2677531
0
LINE
8
DEFAULT_255_1_234
10
22.5121021
20
61.3723211
11
22.8446161
21
60.4077093
0
LINE
8
DEFAULT_255_1_234
10
22.8446161
20
60.4077093
11
23.1787364
21
61.3723211
0
LINE
8
DEFAULT_255_1_234
10
23.1787364
20
61.3723211
11
23.3474029
21
61.3723211
0
LINE
8
DEFAULT_255_1_234
10
23.3474029
20
61.3723211
11
22.913689
21
60.2029
0
LINE
8
DEFAULT_255_1_234
10
22.913689
20
60.2029
11
22.7771495
21
60.2029
0
LINE
8
DEFAULT_255_1_234
10
22.7771495
20
60.2029
11
22.3442388
21
61.3723211
0
LINE
8
DEFAULT_255_1_234
10
22.3442388
20
61.3723211
11
22.5121021
21
61.3723211
0
LINE
8
DEFAULT_255_1_234
10
23.9537991
20
61.3779433
11
23.9537991
21
60.2029
0
LINE
8
DEFAULT_255_1_234
10
23.9537991
20
60.2029
11
23.8044088
21
60.2029
0
LINE
8
DEFAULT_255_1_234
10
23.8044088
20
60.2029
11
23.8044088
21
61.1932133
0
LINE
8
DEFAULT_255_1_234
10
23.8044088
20
61.1932133
11
23.504825
21
61.0831785
0
LINE
8
DEFAULT_255_1_234
10
23.504825
20
61.0831785
11
23.504825
21
61.2181117
0
LINE
8
DEFAULT_255_1_234
10
23.504825
20
61.2181117
11
23.9305071
21
61.3779433
0
LINE
8
DEFAULT_255_1_234
10
23.9305071
20
61.3779433
11
23.9537991
21
61.3779433
0
LINE
8
DEFAULT_255_1_234
10
22.5556265
20
5.6090276
11
22.5556265
21
5.2676788
0
LINE
8
DEFAULT_255_1_234
10
22.5556265
20
5.2676788
11
22.881715
21
5.2676788
0
LINE
8
DEFAULT_255_1_234
10
22.881715
20
5.2676788
11
22.881715
21
5.1271233
0
LINE
8
DEFAULT_255_1_234
10
22.881715
20
5.1271233
11
22.5556265
21
5.1271233
0
LINE
8
DEFAULT_255_1_234
10
22.5556265
20
5.1271233
11
22.5556265
21
4.7576634
0
LINE
8
DEFAULT_255_1_234
10
22.5556265
20
4.7576634
11
22.4062361
21
4.7576634
0
LINE
8
DEFAULT_255_1_234
10
22.4062361
20
4.7576634
11
22.4062361
21
5.1271233
0
LINE
8
DEFAULT_255_1_234
10
22.4062361
20
5.1271233
11
22.0801476
21
5.1271233
0
LINE
8
DEFAULT_255_1_234
10
22.0801476
20
5.1271233
11
22.0801476
21
5.2676788
0
LINE
8
DEFAULT_255_1_234
10
22.0801476
20
5.2676788
11
22.4062361
21
5.2676788
0
LINE
8
DEFAULT_255_1_234
10
22.4062361
20
5.2676788
11
22.4062361
21
5.6090276
0
LINE
8
DEFAULT_255_1_234
10
22.4062361
20
5.6090276
11
22.5556265
21
5.6090276
0
LINE
8
DEFAULT_255_1_234
10
23.251175
20
5.8098211
11
23.251175
21
4.6404
0
LINE
8
DEFAULT_255_1_234
10
23.251175
20
4.6404
11
23.0969656
21
4.6404
0
LINE
8
DEFAULT_255_1_234
10
23.0969656
20
4.6404
11
23.0969656
21
5.8098211
0
LINE
8
DEFAULT_255_1_234
10
23.0969656
20
5.8098211
11
23.251175
21
5.8098211
0
LINE
8
DEFAULT_255_1_234
10
24.2607645
20
4.7616792
11
24.2607645
21
4.6404
0
LINE
8
DEFAULT_255_1_234
10
24.2607645
20
4.6404
11
23.4945367
21
4.6404
0
LINE
8
DEFAULT_255_1_234
10
23.4945367
20
4.6404
11
23.4945367
21
4.7472221
0
LINE
8
DEFAULT_255_1_234
10
23.4945367
20
4.7472221
11
23.8993363
21
5.1969995
0
LINE
8
DEFAULT_255_1_234
10
23.620635
20
5.4652595
11
23.4720478
21
5.4652595
0
LINE
8
DEFAULT_255_1_234
10
23.9868822
20
5.1014218
11
23.6736444
21
4.7616792
0
LINE
8
DEFAULT_255_1_234
10
23.6736444
20
4.7616792
11
24.2607645
21
4.7616792
0
ARC
8
DEFAULT_255_1_234
10
22.5503196
20
6.3899527
40
1.8008286
50
318.5132453
51
320.7828378
0
ARC
8
DEFAULT_255_1_234
10
23.0790171
20
5.9596426
40
1.1191493
50
320.7372736
51
323.9737074
0
ARC
8
DEFAULT_255_1_234
10
23.4710027
20
5.6756361
40
0.6350923
50
323.8961724
51
328.6421089
0
ARC
8
DEFAULT_255_1_234
10
23.6756622
20
5.5494031
40
0.3946393
50
328.8299013
51
331.789948
0
ARC
8
DEFAULT_255_1_234
10
23.7753801
20
5.4979509
40
0.2824501
50
331.4255242
51
352.9364833
0
ARC
8
DEFAULT_255_1_234
10
23.7890302
20
5.4948976
40
0.2685315
50
353.2248685
51
0.0169286
0
ARC
8
DEFAULT_255_1_234
10
23.8100178
20
5.497195
40
0.2475536
50
359.4866256
51
15.9339782
0
ARC
8
DEFAULT_255_1_234
10
23.8607164
20
5.5108286
40
0.1950618
50
16.1714718
51
43.5284424
0
ARC
8
DEFAULT_255_1_234
10
23.8684472
20
5.5185573
40
0.184134
50
43.4415429
51
83.1661404
0
ARC
8
DEFAULT_255_1_234
10
23.855039
20
5.4448771
40
0.258926
50
82.160215
51
90.1505798
0
ARC
8
DEFAULT_255_1_234
10
23.8518818
20
5.3911865
40
0.3126255
50
89.5460705
51
102.5418777
0
ARC
8
DEFAULT_255_1_234
10
23.8275904
20
5.4942665
40
0.2067346
50
102.1739365
51
129.2061916
0
ARC
8
DEFAULT_255_1_234
10
23.8196976
20
5.5067094
40
0.1921118
50
129.7279328
51
135.7542026
0
ARC
8
DEFAULT_255_1_234
10
23.8318503
20
5.4970045
40
0.2075944
50
136.175737
51
166.3674722
0
ARC
8
DEFAULT_255_1_234
10
23.9325422
20
5.4700182
40
0.3118201
50
165.9092917
51
178.8683903
0
ARC
8
DEFAULT_255_1_234
10
24.0190284
20
5.4653179
40
0.3983935
50
178.438168
51
180.0083905
0
ARC
8
DEFAULT_255_1_234
10
23.8788886
20
5.4692231
40
0.4068601
50
163.2878735
51
180.5581814
0
ARC
8
DEFAULT_255_1_234
10
23.7987147
20
5.491284
40
0.3237344
50
133.454115
51
162.9470031
0
ARC
8
DEFAULT_255_1_234
10
23.8165689
20
5.4723
40
0.349795
50
100.7869394
51
133.4384016
0
ARC
8
DEFAULT_255_1_234
10
23.851346
20
5.3174319
40
0.5084616
50
89.6605301
51
101.3704185
0
ARC
8
DEFAULT_255_1_234
10
23.8579799
20
5.3235496
40
0.502348
50
78.2171172
51
90.4130393
0
ARC
8
DEFAULT_255_1_234
10
23.8934877
20
5.4859637
40
0.3361092
50
55.9268222
51
78.4888551
0
ARC
8
DEFAULT_255_1_234
10
23.9131317
20
5.5198324
40
0.2970617
50
47.9292255
51
55.4054003
0
ARC
8
DEFAULT_255_1_234
10
23.9232878
20
5.5301502
40
0.2825983
50
4.3347696
51
48.0560701
0
ARC
8
DEFAULT_255_1_234
10
23.8137272
20
5.5131601
40
0.393225
50
359.925209
51
5.5967654
0
ARC
8
DEFAULT_255_1_234
10
23.8566163
20
5.5187816
40
0.3503892
50
337.8914096
51
358.9967724
0
ARC
8
DEFAULT_255_1_234
10
23.5852576
20
5.6234706
40
0.6412172
50
326.9135351
51
338.3505194
0
ARC
8
DEFAULT_255_1_234
10
23.1866879
20
5.8789284
40
1.1146189
50
319.6472867
51
327.095818
0
ARC
8
DEFAULT_255_1_234
10
22.8033882
20
6.1951
40
1.6114559
50
317.2586784
51
319.9046139
0
LINE
8
DEFAULT_255_1_234
10
22.8425663
20
13.1353026
11
22.8425663
21
13.0140234
0
LINE
8
DEFAULT_255_1_234
10
22.8425663
20
13.0140234
11
22.4506174
21
13.0140234
0
LINE
8
DEFAULT_255_1_234
10
22.4506174
20
13.0140234
11
22.4506174
21
13.1353026
0
LINE
8
DEFAULT_255_1_234
10
22.4506174
20
13.1353026
11
22.8425663
21
13.1353026
0
LINE
8
DEFAULT_255_1_234
10
23.1758834
20
13.7473211
11
23.1758834
21
12.5779
0
LINE
8
DEFAULT_255_1_234
10
23.1758834
20
12.5779
11
23.021674
21
12.5779
0
LINE
8
DEFAULT_255_1_234
10
23.021674
20
12.5779
11
23.021674
21
13.7473211
0
LINE
8
DEFAULT_255_1_234
10
23.021674
20
13.7473211
11
23.1758834
21
13.7473211
0
LINE
8
DEFAULT_255_1_234
10
24.1854729
20
12.6991792
11
24.1854729
21
12.5779
0
LINE
8
DEFAULT_255_1_234
10
24.1854729
20
12.5779
11
23.4192451
21
12.5779
0
LINE
8
DEFAULT_255_1_234
10
23.4192451
20
12.5779
11
23.4192451
21
12.6847221
0
LINE
8
DEFAULT_255_1_234
10
23.4192451
20
12.6847221
11
23.8240447
21
13.1344995
0
LINE
8
DEFAULT_255_1_234
10
23.5453434
20
13.4027595
11
23.3967562
21
13.4027595
0
LINE
8
DEFAULT_255_1_234
10
23.9115906
20
13.0389218
11
23.5983528
21
12.6991792
0
LINE
8
DEFAULT_255_1_234
10
23.5983528
20
12.6991792
11
24.1854729
21
12.6991792
0
ARC
8
DEFAULT_255_1_234
10
22.475028
20
14.3274527
40
1.8008286
50
318.5132453
51
320.7828378
0
ARC
8
DEFAULT_255_1_234
10
23.0037255
20
13.8971426
40
1.1191493
50
320.7372736
51
323.9737074
0
ARC
8
DEFAULT_255_1_234
10
23.3957111
20
13.6131361
40
0.6350923
50
323.8961724
51
328.6421089
0
ARC
8
DEFAULT_255_1_234
10
23.6003706
20
13.4869031
40
0.3946393
50
328.8299013
51
331.789948
0
ARC
8
DEFAULT_255_1_234
10
23.7000885
20
13.4354509
40
0.2824501
50
331.4255242
51
352.9364833
0
ARC
8
DEFAULT_255_1_234
10
23.7137386
20
13.4323976
40
0.2685315
50
353.2248685
51
0.0169286
0
ARC
8
DEFAULT_255_1_234
10
23.7347262
20
13.434695
40
0.2475536
50
359.4866256
51
15.9339782
0
ARC
8
DEFAULT_255_1_234
10
23.7854248
20
13.4483286
40
0.1950618
50
16.1714718
51
43.5284424
0
ARC
8
DEFAULT_255_1_234
10
23.7931556
20
13.4560573
40
0.184134
50
43.4415429
51
83.1661404
0
ARC
8
DEFAULT_255_1_234
10
23.7797474
20
13.3823771
40
0.258926
50
82.160215
51
90.1505798
0
ARC
8
DEFAULT_255_1_234
10
23.7765902
20
13.3286865
40
0.3126255
50
89.5460705
51
102.5418777
0
ARC
8
DEFAULT_255_1_234
10
23.7522988
20
13.4317665
40
0.2067346
50
102.1739365
51
129.2061916
0
ARC
8
DEFAULT_255_1_234
10
23.744406
20
13.4442094
40
0.1921118
50
129.7279328
51
135.7542026
0
ARC
8
DEFAULT_255_1_234
10
23.7565587
20
13.4345045
40
0.2075944
50
136.175737
51
166.3674722
0
ARC
8
DEFAULT_255_1_234
10
23.8572506
20
13.4075182
40
0.3118201
50
165.9092917
51
178.8683903
0
ARC
8
DEFAULT_255_1_234
10
23.9437368
20
13.4028179
40
0.3983935
50
178.438168
51
180.0083905
0
ARC
8
DEFAULT_255_1_234
10
23.803597
20
13.4067231
40
0.4068601
50
163.2878735
51
180.5581814
0
ARC
8
DEFAULT_255_1_234
10
23.7234231
20
13.428784
40
0.3237344
50
133.454115
51
162.9470031
0
ARC
8
DEFAULT_255_1_234
10
23.7412773
20
13.4098
40
0.349795
50
100.7869394
51
133.4384016
0
ARC
8
DEFAULT_255_1_234
10
23.7760544
20
13.2549319
40
0.5084616
50
89.6605301
51
101.3704185
0
ARC
8
DEFAULT_255_1_234
10
23.7826883
20
13.2610496
40
0.502348
50
78.2171172
51
90.4130393
0
ARC
8
DEFAULT_255_1_234
10
23.8181961
20
13.4234637
40
0.3361092
50
55.9268222
51
78.4888551
0
ARC
8
DEFAULT_255_1_234
10
23.8378401
20
13.4573324
40
0.2970617
50
47.9292255
51
55.4054003
0
ARC
8
DEFAULT_255_1_234
10
23.8479962
20
13.4676502
40
0.2825983
50
4.3347696
51
48.0560701
0
ARC
8
DEFAULT_255_1_234
10
23.7384356
20
13.4506601
40
0.393225
50
359.925209
51
5.5967654
0
ARC
8
DEFAULT_255_1_234
10
23.7813247
20
13.4562816
40
0.3503892
50
337.8914096
51
358.9967724
0
ARC
8
DEFAULT_255_1_234
10
23.5099659
20
13.5609706
40
0.6412172
50
326.9135351
51
338.3505194
0
ARC
8
DEFAULT_255_1_234
10
23.1113963
20
13.8164284
40
1.1146189
50
319.6472867
51
327.095818
0
ARC
8
DEFAULT_255_1_234
10
22.7280966
20
14.1326
40
1.6114559
50
317.2586784
51
319.9046139
0
LINE
8
DEFAULT_255_1_234
10
21.9192265
20
21.4840276
11
21.9192265
21
21.1426788
0
LINE
8
DEFAULT_255_1_234
10
21.9192265
20
21.1426788
11
22.245315
21
21.1426788
0
LINE
8
DEFAULT_255_1_234
10
22.245315
20
21.1426788
11
22.245315
21
21.0021233
0
LINE
8
DEFAULT_255_1_234
10
22.245315
20
21.0021233
11
21.9192265
21
21.0021233
0
LINE
8
DEFAULT_255_1_234
10
21.9192265
20
21.0021233
11
21.9192265
21
20.6326634
0
LINE
8
DEFAULT_255_1_234
10
21.9192265
20
20.6326634
11
21.7698361
21
20.6326634
0
LINE
8
DEFAULT_255_1_234
10
21.7698361
20
20.6326634
11
21.7698361
21
21.0021233
0
LINE
8
DEFAULT_255_1_234
10
21.7698361
20
21.0021233
11
21.4437476
21
21.0021233
0
LINE
8
DEFAULT_255_1_234
10
21.4437476
20
21.0021233
11
21.4437476
21
21.1426788
0
LINE
8
DEFAULT_255_1_234
10
21.4437476
20
21.1426788
11
21.7698361
21
21.1426788
0
LINE
8
DEFAULT_255_1_234
10
21.7698361
20
21.1426788
11
21.7698361
21
21.4840276
0
LINE
8
DEFAULT_255_1_234
10
21.7698361
20
21.4840276
11
21.9192265
21
21.4840276
0
LINE
8
DEFAULT_255_1_234
10
22.503937
20
21.6848211
11
22.836451
21
20.7202093
0
LINE
8
DEFAULT_255_1_234
10
22.836451
20
20.7202093
11
23.1705713
21
21.6848211
0
LINE
8
DEFAULT_255_1_234
10
23.1705713
20
21.6848211
11
23.3392378
21
21.6848211
0
LINE
8
DEFAULT_255_1_234
10
23.3392378
20
21.6848211
11
22.9055239
21
20.5154
0
LINE
8
DEFAULT_255_1_234
10
22.9055239
20
20.5154
11
22.7689844
21
20.5154
0
LINE
8
DEFAULT_255_1_234
10
22.7689844
20
20.5154
11
22.3360737
21
21.6848211
0
LINE
8
DEFAULT_255_1_234
10
22.3360737
20
21.6848211
11
22.503937
21
21.6848211
0
LINE
8
DEFAULT_255_1_234
10
24.2235322
20
20.6366792
11
24.2235322
21
20.5154
0
LINE
8
DEFAULT_255_1_234
10
24.2235322
20
20.5154
11
23.4573043
21
20.5154
0
LINE
8
DEFAULT_255_1_234
10
23.4573043
20
20.5154
11
23.4573043
21
20.6222221
0
LINE
8
DEFAULT_255_1_234
10
23.4573043
20
20.6222221
11
23.862104
21
21.0719995
0
LINE
8
DEFAULT_255_1_234
10
23.5834026
20
21.3402595
11
23.4348155
21
21.3402595
0
LINE
8
DEFAULT_255_1_234
10
23.9496499
20
20.9764218
11
23.6364121
21
20.6366792
0
LINE
8
DEFAULT_255_1_234
10
23.6364121
20
20.6366792
11
24.2235322
21
20.6366792
0
ARC
8
DEFAULT_255_1_234
10
22.5130873
20
22.2649527
40
1.8008286
50
318.5132453
51
320.7828378
0
ARC
8
DEFAULT_255_1_234
10
23.0417847
20
21.8346426
40
1.1191493
50
320.7372736
51
323.9737074
0
ARC
8
DEFAULT_255_1_234
10
23.4337704
20
21.5506361
40
0.6350923
50
323.8961724
51
328.6421089
0
ARC
8
DEFAULT_255_1_234
10
23.6384299
20
21.4244031
40
0.3946393
50
328.8299013
51
331.789948
0
ARC
8
DEFAULT_255_1_234
10
23.7381478
20
21.3729509
40
0.2824501
50
331.4255242
51
352.9364833
0
ARC
8
DEFAULT_255_1_234
10
23.7517978
20
21.3698976
40
0.2685315
50
353.2248685
51
0.0169286
0
ARC
8
DEFAULT_255_1_234
10
23.7727855
20
21.372195
40
0.2475536
50
359.4866256
51
15.9339782
0
ARC
8
DEFAULT_255_1_234
10
23.823484
20
21.3858286
40
0.1950618
50
16.1714718
51
43.5284424
0
ARC
8
DEFAULT_255_1_234
10
23.8312149
20
21.3935573
40
0.184134
50
43.4415429
51
83.1661404
0
ARC
8
DEFAULT_255_1_234
10
23.8178067
20
21.3198771
40
0.258926
50
82.160215
51
90.1505798
0
ARC
8
DEFAULT_255_1_234
10
23.8146495
20
21.2661865
40
0.3126255
50
89.5460705
51
102.5418777
0
ARC
8
DEFAULT_255_1_234
10
23.7903581
20
21.3692665
40
0.2067346
50
102.1739365
51
129.2061916
0
ARC
8
DEFAULT_255_1_234
10
23.7824652
20
21.3817094
40
0.1921118
50
129.7279328
51
135.7542026
0
ARC
8
DEFAULT_255_1_234
10
23.794618
20
21.3720045
40
0.2075944
50
136.175737
51
166.3674722
0
ARC
8
DEFAULT_255_1_234
10
23.8953099
20
21.3450182
40
0.3118201
50
165.9092917
51
178.8683903
0
ARC
8
DEFAULT_255_1_234
10
23.9817961
20
21.3403179
40
0.3983935
50
178.438168
51
180.0083905
0
ARC
8
DEFAULT_255_1_234
10
23.8416563
20
21.3442231
40
0.4068601
50
163.2878735
51
180.5581814
0
ARC
8
DEFAULT_255_1_234
10
23.7614824
20
21.366284
40
0.3237344
50
133.454115
51
162.9470031
0
ARC
8
DEFAULT_255_1_234
10
23.7793365
20
21.3473
40
0.349795
50
100.7869394
51
133.4384016
0
ARC
8
DEFAULT_255_1_234
10
23.8141137
20
21.1924319
40
0.5084616
50
89.6605301
51
101.3704185
0
ARC
8
DEFAULT_255_1_234
10
23.8207476
20
21.1985496
40
0.502348
50
78.2171172
51
90.4130393
0
ARC
8
DEFAULT_255_1_234
10
23.8562554
20
21.3609637
40
0.3361092
50
55.9268222
51
78.4888551
0
ARC
8
DEFAULT_255_1_234
10
23.8758994
20
21.3948324
40
0.2970617
50
47.9292255
51
55.4054003
0
ARC
8
DEFAULT_255_1_234
10
23.8860555
20
21.4051502
40
0.2825983
50
4.3347696
51
48.0560701
0
ARC
8
DEFAULT_255_1_234
10
23.7764948
20
21.3881601
40
0.393225
50
359.925209
51
5.5967654
0
ARC
8
DEFAULT_255_1_234
10
23.819384
20
21.3937816
40
0.3503892
50
337.8914096
51
358.9967724
0
ARC
8
DEFAULT_255_1_234
10
23.5480252
20
21.4984706
40
0.6412172
50
326.9135351
51
338.3505194
0
ARC
8
DEFAULT_255_1_234
10
23.1494556
20
21.7539284
40
1.1146189
50
319.6472867
51
327.095818
0
ARC
8
DEFAULT_255_1_234
10
22.7661559
20
22.0701
40
1.6114559
50
317.2586784
51
319.9046139
0
LINE
8
DEFAULT_255_1_234
10
22.2207817
20
29.1444327
11
22.2207817
21
28.9516709
0
LINE
8
DEFAULT_255_1_234
10
21.482665
20
28.9315916
11
21.482665
21
29.1299755
0
LINE
8
DEFAULT_255_1_234
10
22.0721946
20
28.9115123
11
22.0721946
21
29.1548739
0
LINE
8
DEFAULT_255_1_234
10
21.6312521
20
29.1661184
11
21.6312521
21
28.9283789
0
ARC
8
DEFAULT_255_1_234
10
20.9960707
20
28.9467805
40
1.2247208
50
353.8441951
51
0.2287902
0
ARC
8
DEFAULT_255_1_234
10
21.4600211
20
28.8949806
40
0.7578929
50
344.4934747
51
353.9765454
0
ARC
8
DEFAULT_255_1_234
10
21.7592801
20
28.8098981
40
0.4467846
50
329.2803592
51
344.7472793
0
ARC
8
DEFAULT_255_1_234
10
21.8585626
20
28.7554018
40
0.3336173
50
324.9352394
51
328.6160465
0
ARC
8
DEFAULT_255_1_234
10
21.8962734
20
28.7290427
40
0.2876076
50
280.580143
51
324.9173126
0
ARC
8
DEFAULT_255_1_234
10
21.8561527
20
28.8961099
40
0.4592847
50
269.5977311
51
281.6734359
0
ARC
8
DEFAULT_255_1_234
10
21.8489433
20
28.8841173
40
0.4472986
50
256.6228859
51
270.51044
0
ARC
8
DEFAULT_255_1_234
10
21.808741
20
28.7292877
40
0.2873874
50
215.8618325
51
257.2788573
0
ARC
8
DEFAULT_255_1_234
10
21.9108442
20
28.7977977
40
0.4102928
50
197.9693508
51
215.2623606
0
ARC
8
DEFAULT_255_1_234
10
22.1593558
20
28.8816709
40
0.6725652
50
187.8816417
51
198.2346507
0
ARC
8
DEFAULT_255_1_234
10
22.5551766
20
28.9388079
40
1.0724845
50
180.8976217
51
188.0055519
0
ARC
8
DEFAULT_255_1_234
10
22.8351954
20
28.9491777
40
1.3526448
50
180.7449369
51
181.1510016
0
ARC
8
DEFAULT_255_1_234
10
22.6774683
20
29.1348042
40
1.1948131
50
173.7675579
51
180.231553
0
ARC
8
DEFAULT_255_1_234
10
22.225683
20
29.1858666
40
0.7401564
50
164.3058563
51
173.9002247
0
ARC
8
DEFAULT_255_1_234
10
21.9344899
20
29.2697656
40
0.4371288
50
148.7922025
51
164.568378
0
ARC
8
DEFAULT_255_1_234
10
21.8393351
20
29.3228929
40
0.3282386
50
144.5883898
51
148.1176286
0
ARC
8
DEFAULT_255_1_234
10
21.8050249
20
29.3468315
40
0.2864044
50
101.6440918
51
144.514236
0
ARC
8
DEFAULT_255_1_234
10
21.8475315
20
29.1779069
40
0.4604934
50
89.5284041
51
102.5819763
0
ARC
8
DEFAULT_255_1_234
10
21.8554403
20
29.1740018
40
0.464401
50
77.0437873
51
90.5081339
0
ARC
8
DEFAULT_255_1_234
10
21.8956405
20
29.3382615
40
0.2953195
50
48.2778575
51
77.4994676
0
ARC
8
DEFAULT_255_1_234
10
21.9029036
20
29.3511746
40
0.2808655
50
36.3142134
51
47.6305865
0
ARC
8
DEFAULT_255_1_234
10
21.8160343
20
29.2926515
40
0.3855453
50
18.2931786
51
35.6769206
0
ARC
8
DEFAULT_255_1_234
10
21.5617102
20
29.2053593
40
0.654423
50
8.024666
51
18.5605216
0
ARC
8
DEFAULT_255_1_234
10
21.1454022
20
29.1438792
40
1.0752407
50
1.1274072
51
8.1718305
0
ARC
8
DEFAULT_255_1_234
10
20.8218213
20
29.1311885
40
1.3990231
50
0.5424119
51
1.3863029
0
ARC
8
DEFAULT_255_1_234
10
21.003959
20
29.1584342
40
1.0682415
50
359.8090433
51
4.9407866
0
ARC
8
DEFAULT_255_1_234
10
21.4249604
20
29.1960113
40
0.6455691
50
4.8362157
51
12.2904523
0
ARC
8
DEFAULT_255_1_234
10
21.7004719
20
29.2573965
40
0.3633074
50
12.0805627
51
23.8173984
0
ARC
8
DEFAULT_255_1_234
10
21.8178425
20
29.3070919
40
0.2358723
50
24.2871213
51
31.3935614
0
ARC
8
DEFAULT_255_1_234
10
21.8703122
20
29.3414233
40
0.1732111
50
30.7407893
51
82.4657128
0
ARC
8
DEFAULT_255_1_234
10
21.8523256
20
29.2530691
40
0.263235
50
81.1060089
51
90.2184952
0
ARC
8
DEFAULT_255_1_234
10
21.8487555
20
29.2788924
40
0.2374236
50
89.3806855
51
105.6762551
0
ARC
8
DEFAULT_255_1_234
10
21.8304186
20
29.3455567
40
0.1682847
50
105.7981136
51
149.7388061
0
ARC
8
DEFAULT_255_1_234
10
21.9368264
20
29.281595
40
0.2924306
50
149.4208916
51
163.6286378
0
ARC
8
DEFAULT_255_1_234
10
22.1459152
20
29.217825
40
0.5110213
50
163.3763315
51
172.1410975
0
ARC
8
DEFAULT_255_1_234
10
22.4759871
20
29.1705518
40
0.8444586
50
172.0259487
51
178.0703232
0
ARC
8
DEFAULT_255_1_234
10
22.778996
20
29.1561906
40
1.1477868
50
177.8631668
51
179.5044149
0
ARC
8
DEFAULT_255_1_234
10
22.6717365
20
28.9247389
40
1.0404907
50
179.7995573
51
185.2460446
0
ARC
8
DEFAULT_255_1_234
10
22.2674404
20
28.8864513
40
0.6343885
50
185.1411642
51
193.0079639
0
ARC
8
DEFAULT_255_1_234
10
22.0030877
20
28.8239641
40
0.3627568
50
192.7897626
51
205.2507664
0
ARC
8
DEFAULT_255_1_234
10
21.8984424
20
28.7772415
40
0.2481908
50
205.8005384
51
211.2537509
0
ARC
8
DEFAULT_255_1_234
10
21.8460864
20
28.742158
40
0.1852521
50
210.3789793
51
238.4008143
0
ARC
8
DEFAULT_255_1_234
10
21.8441386
20
28.7468376
40
0.1882621
50
239.6520629
51
265.9793761
0
ARC
8
DEFAULT_255_1_234
10
21.8526586
20
28.8140427
40
0.2559272
50
265.1315437
51
270.060332
0
ARC
8
DEFAULT_255_1_234
10
21.8555365
20
28.7816534
40
0.2235528
50
269.3314664
51
287.2178029
0
ARC
8
DEFAULT_255_1_234
10
21.8693217
20
28.7313279
40
0.1714108
50
287.7958004
51
329.080874
0
ARC
8
DEFAULT_255_1_234
10
21.7735674
20
28.791093
40
0.2842745
50
328.6634704
51
343.3325132
0
ARC
8
DEFAULT_255_1_234
10
21.5562694
20
28.8587863
40
0.5118644
50
343.0499468
51
351.9393422
0
ARC
8
DEFAULT_255_1_234
10
21.2095994
20
28.9098949
40
0.8622784
50
351.8069023
51
357.7959224
0
ARC
8
DEFAULT_255_1_234
10
20.886055
20
28.9266721
40
1.1862365
50
357.5871873
51
359.2677531
0
LINE
8
DEFAULT_255_1_234
10
22.5043021
20
29.6223211
11
22.8368161
21
28.6577093
0
LINE
8
DEFAULT_255_1_234
10
22.8368161
20
28.6577093
11
23.1709364
21
29.6223211
0
LINE
8
DEFAULT_255_1_234
10
23.1709364
20
29.6223211
11
23.3396029
21
29.6223211
0
LINE
8
DEFAULT_255_1_234
10
23.3396029
20
29.6223211
11
22.905889
21
28.4529
0
LINE
8
DEFAULT_255_1_234
10
22.905889
20
28.4529
11
22.7693495
21
28.4529
0
LINE
8
DEFAULT_255_1_234
10
22.7693495
20
28.4529
11
22.3364388
21
29.6223211
0
LINE
8
DEFAULT_255_1_234
10
22.3364388
20
29.6223211
11
22.5043021
21
29.6223211
0
LINE
8
DEFAULT_255_1_234
10
24.2238973
20
28.5741792
11
24.2238973
21
28.4529
0
LINE
8
DEFAULT_255_1_234
10
24.2238973
20
28.4529
11
23.4576694
21
28.4529
0
LINE
8
DEFAULT_255_1_234
10
23.4576694
20
28.4529
11
23.4576694
21
28.5597221
0
LINE
8
DEFAULT_255_1_234
10
23.4576694
20
28.5597221
11
23.862469
21
29.0094995
0
LINE
8
DEFAULT_255_1_234
10
23.5837677
20
29.2777595
11
23.4351806
21
29.2777595
0
LINE
8
DEFAULT_255_1_234
10
23.950015
20
28.9139218
11
23.6367772
21
28.5741792
0
LINE
8
DEFAULT_255_1_234
10
23.6367772
20
28.5741792
11
24.2238973
21
28.5741792
0
ARC
8
DEFAULT_255_1_234
10
22.5134524
20
30.2024527
40
1.8008286
50
318.5132453
51
320.7828378
0
ARC
8
DEFAULT_255_1_234
10
23.0421498
20
29.7721426
40
1.1191493
50
320.7372736
51
323.9737074
0
ARC
8
DEFAULT_255_1_234
10
23.4341355
20
29.4881361
40
0.6350923
50
323.8961724
51
328.6421089
0
ARC
8
DEFAULT_255_1_234
10
23.638795
20
29.3619031
40
0.3946393
50
328.8299013
51
331.789948
0
ARC
8
DEFAULT_255_1_234
10
23.7385128
20
29.3104509
40
0.2824501
50
331.4255242
51
352.9364833
0
ARC
8
DEFAULT_255_1_234
10
23.7521629
20
29.3073976
40
0.2685315
50
353.2248685
51
0.0169286
0
ARC
8
DEFAULT_255_1_234
10
23.7731506
20
29.309695
40
0.2475536
50
359.4866256
51
15.9339782
0
ARC
8
DEFAULT_255_1_234
10
23.8238491
20
29.3233286
40
0.1950618
50
16.1714718
51
43.5284424
0
ARC
8
DEFAULT_255_1_234
10
23.83158
20
29.3310573
40
0.184134
50
43.4415429
51
83.1661404
0
ARC
8
DEFAULT_255_1_234
10
23.8181718
20
29.2573771
40
0.258926
50
82.160215
51
90.1505798
0
ARC
8
DEFAULT_255_1_234
10
23.8150145
20
29.2036865
40
0.3126255
50
89.5460705
51
102.5418777
0
ARC
8
DEFAULT_255_1_234
10
23.7907231
20
29.3067665
40
0.2067346
50
102.1739365
51
129.2061916
0
ARC
8
DEFAULT_255_1_234
10
23.7828303
20
29.3192094
40
0.1921118
50
129.7279328
51
135.7542026
0
ARC
8
DEFAULT_255_1_234
10
23.7949831
20
29.3095045
40
0.2075944
50
136.175737
51
166.3674722
0
ARC
8
DEFAULT_255_1_234
10
23.895675
20
29.2825182
40
0.3118201
50
165.9092917
51
178.8683903
0
ARC
8
DEFAULT_255_1_234
10
23.9821611
20
29.2778179
40
0.3983935
50
178.438168
51
180.0083905
0
ARC
8
DEFAULT_255_1_234
10
23.8420213
20
29.2817231
40
0.4068601
50
163.2878735
51
180.5581814
0
ARC
8
DEFAULT_255_1_234
10
23.7618475
20
29.303784
40
0.3237344
50
133.454115
51
162.9470031
0
ARC
8
DEFAULT_255_1_234
10
23.7797016
20
29.2848
40
0.349795
50
100.7869394
51
133.4384016
0
ARC
8
DEFAULT_255_1_234
10
23.8144788
20
29.1299319
40
0.5084616
50
89.6605301
51
101.3704185
0
ARC
8
DEFAULT_255_1_234
10
23.8211127
20
29.1360496
40
0.502348
50
78.2171172
51
90.4130393
0
ARC
8
DEFAULT_255_1_234
10
23.8566205
20
29.2984637
40
0.3361092
50
55.9268222
51
78.4888551
0
ARC
8
DEFAULT_255_1_234
10
23.8762645
20
29.3323324
40
0.2970617
50
47.9292255
51
55.4054003
0
ARC
8
DEFAULT_255_1_234
10
23.8864206
20
29.3426502
40
0.2825983
50
4.3347696
51
48.0560701
0
ARC
8
DEFAULT_255_1_234
10
23.7768599
20
29.3256601
40
0.393225
50
359.925209
51
5.5967654
0
ARC
8
DEFAULT_255_1_234
10
23.8197491
20
29.3312816
40
0.3503892
50
337.8914096
51
358.9967724
0
ARC
8
DEFAULT_255_1_234
10
23.5483903
20
29.4359706
40
0.6412172
50
326.9135351
51
338.3505194
0
ARC
8
DEFAULT_255_1_234
10
23.1498207
20
29.6914284
40
1.1146189
50
319.6472867
51
327.095818
0
ARC
8
DEFAULT_255_1_234
10
22.766521
20
30.0076
40
1.6114559
50
317.2586784
51
319.9046139
0
LINE
8
DEFAULT_255_1_234
10
22.5635265
20
37.3590276
11
22.5635265
21
37.0176788
0
LINE
8
DEFAULT_255_1_234
10
22.5635265
20
37.0176788
11
22.889615
21
37.0176788
0
LINE
8
DEFAULT_255_1_234
10
22.889615
20
37.0176788
11
22.889615
21
36.8771233
0
LINE
8
DEFAULT_255_1_234
10
22.889615
20
36.8771233
11
22.5635265
21
36.8771233
0
LINE
8
DEFAULT_255_1_234
10
22.5635265
20
36.8771233
11
22.5635265
21
36.5076634
0
LINE
8
DEFAULT_255_1_234
10
22.5635265
20
36.5076634
11
22.4141361
21
36.5076634
0
LINE
8
DEFAULT_255_1_234
10
22.4141361
20
36.5076634
11
22.4141361
21
36.8771233
0
LINE
8
DEFAULT_255_1_234
10
22.4141361
20
36.8771233
11
22.0880476
21
36.8771233
0
LINE
8
DEFAULT_255_1_234
10
22.0880476
20
36.8771233
11
22.0880476
21
37.0176788
0
LINE
8
DEFAULT_255_1_234
10
22.0880476
20
37.0176788
11
22.4141361
21
37.0176788
0
LINE
8
DEFAULT_255_1_234
10
22.4141361
20
37.0176788
11
22.4141361
21
37.3590276
0
LINE
8
DEFAULT_255_1_234
10
22.4141361
20
37.3590276
11
22.5635265
21
37.3590276
0
LINE
8
DEFAULT_255_1_234
10
23.259075
20
37.5598211
11
23.259075
21
36.3904
0
LINE
8
DEFAULT_255_1_234
10
23.259075
20
36.3904
11
23.1048656
21
36.3904
0
LINE
8
DEFAULT_255_1_234
10
23.1048656
20
36.3904
11
23.1048656
21
37.5598211
0
LINE
8
DEFAULT_255_1_234
10
23.1048656
20
37.5598211
11
23.259075
21
37.5598211
0
LINE
8
DEFAULT_255_1_234
10
23.9907664
20
37.5654433
11
23.9907664
21
36.3904
0
LINE
8
DEFAULT_255_1_234
10
23.9907664
20
36.3904
11
23.841376
21
36.3904
0
LINE
8
DEFAULT_255_1_234
10
23.841376
20
36.3904
11
23.841376
21
37.3807133
0
LINE
8
DEFAULT_255_1_234
10
23.841376
20
37.3807133
11
23.5417922
21
37.2706785
0
LINE
8
DEFAULT_255_1_234
10
23.5417922
20
37.2706785
11
23.5417922
21
37.4056117
0
LINE
8
DEFAULT_255_1_234
10
23.5417922
20
37.4056117
11
23.9674743
21
37.5654433
0
LINE
8
DEFAULT_255_1_234
10
23.9674743
20
37.5654433
11
23.9907664
21
37.5654433
0
LINE
8
DEFAULT_255_1_234
10
22.8505663
20
44.8853026
11
22.8505663
21
44.7640234
0
LINE
8
DEFAULT_255_1_234
10
22.8505663
20
44.7640234
11
22.4586174
21
44.7640234
0
LINE
8
DEFAULT_255_1_234
10
22.4586174
20
44.7640234
11
22.4586174
21
44.8853026
0
LINE
8
DEFAULT_255_1_234
10
22.4586174
20
44.8853026
11
22.8505663
21
44.8853026
0
LINE
8
DEFAULT_255_1_234
10
23.1838834
20
45.4973211
11
23.1838834
21
44.3279
0
LINE
8
DEFAULT_255_1_234
10
23.1838834
20
44.3279
11
23.029674
21
44.3279
0
LINE
8
DEFAULT_255_1_234
10
23.029674
20
44.3279
11
23.029674
21
45.4973211
0
LINE
8
DEFAULT_255_1_234
10
23.029674
20
45.4973211
11
23.1838834
21
45.4973211
0
LINE
8
DEFAULT_255_1_234
10
23.9155748
20
45.5029433
11
23.9155748
21
44.3279
0
LINE
8
DEFAULT_255_1_234
10
23.9155748
20
44.3279
11
23.7661844
21
44.3279
0
LINE
8
DEFAULT_255_1_234
10
23.7661844
20
44.3279
11
23.7661844
21
45.3182133
0
LINE
8
DEFAULT_255_1_234
10
23.7661844
20
45.3182133
11
23.4666006
21
45.2081785
0
LINE
8
DEFAULT_255_1_234
10
23.4666006
20
45.2081785
11
23.4666006
21
45.3431117
0
LINE
8
DEFAULT_255_1_234
10
23.4666006
20
45.3431117
11
23.8922827
21
45.5029433
0
LINE
8
DEFAULT_255_1_234
10
23.8922827
20
45.5029433
11
23.9155748
21
45.5029433
0
LINE
8
DEFAULT_255_1_234
10
21.9271265
20
53.2340276
11
21.9271265
21
52.8926788
0
LINE
8
DEFAULT_255_1_234
10
21.9271265
20
52.8926788
11
22.253215
21
52.8926788
0
LINE
8
DEFAULT_255_1_234
10
22.253215
20
52.8926788
11
22.253215
21
52.7521233
0
LINE
8
DEFAULT_255_1_234
10
22.253215
20
52.7521233
11
21.9271265
21
52.7521233
0
LINE
8
DEFAULT_255_1_234
10
21.9271265
20
52.7521233
11
21.9271265
21
52.3826634
0
LINE
8
DEFAULT_255_1_234
10
21.9271265
20
52.3826634
11
21.7777361
21
52.3826634
0
LINE
8
DEFAULT_255_1_234
10
21.7777361
20
52.3826634
11
21.7777361
21
52.7521233
0
LINE
8
DEFAULT_255_1_234
10
21.7777361
20
52.7521233
11
21.4516476
21
52.7521233
0
LINE
8
DEFAULT_255_1_234
10
21.4516476
20
52.7521233
11
21.4516476
21
52.8926788
0
LINE
8
DEFAULT_255_1_234
10
21.4516476
20
52.8926788
11
21.7777361
21
52.8926788
0
LINE
8
DEFAULT_255_1_234
10
21.7777361
20
52.8926788
11
21.7777361
21
53.2340276
0
LINE
8
DEFAULT_255_1_234
10
21.7777361
20
53.2340276
11
21.9271265
21
53.2340276
0
LINE
8
DEFAULT_255_1_234
10
22.511837
20
53.4348211
11
22.844351
21
52.4702093
0
LINE
8
DEFAULT_255_1_234
10
22.844351
20
52.4702093
11
23.1784713
21
53.4348211
0
LINE
8
DEFAULT_255_1_234
10
23.1784713
20
53.4348211
11
23.3471378
21
53.4348211
0
LINE
8
DEFAULT_255_1_234
10
23.3471378
20
53.4348211
11
22.9134239
21
52.2654
0
LINE
8
DEFAULT_255_1_234
10
22.9134239
20
52.2654
11
22.7768844
21
52.2654
0
LINE
8
DEFAULT_255_1_234
10
22.7768844
20
52.2654
11
22.3439737
21
53.4348211
0
LINE
8
DEFAULT_255_1_234
10
22.3439737
20
53.4348211
11
22.511837
21
53.4348211
0
LINE
8
DEFAULT_255_1_234
10
23.953534
20
53.4404433
11
23.953534
21
52.2654
0
LINE
8
DEFAULT_255_1_234
10
23.953534
20
52.2654
11
23.8041437
21
52.2654
0
LINE
8
DEFAULT_255_1_234
10
23.8041437
20
52.2654
11
23.8041437
21
53.2557133
0
LINE
8
DEFAULT_255_1_234
10
23.8041437
20
53.2557133
11
23.5045599
21
53.1456785
0
LINE
8
DEFAULT_255_1_234
10
23.5045599
20
53.1456785
11
23.5045599
21
53.2806117
0
LINE
8
DEFAULT_255_1_234
10
23.5045599
20
53.2806117
11
23.930242
21
53.4404433
0
LINE
8
DEFAULT_255_1_234
10
23.930242
20
53.4404433
11
23.953534
21
53.4404433
0
ENDSEC
0
EOF