0
SECTION
2
HEADER
9
$MEASUREMENT
70
1
0
ENDSEC
0
SECTION
2
TABLES
0
TABLE
2
LTYPE
0
LTYPE
72
65
70
64
2
CONTINUOUS
3
______
73
0
40
0
0
ENDTAB
0
TABLE
2
LAYER
0
LAYER
2
DEFAULT_255_2_778
70
0
62
255
6
CONTINUOUS
0
LAYER
2
DEFAULT_255_1_388
70
0
62
255
6
CONTINUOUS
0
LAYER
2
DEFAULT_255_2_778_1
70
0
62
255
6
CONTINUOUS
0
ENDTAB
0
ENDSEC
0
SECTION
2
ENTITIES
0
ARC
8
DEFAULT_255_2_778
10
3.5700693
20
51.9926534
40
0.7914215
50
129.1312896
51
180.1450914
0
ARC
8
DEFAULT_255_2_778
10
3.5703345
20
51.9931405
40
0.7912112
50
89.854026
51
129.1684493
0
ARC
8
DEFAULT_255_2_778
10
25.7993937
20
51.992827
40
0.7915249
50
39.4792447
51
90.147911
0
ARC
8
DEFAULT_255_2_778
10
25.7999935
20
51.9926737
40
0.7911595
50
359.8533901
51
39.5154338
0
ARC
8
DEFAULT_255_2_778
10
25.7996693
20
-1.9863989
40
0.7914836
50
309.4761667
51
0.1482649
0
ARC
8
DEFAULT_255_2_778
10
25.799398
20
-1.98683
40
0.7913235
50
269.8517415
51
309.511178
0
ARC
8
DEFAULT_255_2_778
10
3.570342
20
-1.9867718
40
0.7913815
50
219.1282118
51
270.1454017
0
ARC
8
DEFAULT_255_2_778
10
3.5700247
20
-1.9863893
40
0.7913769
50
179.8524075
51
219.1641908
0
LINE
8
DEFAULT_255_2_778
10
3.5723503
20
52.7843492
11
25.7973503
21
52.7843492
0
LINE
8
DEFAULT_255_2_778
10
26.5911503
20
51.9906492
11
26.5911503
21
-1.9843508
0
LINE
8
DEFAULT_255_2_778
10
25.7973503
20
-2.7781508
11
3.5723503
21
-2.7781508
0
LINE
8
DEFAULT_255_2_778
10
2.7786503
20
-1.9843508
11
2.7786503
21
51.9906492
0
LINE
8
DEFAULT_255_1_388
10
10.2965646
20
0.0830516
11
10.2965646
21
-0.0588081
0
LINE
8
DEFAULT_255_1_388
10
10.2965646
20
-0.0588081
11
9.7444868
21
-0.0588081
0
LINE
8
DEFAULT_255_1_388
10
9.7444868
20
-0.0588081
11
9.7444868
21
-0.6398
0
LINE
8
DEFAULT_255_1_388
10
9.7444868
20
-0.6398
11
9.5710024
21
-0.6398
0
LINE
8
DEFAULT_255_1_388
10
9.5710024
20
-0.6398
11
9.5710024
21
0.6757898
0
LINE
8
DEFAULT_255_1_388
10
9.5710024
20
0.6757898
11
10.3860175
21
0.6757898
0
LINE
8
DEFAULT_255_1_388
10
10.3860175
20
0.6757898
11
10.3860175
21
0.5330267
0
LINE
8
DEFAULT_255_1_388
10
10.3860175
20
0.5330267
11
9.7444868
21
0.5330267
0
LINE
8
DEFAULT_255_1_388
10
9.7444868
20
0.5330267
11
9.7444868
21
0.0830516
0
LINE
8
DEFAULT_255_1_388
10
9.7444868
20
0.0830516
11
10.2965646
21
0.0830516
0
LINE
8
DEFAULT_255_1_388
10
11.4124667
20
-0.5033618
11
11.4124667
21
-0.6398
0
LINE
8
DEFAULT_255_1_388
10
11.4124667
20
-0.6398
11
10.5504663
21
-0.6398
0
LINE
8
DEFAULT_255_1_388
10
10.5504663
20
-0.6398
11
10.5504663
21
-0.5196259
0
LINE
8
DEFAULT_255_1_388
10
10.5504663
20
-0.5196259
11
11.0058627
21
-0.0136298
0
LINE
8
DEFAULT_255_1_388
10
10.6923259
20
0.2881607
11
10.5251665
21
0.2881607
0
LINE
8
DEFAULT_255_1_388
10
11.1043513
20
-0.121154
11
10.7519611
21
-0.5033618
0
LINE
8
DEFAULT_255_1_388
10
10.7519611
20
-0.5033618
11
11.4124667
21
-0.5033618
0
ARC
8
DEFAULT_255_1_388
10
9.4882687
20
1.3283983
40
2.0258655
50
318.5132526
51
320.7829045
0
ARC
8
DEFAULT_255_1_388
10
10.0830644
20
0.8442929
40
1.2589638
50
320.7372878
51
323.9739031
0
ARC
8
DEFAULT_255_1_388
10
10.5239576
20
0.5248554
40
0.7145141
50
323.8962701
51
328.64194
0
ARC
8
DEFAULT_255_1_388
10
10.7541833
20
0.3828545
40
0.4440242
50
328.8294576
51
331.7891185
0
ARC
8
DEFAULT_255_1_388
10
10.8664153
20
0.3249374
40
0.3177517
50
331.4254512
51
352.9365785
0
ARC
8
DEFAULT_255_1_388
10
10.8817153
20
0.321505
40
0.3021496
50
353.2257659
51
0.0166158
0
ARC
8
DEFAULT_255_1_388
10
10.9053914
20
0.3240894
40
0.2784847
50
359.486299
51
15.9343185
0
ARC
8
DEFAULT_255_1_388
10
10.9624181
20
0.3394269
40
0.2194403
50
16.1712913
51
43.5286088
0
ARC
8
DEFAULT_255_1_388
10
10.9711125
20
0.3481191
40
0.2071504
50
43.4417391
51
83.1661095
0
ARC
8
DEFAULT_255_1_388
10
10.9560286
20
0.2652316
40
0.2912888
50
82.160179
51
90.1505708
0
ARC
8
DEFAULT_255_1_388
10
10.9524768
20
0.2048279
40
0.3517025
50
89.5460741
51
102.5418361
0
ARC
8
DEFAULT_255_1_388
10
10.9251488
20
0.3207933
40
0.2325748
50
102.1738499
51
129.206123
0
ARC
8
DEFAULT_255_1_388
10
10.9162941
20
0.3347664
40
0.2161591
50
129.72865
51
135.753947
0
ARC
8
DEFAULT_255_1_388
10
10.9299423
20
0.3238728
40
0.2335433
50
136.1757367
51
166.3673339
0
ARC
8
DEFAULT_255_1_388
10
11.0432112
20
0.2935148
40
0.3507873
50
165.9090694
51
178.8684636
0
ARC
8
DEFAULT_255_1_388
10
11.1407883
20
0.2882263
40
0.4484624
50
178.4391136
51
180.0083808
0
ARC
8
DEFAULT_255_1_388
10
10.9828585
20
0.2926197
40
0.4577138
50
163.2878482
51
180.5581842
0
ARC
8
DEFAULT_255_1_388
10
10.8926626
20
0.3174393
40
0.3641968
50
133.4540601
51
162.947111
0
ARC
8
DEFAULT_255_1_388
10
10.9127508
20
0.2960789
40
0.3935189
50
100.7869829
51
133.4382499
0
ARC
8
DEFAULT_255_1_388
10
10.9518753
20
0.1218399
40
0.5720313
50
89.660664
51
101.3702276
0
ARC
8
DEFAULT_255_1_388
10
10.9593362
20
0.1287263
40
0.5651495
50
78.2172678
51
90.412935
0
ARC
8
DEFAULT_255_1_388
10
10.9992827
20
0.3114511
40
0.378122
50
55.9269121
51
78.4888449
0
ARC
8
DEFAULT_255_1_388
10
11.0213543
20
0.3495187
40
0.3342379
50
47.929771
51
55.4049217
0
ARC
8
DEFAULT_255_1_388
10
11.0328073
20
0.3611618
40
0.3179217
50
4.334829
51
48.0560205
0
ARC
8
DEFAULT_255_1_388
10
10.9095875
20
0.3420487
40
0.442341
50
359.9251713
51
5.5971671
0
ARC
8
DEFAULT_255_1_388
10
10.9578029
20
0.3483728
40
0.3941854
50
337.8914027
51
358.9967534
0
ARC
8
DEFAULT_255_1_388
10
10.6525599
20
0.4661295
40
0.7213271
50
326.9132501
51
338.3508308
0
ARC
8
DEFAULT_255_1_388
10
10.2041711
20
0.7535105
40
1.2538973
50
319.6471833
51
327.0959558
0
ARC
8
DEFAULT_255_1_388
10
9.7728369
20
1.109305
40
1.8129975
50
317.2588228
51
319.9045804
0
LINE
8
DEFAULT_255_1_388
10
11.9546054
20
-0.0127263
11
11.9546054
21
-0.1491645
0
LINE
8
DEFAULT_255_1_388
10
11.9546054
20
-0.1491645
11
11.513666
21
-0.1491645
0
LINE
8
DEFAULT_255_1_388
10
11.513666
20
-0.1491645
11
11.513666
21
-0.0127263
0
LINE
8
DEFAULT_255_1_388
10
11.513666
20
-0.0127263
11
11.9546054
21
-0.0127263
0
LINE
8
DEFAULT_255_1_388
10
12.8057631
20
0.6757898
11
12.8057631
21
-0.197957
0
LINE
8
DEFAULT_255_1_388
10
12.8057631
20
-0.197957
11
12.9882832
21
-0.197957
0
LINE
8
DEFAULT_255_1_388
10
12.9882832
20
-0.197957
11
12.9882832
21
-0.3343952
0
LINE
8
DEFAULT_255_1_388
10
12.9882832
20
-0.3343952
11
12.8057631
21
-0.3343952
0
LINE
8
DEFAULT_255_1_388
10
12.8057631
20
-0.3343952
11
12.8057631
21
-0.6398
0
LINE
8
DEFAULT_255_1_388
10
12.8057631
20
-0.6398
11
12.6377001
21
-0.6398
0
LINE
8
DEFAULT_255_1_388
10
12.6377001
20
-0.6398
11
12.6377001
21
-0.3343952
0
LINE
8
DEFAULT_255_1_388
10
12.6377001
20
-0.3343952
11
12.0386369
21
-0.3343952
0
LINE
8
DEFAULT_255_1_388
10
12.0386369
20
-0.3343952
11
12.0386369
21
-0.2359067
0
LINE
8
DEFAULT_255_1_388
10
12.0386369
20
-0.2359067
11
12.6277609
21
0.6757898
0
LINE
8
DEFAULT_255_1_388
10
12.6277609
20
0.6757898
11
12.8057631
21
0.6757898
0
LINE
8
DEFAULT_255_1_388
10
12.6178217
20
0.4110455
11
12.2283854
21
-0.197957
0
LINE
8
DEFAULT_255_1_388
10
12.2283854
20
-0.197957
11
12.6377001
21
-0.197957
0
LINE
8
DEFAULT_255_1_388
10
12.6377001
20
-0.197957
11
12.6377001
21
0.447188
0
LINE
8
DEFAULT_255_1_388
10
12.6377001
20
0.447188
11
12.6178217
21
0.4110455
0
LINE
8
DEFAULT_255_1_388
10
14.0346108
20
-0.6398
11
13.9090153
21
-0.2964455
0
LINE
8
DEFAULT_255_1_388
10
13.9090153
20
-0.2964455
11
13.357841
21
-0.2964455
0
LINE
8
DEFAULT_255_1_388
10
13.357841
20
-0.2964455
11
13.2340527
21
-0.6398
0
LINE
8
DEFAULT_255_1_388
10
13.2340527
20
-0.6398
11
13.0551469
21
-0.6398
0
LINE
8
DEFAULT_255_1_388
10
13.0551469
20
-0.6398
11
13.5575288
21
0.6757898
0
LINE
8
DEFAULT_255_1_388
10
13.5575288
20
0.6757898
11
13.7093276
21
0.6757898
0
LINE
8
DEFAULT_255_1_388
10
13.7093276
20
0.6757898
11
14.212613
21
-0.6398
0
LINE
8
DEFAULT_255_1_388
10
14.212613
20
-0.6398
11
14.0346108
21
-0.6398
0
LINE
8
DEFAULT_255_1_388
10
13.6334282
20
0.4616451
11
13.4102478
21
-0.1536823
0
LINE
8
DEFAULT_255_1_388
10
13.4102478
20
-0.1536823
11
13.8575122
21
-0.1536823
0
LINE
8
DEFAULT_255_1_388
10
13.8575122
20
-0.1536823
11
13.6334282
21
0.4616451
0
LINE
8
DEFAULT_255_1_388
10
14.7538481
20
-0.6398
11
14.3897116
21
-0.6398
0
LINE
8
DEFAULT_255_1_388
10
14.3897116
20
-0.6398
11
14.3897116
21
0.6757898
0
LINE
8
DEFAULT_255_1_388
10
14.3897116
20
0.6757898
11
14.7610766
21
0.6757898
0
LINE
8
DEFAULT_255_1_388
10
15.341165
20
0.0622696
11
15.341165
21
-0.0217619
0
LINE
8
DEFAULT_255_1_388
10
14.7655944
20
0.5330267
11
14.563196
21
0.5330267
0
LINE
8
DEFAULT_255_1_388
10
14.563196
20
0.5330267
11
14.563196
21
-0.4979404
0
LINE
8
DEFAULT_255_1_388
10
14.563196
20
-0.4979404
11
14.745716
21
-0.4979404
0
LINE
8
DEFAULT_255_1_388
10
15.1694877
20
-0.0181477
11
15.1694877
21
0.0586553
0
ARC
8
DEFAULT_255_1_388
10
14.7654561
20
0.0159436
40
0.6598608
50
75.4100343
51
90.3802731
0
ARC
8
DEFAULT_255_1_388
10
14.7912806
20
0.1235691
40
0.5492049
50
60.1455157
51
75.1889627
0
ARC
8
DEFAULT_255_1_388
10
14.8091398
20
0.1546914
40
0.5133226
50
26.525419
51
60.1451222
0
ARC
8
DEFAULT_255_1_388
10
14.6831184
20
0.0878642
40
0.6559324
50
7.4029944
51
26.832209
0
ARC
8
DEFAULT_255_1_388
10
14.5037581
20
0.0599229
40
0.8374103
50
0.1605597
51
7.7176135
0
ARC
8
DEFAULT_255_1_388
10
14.5221982
20
-0.0260679
40
0.8189782
50
348.7289744
51
0.30125
0
ARC
8
DEFAULT_255_1_388
10
14.7085445
20
-0.0630844
40
0.628991
50
333.0706936
51
348.7181455
0
ARC
8
DEFAULT_255_1_388
10
14.8173074
20
-0.1221551
40
0.5052808
50
299.2531435
51
333.4571133
0
ARC
8
DEFAULT_255_1_388
10
14.7767104
20
-0.0450371
40
0.5924066
50
278.1072193
51
299.0340218
0
ARC
8
DEFAULT_255_1_388
10
14.7479153
20
0.1245979
40
0.7644209
50
270.4446841
51
278.4508355
0
ARC
8
DEFAULT_255_1_388
10
14.7502637
20
0.02003
40
0.5179903
50
269.4969684
51
284.0204874
0
ARC
8
DEFAULT_255_1_388
10
14.7902355
20
-0.1335585
40
0.3592968
50
283.7699076
51
318.1557121
0
ARC
8
DEFAULT_255_1_388
10
14.75229
20
-0.1051601
40
0.4065308
50
318.7417595
51
343.687252
0
ARC
8
DEFAULT_255_1_388
10
14.5493479
20
-0.0417725
40
0.6191194
50
343.3324891
51
355.8548594
0
ARC
8
DEFAULT_255_1_388
10
14.3132517
20
-0.0193281
40
0.856237
50
355.4988754
51
0.0789913
0
ARC
8
DEFAULT_255_1_388
10
14.4013316
20
0.063408
40
0.7681709
50
359.6455047
51
9.8607559
0
ARC
8
DEFAULT_255_1_388
10
14.6669039
20
0.1113664
40
0.498312
50
9.6573037
51
26.1931522
0
ARC
8
DEFAULT_255_1_388
10
14.7713114
20
0.1598587
40
0.3832303
50
26.5777895
51
40.1533752
0
ARC
8
DEFAULT_255_1_388
10
14.8000779
20
0.182302
40
0.3467742
50
40.3839958
51
80.1430923
0
ARC
8
DEFAULT_255_1_388
10
14.7633035
20
0.0192486
40
0.5137832
50
79.2153636
51
89.7445174
0
LINE
8
DEFAULT_255_1_388
10
16.4218281
20
-0.5033618
11
16.4218281
21
-0.6398
0
LINE
8
DEFAULT_255_1_388
10
16.4218281
20
-0.6398
11
15.5598276
21
-0.6398
0
LINE
8
DEFAULT_255_1_388
10
15.5598276
20
-0.6398
11
15.5598276
21
-0.5196259
0
LINE
8
DEFAULT_255_1_388
10
15.5598276
20
-0.5196259
11
16.0152241
21
-0.0136298
0
LINE
8
DEFAULT_255_1_388
10
15.7016872
20
0.2881607
11
15.5345278
21
0.2881607
0
LINE
8
DEFAULT_255_1_388
10
16.1137126
20
-0.121154
11
15.7613225
21
-0.5033618
0
LINE
8
DEFAULT_255_1_388
10
15.7613225
20
-0.5033618
11
16.4218281
21
-0.5033618
0
ARC
8
DEFAULT_255_1_388
10
14.49763
20
1.3283983
40
2.0258655
50
318.5132526
51
320.7829045
0
ARC
8
DEFAULT_255_1_388
10
15.0924257
20
0.8442929
40
1.2589638
50
320.7372878
51
323.9739031
0
ARC
8
DEFAULT_255_1_388
10
15.5333189
20
0.5248554
40
0.7145141
50
323.8962701
51
328.64194
0
ARC
8
DEFAULT_255_1_388
10
15.7635446
20
0.3828545
40
0.4440242
50
328.8294576
51
331.7891185
0
ARC
8
DEFAULT_255_1_388
10
15.8757767
20
0.3249374
40
0.3177517
50
331.4254512
51
352.9365785
0
ARC
8
DEFAULT_255_1_388
10
15.8910766
20
0.321505
40
0.3021496
50
353.2257659
51
0.0166158
0
ARC
8
DEFAULT_255_1_388
10
15.9147527
20
0.3240894
40
0.2784847
50
359.486299
51
15.9343185
0
ARC
8
DEFAULT_255_1_388
10
15.9717794
20
0.3394269
40
0.2194403
50
16.1712913
51
43.5286088
0
ARC
8
DEFAULT_255_1_388
10
15.9804738
20
0.3481191
40
0.2071504
50
43.4417391
51
83.1661095
0
ARC
8
DEFAULT_255_1_388
10
15.96539
20
0.2652316
40
0.2912888
50
82.160179
51
90.1505708
0
ARC
8
DEFAULT_255_1_388
10
15.9618381
20
0.2048279
40
0.3517025
50
89.5460741
51
102.5418361
0
ARC
8
DEFAULT_255_1_388
10
15.9345101
20
0.3207933
40
0.2325748
50
102.1738499
51
129.206123
0
ARC
8
DEFAULT_255_1_388
10
15.9256555
20
0.3347664
40
0.2161591
50
129.72865
51
135.753947
0
ARC
8
DEFAULT_255_1_388
10
15.9393037
20
0.3238728
40
0.2335433
50
136.1757367
51
166.3673339
0
ARC
8
DEFAULT_255_1_388
10
16.0525725
20
0.2935148
40
0.3507873
50
165.9090694
51
178.8684636
0
ARC
8
DEFAULT_255_1_388
10
16.1501497
20
0.2882263
40
0.4484624
50
178.4391136
51
180.0083808
0
ARC
8
DEFAULT_255_1_388
10
15.9922198
20
0.2926197
40
0.4577138
50
163.2878482
51
180.5581842
0
ARC
8
DEFAULT_255_1_388
10
15.9020239
20
0.3174393
40
0.3641968
50
133.4540601
51
162.947111
0
ARC
8
DEFAULT_255_1_388
10
15.9221121
20
0.2960789
40
0.3935189
50
100.7869829
51
133.4382499
0
ARC
8
DEFAULT_255_1_388
10
15.9612366
20
0.1218399
40
0.5720313
50
89.660664
51
101.3702276
0
ARC
8
DEFAULT_255_1_388
10
15.9686975
20
0.1287263
40
0.5651495
50
78.2172678
51
90.412935
0
ARC
8
DEFAULT_255_1_388
10
16.0086441
20
0.3114511
40
0.378122
50
55.9269121
51
78.4888449
0
ARC
8
DEFAULT_255_1_388
10
16.0307156
20
0.3495187
40
0.3342379
50
47.929771
51
55.4049217
0
ARC
8
DEFAULT_255_1_388
10
16.0421686
20
0.3611618
40
0.3179217
50
4.334829
51
48.0560205
0
ARC
8
DEFAULT_255_1_388
10
15.9189488
20
0.3420487
40
0.442341
50
359.9251713
51
5.5971671
0
ARC
8
DEFAULT_255_1_388
10
15.9671643
20
0.3483728
40
0.3941854
50
337.8914027
51
358.9967534
0
ARC
8
DEFAULT_255_1_388
10
15.6619213
20
0.4661295
40
0.7213271
50
326.9132501
51
338.3508308
0
ARC
8
DEFAULT_255_1_388
10
15.2135325
20
0.7535105
40
1.2538973
50
319.6471833
51
327.0959558
0
ARC
8
DEFAULT_255_1_388
10
14.7821983
20
1.109305
40
1.8129975
50
317.2588228
51
319.9045804
0
LINE
8
DEFAULT_255_1_388
10
17.0064343
20
-0.6398
11
16.6422978
21
-0.6398
0
LINE
8
DEFAULT_255_1_388
10
16.6422978
20
-0.6398
11
16.6422978
21
0.6757898
0
LINE
8
DEFAULT_255_1_388
10
16.6422978
20
0.6757898
11
17.0136628
21
0.6757898
0
LINE
8
DEFAULT_255_1_388
10
17.5937512
20
0.0622696
11
17.5937512
21
-0.0217619
0
LINE
8
DEFAULT_255_1_388
10
17.0181806
20
0.5330267
11
16.8157822
21
0.5330267
0
LINE
8
DEFAULT_255_1_388
10
16.8157822
20
0.5330267
11
16.8157822
21
-0.4979404
0
LINE
8
DEFAULT_255_1_388
10
16.8157822
20
-0.4979404
11
16.9983022
21
-0.4979404
0
LINE
8
DEFAULT_255_1_388
10
17.4220739
20
-0.0181477
11
17.4220739
21
0.0586553
0
ARC
8
DEFAULT_255_1_388
10
17.0180423
20
0.0159436
40
0.6598608
50
75.4100343
51
90.3802731
0
ARC
8
DEFAULT_255_1_388
10
17.0438668
20
0.1235691
40
0.5492049
50
60.1455157
51
75.1889627
0
ARC
8
DEFAULT_255_1_388
10
17.061726
20
0.1546914
40
0.5133226
50
26.525419
51
60.1451222
0
ARC
8
DEFAULT_255_1_388
10
16.9357046
20
0.0878642
40
0.6559324
50
7.4029944
51
26.832209
0
ARC
8
DEFAULT_255_1_388
10
16.7563443
20
0.0599229
40
0.8374103
50
0.1605597
51
7.7176135
0
ARC
8
DEFAULT_255_1_388
10
16.7747843
20
-0.0260679
40
0.8189782
50
348.7289744
51
0.30125
0
ARC
8
DEFAULT_255_1_388
10
16.9611307
20
-0.0630844
40
0.628991
50
333.0706936
51
348.7181455
0
ARC
8
DEFAULT_255_1_388
10
17.0698936
20
-0.1221551
40
0.5052808
50
299.2531435
51
333.4571133
0
ARC
8
DEFAULT_255_1_388
10
17.0292966
20
-0.0450371
40
0.5924066
50
278.1072193
51
299.0340218
0
ARC
8
DEFAULT_255_1_388
10
17.0005015
20
0.1245979
40
0.7644209
50
270.4446841
51
278.4508355
0
ARC
8
DEFAULT_255_1_388
10
17.0028499
20
0.02003
40
0.5179903
50
269.4969684
51
284.0204874
0
ARC
8
DEFAULT_255_1_388
10
17.0428217
20
-0.1335585
40
0.3592968
50
283.7699076
51
318.1557121
0
ARC
8
DEFAULT_255_1_388
10
17.0048762
20
-0.1051601
40
0.4065308
50
318.7417595
51
343.687252
0
ARC
8
DEFAULT_255_1_388
10
16.8019341
20
-0.0417725
40
0.6191194
50
343.3324891
51
355.8548594
0
ARC
8
DEFAULT_255_1_388
10
16.5658379
20
-0.0193281
40
0.856237
50
355.4988754
51
0.0789913
0
ARC
8
DEFAULT_255_1_388
10
16.6539178
20
0.063408
40
0.7681709
50
359.6455047
51
9.8607559
0
ARC
8
DEFAULT_255_1_388
10
16.9194901
20
0.1113664
40
0.498312
50
9.6573037
51
26.1931522
0
ARC
8
DEFAULT_255_1_388
10
17.0238976
20
0.1598587
40
0.3832303
50
26.5777895
51
40.1533752
0
ARC
8
DEFAULT_255_1_388
10
17.0526641
20
0.182302
40
0.3467742
50
40.3839958
51
80.1430923
0
ARC
8
DEFAULT_255_1_388
10
17.0158897
20
0.0192486
40
0.5137832
50
79.2153636
51
89.7445174
0
LINE
8
DEFAULT_255_1_388
10
18.6888713
20
-0.6398
11
18.5632758
21
-0.2964455
0
LINE
8
DEFAULT_255_1_388
10
18.5632758
20
-0.2964455
11
18.0121015
21
-0.2964455
0
LINE
8
DEFAULT_255_1_388
10
18.0121015
20
-0.2964455
11
17.8883132
21
-0.6398
0
LINE
8
DEFAULT_255_1_388
10
17.8883132
20
-0.6398
11
17.7094074
21
-0.6398
0
LINE
8
DEFAULT_255_1_388
10
17.7094074
20
-0.6398
11
18.2117893
21
0.6757898
0
LINE
8
DEFAULT_255_1_388
10
18.2117893
20
0.6757898
11
18.3635881
21
0.6757898
0
LINE
8
DEFAULT_255_1_388
10
18.3635881
20
0.6757898
11
18.8668735
21
-0.6398
0
LINE
8
DEFAULT_255_1_388
10
18.8668735
20
-0.6398
11
18.6888713
21
-0.6398
0
LINE
8
DEFAULT_255_1_388
10
18.2876887
20
0.4616451
11
18.0645083
21
-0.1536823
0
LINE
8
DEFAULT_255_1_388
10
18.0645083
20
-0.1536823
11
18.5117727
21
-0.1536823
0
LINE
8
DEFAULT_255_1_388
10
18.5117727
20
-0.1536823
11
18.2876887
21
0.4616451
0
ARC
8
DEFAULT_255_2_778
10
13.4649021
20
50.0735533
40
2.3035416
50
339.8907409
51
346.994376
0
ARC
8
DEFAULT_255_2_778
10
14.4342357
20
49.7134276
40
1.2694939
50
328.7691853
51
340.1120733
0
ARC
8
DEFAULT_255_2_778
10
14.9618733
20
49.3867249
40
0.6489533
50
308.240385
51
329.2799976
0
ARC
8
DEFAULT_255_2_778
10
15.1031254
20
49.2178956
40
0.42897
50
290.2149747
51
307.3797345
0
ARC
8
DEFAULT_255_2_778
10
14.8246836
20
49.4805832
40
0.5085768
50
279.0582472
51
335.0254579
0
ARC
8
DEFAULT_255_2_778
10
14.3731606
20
49.7288036
40
1.0232605
50
333.100566
51
347.4967948
0
ARC
8
DEFAULT_255_2_778
10
13.8963879
20
49.8527273
40
1.515659
50
346.8251736
51
349.6433145
0
ARC
8
DEFAULT_255_2_778
10
16.7021297
20
50.1252541
40
0.6340004
50
90.2418805
51
180.4975197
0
ARC
8
DEFAULT_255_2_778
10
16.6967765
20
50.125254
40
0.6340006
50
359.5024881
51
89.7581009
0
ARC
8
DEFAULT_255_2_778
10
16.6967768
20
50.1142436
40
0.6340003
50
270.2418684
51
0.4975336
0
ARC
8
DEFAULT_255_2_778
10
16.7021299
20
50.1142437
40
0.6340005
50
179.5024805
51
269.758104
0
ARC
8
DEFAULT_255_2_778
10
17.0885581
20
50.1396235
40
0.5748535
50
158.6224664
51
180.7450103
0
ARC
8
DEFAULT_255_2_778
10
16.7839054
20
50.2666995
40
0.2449488
50
125.6968143
51
160.3264119
0
ARC
8
DEFAULT_255_2_778
10
16.7006393
20
50.3734868
40
0.1097683
50
90.6191325
51
122.9231799
0
ARC
8
DEFAULT_255_2_778
10
16.6857984
20
50.3353461
40
0.1485318
50
26.6299238
51
84.7252528
0
ARC
8
DEFAULT_255_2_778
10
16.4257415
20
50.169902
40
0.4562354
50
6.9672199
51
30.5675002
0
ARC
8
DEFAULT_255_2_778
10
16.230961
20
50.1329325
40
0.6541928
50
359.9313724
51
8.1119436
0
ARC
8
DEFAULT_255_2_778
10
16.3103903
20
50.1247075
40
0.5748111
50
338.6217917
51
0.7417631
0
ARC
8
DEFAULT_255_2_778
10
16.6148775
20
49.9976776
40
0.2450776
50
305.7107467
51
340.3279893
0
ARC
8
DEFAULT_255_2_778
10
16.6982626
20
49.8907757
40
0.1097331
50
270.6216799
51
302.9378787
0
ARC
8
DEFAULT_255_2_778
10
16.7131343
20
49.9289636
40
0.148546
50
206.6181959
51
264.7155805
0
ARC
8
DEFAULT_255_2_778
10
16.9733331
20
50.0944852
40
0.456409
50
186.9714802
51
210.5628916
0
ARC
8
DEFAULT_255_2_778
10
17.1675553
20
50.1313721
40
0.6538026
50
179.9319269
51
188.1143536
0
ARC
8
DEFAULT_255_2_778
10
14.1772298
20
50.1252541
40
0.6340005
50
90.2418914
51
180.4975151
0
ARC
8
DEFAULT_255_2_778
10
14.1718765
20
50.125254
40
0.6340006
50
359.5024881
51
89.7581009
0
ARC
8
DEFAULT_255_2_778
10
14.1718768
20
50.1142436
40
0.6340003
50
270.2418684
51
0.4975336
0
ARC
8
DEFAULT_255_2_778
10
14.1772299
20
50.1142437
40
0.6340005
50
179.5024805
51
269.758104
0
ARC
8
DEFAULT_255_2_778
10
14.5631296
20
50.1396068
40
0.5744248
50
158.6039448
51
180.7439081
0
ARC
8
DEFAULT_255_2_778
10
14.2590145
20
50.266583
40
0.2450547
50
125.6846154
51
160.3063409
0
ARC
8
DEFAULT_255_2_778
10
14.1757439
20
50.373437
40
0.1098183
50
90.6212609
51
122.9155624
0
ARC
8
DEFAULT_255_2_778
10
14.1608984
20
50.3353461
40
0.1485318
50
26.6299238
51
84.7252528
0
ARC
8
DEFAULT_255_2_778
10
13.9008415
20
50.169902
40
0.4562354
50
6.9672199
51
30.5675002
0
ARC
8
DEFAULT_255_2_778
10
13.706061
20
50.1329325
40
0.6541928
50
359.9313724
51
8.1119436
0
ARC
8
DEFAULT_255_2_778
10
13.7854903
20
50.1247075
40
0.5748111
50
338.6217917
51
0.7417631
0
ARC
8
DEFAULT_255_2_778
10
14.0899775
20
49.9976776
40
0.2450776
50
305.7107467
51
340.3279893
0
ARC
8
DEFAULT_255_2_778
10
14.1733626
20
49.8907757
40
0.1097331
50
270.6216799
51
302.9378787
0
ARC
8
DEFAULT_255_2_778
10
14.1879015
20
49.9282507
40
0.1478058
50
207.0367178
51
264.8185874
0
ARC
8
DEFAULT_255_2_778
10
14.4427143
20
50.0924943
40
0.4504617
50
187.4901111
51
210.9147812
0
ARC
8
DEFAULT_255_2_778
10
14.6395142
20
50.1312625
40
0.6507616
50
179.9219565
51
188.6157011
0
LINE
8
DEFAULT_255_2_778
10
14.8553532
20
50.7341489
11
15.3503532
21
50.7341489
0
LINE
8
DEFAULT_255_2_778
10
15.3503532
20
50.7341489
11
15.5236532
21
50.0694489
0
LINE
8
DEFAULT_255_2_778
10
15.5236532
20
50.0694489
11
15.7093532
21
50.7465489
0
LINE
8
DEFAULT_255_2_778
10
15.7093532
20
50.7465489
11
16.0065532
21
50.6587489
0
LINE
8
DEFAULT_255_2_778
10
16.0065532
20
50.6587489
11
15.7093532
21
49.5551489
0
LINE
8
DEFAULT_255_2_778
10
15.2513532
20
48.8153489
11
14.9047532
21
48.9783489
0
LINE
8
DEFAULT_255_2_778
10
15.3873532
20
49.5802489
11
15.1770532
21
49.5802489
0
LINE
8
DEFAULT_255_2_778
10
15.1770532
20
49.5802489
11
14.8553532
21
50.7341489
0
LINE
8
DEFAULT_255_2_778
10
16.0681532
20
50.1197489
11
16.0681532
21
50.1197489
0
LINE
8
DEFAULT_255_2_778
10
16.5137532
20
50.1321489
11
16.5137532
21
50.1321489
0
LINE
8
DEFAULT_255_2_778
10
13.5432532
20
50.1197489
11
13.5432532
21
50.1197489
0
LINE
8
DEFAULT_255_2_778
10
13.9887532
20
50.1321489
11
13.9887532
21
50.1321489
0
LINE
8
DEFAULT_255_2_778
10
12.0086532
20
51.4614489
11
12.5531532
21
51.4614489
0
LINE
8
DEFAULT_255_2_778
10
12.5531532
20
51.4614489
11
12.5531532
21
50.7341489
0
LINE
8
DEFAULT_255_2_778
10
12.5531532
20
50.7341489
11
12.9987532
21
51.4614489
0
LINE
8
DEFAULT_255_2_778
10
12.9987532
20
51.4614489
11
13.4691532
21
51.4614489
0
LINE
8
DEFAULT_255_2_778
10
13.4691532
20
51.4614489
11
12.9492532
21
50.6086489
0
LINE
8
DEFAULT_255_2_778
10
12.9492532
20
50.6086489
11
13.5681532
21
49.5553489
0
LINE
8
DEFAULT_255_2_778
10
13.5681532
20
49.5553489
11
12.9987532
21
49.5553489
0
LINE
8
DEFAULT_255_2_778
10
12.9987532
20
49.5553489
11
12.5285532
21
50.3578489
0
LINE
8
DEFAULT_255_2_778
10
12.5285532
20
50.3578489
11
12.5285532
21
49.5553489
0
LINE
8
DEFAULT_255_2_778
10
12.5285532
20
49.5553489
11
12.0086532
21
49.5553489
0
LINE
8
DEFAULT_255_2_778
10
12.0086532
20
49.5553489
11
12.0086532
21
51.4614489
0
LINE
8
DEFAULT_255_1_388
10
7.8835389
20
46.3238
11
7.5194024
21
46.3238
0
LINE
8
DEFAULT_255_1_388
10
7.5194024
20
46.3238
11
7.5194024
21
47.6393898
0
LINE
8
DEFAULT_255_1_388
10
7.5194024
20
47.6393898
11
7.8907674
21
47.6393898
0
LINE
8
DEFAULT_255_1_388
10
8.4708558
20
47.0258696
11
8.4708558
21
46.9418381
0
LINE
8
DEFAULT_255_1_388
10
7.8952852
20
47.4966267
11
7.6928868
21
47.4966267
0
LINE
8
DEFAULT_255_1_388
10
7.6928868
20
47.4966267
11
7.6928868
21
46.4656596
0
LINE
8
DEFAULT_255_1_388
10
7.6928868
20
46.4656596
11
7.8754068
21
46.4656596
0
LINE
8
DEFAULT_255_1_388
10
8.2991785
20
46.9454523
11
8.2991785
21
47.0222553
0
ARC
8
DEFAULT_255_1_388
10
7.8951469
20
46.9795436
40
0.6598608
50
75.4100343
51
90.3802731
0
ARC
8
DEFAULT_255_1_388
10
7.9209714
20
47.0871691
40
0.5492049
50
60.1455157
51
75.1889627
0
ARC
8
DEFAULT_255_1_388
10
7.9388306
20
47.1182914
40
0.5133226
50
26.525419
51
60.1451222
0
ARC
8
DEFAULT_255_1_388
10
7.8128092
20
47.0514642
40
0.6559324
50
7.4029944
51
26.832209
0
ARC
8
DEFAULT_255_1_388
10
7.6334489
20
47.0235229
40
0.8374103
50
0.1605597
51
7.7176135
0
ARC
8
DEFAULT_255_1_388
10
7.6518889
20
46.9375321
40
0.8189782
50
348.7289744
51
0.30125
0
ARC
8
DEFAULT_255_1_388
10
7.8382353
20
46.9005156
40
0.628991
50
333.0706936
51
348.7181455
0
ARC
8
DEFAULT_255_1_388
10
7.9469981
20
46.8414449
40
0.5052808
50
299.2531435
51
333.4571133
0
ARC
8
DEFAULT_255_1_388
10
7.9064012
20
46.9185629
40
0.5924066
50
278.1072193
51
299.0340218
0
ARC
8
DEFAULT_255_1_388
10
7.8776061
20
47.0881979
40
0.7644209
50
270.4446841
51
278.4508355
0
ARC
8
DEFAULT_255_1_388
10
7.8799545
20
46.98363
40
0.5179903
50
269.4969684
51
284.0204874
0
ARC
8
DEFAULT_255_1_388
10
7.9199263
20
46.8300415
40
0.3592968
50
283.7699076
51
318.1557121
0
ARC
8
DEFAULT_255_1_388
10
7.8819808
20
46.8584399
40
0.4065308
50
318.7417595
51
343.687252
0
ARC
8
DEFAULT_255_1_388
10
7.6790387
20
46.9218275
40
0.6191194
50
343.3324891
51
355.8548594
0
ARC
8
DEFAULT_255_1_388
10
7.4429424
20
46.9442719
40
0.856237
50
355.4988754
51
0.0789913
0
ARC
8
DEFAULT_255_1_388
10
7.5310224
20
47.027008
40
0.7681709
50
359.6455047
51
9.8607559
0
ARC
8
DEFAULT_255_1_388
10
7.7965947
20
47.0749664
40
0.498312
50
9.6573037
51
26.1931522
0
ARC
8
DEFAULT_255_1_388
10
7.9010022
20
47.1234587
40
0.3832303
50
26.5777895
51
40.1533752
0
ARC
8
DEFAULT_255_1_388
10
7.9297687
20
47.145902
40
0.3467742
50
40.3839958
51
80.1430923
0
ARC
8
DEFAULT_255_1_388
10
7.8929942
20
46.9828486
40
0.5137832
50
79.2153636
51
89.7445174
0
LINE
8
DEFAULT_255_1_388
10
8.8883025
20
47.3014567
11
8.8883025
21
46.3238
0
LINE
8
DEFAULT_255_1_388
10
8.8883025
20
46.3238
11
8.7211431
21
46.3238
0
LINE
8
DEFAULT_255_1_388
10
8.7211431
20
46.3238
11
8.7211431
21
47.3014567
0
LINE
8
DEFAULT_255_1_388
10
8.7211431
20
47.3014567
11
8.8883025
21
47.3014567
0
ARC
8
DEFAULT_255_1_388
10
8.8176793
20
47.5618428
40
0.1100948
50
161.4148232
51
180.5532607
0
ARC
8
DEFAULT_255_1_388
10
8.8037103
20
47.5656875
40
0.0956324
50
138.1830164
51
160.9307633
0
ARC
8
DEFAULT_255_1_388
10
8.791329
20
47.5764313
40
0.0792417
50
104.6371663
51
138.0036136
0
ARC
8
DEFAULT_255_1_388
10
8.8033829
20
47.5351963
40
0.1221906
50
92.0601206
51
105.2198859
0
ARC
8
DEFAULT_255_1_388
10
8.8060193
20
47.4963583
40
0.161103
50
89.9790681
51
92.5006086
0
ARC
8
DEFAULT_255_1_388
10
8.8071369
20
47.5219998
40
0.1354654
50
78.0234649
51
90.4478111
0
ARC
8
DEFAULT_255_1_388
10
8.8174954
20
47.5685203
40
0.0878096
50
55.0521508
51
78.336297
0
ARC
8
DEFAULT_255_1_388
10
8.8231488
20
47.5780168
40
0.0767913
50
42.0506198
51
54.4508489
0
ARC
8
DEFAULT_255_1_388
10
8.8079521
20
47.5640821
40
0.0974091
50
1.7493657
51
42.1498724
0
ARC
8
DEFAULT_255_1_388
10
8.7793427
20
47.5608166
40
0.1261276
50
359.9832635
51
2.8353994
0
ARC
8
DEFAULT_255_1_388
10
8.7979837
20
47.5597412
40
0.1074916
50
342.1062453
51
0.5535864
0
ARC
8
DEFAULT_255_1_388
10
8.8140261
20
47.5553197
40
0.0908695
50
316.7110111
51
341.6513114
0
ARC
8
DEFAULT_255_1_388
10
8.8215693
20
47.5485607
40
0.0807447
50
285.4398289
51
316.5320129
0
ARC
8
DEFAULT_255_1_388
10
8.8091863
20
47.5897023
40
0.1237022
50
272.3543902
51
285.8951677
0
ARC
8
DEFAULT_255_1_388
10
8.8061573
20
47.6312742
40
0.1653687
50
269.9725761
51
272.8112722
0
ARC
8
DEFAULT_255_1_388
10
8.8050625
20
47.6061727
40
0.1402709
50
258.8433431
51
270.4148607
0
ARC
8
DEFAULT_255_1_388
10
8.7949405
20
47.5571739
40
0.0902407
50
238.54281
51
259.1289544
0
ARC
8
DEFAULT_255_1_388
10
8.7872727
20
47.5432694
40
0.0743817
50
222.5056676
51
237.9918132
0
ARC
8
DEFAULT_255_1_388
10
8.801632
20
47.5563295
40
0.0937918
50
184.1070774
51
222.4604165
0
ARC
8
DEFAULT_255_1_388
10
8.8318734
20
47.5606538
40
0.1242838
50
179.9419581
51
185.0970785
0
LINE
8
DEFAULT_255_1_388
10
9.6283218
20
47.3068781
11
9.6283218
21
47.151465
0
LINE
8
DEFAULT_255_1_388
10
9.322917
20
47.0177375
11
9.322917
21
46.3238
0
LINE
8
DEFAULT_255_1_388
10
9.322917
20
46.3238
11
9.1557576
21
46.3238
0
LINE
8
DEFAULT_255_1_388
10
9.1557576
20
46.3238
11
9.1557576
21
47.3014567
0
LINE
8
DEFAULT_255_1_388
10
9.1557576
20
47.3014567
11
9.3183992
21
47.3014567
0
LINE
8
DEFAULT_255_1_388
10
9.3183992
20
47.3014567
11
9.3211099
21
47.1885112
0
ARC
8
DEFAULT_255_1_388
10
9.5533378
20
46.6948068
40
0.4627735
50
80.6751522
51
86.893806
0
ARC
8
DEFAULT_255_1_388
10
9.5465208
20
46.5856103
40
0.5721798
50
86.8046851
51
90.0423898
0
ARC
8
DEFAULT_255_1_388
10
9.5423628
20
46.8623197
40
0.2954939
50
89.2758283
51
106.6212906
0
ARC
8
DEFAULT_255_1_388
10
9.5193652
20
46.9459009
40
0.2088351
50
107.1347109
51
157.6456887
0
ARC
8
DEFAULT_255_1_388
10
9.5961714
20
46.9031908
40
0.296292
50
155.6557383
51
157.256838
0
ARC
8
DEFAULT_255_1_388
10
9.5741329
20
47.0342472
40
0.296341
50
127.8167201
51
148.6300223
0
ARC
8
DEFAULT_255_1_388
10
9.5456076
20
47.0635066
40
0.2557782
50
91.3329934
51
126.7875218
0
ARC
8
DEFAULT_255_1_388
10
9.5541463
20
46.9831718
40
0.3363561
50
89.9858247
51
92.4688453
0
ARC
8
DEFAULT_255_1_388
10
9.5550956
20
47.0140114
40
0.3055179
50
85.3587643
51
90.1624243
0
ARC
8
DEFAULT_255_1_388
10
9.5646021
20
47.1269458
40
0.1921848
50
78.4019195
51
85.4592653
0
ARC
8
DEFAULT_255_1_388
10
9.5809082
20
47.2047142
40
0.1127267
50
67.7849217
51
78.573798
0
ARC
8
DEFAULT_255_1_388
10
9.5930717
20
47.2362374
40
0.0789473
50
63.4805074
51
67.3074739
0
LINE
8
DEFAULT_255_1_388
10
9.7222925
20
46.7855214
11
9.7222925
21
46.8162426
0
LINE
8
DEFAULT_255_1_388
10
10.5517647
20
46.8343139
11
10.5517647
21
46.7647395
0
LINE
8
DEFAULT_255_1_388
10
10.5517647
20
46.7647395
11
9.889452
21
46.7647395
0
LINE
8
DEFAULT_255_1_388
10
10.437012
20
46.5740874
11
10.5391148
21
46.4945737
0
LINE
8
DEFAULT_255_1_388
10
9.8948733
20
46.9020813
11
10.3846053
21
46.9020813
0
LINE
8
DEFAULT_255_1_388
10
10.3846053
20
46.9020813
11
10.3846053
21
46.9147312
0
ARC
8
DEFAULT_255_1_388
10
10.1654686
20
46.798021
40
0.4923176
50
252.326534
51
270.5809615
0
ARC
8
DEFAULT_255_1_388
10
10.1424151
20
46.714694
40
0.4059384
50
223.3000488
51
251.8562489
0
ARC
8
DEFAULT_255_1_388
10
10.1661931
20
46.7377898
40
0.4390832
50
190.9374369
51
223.3654369
0
ARC
8
DEFAULT_255_1_388
10
10.3602609
20
46.7816598
40
0.63798
50
179.6531919
51
191.4988561
0
ARC
8
DEFAULT_255_1_388
10
10.3739636
20
46.8198571
40
0.6516811
50
167.4005523
51
180.3177836
0
ARC
8
DEFAULT_255_1_388
10
10.2556307
20
46.8448853
40
0.5307402
50
154.1835149
51
167.2508278
0
ARC
8
DEFAULT_255_1_388
10
10.1845898
20
46.8822925
40
0.4505076
50
134.3150225
51
154.5315008
0
ARC
8
DEFAULT_255_1_388
10
10.1601233
20
46.903755
40
0.4180662
50
122.8617482
51
133.9707159
0
ARC
8
DEFAULT_255_1_388
10
10.148484
20
46.9287882
40
0.3907416
50
89.8248474
51
123.4199325
0
ARC
8
DEFAULT_255_1_388
10
10.1541138
20
46.8560352
40
0.4635141
50
74.7874349
51
90.5482648
0
ARC
8
DEFAULT_255_1_388
10
10.1871602
20
46.9780987
40
0.3370565
50
39.8178888
51
74.7634383
0
ARC
8
DEFAULT_255_1_388
10
10.1294844
20
46.9331356
40
0.4101553
50
16.8990848
51
39.4830125
0
ARC
8
DEFAULT_255_1_388
10
9.9163459
20
46.8648711
40
0.6339427
50
4.9634768
51
17.2027767
0
ARC
8
DEFAULT_255_1_388
10
9.6442863
20
46.83616
40
0.9074803
50
359.8834402
51
5.2832409
0
ARC
8
DEFAULT_255_1_388
10
10.3235221
20
46.7721981
40
0.4341343
50
180.9844233
51
194.9402766
0
ARC
8
DEFAULT_255_1_388
10
10.2054387
20
46.739917
40
0.3117211
50
194.8030557
51
222.0412897
0
ARC
8
DEFAULT_255_1_388
10
10.1712259
20
46.7059715
40
0.2635903
50
221.541578
51
268.8616004
0
ARC
8
DEFAULT_255_1_388
10
10.179438
20
46.782028
40
0.3398611
50
267.7321071
51
270.009808
0
ARC
8
DEFAULT_255_1_388
10
10.1814443
20
46.8047178
40
0.3625561
50
269.6921218
51
280.4122297
0
ARC
8
DEFAULT_255_1_388
10
10.2012855
20
46.7013767
40
0.2573323
50
280.2257165
51
298.633539
0
ARC
8
DEFAULT_255_1_388
10
10.2138268
20
46.6749578
40
0.2281403
50
299.0485543
51
300.4624141
0
ARC
8
DEFAULT_255_1_388
10
10.1379249
20
46.8014796
40
0.3756797
50
300.6578578
51
322.037749
0
ARC
8
DEFAULT_255_1_388
10
10.100877
20
46.8338266
40
0.4247956
50
321.671786
51
322.3059078
0
ARC
8
DEFAULT_255_1_388
10
10.2032333
20
46.7044267
40
0.3960488
50
276.9729088
51
328.0035579
0
ARC
8
DEFAULT_255_1_388
10
10.1720804
20
46.8709609
40
0.5652345
50
269.8358003
51
278.0581296
0
ARC
8
DEFAULT_255_1_388
10
10.1465103
20
46.954782
40
0.2274263
50
89.2017936
51
117.2852353
0
ARC
8
DEFAULT_255_1_388
10
10.1524853
20
46.9500637
40
0.2343798
50
118.0546404
51
137.4544511
0
ARC
8
DEFAULT_255_1_388
10
10.1946497
20
46.9117556
40
0.2913471
50
137.5109688
51
158.8516701
0
ARC
8
DEFAULT_255_1_388
10
10.3226597
20
46.8600902
40
0.4293804
50
158.5845496
51
170.1719753
0
ARC
8
DEFAULT_255_1_388
10
10.4542933
20
46.8339519
40
0.5635533
50
169.8378964
51
173.0563877
0
ARC
8
DEFAULT_255_1_388
10
9.9258217
20
46.8914187
40
0.4593755
50
2.9089079
51
12.88469
0
ARC
8
DEFAULT_255_1_388
10
10.0800136
20
46.9277082
40
0.3009753
50
12.6957404
51
28.6405841
0
ARC
8
DEFAULT_255_1_388
10
10.1409633
20
46.9592577
40
0.232366
50
29.016559
51
41.1492981
0
ARC
8
DEFAULT_255_1_388
10
10.1637612
20
46.979108
40
0.2021373
50
41.1646967
51
85.001362
0
ARC
8
DEFAULT_255_1_388
10
10.1501616
20
46.8964775
40
0.2857091
50
83.728216
51
90.0968824
0
LINE
8
DEFAULT_255_1_388
10
11.3676834
20
46.6319155
11
11.5258072
21
46.6319155
0
LINE
8
DEFAULT_255_1_388
10
10.7017564
20
46.8035927
11
10.7017564
21
46.8316032
0
LINE
8
DEFAULT_255_1_388
10
11.5258072
20
46.9653308
11
11.3676834
21
46.9653308
0
LINE
8
DEFAULT_255_1_388
10
10.8689158
20
46.8252783
11
10.8689158
21
46.7936535
0
ARC
8
DEFAULT_255_1_388
10
11.1413391
20
46.6829109
40
0.2407783
50
269.0327343
51
309.2224588
0
ARC
8
DEFAULT_255_1_388
10
11.1649395
20
46.658719
40
0.207135
50
308.3965377
51
329.6987678
0
ARC
8
DEFAULT_255_1_388
10
11.1804453
20
46.6469899
40
0.1878439
50
330.4013397
51
355.3970937
0
ARC
8
DEFAULT_255_1_388
10
11.2318437
20
46.6489312
40
0.2944555
50
329.2357424
51
356.6872018
0
ARC
8
DEFAULT_255_1_388
10
11.1700332
20
46.6816153
40
0.3643032
50
324.8702872
51
329.7911998
0
ARC
8
DEFAULT_255_1_388
10
11.1611614
20
46.6892113
40
0.3759315
50
298.8769973
51
324.7015261
0
ARC
8
DEFAULT_255_1_388
10
11.1238158
20
46.748729
40
0.4461015
50
296.902888
51
299.3854973
0
ARC
8
DEFAULT_255_1_388
10
11.1384155
20
46.7163595
40
0.4106323
50
269.8407861
51
297.1298875
0
ARC
8
DEFAULT_255_1_388
10
11.1324151
20
46.7881354
40
0.4824312
50
253.3156606
51
270.5771301
0
ARC
8
DEFAULT_255_1_388
10
11.1046329
20
46.6875943
40
0.3781531
50
221.1002518
51
252.9743523
0
ARC
8
DEFAULT_255_1_388
10
11.1563799
20
46.7320131
40
0.4463481
50
194.5394284
51
221.0302764
0
ARC
8
DEFAULT_255_1_388
10
11.364362
20
46.7899897
40
0.6622359
50
182.0498004
51
194.8774376
0
ARC
8
DEFAULT_255_1_388
10
11.563671
20
46.8032778
40
0.8619146
50
179.9790673
51
182.4586753
0
ARC
8
DEFAULT_255_1_388
10
11.3680024
20
46.8349412
40
0.6662543
50
168.615001
51
180.2870547
0
ARC
8
DEFAULT_255_1_388
10
11.2327932
20
46.8614636
40
0.5284705
50
154.9162417
51
168.5402053
0
ARC
8
DEFAULT_255_1_388
10
11.1291208
20
46.9126942
40
0.4128641
50
133.5745308
51
155.2559538
0
ARC
8
DEFAULT_255_1_388
10
11.1108051
20
46.9283116
40
0.3889328
50
122.0165845
51
133.2056002
0
ARC
8
DEFAULT_255_1_388
10
11.1148375
20
46.9183977
40
0.3994808
50
97.8732516
51
121.753124
0
ARC
8
DEFAULT_255_1_388
10
11.1349833
20
46.799459
40
0.5200708
50
89.8471322
51
98.2768545
0
ARC
8
DEFAULT_255_1_388
10
11.1404681
20
46.8680809
40
0.4514657
50
73.3760755
51
90.5199878
0
ARC
8
DEFAULT_255_1_388
10
11.1625597
20
46.949355
40
0.3672743
50
47.7085939
51
73.0510707
0
ARC
8
DEFAULT_255_1_388
10
11.17717
20
46.9620231
40
0.3480795
50
3.7442743
51
48.0844373
0
ARC
8
DEFAULT_255_1_388
10
11.0659694
20
46.9442946
40
0.4603187
50
2.6192831
51
5.0424684
0
ARC
8
DEFAULT_255_1_388
10
11.1175165
20
46.9487986
40
0.2507126
50
3.78087
51
23.9354314
0
ARC
8
DEFAULT_255_1_388
10
11.1432424
20
46.9578644
40
0.2235311
50
24.4867863
51
46.9439952
0
ARC
8
DEFAULT_255_1_388
10
11.143337
20
46.9604874
40
0.2215567
50
46.4987715
51
89.3298168
0
ARC
8
DEFAULT_255_1_388
10
11.1364029
20
46.8938742
40
0.2883121
50
88.1066411
51
90.0063536
0
ARC
8
DEFAULT_255_1_388
10
11.1333005
20
46.8996548
40
0.2825481
50
89.3773571
51
107.2070287
0
ARC
8
DEFAULT_255_1_388
10
11.1172273
20
46.9578667
40
0.2221946
50
107.688418
51
143.3582986
0
ARC
8
DEFAULT_255_1_388
10
11.1810567
20
46.9099064
40
0.3020337
50
143.2845866
51
162.9352432
0
ARC
8
DEFAULT_255_1_388
10
11.3504583
20
46.8555401
40
0.4799362
50
162.6652705
51
174.0802646
0
ARC
8
DEFAULT_255_1_388
10
11.5915064
20
46.8275287
40
0.7225942
50
173.8422673
51
180.1784414
0
ARC
8
DEFAULT_255_1_388
10
11.5298735
20
46.7902276
40
0.6609665
50
179.7030218
51
188.2277356
0
ARC
8
DEFAULT_255_1_388
10
11.2934342
20
46.7548143
40
0.4218948
50
188.0630838
51
201.115837
0
ARC
8
DEFAULT_255_1_388
10
11.1699227
20
46.707673
40
0.2896941
50
201.2186162
51
216.9761863
0
ARC
8
DEFAULT_255_1_388
10
11.1191384
20
46.6696225
40
0.2262366
50
217.0136373
51
265.2055518
0
ARC
8
DEFAULT_255_1_388
10
11.1366721
20
46.7733503
40
0.3311837
50
263.6824874
51
270.1042034
0
LINE
8
DEFAULT_255_1_388
10
11.7733838
20
47.5381906
11
11.9405433
21
47.5381906
0
LINE
8
DEFAULT_255_1_388
10
11.9405433
20
47.5381906
11
11.9405433
21
47.3014567
0
LINE
8
DEFAULT_255_1_388
10
11.9405433
20
47.3014567
11
12.1230633
21
47.3014567
0
LINE
8
DEFAULT_255_1_388
10
12.1230633
20
47.3014567
11
12.1230633
21
47.172247
0
LINE
8
DEFAULT_255_1_388
10
12.1230633
20
47.172247
11
11.9405433
21
47.172247
0
LINE
8
DEFAULT_255_1_388
10
11.9405433
20
47.172247
11
11.9405433
21
46.5659553
0
LINE
8
DEFAULT_255_1_388
10
12.1275811
20
46.4593347
11
12.1275811
21
46.3238
0
LINE
8
DEFAULT_255_1_388
10
11.7733838
20
46.5659553
11
11.7733838
21
47.172247
0
LINE
8
DEFAULT_255_1_388
10
11.7733838
20
47.172247
11
11.5953816
21
47.172247
0
LINE
8
DEFAULT_255_1_388
10
11.5953816
20
47.172247
11
11.5953816
21
47.3014567
0
LINE
8
DEFAULT_255_1_388
10
11.5953816
20
47.3014567
11
11.7733838
21
47.3014567
0
LINE
8
DEFAULT_255_1_388
10
11.7733838
20
47.3014567
11
11.7733838
21
47.5381906
0
ARC
8
DEFAULT_255_1_388
10
12.166394
20
46.5647842
40
0.2258538
50
179.7029045
51
187.9180047
0
ARC
8
DEFAULT_255_1_388
10
12.0824514
20
46.5527019
40
0.1410477
50
187.7540838
51
200.2454047
0
ARC
8
DEFAULT_255_1_388
10
12.035142
20
46.5350591
40
0.0905561
50
200.1304287
51
219.1733455
0
ARC
8
DEFAULT_255_1_388
10
12.0198586
20
46.5246695
40
0.0721626
50
220.4434631
51
249.6169985
0
ARC
8
DEFAULT_255_1_388
10
12.0372813
20
46.5684919
40
0.1193141
50
249.1038184
51
262.7745376
0
ARC
8
DEFAULT_255_1_388
10
12.0471995
20
46.6392481
40
0.1907583
50
262.4921618
51
270.2607019
0
ARC
8
DEFAULT_255_1_388
10
12.0469077
20
46.6634817
40
0.2149929
50
270.309081
51
275.6615459
0
ARC
8
DEFAULT_255_1_388
10
12.0308484
20
46.8323342
40
0.3846066
50
275.5607354
51
279.087751
0
ARC
8
DEFAULT_255_1_388
10
11.9936416
20
47.0684428
40
0.6236283
50
279.0369545
51
281.5000133
0
ARC
8
DEFAULT_255_1_388
10
11.9545684
20
47.2661499
40
0.825157
50
281.4217093
51
282.1031556
0
ARC
8
DEFAULT_255_1_388
10
11.992166
20
46.8118229
40
0.5064619
50
275.2597791
51
285.5081125
0
ARC
8
DEFAULT_255_1_388
10
11.9990674
20
46.7492452
40
0.4435166
50
270.0268175
51
275.1130565
0
ARC
8
DEFAULT_255_1_388
10
11.9968125
20
46.5999367
40
0.2942182
50
257.3572424
51
270.4795428
0
ARC
8
DEFAULT_255_1_388
10
11.9728395
20
46.4988952
40
0.1903838
50
230.8036715
51
257.7414447
0
ARC
8
DEFAULT_255_1_388
10
11.9651891
20
46.4865723
40
0.1760087
50
219.9745381
51
230.1985446
0
ARC
8
DEFAULT_255_1_388
10
12.0025179
20
46.5151116
40
0.2229598
50
196.5081334
51
219.4319996
0
ARC
8
DEFAULT_255_1_388
10
12.116779
20
46.5509617
40
0.3427033
50
184.6408645
51
196.8266009
0
ARC
8
DEFAULT_255_1_388
10
12.2568696
20
46.565101
40
0.4834863
50
179.8987586
51
184.9677262
0
LINE
8
DEFAULT_255_1_388
10
12.5188245
20
47.6393898
11
12.5188245
21
46.4656596
0
LINE
8
DEFAULT_255_1_388
10
12.5188245
20
46.4656596
11
13.142284
21
46.4656596
0
LINE
8
DEFAULT_255_1_388
10
13.142284
20
46.4656596
11
13.142284
21
46.3238
0
LINE
8
DEFAULT_255_1_388
10
13.142284
20
46.3238
11
12.3444366
21
46.3238
0
LINE
8
DEFAULT_255_1_388
10
12.3444366
20
46.3238
11
12.3444366
21
47.6393898
0
LINE
8
DEFAULT_255_1_388
10
12.3444366
20
47.6393898
11
12.5188245
21
47.6393898
0
LINE
8
DEFAULT_255_1_388
10
14.2934251
20
47.0222553
11
14.2934251
21
46.9391274
0
LINE
8
DEFAULT_255_1_388
10
13.2353511
20
46.9273811
11
13.2353511
21
47.0222553
0
LINE
8
DEFAULT_255_1_388
10
14.1208443
20
46.9264775
11
14.1208443
21
47.0240625
0
LINE
8
DEFAULT_255_1_388
10
13.4079319
20
47.0358088
11
13.4079319
21
46.9391274
0
ARC
8
DEFAULT_255_1_388
10
13.3211989
20
46.9346726
40
0.9722364
50
350.4878118
51
0.2625322
0
ARC
8
DEFAULT_255_1_388
10
13.5791949
20
46.8902994
40
0.7104556
50
336.0277991
51
350.5787241
0
ARC
8
DEFAULT_255_1_388
10
13.7305056
20
46.8219243
40
0.544417
50
319.887443
51
336.1331163
0
ARC
8
DEFAULT_255_1_388
10
13.7982868
20
46.7676733
40
0.4576311
50
302.4806296
51
319.6144102
0
ARC
8
DEFAULT_255_1_388
10
13.785349
20
46.7926067
40
0.4856183
50
275.8196423
51
302.1885521
0
ARC
8
DEFAULT_255_1_388
10
13.7666351
20
46.9211466
40
0.6154183
50
269.9169897
51
276.339506
0
ARC
8
DEFAULT_255_1_388
10
13.7615952
20
46.843968
40
0.5382553
50
252.5221437
51
270.441579
0
ARC
8
DEFAULT_255_1_388
10
13.7454202
20
46.7833046
40
0.4755426
50
237.5349961
51
252.1858334
0
ARC
8
DEFAULT_255_1_388
10
13.7554578
20
46.796112
40
0.4917393
50
209.0632754
51
237.3492577
0
ARC
8
DEFAULT_255_1_388
10
13.8533904
20
46.8576104
40
0.6072464
50
205.118533
51
209.6465345
0
ARC
8
DEFAULT_255_1_388
10
13.9429906
20
46.8956174
40
0.7045164
50
188.7216633
51
204.8239753
0
ARC
8
DEFAULT_255_1_388
10
14.1676682
20
46.9334387
40
0.9323368
50
180.3722704
51
188.9253909
0
ARC
8
DEFAULT_255_1_388
10
14.1646243
20
47.0267416
40
0.929284
50
169.5253055
51
180.2766048
0
ARC
8
DEFAULT_255_1_388
10
13.9506042
20
47.0661024
40
0.7116745
50
155.8314601
51
169.5088611
0
ARC
8
DEFAULT_255_1_388
10
13.8065505
20
47.1329312
40
0.5528904
50
139.6259579
51
156.0379072
0
ARC
8
DEFAULT_255_1_388
10
13.7402039
20
47.1863143
40
0.4677708
50
122.6414784
51
139.3431662
0
ARC
8
DEFAULT_255_1_388
10
13.7515294
20
47.1656787
40
0.4912586
50
93.0224537
51
122.4556091
0
ARC
8
DEFAULT_255_1_388
10
13.7636815
20
47.0570776
40
0.6003837
50
89.9756766
51
93.6340839
0
ARC
8
DEFAULT_255_1_388
10
13.7680412
20
47.1019879
40
0.5554884
50
73.7463329
51
90.4234008
0
ARC
8
DEFAULT_255_1_388
10
13.7877885
20
47.1784772
40
0.4765353
50
57.663051
51
73.4516911
0
ARC
8
DEFAULT_255_1_388
10
13.7868923
20
47.1809108
40
0.4749629
50
29.1441355
51
57.4146687
0
ARC
8
DEFAULT_255_1_388
10
13.6816734
20
47.1152046
40
0.5988917
50
24.0985653
51
29.732054
0
ARC
8
DEFAULT_255_1_388
10
13.5654366
20
47.0670154
40
0.7246823
50
8.6654943
51
23.8241215
0
ARC
8
DEFAULT_255_1_388
10
13.3140785
20
47.0260037
40
0.9793537
50
359.7807044
51
8.8218476
0
ARC
8
DEFAULT_255_1_388
10
13.1850489
20
47.0288731
40
0.9358078
50
359.7054632
51
8.0359751
0
ARC
8
DEFAULT_255_1_388
10
13.522554
20
47.0780252
40
0.5947474
50
7.8926278
51
20.2962188
0
ARC
8
DEFAULT_255_1_388
10
13.7056391
20
47.1455367
40
0.3996117
50
20.3231056
51
36.4990255
0
ARC
8
DEFAULT_255_1_388
10
13.7827688
20
47.2049399
40
0.3022818
50
36.1436715
51
85.6627846
0
ARC
8
DEFAULT_255_1_388
10
13.7644943
20
47.0879881
40
0.4203853
50
84.3845912
51
90.076054
0
ARC
8
DEFAULT_255_1_388
10
13.7597298
20
47.1622416
40
0.346157
50
89.3037228
51
109.9046209
0
ARC
8
DEFAULT_255_1_388
10
13.7493131
20
47.2052379
40
0.3022217
50
110.8229774
51
143.917961
0
ARC
8
DEFAULT_255_1_388
10
13.8543491
20
47.1250455
40
0.434348
50
143.5289166
51
163.2980252
0
ARC
8
DEFAULT_255_1_388
10
14.0689778
20
47.0575685
40
0.659321
50
163.0418884
51
174.3139873
0
ARC
8
DEFAULT_255_1_388
10
14.3394742
20
47.0263378
40
0.9315905
50
174.050934
51
179.4174954
0
ARC
8
DEFAULT_255_1_388
10
14.2826686
20
46.9344382
40
0.8747493
50
179.6928582
51
188.7908948
0
ARC
8
DEFAULT_255_1_388
10
13.9830486
20
46.8865086
40
0.5713262
50
188.6328449
51
202.5630732
0
ARC
8
DEFAULT_255_1_388
10
13.8419323
20
46.8298142
40
0.4192612
50
202.8078931
51
216.1195888
0
ARC
8
DEFAULT_255_1_388
10
13.750884
20
46.7565479
40
0.3025752
50
215.0755613
51
264.6379773
0
ARC
8
DEFAULT_255_1_388
10
13.7651678
20
46.8500376
40
0.3970284
50
263.8464302
51
270.0830805
0
ARC
8
DEFAULT_255_1_388
10
13.7698222
20
46.8209808
40
0.3679937
50
269.3649295
51
287.5149684
0
ARC
8
DEFAULT_255_1_388
10
13.7898663
20
46.7481714
40
0.2925408
50
288.0629019
51
323.8115617
0
ARC
8
DEFAULT_255_1_388
10
13.6918639
20
46.8212754
40
0.4148018
50
323.6546541
51
342.6591359
0
ARC
8
DEFAULT_255_1_388
10
13.4633297
20
46.895628
40
0.6551163
50
342.4092446
51
353.6451501
0
ARC
8
DEFAULT_255_1_388
10
13.1448091
20
46.9352565
40
0.9760748
50
353.4027553
51
359.4846611
0
LINE
8
DEFAULT_255_1_388
10
15.5249834
20
46.9788842
11
15.5249834
21
46.4963808
0
LINE
8
DEFAULT_255_1_388
10
14.5111841
20
46.9183454
11
14.5111841
21
47.0330981
0
LINE
8
DEFAULT_255_1_388
10
15.5249834
20
47.2535678
11
15.3514991
21
47.2535678
0
LINE
8
DEFAULT_255_1_388
10
14.6855721
20
47.0376159
11
14.6855721
21
46.9300917
0
LINE
8
DEFAULT_255_1_388
10
15.3524026
20
46.5424626
11
15.3524026
21
46.8379282
0
LINE
8
DEFAULT_255_1_388
10
15.3524026
20
46.8379282
11
15.0479014
21
46.8379282
0
LINE
8
DEFAULT_255_1_388
10
15.0479014
20
46.8379282
11
15.0479014
21
46.9788842
0
LINE
8
DEFAULT_255_1_388
10
15.0479014
20
46.9788842
11
15.5249834
21
46.9788842
0
ARC
8
DEFAULT_255_1_388
10
15.2064435
20
46.7206284
40
0.3895571
50
295.8437277
51
324.8549962
0
ARC
8
DEFAULT_255_1_388
10
15.1596817
20
46.8052619
40
0.4861381
50
291.5691164
51
296.4556269
0
ARC
8
DEFAULT_255_1_388
10
15.102182
20
46.9588801
40
0.6501442
50
278.6622213
51
291.3047061
0
ARC
8
DEFAULT_255_1_388
10
15.0639852
20
47.2005557
40
0.8948168
50
270.0200506
51
278.7494673
0
ARC
8
DEFAULT_255_1_388
10
15.0596056
20
47.3851453
40
1.0794166
50
270.0022372
51
270.2490917
0
ARC
8
DEFAULT_255_1_388
10
15.0553948
20
46.8892827
40
0.5835695
50
253.5785313
51
270.4175629
0
ARC
8
DEFAULT_255_1_388
10
15.0358944
20
46.8137625
40
0.5056241
50
238.8203954
51
253.2788387
0
ARC
8
DEFAULT_255_1_388
10
15.033686
20
46.8080224
40
0.4995712
50
206.7883476
51
238.696262
0
ARC
8
DEFAULT_255_1_388
10
15.1212256
20
46.8604847
40
0.6014056
50
206.1137778
51
207.4912776
0
ARC
8
DEFAULT_255_1_388
10
15.1879092
20
46.8888284
40
0.6737692
50
188.6922336
51
205.782076
0
ARC
8
DEFAULT_255_1_388
10
15.3967451
20
46.9243455
40
0.8855812
50
180.3881972
51
188.9218085
0
ARC
8
DEFAULT_255_1_388
10
15.5348608
20
47.0394622
40
1.0236965
50
170.2024645
51
180.3561986
0
ARC
8
DEFAULT_255_1_388
10
15.1789759
20
47.1031101
40
0.6621746
50
154.2856519
51
170.3893388
0
ARC
8
DEFAULT_255_1_388
10
15.0347722
20
47.1691192
40
0.5036209
50
139.8400879
51
153.9334639
0
ARC
8
DEFAULT_255_1_388
10
14.9943626
20
47.2014716
40
0.4518751
50
98.4190017
51
139.6707015
0
ARC
8
DEFAULT_255_1_388
10
15.0370593
20
46.9938755
40
0.6635912
50
89.7660128
51
99.4415389
0
ARC
8
DEFAULT_255_1_388
10
15.044399
20
47.0012517
40
0.6562258
50
78.0552044
51
90.4042252
0
ARC
8
DEFAULT_255_1_388
10
15.0899053
20
47.2058661
40
0.4466287
50
54.6380186
51
78.3338577
0
ARC
8
DEFAULT_255_1_388
10
15.1113352
20
47.2419444
40
0.4048184
50
50.0313964
51
54.1562739
0
ARC
8
DEFAULT_255_1_388
10
15.0992246
20
47.2310798
40
0.4209308
50
18.1092229
51
49.7179911
0
ARC
8
DEFAULT_255_1_388
10
14.9353326
20
47.1710399
40
0.5953982
50
7.967396
51
18.698492
0
ARC
8
DEFAULT_255_1_388
10
14.9522587
20
47.1849236
40
0.4050986
50
9.7558763
51
27.3214087
0
ARC
8
DEFAULT_255_1_388
10
15.0791051
20
47.2483087
40
0.2633168
50
27.736147
51
84.5257861
0
ARC
8
DEFAULT_255_1_388
10
15.0422461
20
47.0633988
40
0.4513019
50
82.1064239
51
90.1997295
0
ARC
8
DEFAULT_255_1_388
10
15.0366477
20
47.1205501
40
0.3941684
50
89.4148952
51
105.5824837
0
ARC
8
DEFAULT_255_1_388
10
15.0077358
20
47.2258043
40
0.2850167
50
105.6678541
51
144.2649156
0
ARC
8
DEFAULT_255_1_388
10
15.108225
20
47.1543024
40
0.4083468
50
144.3560675
51
162.8564185
0
ARC
8
DEFAULT_255_1_388
10
15.3426693
20
47.0790083
40
0.6545749
50
162.6076338
51
173.6779811
0
ARC
8
DEFAULT_255_1_388
10
15.6870808
20
47.0371422
40
1.0015089
50
173.4670996
51
179.9729015
0
ARC
8
DEFAULT_255_1_388
10
15.4723679
20
46.9253636
40
0.78681
50
179.6556955
51
190.007958
0
ARC
8
DEFAULT_255_1_388
10
15.211796
20
46.877566
40
0.5218997
50
189.8117884
51
206.6795375
0
ARC
8
DEFAULT_255_1_388
10
15.1167406
20
46.8332514
40
0.4170788
50
207.1031171
51
217.7074698
0
ARC
8
DEFAULT_255_1_388
10
15.0453837
20
46.7711596
40
0.3226945
50
216.7345117
51
265.6812141
0
ARC
8
DEFAULT_255_1_388
10
15.0600979
20
46.872903
40
0.4253149
50
264.7367524
51
270.0610826
0
ARC
8
DEFAULT_255_1_388
10
15.0627164
20
47.1924173
40
0.7448321
50
269.8334494
51
276.0538364
0
ARC
8
DEFAULT_255_1_388
10
15.0860027
20
46.9784924
40
0.5296446
50
275.9894423
51
284.4615914
0
ARC
8
DEFAULT_255_1_388
10
15.108154
20
46.885257
40
0.4338353
50
284.7038488
51
286.4938196
0
ARC
8
DEFAULT_255_1_388
10
15.1540689
20
46.7373371
40
0.2789738
50
286.0770429
51
304.2629628
0
ARC
8
DEFAULT_255_1_388
10
15.1690847
20
46.712768
40
0.2502188
50
304.5886247
51
317.1074126
0
LINE
8
DEFAULT_255_1_388
10
16.0002583
20
47.6393898
11
16.0002583
21
46.3238
0
LINE
8
DEFAULT_255_1_388
10
16.0002583
20
46.3238
11
15.826774
21
46.3238
0
LINE
8
DEFAULT_255_1_388
10
15.826774
20
46.3238
11
15.826774
21
47.6393898
0
LINE
8
DEFAULT_255_1_388
10
15.826774
20
47.6393898
11
16.0002583
21
47.6393898
0
LINE
8
DEFAULT_255_1_388
10
17.1107391
20
46.7412468
11
17.285127
21
46.7412468
0
LINE
8
DEFAULT_255_1_388
10
16.2722313
20
46.9201525
11
16.2722313
21
47.0466516
0
LINE
8
DEFAULT_255_1_388
10
17.285127
20
47.2165217
11
17.1107391
21
47.2165217
0
LINE
8
DEFAULT_255_1_388
10
16.4466192
20
47.0421337
11
16.4466192
21
46.9147312
0
ARC
8
DEFAULT_255_1_388
10
16.6685504
20
46.8084329
40
0.6202263
50
340.1774904
51
353.7812217
0
ARC
8
DEFAULT_255_1_388
10
16.8453357
20
46.7425893
40
0.4315926
50
311.4560052
51
340.4420756
0
ARC
8
DEFAULT_255_1_388
10
16.8415897
20
46.7550665
40
0.4434573
50
282.4332229
51
310.7514507
0
ARC
8
DEFAULT_255_1_388
10
16.7921714
20
46.9592703
40
0.6535262
50
269.9358869
51
282.8096729
0
ARC
8
DEFAULT_255_1_388
10
16.7863654
20
47.1105329
40
0.8048043
50
269.9995752
51
270.3612856
0
ARC
8
DEFAULT_255_1_388
10
16.7804144
20
46.8306781
40
0.5249831
50
250.7885263
51
270.6488451
0
ARC
8
DEFAULT_255_1_388
10
16.7614969
20
46.7589853
40
0.4510942
50
219.3628377
51
250.0611024
0
ARC
8
DEFAULT_255_1_388
10
16.8547843
20
46.8382653
40
0.5735046
50
193.5480293
51
219.5755675
0
ARC
8
DEFAULT_255_1_388
10
17.1216052
20
46.907552
40
0.849146
50
181.1220183
51
193.8754971
0
ARC
8
DEFAULT_255_1_388
10
17.3539285
20
46.9199914
40
1.0816971
50
179.9914644
51
181.5398227
0
ARC
8
DEFAULT_255_1_388
10
17.1462595
20
47.0508586
40
0.8740384
50
169.5837606
51
180.275782
0
ARC
8
DEFAULT_255_1_388
10
16.9395944
20
47.0890439
40
0.6638751
50
155.0367033
51
169.6002779
0
ARC
8
DEFAULT_255_1_388
10
16.8118402
20
47.1506336
40
0.5220662
50
136.7831557
51
155.2472983
0
ARC
8
DEFAULT_255_1_388
10
16.7680192
20
47.1878577
40
0.4646502
50
121.7633063
51
136.4281161
0
ARC
8
DEFAULT_255_1_388
10
16.7832032
20
47.1598049
40
0.4964979
50
95.6460018
51
121.5489589
0
ARC
8
DEFAULT_255_1_388
10
16.8009007
20
47.0350704
40
0.6223912
50
89.9245727
51
96.1375919
0
ARC
8
DEFAULT_255_1_388
10
16.8065712
20
47.0484721
40
0.6090084
50
76.6779212
51
90.456405
0
ARC
8
DEFAULT_255_1_388
10
16.8508525
20
47.227406
40
0.42469
50
47.4858803
51
76.9287069
0
ARC
8
DEFAULT_255_1_388
10
16.8343139
20
47.2161623
40
0.4441778
50
16.5424081
51
46.8934505
0
ARC
8
DEFAULT_255_1_388
10
16.6534188
20
47.1567265
40
0.6345318
50
5.4072971
51
17.0363711
0
ARC
8
DEFAULT_255_1_388
10
16.4915914
20
47.1307304
40
0.6250632
50
7.8888693
51
15.9242022
0
ARC
8
DEFAULT_255_1_388
10
16.7150899
20
47.1956309
40
0.3923364
50
15.7650676
51
27.9410069
0
ARC
8
DEFAULT_255_1_388
10
16.8393068
20
47.2621317
40
0.2514401
50
27.8167196
51
46.4007942
0
ARC
8
DEFAULT_255_1_388
10
16.844891
20
47.2614882
40
0.2480958
50
47.4372362
51
75.0695672
0
ARC
8
DEFAULT_255_1_388
10
16.8101746
20
47.1406277
40
0.3738281
50
74.7009379
51
87.8124314
0
ARC
8
DEFAULT_255_1_388
10
16.8019363
20
47.0222659
40
0.4924321
50
87.3802571
51
90.0251599
0
ARC
8
DEFAULT_255_1_388
10
16.797601
20
47.1542997
40
0.3604218
50
89.3451886
51
108.5744412
0
ARC
8
DEFAULT_255_1_388
10
16.7822002
20
47.2120836
40
0.3007661
50
109.2998307
51
143.3037387
0
ARC
8
DEFAULT_255_1_388
10
16.8679292
20
47.1461584
40
0.4089031
50
143.075267
51
163.1918576
0
ARC
8
DEFAULT_255_1_388
10
17.0875126
20
47.0768652
40
0.6391492
50
162.9375929
51
174.6208776
0
ARC
8
DEFAULT_255_1_388
10
17.3829508
20
47.0444711
40
0.9363344
50
174.342123
51
180.1430283
0
ARC
8
DEFAULT_255_1_388
10
17.2782049
20
46.9101117
40
0.8315986
50
179.6817261
51
189.150555
0
ARC
8
DEFAULT_255_1_388
10
16.9968798
20
46.8632559
40
0.5464044
50
188.9911061
51
203.5772363
0
ARC
8
DEFAULT_255_1_388
10
16.875409
20
46.8128539
40
0.4149206
50
203.9075402
51
215.1312435
0
ARC
8
DEFAULT_255_1_388
10
16.7715888
20
46.7323907
40
0.2837747
50
213.9071511
51
263.8848919
0
ARC
8
DEFAULT_255_1_388
10
16.7856881
20
46.8206519
40
0.3730641
50
263.1757928
51
270.1031044
0
ARC
8
DEFAULT_255_1_388
10
16.7892961
20
46.9609511
40
0.5133712
50
269.6722503
51
279.0606936
0
ARC
8
DEFAULT_255_1_388
10
16.8193116
20
46.779515
40
0.3294739
50
278.8749101
51
293.6349581
0
ARC
8
DEFAULT_255_1_388
10
16.855332
20
46.6949251
40
0.2375405
50
293.8553806
51
310.0518171
0
ARC
8
DEFAULT_255_1_388
10
16.8558828
20
46.6879021
40
0.2318463
50
311.0644687
51
332.0111037
0
ARC
8
DEFAULT_255_1_388
10
16.7217502
20
46.7618702
40
0.3850112
50
331.6586806
51
343.2877423
0
ARC
8
DEFAULT_255_1_388
10
16.4896967
20
46.8331806
40
0.6277712
50
343.1446576
51
351.0103568
0
ARC
8
DEFAULT_255_1_388
10
16.326429
20
46.8631873
40
0.7937327
50
350.71248
51
351.1626997
0
LINE
8
DEFAULT_255_1_388
10
18.7985975
20
46.4602382
11
18.7985975
21
46.3238
0
LINE
8
DEFAULT_255_1_388
10
18.7985975
20
46.3238
11
17.936597
21
46.3238
0
LINE
8
DEFAULT_255_1_388
10
17.936597
20
46.3238
11
17.936597
21
46.4439741
0
LINE
8
DEFAULT_255_1_388
10
17.936597
20
46.4439741
11
18.3919935
21
46.9499702
0
LINE
8
DEFAULT_255_1_388
10
18.0784566
20
47.2517607
11
17.9112972
21
47.2517607
0
LINE
8
DEFAULT_255_1_388
10
18.490482
20
46.842446
11
18.1380918
21
46.4602382
0
LINE
8
DEFAULT_255_1_388
10
18.1380918
20
46.4602382
11
18.7985975
21
46.4602382
0
ARC
8
DEFAULT_255_1_388
10
16.8743994
20
48.2919983
40
2.0258655
50
318.5132526
51
320.7829045
0
ARC
8
DEFAULT_255_1_388
10
17.4691951
20
47.8078929
40
1.2589638
50
320.7372878
51
323.9739031
0
ARC
8
DEFAULT_255_1_388
10
17.9100883
20
47.4884554
40
0.7145141
50
323.8962701
51
328.64194
0
ARC
8
DEFAULT_255_1_388
10
18.140314
20
47.3464545
40
0.4440242
50
328.8294576
51
331.7891185
0
ARC
8
DEFAULT_255_1_388
10
18.252546
20
47.2885374
40
0.3177517
50
331.4254512
51
352.9365785
0
ARC
8
DEFAULT_255_1_388
10
18.267846
20
47.285105
40
0.3021496
50
353.2257659
51
0.0166158
0
ARC
8
DEFAULT_255_1_388
10
18.2915221
20
47.2876894
40
0.2784847
50
359.486299
51
15.9343185
0
ARC
8
DEFAULT_255_1_388
10
18.3485488
20
47.3030269
40
0.2194403
50
16.1712913
51
43.5286088
0
ARC
8
DEFAULT_255_1_388
10
18.3572432
20
47.3117191
40
0.2071504
50
43.4417391
51
83.1661095
0
ARC
8
DEFAULT_255_1_388
10
18.3421593
20
47.2288316
40
0.2912888
50
82.160179
51
90.1505708
0
ARC
8
DEFAULT_255_1_388
10
18.3386075
20
47.1684279
40
0.3517025
50
89.5460741
51
102.5418361
0
ARC
8
DEFAULT_255_1_388
10
18.3112795
20
47.2843933
40
0.2325748
50
102.1738499
51
129.206123
0
ARC
8
DEFAULT_255_1_388
10
18.3024248
20
47.2983664
40
0.2161591
50
129.72865
51
135.753947
0
ARC
8
DEFAULT_255_1_388
10
18.3160731
20
47.2874728
40
0.2335433
50
136.1757367
51
166.3673339
0
ARC
8
DEFAULT_255_1_388
10
18.4293419
20
47.2571148
40
0.3507873
50
165.9090694
51
178.8684636
0
ARC
8
DEFAULT_255_1_388
10
18.526919
20
47.2518263
40
0.4484624
50
178.4391136
51
180.0083808
0
ARC
8
DEFAULT_255_1_388
10
18.3689892
20
47.2562197
40
0.4577138
50
163.2878482
51
180.5581842
0
ARC
8
DEFAULT_255_1_388
10
18.2787933
20
47.2810393
40
0.3641968
50
133.4540601
51
162.947111
0
ARC
8
DEFAULT_255_1_388
10
18.2988815
20
47.2596789
40
0.3935189
50
100.7869829
51
133.4382499
0
ARC
8
DEFAULT_255_1_388
10
18.338006
20
47.0854399
40
0.5720313
50
89.660664
51
101.3702276
0
ARC
8
DEFAULT_255_1_388
10
18.3454669
20
47.0923263
40
0.5651495
50
78.2172678
51
90.412935
0
ARC
8
DEFAULT_255_1_388
10
18.3854135
20
47.2750511
40
0.378122
50
55.9269121
51
78.4888449
0
ARC
8
DEFAULT_255_1_388
10
18.407485
20
47.3131187
40
0.3342379
50
47.929771
51
55.4049217
0
ARC
8
DEFAULT_255_1_388
10
18.418938
20
47.3247618
40
0.3179217
50
4.334829
51
48.0560205
0
ARC
8
DEFAULT_255_1_388
10
18.2957182
20
47.3056487
40
0.442341
50
359.9251713
51
5.5971671
0
ARC
8
DEFAULT_255_1_388
10
18.3439336
20
47.3119728
40
0.3941854
50
337.8914027
51
358.9967534
0
ARC
8
DEFAULT_255_1_388
10
18.0386907
20
47.4297295
40
0.7213271
50
326.9132501
51
338.3508308
0
ARC
8
DEFAULT_255_1_388
10
17.5903018
20
47.7171105
40
1.2538973
50
319.6471833
51
327.0959558
0
ARC
8
DEFAULT_255_1_388
10
17.1589677
20
48.072905
40
1.8129975
50
317.2588228
51
319.9045804
0
LINE
8
DEFAULT_255_1_388
10
19.8006504
20
47.101769
11
19.8006504
21
46.8849135
0
LINE
8
DEFAULT_255_1_388
10
18.9702747
20
46.8623244
11
18.9702747
21
47.0855048
0
LINE
8
DEFAULT_255_1_388
10
19.633491
20
46.8397353
11
19.633491
21
47.1135153
0
LINE
8
DEFAULT_255_1_388
10
19.1374341
20
47.1261652
11
19.1374341
21
46.8587102
0
ARC
8
DEFAULT_255_1_388
10
18.4228838
20
46.8794118
40
1.3777776
50
353.8440855
51
0.2287917
0
ARC
8
DEFAULT_255_1_388
10
18.9447856
20
46.8211414
40
0.852639
50
344.4934746
51
353.9763743
0
ARC
8
DEFAULT_255_1_388
10
19.2814663
20
46.7254191
40
0.5026273
50
329.2803599
51
344.7473406
0
ARC
8
DEFAULT_255_1_388
10
19.3930159
20
46.6642038
40
0.3754848
50
324.9361395
51
328.6153007
0
ARC
8
DEFAULT_255_1_388
10
19.4355808
20
46.6344586
40
0.3235566
50
280.5801797
51
324.9173226
0
ARC
8
DEFAULT_255_1_388
10
19.3904437
20
46.8224236
40
0.5167077
50
269.5979457
51
281.6732777
0
ARC
8
DEFAULT_255_1_388
10
19.3823341
20
46.8089113
40
0.5032026
50
256.6228565
51
270.5105488
0
ARC
8
DEFAULT_255_1_388
10
19.3371083
20
46.6347345
40
0.3233092
50
215.8618351
51
257.2787793
0
ARC
8
DEFAULT_255_1_388
10
19.451979
20
46.7118106
40
0.4615831
50
197.9695203
51
215.2622745
0
ARC
8
DEFAULT_255_1_388
10
19.7315466
20
46.8061641
40
0.7566307
50
187.8816486
51
198.2346584
0
ARC
8
DEFAULT_255_1_388
10
20.1768704
20
46.8704453
40
1.2065653
50
180.8977266
51
188.0054894
0
ARC
8
DEFAULT_255_1_388
10
20.4818918
20
46.88194
40
1.5117443
50
180.7434591
51
181.152202
0
ARC
8
DEFAULT_255_1_388
10
20.3143914
20
47.0909371
40
1.3441277
50
173.7674302
51
180.2315596
0
ARC
8
DEFAULT_255_1_388
10
19.8061783
20
47.1483779
40
0.8326847
50
164.3058537
51
173.9000553
0
ARC
8
DEFAULT_255_1_388
10
19.4785783
20
47.2427652
40
0.4917711
50
148.7922028
51
164.5682288
0
ARC
8
DEFAULT_255_1_388
10
19.371652
20
47.3024457
40
0.3694204
50
144.5883979
51
148.1161588
0
ARC
8
DEFAULT_255_1_388
10
19.3329266
20
47.3294667
40
0.322202
50
101.6440149
51
144.5142619
0
ARC
8
DEFAULT_255_1_388
10
19.3807458
20
47.1394337
40
0.5180451
50
89.528284
51
102.5820197
0
ARC
8
DEFAULT_255_1_388
10
19.389645
20
47.1350376
40
0.5224441
50
77.0437914
51
90.508231
0
ARC
8
DEFAULT_255_1_388
10
19.4348703
20
47.3198272
40
0.3322297
50
48.2777708
51
77.4996087
0
ARC
8
DEFAULT_255_1_388
10
19.4430443
20
47.3343557
40
0.315966
50
36.3141586
51
47.6307332
0
ARC
8
DEFAULT_255_1_388
10
19.3453165
20
47.2685159
40
0.4337313
50
18.2931065
51
35.6770203
0
ARC
8
DEFAULT_255_1_388
10
19.0592006
20
47.1703107
40
0.7362203
50
8.0246996
51
18.5605636
0
ARC
8
DEFAULT_255_1_388
10
18.5908362
20
47.1011432
40
1.2096583
50
1.127539
51
8.1718423
0
ARC
8
DEFAULT_255_1_388
10
18.2259495
20
47.0868374
40
1.5747719
50
0.5432713
51
1.38669
0
ARC
8
DEFAULT_255_1_388
10
18.4316874
20
47.1175163
40
1.2018103
50
359.8092569
51
4.9408001
0
ARC
8
DEFAULT_255_1_388
10
18.9053455
20
47.15979
40
0.7262727
50
4.8364937
51
12.2906017
0
ARC
8
DEFAULT_255_1_388
10
19.215292
20
47.2288485
40
0.4087324
50
12.0806994
51
23.8171225
0
ARC
8
DEFAULT_255_1_388
10
19.3473316
20
47.2847508
40
0.2653719
50
24.2874621
51
31.3934353
0
ARC
8
DEFAULT_255_1_388
10
19.4063752
20
47.3233822
40
0.1948607
50
30.7407708
51
82.4658033
0
ARC
8
DEFAULT_255_1_388
10
19.3861413
20
47.2240017
40
0.2961198
50
81.1057101
51
90.2187368
0
ARC
8
DEFAULT_255_1_388
10
19.3821225
20
47.2530421
40
0.2670929
50
89.380395
51
105.6763916
0
ARC
8
DEFAULT_255_1_388
10
19.3614947
20
47.328032
40
0.1893189
50
105.7980655
51
149.7387869
0
ARC
8
DEFAULT_255_1_388
10
19.4812087
20
47.2560719
40
0.3289892
50
149.4208441
51
163.628295
0
ARC
8
DEFAULT_255_1_388
10
19.7164316
20
47.1843345
40
0.5749004
50
163.3764549
51
172.141138
0
ARC
8
DEFAULT_255_1_388
10
20.0877038
20
47.1311582
40
0.9499585
50
172.0258462
51
178.0705453
0
ARC
8
DEFAULT_255_1_388
10
20.4298591
20
47.1149682
40
1.2924734
50
177.8639301
51
179.5036263
0
ARC
8
DEFAULT_255_1_388
10
20.3079609
20
46.8546151
40
1.170534
50
179.7995545
51
185.246089
0
ARC
8
DEFAULT_255_1_388
10
19.8531202
20
46.8115404
40
0.7136613
50
185.1411911
51
193.0082205
0
ARC
8
DEFAULT_255_1_388
10
19.5557463
20
46.7412441
40
0.4080987
50
192.7897338
51
205.2507384
0
ARC
8
DEFAULT_255_1_388
10
19.4379673
20
46.6886538
40
0.2791522
50
205.8001921
51
211.2545876
0
ARC
8
DEFAULT_255_1_388
10
19.3791212
20
46.6492132
40
0.2084074
50
210.3789935
51
238.4007996
0
ARC
8
DEFAULT_255_1_388
10
19.3769298
20
46.6544786
40
0.2117943
50
239.6521916
51
265.9793852
0
ARC
8
DEFAULT_255_1_388
10
19.3865147
20
46.7301358
40
0.2879689
50
265.1324455
51
270.0603288
0
ARC
8
DEFAULT_255_1_388
10
19.3897524
20
46.6936418
40
0.2514919
50
269.3314378
51
287.2180039
0
ARC
8
DEFAULT_255_1_388
10
19.4052606
20
46.6370291
40
0.1928357
50
287.7957942
51
329.0808983
0
ARC
8
DEFAULT_255_1_388
10
19.2975363
20
46.7042651
40
0.319808
50
328.6635261
51
343.3325043
0
ARC
8
DEFAULT_255_1_388
10
19.0530822
20
46.7804195
40
0.5758408
50
343.0498092
51
351.9392499
0
ARC
8
DEFAULT_255_1_388
10
18.6630144
20
46.8379205
40
0.9701202
50
351.8071632
51
357.7957897
0
ARC
8
DEFAULT_255_1_388
10
18.2995621
20
46.8567724
40
1.3340376
50
357.5870923
51
359.2682493
0
LINE
8
DEFAULT_255_1_388
10
20.2253257
20
46.9490666
11
20.0915982
21
46.9834021
0
LINE
8
DEFAULT_255_1_388
10
20.0915982
20
46.9834021
11
20.158462
21
47.6393898
0
LINE
8
DEFAULT_255_1_388
10
20.158462
20
47.6393898
11
20.832521
21
47.6393898
0
LINE
8
DEFAULT_255_1_388
10
20.832521
20
47.6393898
11
20.832521
21
47.4848803
0
LINE
8
DEFAULT_255_1_388
10
20.832521
20
47.4848803
11
20.3003216
21
47.4848803
0
LINE
8
DEFAULT_255_1_388
10
20.3003216
20
47.4848803
11
20.2605647
21
47.1261652
0
LINE
8
DEFAULT_255_1_388
10
20.0446128
20
46.6698652
11
20.2027366
21
46.6698652
0
LINE
8
DEFAULT_255_1_388
10
20.2696004
20
46.9852092
11
20.2253257
21
46.9490666
0
ARC
8
DEFAULT_255_1_388
10
20.4692261
20
46.7684241
40
0.4141476
50
93.7181681
51
120.253934
0
ARC
8
DEFAULT_255_1_388
10
20.4798313
20
46.6775284
40
0.5055616
50
89.9660471
51
94.2495185
0
ARC
8
DEFAULT_255_1_388
10
20.4844135
20
46.7438154
40
0.4392953
50
73.8045384
51
90.5585736
0
ARC
8
DEFAULT_255_1_388
10
20.5108393
20
46.840352
40
0.3392225
50
41.3071072
51
73.543002
0
ARC
8
DEFAULT_255_1_388
10
20.4640213
20
46.8000461
40
0.4009977
50
13.5075837
51
41.2174839
0
ARC
8
DEFAULT_255_1_388
10
20.279331
20
46.7516907
40
0.5918864
50
1.1330171
51
13.8830737
0
ARC
8
DEFAULT_255_1_388
10
20.1196956
20
46.7431522
40
0.7516787
50
359.9925091
51
1.5431298
0
ARC
8
DEFAULT_255_1_388
10
20.2641571
20
46.7385027
40
0.6072343
50
347.8572712
51
0.4294349
0
ARC
8
DEFAULT_255_1_388
10
20.4610706
20
46.6938898
40
0.4053482
50
323.6727442
51
348.1674594
0
ARC
8
DEFAULT_255_1_388
10
20.494167
20
46.6737175
40
0.3667495
50
316.8171818
51
323.1486802
0
ARC
8
DEFAULT_255_1_388
10
20.5010794
20
46.6695612
40
0.358869
50
281.839603
51
316.5458142
0
ARC
8
DEFAULT_255_1_388
10
20.4588081
20
46.8445363
40
0.5388223
50
269.5770964
51
282.4214641
0
ARC
8
DEFAULT_255_1_388
10
20.4508002
20
46.820493
40
0.5147801
50
256.2425863
51
270.4486481
0
ARC
8
DEFAULT_255_1_388
10
20.417153
20
46.6855124
40
0.3756708
50
228.9024379
51
256.33135
0
ARC
8
DEFAULT_255_1_388
10
20.408851
20
46.6724054
40
0.360344
50
193.7536029
51
228.5272638
0
ARC
8
DEFAULT_255_1_388
10
20.5481075
20
46.7132463
40
0.5053599
50
184.9244437
51
194.4976052
0
ARC
8
DEFAULT_255_1_388
10
20.5697716
20
46.7172722
40
0.3700839
50
187.3596909
51
198.6733728
0
ARC
8
DEFAULT_255_1_388
10
20.451696
20
46.6763373
40
0.2451195
50
198.4453795
51
217.7945479
0
ARC
8
DEFAULT_255_1_388
10
20.4184132
20
46.6527563
40
0.2043754
50
218.2887146
51
228.5613203
0
ARC
8
DEFAULT_255_1_388
10
20.4294139
20
46.6675902
40
0.2227819
50
228.9652423
51
258.1237049
0
ARC
8
DEFAULT_255_1_388
10
20.4525577
20
46.7666964
40
0.3245374
50
257.7260585
51
270.4013717
0
ARC
8
DEFAULT_255_1_388
10
20.4576075
20
46.7166255
40
0.2744726
50
269.4204315
51
286.420998
0
ARC
8
DEFAULT_255_1_388
10
20.474313
20
46.6559705
40
0.2115721
50
286.7250065
51
320.6004665
0
ARC
8
DEFAULT_255_1_388
10
20.4312046
20
46.6909527
40
0.2670878
50
320.6712228
51
344.5440474
0
ARC
8
DEFAULT_255_1_388
10
20.301076
20
46.7291394
40
0.4026927
50
344.241448
51
356.735803
0
ARC
8
DEFAULT_255_1_388
10
20.1607067
20
46.7407656
40
0.5435085
50
356.3547471
51
0.0507222
0
ARC
8
DEFAULT_255_1_388
10
20.3109332
20
46.7442812
40
0.3932934
50
359.5579289
51
12.9534322
0
ARC
8
DEFAULT_255_1_388
10
20.4296172
20
46.7730586
40
0.2711827
50
12.6489751
51
41.608121
0
ARC
8
DEFAULT_255_1_388
10
20.4555332
20
46.7950946
40
0.2371737
50
41.7851122
51
85.9892156
0
ARC
8
DEFAULT_255_1_388
10
20.4416642
20
46.7035738
40
0.3295244
50
84.6965848
51
90.0672125
0
ARC
8
DEFAULT_255_1_388
10
20.4390209
20
46.6284118
40
0.4046926
50
89.6804991
51
99.161352
0
ARC
8
DEFAULT_255_1_388
10
20.4159219
20
46.7664848
40
0.2647044
50
98.9836248
51
113.8905702
0
ARC
8
DEFAULT_255_1_388
10
20.3900894
20
46.8274118
40
0.1985386
50
114.195234
51
127.3641866
0
LINE
8
DEFAULT_255_2_778
10
9.3932417
20
36.9093831
11
10.7161417
21
36.9093831
0
LINE
8
DEFAULT_255_2_778
10
10.7161417
20
36.9093831
11
10.7161417
21
23.6801831
0
LINE
8
DEFAULT_255_2_778
10
9.3932834
20
23.6802333
11
12.0390834
21
23.6802333
0
LINE
8
DEFAULT_255_2_778
10
12.0390834
20
23.6802333
11
12.0390834
21
18.3885333
0
LINE
8
DEFAULT_255_2_778
10
12.0390834
20
18.3885333
11
9.3932834
21
18.3885333
0
LINE
8
DEFAULT_255_2_778
10
9.3932834
20
18.3885333
11
9.3932834
21
23.6802333
0
ARC
8
DEFAULT_255_2_778_1
10
13.1928591
20
18.490977
40
4.816461
50
120.9442904
51
122.351755
0
ARC
8
DEFAULT_255_2_778_1
10
12.7462523
20
19.1946039
40
3.9830657
50
122.3407904
51
124.1946752
0
ARC
8
DEFAULT_255_2_778_1
10
12.3063464
20
19.8411306
40
3.2010724
50
124.1855758
51
126.4338849
0
ARC
8
DEFAULT_255_2_778_1
10
11.9204129
20
20.3638611
40
2.5513094
50
126.4326926
51
128.8877368
0
ARC
8
DEFAULT_255_2_778_1
10
11.5855968
20
20.7782658
40
2.0185498
50
128.8749205
51
131.8726567
0
ARC
8
DEFAULT_255_2_778_1
10
11.2884677
20
21.1092854
40
1.5737356
50
131.8616166
51
135.4168838
0
ARC
8
DEFAULT_255_2_778_1
10
11.025668
20
21.3674765
40
1.2053256
50
135.3893975
51
139.9687014
0
ARC
8
DEFAULT_255_2_778_1
10
10.7927889
20
21.5623102
40
0.9016937
50
139.9301659
51
145.9260426
0
ARC
8
DEFAULT_255_2_778_1
10
10.596654
20
21.6943104
40
0.6652776
50
145.8787362
51
153.8146208
0
ARC
8
DEFAULT_255_2_778_1
10
10.4445553
20
21.7686797
40
0.4959714
50
153.770634
51
164.3484794
0
ARC
8
DEFAULT_255_2_778_1
10
10.3432387
20
21.7968786
40
0.3908039
50
164.3220276
51
179.8083066
0
ARC
8
DEFAULT_255_2_778_1
10
10.3642789
20
21.805015
40
0.4118985
50
180.9499449
51
213.8111542
0
ARC
8
DEFAULT_255_2_778_1
10
10.6401828
20
21.9745896
40
0.73561
50
212.8271214
51
224.258472
0
ARC
8
DEFAULT_255_2_778_1
10
11.0230335
20
22.3439236
40
1.267567
50
224.1376218
51
231.4508261
0
ARC
8
DEFAULT_255_2_778_1
10
11.6657195
20
23.1469168
40
2.2960809
50
231.3955893
51
236.1256478
0
ARC
8
DEFAULT_255_2_778_1
10
13.4980223
20
25.8934293
40
5.5976905
50
236.2233172
51
239.1314682
0
ARC
8
DEFAULT_255_2_778_1
10
25.447927
20
45.6211568
40
28.6623793
50
238.8606853
51
239.0711101
0
ARC
8
DEFAULT_255_2_778_1
10
6.2757281
20
13.5240653
40
8.7248518
50
57.2420924
51
59.4062964
0
ARC
8
DEFAULT_255_2_778_1
10
9.5034241
20
18.5550102
40
2.747542
50
52.8289294
51
57.079028
0
ARC
8
DEFAULT_255_2_778_1
10
10.2780783
20
19.5753488
40
1.466457
50
46.3041868
51
52.8596521
0
ARC
8
DEFAULT_255_2_778_1
10
10.7103073
20
20.0254842
40
0.8424061
50
36.2174211
51
46.4090895
0
ARC
8
DEFAULT_255_2_778_1
10
10.9948088
20
20.2303128
40
0.4918609
50
17.400375
51
36.5489745
0
ARC
8
DEFAULT_255_2_778_1
10
11.1088994
20
20.2701754
40
0.3710912
50
0.0676858
51
16.7951297
0
ARC
8
DEFAULT_255_2_778_1
10
11.0878613
20
20.2720428
40
0.3921317
50
343.8035191
51
359.7912046
0
ARC
8
DEFAULT_255_2_778_1
10
10.9815912
20
20.3025167
40
0.5026844
50
333.2506233
51
343.8465691
0
ARC
8
DEFAULT_255_2_778_1
10
10.8277757
20
20.3792313
40
0.6745679
50
325.6600948
51
333.3122657
0
ARC
8
DEFAULT_255_2_778_1
10
10.6323344
20
20.5120296
40
0.9108568
50
319.7560915
51
325.6976089
0
ARC
8
DEFAULT_255_2_778_1
10
10.404199
20
20.7038002
40
1.2088854
50
315.4577584
51
319.8037947
0
ARC
8
DEFAULT_255_2_778_1
10
10.1408127
20
20.9626507
40
1.5781764
50
311.7298824
51
315.4670864
0
ARC
8
DEFAULT_255_2_778_1
10
9.8317879
20
21.3082074
40
2.0417554
50
308.723055
51
311.7470879
0
ARC
8
DEFAULT_255_2_778_1
10
9.477589
20
21.7494492
40
2.6075745
50
306.1165163
51
308.7300151
0
ARC
8
DEFAULT_255_2_778_1
10
9.0746091
20
22.3007523
40
3.2904564
50
303.9559446
51
306.1266333
0
ARC
8
DEFAULT_255_2_778_1
10
8.6630432
20
22.910015
40
4.0257023
50
302.3733397
51
303.9712246
0
ARC
8
DEFAULT_255_2_778_1
10
8.2434347
20
23.5715058
40
4.8090549
50
300.9434827
51
302.3758078
0
LINE
8
DEFAULT_255_2_778
10
10.7161335
20
18.3885996
11
10.7161335
21
5.1593996
0
LINE
8
DEFAULT_255_2_778
10
10.7161335
20
5.1593996
11
9.3932335
21
5.1593996
0
LINE
8
DEFAULT_255_2_778
10
19.9765335
20
36.9093996
11
18.6536335
21
36.9093996
0
LINE
8
DEFAULT_255_2_778
10
18.6536335
20
36.9093996
11
18.6536335
21
31.6176996
0
LINE
8
DEFAULT_255_2_778
10
17.3307834
20
31.6177333
11
19.9765834
21
31.6177333
0
LINE
8
DEFAULT_255_2_778
10
19.9765834
20
31.6177333
11
19.9765834
21
26.3260333
0
LINE
8
DEFAULT_255_2_778
10
19.9765834
20
26.3260333
11
17.3307834
21
26.3260333
0
LINE
8
DEFAULT_255_2_778
10
17.3307834
20
26.3260333
11
17.3307834
21
31.6177333
0
ARC
8
DEFAULT_255_2_778_1
10
21.1303591
20
26.428477
40
4.816461
50
120.9442904
51
122.351755
0
ARC
8
DEFAULT_255_2_778_1
10
20.6837523
20
27.1321039
40
3.9830657
50
122.3407904
51
124.1946752
0
ARC
8
DEFAULT_255_2_778_1
10
20.2438464
20
27.7786306
40
3.2010724
50
124.1855758
51
126.4338849
0
ARC
8
DEFAULT_255_2_778_1
10
19.8579129
20
28.3013611
40
2.5513094
50
126.4326926
51
128.8877368
0
ARC
8
DEFAULT_255_2_778_1
10
19.5230968
20
28.7157658
40
2.0185498
50
128.8749205
51
131.8726567
0
ARC
8
DEFAULT_255_2_778_1
10
19.2259677
20
29.0467854
40
1.5737356
50
131.8616166
51
135.4168838
0
ARC
8
DEFAULT_255_2_778_1
10
18.963168
20
29.3049765
40
1.2053256
50
135.3893975
51
139.9687014
0
ARC
8
DEFAULT_255_2_778_1
10
18.7302889
20
29.4998102
40
0.9016937
50
139.9301659
51
145.9260426
0
ARC
8
DEFAULT_255_2_778_1
10
18.534154
20
29.6318104
40
0.6652776
50
145.8787362
51
153.8146208
0
ARC
8
DEFAULT_255_2_778_1
10
18.3820553
20
29.7061797
40
0.4959714
50
153.770634
51
164.3484794
0
ARC
8
DEFAULT_255_2_778_1
10
18.2807387
20
29.7343786
40
0.3908039
50
164.3220276
51
179.8083066
0
ARC
8
DEFAULT_255_2_778_1
10
18.3017789
20
29.742515
40
0.4118985
50
180.9499449
51
213.8111542
0
ARC
8
DEFAULT_255_2_778_1
10
18.5776828
20
29.9120896
40
0.73561
50
212.8271214
51
224.258472
0
ARC
8
DEFAULT_255_2_778_1
10
18.9605335
20
30.2814236
40
1.267567
50
224.1376218
51
231.4508261
0
ARC
8
DEFAULT_255_2_778_1
10
19.6032195
20
31.0844168
40
2.2960809
50
231.3955893
51
236.1256478
0
ARC
8
DEFAULT_255_2_778_1
10
21.4355223
20
33.8309293
40
5.5976905
50
236.2233172
51
239.1314682
0
ARC
8
DEFAULT_255_2_778_1
10
33.385427
20
53.5586568
40
28.6623793
50
238.8606853
51
239.0711101
0
ARC
8
DEFAULT_255_2_778_1
10
14.2132281
20
21.4615653
40
8.7248518
50
57.2420924
51
59.4062964
0
ARC
8
DEFAULT_255_2_778_1
10
17.4409241
20
26.4925102
40
2.747542
50
52.8289294
51
57.079028
0
ARC
8
DEFAULT_255_2_778_1
10
18.2155783
20
27.5128488
40
1.466457
50
46.3041868
51
52.8596521
0
ARC
8
DEFAULT_255_2_778_1
10
18.6478073
20
27.9629842
40
0.8424061
50
36.2174211
51
46.4090895
0
ARC
8
DEFAULT_255_2_778_1
10
18.9323088
20
28.1678128
40
0.4918609
50
17.400375
51
36.5489745
0
ARC
8
DEFAULT_255_2_778_1
10
19.0463994
20
28.2076754
40
0.3710912
50
0.0676858
51
16.7951297
0
ARC
8
DEFAULT_255_2_778_1
10
19.0253613
20
28.2095428
40
0.3921317
50
343.8035191
51
359.7912046
0
ARC
8
DEFAULT_255_2_778_1
10
18.9190912
20
28.2400167
40
0.5026844
50
333.2506233
51
343.8465691
0
ARC
8
DEFAULT_255_2_778_1
10
18.7652757
20
28.3167313
40
0.6745679
50
325.6600948
51
333.3122657
0
ARC
8
DEFAULT_255_2_778_1
10
18.5698344
20
28.4495296
40
0.9108568
50
319.7560915
51
325.6976089
0
ARC
8
DEFAULT_255_2_778_1
10
18.341699
20
28.6413002
40
1.2088854
50
315.4577584
51
319.8037947
0
ARC
8
DEFAULT_255_2_778_1
10
18.0783127
20
28.9001507
40
1.5781764
50
311.7298824
51
315.4670864
0
ARC
8
DEFAULT_255_2_778_1
10
17.7692879
20
29.2457074
40
2.0417554
50
308.723055
51
311.7470879
0
ARC
8
DEFAULT_255_2_778_1
10
17.415089
20
29.6869492
40
2.6075745
50
306.1165163
51
308.7300151
0
ARC
8
DEFAULT_255_2_778_1
10
17.0121091
20
30.2382523
40
3.2904564
50
303.9559446
51
306.1266333
0
ARC
8
DEFAULT_255_2_778_1
10
16.6005432
20
30.847515
40
4.0257023
50
302.3733397
51
303.9712246
0
ARC
8
DEFAULT_255_2_778_1
10
16.1809347
20
31.5090058
40
4.8090549
50
300.9434827
51
302.3758078
0
LINE
8
DEFAULT_255_2_778
10
18.6536417
20
26.3260333
11
18.6536417
21
21.0343333
0
LINE
8
DEFAULT_255_2_778
10
18.6536417
20
21.0343333
11
19.9765417
21
21.0343333
0
LINE
8
DEFAULT_255_1_388
10
4.8809318
20
44.4758382
11
4.8809318
21
44.3394
0
LINE
8
DEFAULT_255_1_388
10
4.8809318
20
44.3394
11
4.0189313
21
44.3394
0
LINE
8
DEFAULT_255_1_388
10
4.0189313
20
44.3394
11
4.0189313
21
44.4595741
0
LINE
8
DEFAULT_255_1_388
10
4.0189313
20
44.4595741
11
4.4743278
21
44.9655702
0
LINE
8
DEFAULT_255_1_388
10
4.1607909
20
45.2673607
11
3.9936315
21
45.2673607
0
LINE
8
DEFAULT_255_1_388
10
4.5728163
20
44.858046
11
4.2204262
21
44.4758382
0
LINE
8
DEFAULT_255_1_388
10
4.2204262
20
44.4758382
11
4.8809318
21
44.4758382
0
ARC
8
DEFAULT_255_1_388
10
2.9567337
20
46.3075983
40
2.0258655
50
318.5132526
51
320.7829045
0
ARC
8
DEFAULT_255_1_388
10
3.5515294
20
45.8234929
40
1.2589638
50
320.7372878
51
323.9739031
0
ARC
8
DEFAULT_255_1_388
10
3.9924226
20
45.5040554
40
0.7145141
50
323.8962701
51
328.64194
0
ARC
8
DEFAULT_255_1_388
10
4.2226484
20
45.3620545
40
0.4440242
50
328.8294576
51
331.7891185
0
ARC
8
DEFAULT_255_1_388
10
4.3348804
20
45.3041374
40
0.3177517
50
331.4254512
51
352.9365785
0
ARC
8
DEFAULT_255_1_388
10
4.3501804
20
45.300705
40
0.3021496
50
353.2257659
51
0.0166158
0
ARC
8
DEFAULT_255_1_388
10
4.3738564
20
45.3032894
40
0.2784847
50
359.486299
51
15.9343185
0
ARC
8
DEFAULT_255_1_388
10
4.4308831
20
45.3186269
40
0.2194403
50
16.1712913
51
43.5286088
0
ARC
8
DEFAULT_255_1_388
10
4.4395776
20
45.3273191
40
0.2071504
50
43.4417391
51
83.1661095
0
ARC
8
DEFAULT_255_1_388
10
4.4244937
20
45.2444316
40
0.2912888
50
82.160179
51
90.1505708
0
ARC
8
DEFAULT_255_1_388
10
4.4209418
20
45.1840279
40
0.3517025
50
89.5460741
51
102.5418361
0
ARC
8
DEFAULT_255_1_388
10
4.3936138
20
45.2999933
40
0.2325748
50
102.1738499
51
129.206123
0
ARC
8
DEFAULT_255_1_388
10
4.3847592
20
45.3139664
40
0.2161591
50
129.72865
51
135.753947
0
ARC
8
DEFAULT_255_1_388
10
4.3984074
20
45.3030728
40
0.2335433
50
136.1757367
51
166.3673339
0
ARC
8
DEFAULT_255_1_388
10
4.5116762
20
45.2727148
40
0.3507873
50
165.9090694
51
178.8684636
0
ARC
8
DEFAULT_255_1_388
10
4.6092534
20
45.2674263
40
0.4484624
50
178.4391136
51
180.0083808
0
ARC
8
DEFAULT_255_1_388
10
4.4513235
20
45.2718197
40
0.4577138
50
163.2878482
51
180.5581842
0
ARC
8
DEFAULT_255_1_388
10
4.3611276
20
45.2966393
40
0.3641968
50
133.4540601
51
162.947111
0
ARC
8
DEFAULT_255_1_388
10
4.3812158
20
45.2752789
40
0.3935189
50
100.7869829
51
133.4382499
0
ARC
8
DEFAULT_255_1_388
10
4.4203403
20
45.1010399
40
0.5720313
50
89.660664
51
101.3702276
0
ARC
8
DEFAULT_255_1_388
10
4.4278012
20
45.1079263
40
0.5651495
50
78.2172678
51
90.412935
0
ARC
8
DEFAULT_255_1_388
10
4.4677478
20
45.2906511
40
0.378122
50
55.9269121
51
78.4888449
0
ARC
8
DEFAULT_255_1_388
10
4.4898193
20
45.3287187
40
0.3342379
50
47.929771
51
55.4049217
0
ARC
8
DEFAULT_255_1_388
10
4.5012723
20
45.3403618
40
0.3179217
50
4.334829
51
48.0560205
0
ARC
8
DEFAULT_255_1_388
10
4.3780525
20
45.3212487
40
0.442341
50
359.9251713
51
5.5971671
0
ARC
8
DEFAULT_255_1_388
10
4.426268
20
45.3275728
40
0.3941854
50
337.8914027
51
358.9967534
0
ARC
8
DEFAULT_255_1_388
10
4.121025
20
45.4453295
40
0.7213271
50
326.9132501
51
338.3508308
0
ARC
8
DEFAULT_255_1_388
10
3.6726362
20
45.7327105
40
1.2538973
50
319.6471833
51
327.0959558
0
ARC
8
DEFAULT_255_1_388
10
3.241302
20
46.088505
40
1.8129975
50
317.2588228
51
319.9045804
0
LINE
8
DEFAULT_255_1_388
10
5.7637143
20
45.6549898
11
5.7637143
21
44.781243
0
LINE
8
DEFAULT_255_1_388
10
5.7637143
20
44.781243
11
5.9462343
21
44.781243
0
LINE
8
DEFAULT_255_1_388
10
5.9462343
20
44.781243
11
5.9462343
21
44.6448048
0
LINE
8
DEFAULT_255_1_388
10
5.9462343
20
44.6448048
11
5.7637143
21
44.6448048
0
LINE
8
DEFAULT_255_1_388
10
5.7637143
20
44.6448048
11
5.7637143
21
44.3394
0
LINE
8
DEFAULT_255_1_388
10
5.7637143
20
44.3394
11
5.5956513
21
44.3394
0
LINE
8
DEFAULT_255_1_388
10
5.5956513
20
44.3394
11
5.5956513
21
44.6448048
0
LINE
8
DEFAULT_255_1_388
10
5.5956513
20
44.6448048
11
4.996588
21
44.6448048
0
LINE
8
DEFAULT_255_1_388
10
4.996588
20
44.6448048
11
4.996588
21
44.7432933
0
LINE
8
DEFAULT_255_1_388
10
4.996588
20
44.7432933
11
5.5857121
21
45.6549898
0
LINE
8
DEFAULT_255_1_388
10
5.5857121
20
45.6549898
11
5.7637143
21
45.6549898
0
LINE
8
DEFAULT_255_1_388
10
5.5757729
20
45.3902455
11
5.1863366
21
44.781243
0
LINE
8
DEFAULT_255_1_388
10
5.1863366
20
44.781243
11
5.5956513
21
44.781243
0
LINE
8
DEFAULT_255_1_388
10
5.5956513
20
44.781243
11
5.5956513
21
45.426388
0
LINE
8
DEFAULT_255_1_388
10
5.5956513
20
45.426388
11
5.5757729
21
45.3902455
0
LINE
8
DEFAULT_255_1_388
10
6.201943
20
45.6549898
11
6.5760187
21
44.5698089
0
LINE
8
DEFAULT_255_1_388
10
6.5760187
20
44.5698089
11
6.9519015
21
45.6549898
0
LINE
8
DEFAULT_255_1_388
10
6.9519015
20
45.6549898
11
7.14165
21
45.6549898
0
LINE
8
DEFAULT_255_1_388
10
7.14165
20
45.6549898
11
6.6537252
21
44.3394
0
LINE
8
DEFAULT_255_1_388
10
6.6537252
20
44.3394
11
6.5001193
21
44.3394
0
LINE
8
DEFAULT_255_1_388
10
6.5001193
20
44.3394
11
6.013098
21
45.6549898
0
LINE
8
DEFAULT_255_1_388
10
6.013098
20
45.6549898
11
6.201943
21
45.6549898
0
LINE
8
DEFAULT_255_1_388
10
4.1800367
20
5.9674898
11
4.1800367
21
4.6519
0
LINE
8
DEFAULT_255_1_388
10
4.1800367
20
4.6519
11
4.0065523
21
4.6519
0
LINE
8
DEFAULT_255_1_388
10
4.0065523
20
4.6519
11
4.0065523
21
5.9674898
0
LINE
8
DEFAULT_255_1_388
10
4.0065523
20
5.9674898
11
4.1800367
21
5.9674898
0
LINE
8
DEFAULT_255_1_388
10
5.5082764
20
5.9674898
11
5.5082764
21
4.6519
0
LINE
8
DEFAULT_255_1_388
10
5.5082764
20
4.6519
11
5.3338885
21
4.6519
0
LINE
8
DEFAULT_255_1_388
10
5.3338885
20
4.6519
11
4.6715757
21
5.6656993
0
LINE
8
DEFAULT_255_1_388
10
4.6715757
20
5.6656993
11
4.6715757
21
4.6519
0
LINE
8
DEFAULT_255_1_388
10
4.6715757
20
4.6519
11
4.4971878
21
4.6519
0
LINE
8
DEFAULT_255_1_388
10
4.4971878
20
4.6519
11
4.4971878
21
5.9674898
0
LINE
8
DEFAULT_255_1_388
10
4.4971878
20
5.9674898
11
4.6715757
21
5.9674898
0
LINE
8
DEFAULT_255_1_388
10
4.6715757
20
5.9674898
11
5.3356956
21
4.9491727
0
LINE
8
DEFAULT_255_1_388
10
5.3356956
20
4.9491727
11
5.3356956
21
5.9674898
0
LINE
8
DEFAULT_255_1_388
10
5.3356956
20
5.9674898
11
5.5082764
21
5.9674898
0
LINE
8
DEFAULT_255_1_388
10
6.4787046
20
5.9674898
11
6.4787046
21
5.093743
0
LINE
8
DEFAULT_255_1_388
10
6.4787046
20
5.093743
11
6.6612247
21
5.093743
0
LINE
8
DEFAULT_255_1_388
10
6.6612247
20
5.093743
11
6.6612247
21
4.9573048
0
LINE
8
DEFAULT_255_1_388
10
6.6612247
20
4.9573048
11
6.4787046
21
4.9573048
0
LINE
8
DEFAULT_255_1_388
10
6.4787046
20
4.9573048
11
6.4787046
21
4.6519
0
LINE
8
DEFAULT_255_1_388
10
6.4787046
20
4.6519
11
6.3106417
21
4.6519
0
LINE
8
DEFAULT_255_1_388
10
6.3106417
20
4.6519
11
6.3106417
21
4.9573048
0
LINE
8
DEFAULT_255_1_388
10
6.3106417
20
4.9573048
11
5.7115784
21
4.9573048
0
LINE
8
DEFAULT_255_1_388
10
5.7115784
20
4.9573048
11
5.7115784
21
5.0557933
0
LINE
8
DEFAULT_255_1_388
10
5.7115784
20
5.0557933
11
6.3007024
21
5.9674898
0
LINE
8
DEFAULT_255_1_388
10
6.3007024
20
5.9674898
11
6.4787046
21
5.9674898
0
LINE
8
DEFAULT_255_1_388
10
6.2907632
20
5.7027455
11
5.901327
21
5.093743
0
LINE
8
DEFAULT_255_1_388
10
5.901327
20
5.093743
11
6.3106417
21
5.093743
0
LINE
8
DEFAULT_255_1_388
10
6.3106417
20
5.093743
11
6.3106417
21
5.738888
0
LINE
8
DEFAULT_255_1_388
10
6.3106417
20
5.738888
11
6.2907632
21
5.7027455
0
LINE
8
DEFAULT_255_1_388
10
7.3081768
20
5.7415987
11
7.3081768
21
5.3575838
0
LINE
8
DEFAULT_255_1_388
10
7.3081768
20
5.3575838
11
7.675024
21
5.3575838
0
LINE
8
DEFAULT_255_1_388
10
7.675024
20
5.3575838
11
7.675024
21
5.1994601
0
LINE
8
DEFAULT_255_1_388
10
7.675024
20
5.1994601
11
7.3081768
21
5.1994601
0
LINE
8
DEFAULT_255_1_388
10
7.3081768
20
5.1994601
11
7.3081768
21
4.7838204
0
LINE
8
DEFAULT_255_1_388
10
7.3081768
20
4.7838204
11
7.1401138
21
4.7838204
0
LINE
8
DEFAULT_255_1_388
10
7.1401138
20
4.7838204
11
7.1401138
21
5.1994601
0
LINE
8
DEFAULT_255_1_388
10
7.1401138
20
5.1994601
11
6.7732667
21
5.1994601
0
LINE
8
DEFAULT_255_1_388
10
6.7732667
20
5.1994601
11
6.7732667
21
5.3575838
0
LINE
8
DEFAULT_255_1_388
10
6.7732667
20
5.3575838
11
7.1401138
21
5.3575838
0
LINE
8
DEFAULT_255_1_388
10
7.1401138
20
5.3575838
11
7.1401138
21
5.7415987
0
LINE
8
DEFAULT_255_1_388
10
7.1401138
20
5.7415987
11
7.3081768
21
5.7415987
0
LINE
8
DEFAULT_255_1_388
10
4.1800367
20
13.9049898
11
4.1800367
21
12.5894
0
LINE
8
DEFAULT_255_1_388
10
4.1800367
20
12.5894
11
4.0065523
21
12.5894
0
LINE
8
DEFAULT_255_1_388
10
4.0065523
20
12.5894
11
4.0065523
21
13.9049898
0
LINE
8
DEFAULT_255_1_388
10
4.0065523
20
13.9049898
11
4.1800367
21
13.9049898
0
LINE
8
DEFAULT_255_1_388
10
5.5082764
20
13.9049898
11
5.5082764
21
12.5894
0
LINE
8
DEFAULT_255_1_388
10
5.5082764
20
12.5894
11
5.3338885
21
12.5894
0
LINE
8
DEFAULT_255_1_388
10
5.3338885
20
12.5894
11
4.6715757
21
13.6031993
0
LINE
8
DEFAULT_255_1_388
10
4.6715757
20
13.6031993
11
4.6715757
21
12.5894
0
LINE
8
DEFAULT_255_1_388
10
4.6715757
20
12.5894
11
4.4971878
21
12.5894
0
LINE
8
DEFAULT_255_1_388
10
4.4971878
20
12.5894
11
4.4971878
21
13.9049898
0
LINE
8
DEFAULT_255_1_388
10
4.4971878
20
13.9049898
11
4.6715757
21
13.9049898
0
LINE
8
DEFAULT_255_1_388
10
4.6715757
20
13.9049898
11
5.3356956
21
12.8866727
0
LINE
8
DEFAULT_255_1_388
10
5.3356956
20
12.8866727
11
5.3356956
21
13.9049898
0
LINE
8
DEFAULT_255_1_388
10
5.3356956
20
13.9049898
11
5.5082764
21
13.9049898
0
LINE
8
DEFAULT_255_1_388
10
6.0160796
20
13.1920775
11
6.0160796
21
13.3285157
0
LINE
8
DEFAULT_255_1_388
10
6.0160796
20
13.3285157
11
6.1416751
21
13.3285157
0
LINE
8
DEFAULT_255_1_388
10
5.9275303
20
13.5598282
11
5.7603709
21
13.5598282
0
LINE
8
DEFAULT_255_1_388
10
5.7486246
20
12.9363687
11
5.9166875
21
12.9363687
0
LINE
8
DEFAULT_255_1_388
10
6.1416751
20
13.1920775
11
6.0160796
21
13.1920775
0
ARC
8
DEFAULT_255_1_388
10
6.1383977
20
13.7101922
40
0.3816905
50
270.491971
51
281.8953028
0
ARC
8
DEFAULT_255_1_388
10
6.1655404
20
13.5862199
40
0.2547877
50
281.6690378
51
301.2943765
0
ARC
8
DEFAULT_255_1_388
10
6.1846856
20
13.5511926
40
0.2149197
50
301.7834992
51
311.754567
0
ARC
8
DEFAULT_255_1_388
10
6.1949897
20
13.539765
40
0.1995326
50
311.7325027
51
354.2803031
0
ARC
8
DEFAULT_255_1_388
10
6.1132313
20
13.553828
40
0.2823461
50
353.0941646
51
0.1174696
0
ARC
8
DEFAULT_255_1_388
10
6.0613871
20
13.5591874
40
0.3342238
50
359.1804452
51
15.0452323
0
ARC
8
DEFAULT_255_1_388
10
6.2127929
20
13.6033546
40
0.1765747
50
13.957816
51
77.6713812
0
ARC
8
DEFAULT_255_1_388
10
6.1693165
20
13.4475464
40
0.3381982
50
76.111571
51
90.7028736
0
ARC
8
DEFAULT_255_1_388
10
6.1626577
20
13.478325
40
0.3074046
50
89.5321574
51
103.5319393
0
ARC
8
DEFAULT_255_1_388
10
6.1400961
20
13.5682443
40
0.2147041
50
103.2930114
51
133.5619756
0
ARC
8
DEFAULT_255_1_388
10
6.1350902
20
13.5749351
40
0.2064084
50
133.8349761
51
173.5343225
0
ARC
8
DEFAULT_255_1_388
10
6.216456
20
13.5605144
40
0.2889266
50
172.5097183
51
180.1360699
0
ARC
8
DEFAULT_255_1_388
10
6.1094324
20
13.564388
40
0.3490913
50
155.3483706
51
180.7484035
0
ARC
8
DEFAULT_255_1_388
10
6.1039299
20
13.5611519
40
0.3454798
50
131.5745177
51
154.4799474
0
ARC
8
DEFAULT_255_1_388
10
6.1391582
20
13.5255422
40
0.3955058
50
96.9874487
51
131.9690874
0
ARC
8
DEFAULT_255_1_388
10
6.1638475
20
13.3854407
40
0.537622
50
89.8592909
51
97.7827481
0
ARC
8
DEFAULT_255_1_388
10
6.1692584
20
13.355936
40
0.5671399
50
78.3654493
51
90.4132586
0
ARC
8
DEFAULT_255_1_388
10
6.2095225
20
13.5425918
40
0.3762034
50
56.6229818
51
78.6387103
0
ARC
8
DEFAULT_255_1_388
10
6.2337054
20
13.5848846
40
0.3275964
50
47.0254604
51
56.085558
0
ARC
8
DEFAULT_255_1_388
10
6.2359305
20
13.5893189
40
0.3228382
50
10.9207523
51
46.777927
0
ARC
8
DEFAULT_255_1_388
10
6.0824899
20
13.5538401
40
0.4802559
50
359.6364235
51
11.6087615
0
ARC
8
DEFAULT_255_1_388
10
6.2889065
20
13.5521404
40
0.273833
50
332.3549969
51
359.7179765
0
ARC
8
DEFAULT_255_1_388
10
6.2157465
20
13.5868285
40
0.3547505
50
325.2332381
51
332.8746682
0
ARC
8
DEFAULT_255_1_388
10
6.2329048
20
13.5748763
40
0.3338396
50
292.9803892
51
325.2391113
0
ARC
8
DEFAULT_255_1_388
10
6.2018244
20
13.6353679
40
0.4016959
50
292.542178
51
293.6931461
0
ARC
8
DEFAULT_255_1_388
10
6.2461816
20
12.9088036
40
0.372079
50
57.643292
51
72.8626085
0
ARC
8
DEFAULT_255_1_388
10
6.286065
20
12.9734273
40
0.2961455
50
36.7246661
51
57.4701329
0
ARC
8
DEFAULT_255_1_388
10
6.2847807
20
12.974847
40
0.2963321
50
8.054535
51
36.3561529
0
ARC
8
DEFAULT_255_1_388
10
6.187748
20
12.9574073
40
0.3948682
50
359.8316595
51
8.5873361
0
ARC
8
DEFAULT_255_1_388
10
6.1454954
20
12.951997
40
0.4371398
50
343.9831631
51
0.557075
0
ARC
8
DEFAULT_255_1_388
10
6.2452004
20
12.9246963
40
0.3337749
50
311.6358204
51
343.7652116
0
ARC
8
DEFAULT_255_1_388
10
6.2026257
20
12.9726955
40
0.3979351
50
279.7829743
51
311.625622
0
ARC
8
DEFAULT_255_1_388
10
6.1687392
20
13.1343642
40
0.5630417
50
269.7285092
51
280.3857694
0
ARC
8
DEFAULT_255_1_388
10
6.1617705
20
13.1297241
40
0.5584119
50
256.6827433
51
270.4412869
0
ARC
8
DEFAULT_255_1_388
10
6.1236692
20
12.9739698
40
0.3980715
50
229.4223821
51
256.8554507
0
ARC
8
DEFAULT_255_1_388
10
6.0770245
20
12.9214683
40
0.3278564
50
181.8183354
51
229.6455015
0
ARC
8
DEFAULT_255_1_388
10
6.1939855
20
12.9361825
40
0.4453611
50
179.9760419
51
183.2330638
0
ARC
8
DEFAULT_255_1_388
10
6.1746407
20
12.9338781
40
0.2579652
50
179.4467996
51
196.2871626
0
ARC
8
DEFAULT_255_1_388
10
6.1197861
20
12.9188709
40
0.2011057
50
196.5661293
51
227.7059371
0
ARC
8
DEFAULT_255_1_388
10
6.1382468
20
12.9395155
40
0.2287994
50
227.7653015
51
257.8763321
0
ARC
8
DEFAULT_255_1_388
10
6.1635551
20
13.0455961
40
0.3378385
50
257.4583525
51
270.4267406
0
ARC
8
DEFAULT_255_1_388
10
6.1686801
20
13.078223
40
0.3704652
50
269.5965319
51
280.8788143
0
ARC
8
DEFAULT_255_1_388
10
6.1945029
20
12.9492529
40
0.2389415
50
280.6347277
51
299.8594068
0
ARC
8
DEFAULT_255_1_388
10
6.2159798
20
12.9084736
40
0.19289
50
300.3575552
51
314.5515667
0
ARC
8
DEFAULT_255_1_388
10
6.2066474
20
12.9153025
40
0.204312
50
315.0730962
51
345.0429362
0
ARC
8
DEFAULT_255_1_388
10
6.1027982
20
12.9455539
40
0.31246
50
344.598526
51
357.9270698
0
ARC
8
DEFAULT_255_1_388
10
6.0018286
20
12.9524705
40
0.4136265
50
357.4755098
51
0.0224936
0
ARC
8
DEFAULT_255_1_388
10
6.1171164
20
12.9552099
40
0.2983498
50
359.5051035
51
13.4236939
0
ARC
8
DEFAULT_255_1_388
10
6.2146254
20
12.9801637
40
0.1977186
50
12.9497905
51
48.7550905
0
ARC
8
DEFAULT_255_1_388
10
6.1941176
20
12.9521373
40
0.2323321
50
49.509109
51
72.1832965
0
ARC
8
DEFAULT_255_1_388
10
6.1538644
20
12.8326632
40
0.358397
50
71.9008458
51
84.3555134
0
ARC
8
DEFAULT_255_1_388
10
6.1357039
20
12.6794712
40
0.512641
50
84.019632
51
89.3326067
0
LINE
8
DEFAULT_255_1_388
10
7.3081768
20
13.6790987
11
7.3081768
21
13.2950838
0
LINE
8
DEFAULT_255_1_388
10
7.3081768
20
13.2950838
11
7.675024
21
13.2950838
0
LINE
8
DEFAULT_255_1_388
10
7.675024
20
13.2950838
11
7.675024
21
13.1369601
0
LINE
8
DEFAULT_255_1_388
10
7.675024
20
13.1369601
11
7.3081768
21
13.1369601
0
LINE
8
DEFAULT_255_1_388
10
7.3081768
20
13.1369601
11
7.3081768
21
12.7213204
0
LINE
8
DEFAULT_255_1_388
10
7.3081768
20
12.7213204
11
7.1401138
21
12.7213204
0
LINE
8
DEFAULT_255_1_388
10
7.1401138
20
12.7213204
11
7.1401138
21
13.1369601
0
LINE
8
DEFAULT_255_1_388
10
7.1401138
20
13.1369601
11
6.7732667
21
13.1369601
0
LINE
8
DEFAULT_255_1_388
10
6.7732667
20
13.1369601
11
6.7732667
21
13.2950838
0
LINE
8
DEFAULT_255_1_388
10
6.7732667
20
13.2950838
11
7.1401138
21
13.2950838
0
LINE
8
DEFAULT_255_1_388
10
7.1401138
20
13.2950838
11
7.1401138
21
13.6790987
0
LINE
8
DEFAULT_255_1_388
10
7.1401138
20
13.6790987
11
7.3081768
21
13.6790987
0
LINE
8
DEFAULT_255_1_388
10
4.1800367
20
21.8424898
11
4.1800367
21
20.5269
0
LINE
8
DEFAULT_255_1_388
10
4.1800367
20
20.5269
11
4.0065523
21
20.5269
0
LINE
8
DEFAULT_255_1_388
10
4.0065523
20
20.5269
11
4.0065523
21
21.8424898
0
LINE
8
DEFAULT_255_1_388
10
4.0065523
20
21.8424898
11
4.1800367
21
21.8424898
0
LINE
8
DEFAULT_255_1_388
10
5.5082764
20
21.8424898
11
5.5082764
21
20.5269
0
LINE
8
DEFAULT_255_1_388
10
5.5082764
20
20.5269
11
5.3338885
21
20.5269
0
LINE
8
DEFAULT_255_1_388
10
5.3338885
20
20.5269
11
4.6715757
21
21.5406993
0
LINE
8
DEFAULT_255_1_388
10
4.6715757
20
21.5406993
11
4.6715757
21
20.5269
0
LINE
8
DEFAULT_255_1_388
10
4.6715757
20
20.5269
11
4.4971878
21
20.5269
0
LINE
8
DEFAULT_255_1_388
10
4.4971878
20
20.5269
11
4.4971878
21
21.8424898
0
LINE
8
DEFAULT_255_1_388
10
4.4971878
20
21.8424898
11
4.6715757
21
21.8424898
0
LINE
8
DEFAULT_255_1_388
10
4.6715757
20
21.8424898
11
5.3356956
21
20.8241727
0
LINE
8
DEFAULT_255_1_388
10
5.3356956
20
20.8241727
11
5.3356956
21
21.8424898
0
LINE
8
DEFAULT_255_1_388
10
5.3356956
20
21.8424898
11
5.5082764
21
21.8424898
0
LINE
8
DEFAULT_255_1_388
10
6.6350213
20
20.6633382
11
6.6350213
21
20.5269
0
LINE
8
DEFAULT_255_1_388
10
6.6350213
20
20.5269
11
5.7730208
21
20.5269
0
LINE
8
DEFAULT_255_1_388
10
5.7730208
20
20.5269
11
5.7730208
21
20.6470741
0
LINE
8
DEFAULT_255_1_388
10
5.7730208
20
20.6470741
11
6.2284173
21
21.1530702
0
LINE
8
DEFAULT_255_1_388
10
5.9148804
20
21.4548607
11
5.747721
21
21.4548607
0
LINE
8
DEFAULT_255_1_388
10
6.3269058
20
21.045546
11
5.9745157
21
20.6633382
0
LINE
8
DEFAULT_255_1_388
10
5.9745157
20
20.6633382
11
6.6350213
21
20.6633382
0
ARC
8
DEFAULT_255_1_388
10
4.7108232
20
22.4950983
40
2.0258655
50
318.5132526
51
320.7829045
0
ARC
8
DEFAULT_255_1_388
10
5.3056189
20
22.0109929
40
1.2589638
50
320.7372878
51
323.9739031
0
ARC
8
DEFAULT_255_1_388
10
5.7465121
20
21.6915554
40
0.7145141
50
323.8962701
51
328.64194
0
ARC
8
DEFAULT_255_1_388
10
5.9767379
20
21.5495545
40
0.4440242
50
328.8294576
51
331.7891185
0
ARC
8
DEFAULT_255_1_388
10
6.0889699
20
21.4916374
40
0.3177517
50
331.4254512
51
352.9365785
0
ARC
8
DEFAULT_255_1_388
10
6.1042699
20
21.488205
40
0.3021496
50
353.2257659
51
0.0166158
0
ARC
8
DEFAULT_255_1_388
10
6.1279459
20
21.4907894
40
0.2784847
50
359.486299
51
15.9343185
0
ARC
8
DEFAULT_255_1_388
10
6.1849726
20
21.5061269
40
0.2194403
50
16.1712913
51
43.5286088
0
ARC
8
DEFAULT_255_1_388
10
6.1936671
20
21.5148191
40
0.2071504
50
43.4417391
51
83.1661095
0
ARC
8
DEFAULT_255_1_388
10
6.1785832
20
21.4319316
40
0.2912888
50
82.160179
51
90.1505708
0
ARC
8
DEFAULT_255_1_388
10
6.1750313
20
21.3715279
40
0.3517025
50
89.5460741
51
102.5418361
0
ARC
8
DEFAULT_255_1_388
10
6.1477033
20
21.4874933
40
0.2325748
50
102.1738499
51
129.206123
0
ARC
8
DEFAULT_255_1_388
10
6.1388487
20
21.5014664
40
0.2161591
50
129.72865
51
135.753947
0
ARC
8
DEFAULT_255_1_388
10
6.1524969
20
21.4905728
40
0.2335433
50
136.1757367
51
166.3673339
0
ARC
8
DEFAULT_255_1_388
10
6.2657657
20
21.4602148
40
0.3507873
50
165.9090694
51
178.8684636
0
ARC
8
DEFAULT_255_1_388
10
6.3633429
20
21.4549263
40
0.4484624
50
178.4391136
51
180.0083808
0
ARC
8
DEFAULT_255_1_388
10
6.205413
20
21.4593197
40
0.4577138
50
163.2878482
51
180.5581842
0
ARC
8
DEFAULT_255_1_388
10
6.1152171
20
21.4841393
40
0.3641968
50
133.4540601
51
162.947111
0
ARC
8
DEFAULT_255_1_388
10
6.1353053
20
21.4627789
40
0.3935189
50
100.7869829
51
133.4382499
0
ARC
8
DEFAULT_255_1_388
10
6.1744298
20
21.2885399
40
0.5720313
50
89.660664
51
101.3702276
0
ARC
8
DEFAULT_255_1_388
10
6.1818907
20
21.2954263
40
0.5651495
50
78.2172678
51
90.412935
0
ARC
8
DEFAULT_255_1_388
10
6.2218373
20
21.4781511
40
0.378122
50
55.9269121
51
78.4888449
0
ARC
8
DEFAULT_255_1_388
10
6.2439088
20
21.5162187
40
0.3342379
50
47.929771
51
55.4049217
0
ARC
8
DEFAULT_255_1_388
10
6.2553618
20
21.5278618
40
0.3179217
50
4.334829
51
48.0560205
0
ARC
8
DEFAULT_255_1_388
10
6.132142
20
21.5087487
40
0.442341
50
359.9251713
51
5.5971671
0
ARC
8
DEFAULT_255_1_388
10
6.1803575
20
21.5150728
40
0.3941854
50
337.8914027
51
358.9967534
0
ARC
8
DEFAULT_255_1_388
10
5.8751145
20
21.6328295
40
0.7213271
50
326.9132501
51
338.3508308
0
ARC
8
DEFAULT_255_1_388
10
5.4267257
20
21.9202105
40
1.2538973
50
319.6471833
51
327.0959558
0
ARC
8
DEFAULT_255_1_388
10
4.9953915
20
22.276005
40
1.8129975
50
317.2588228
51
319.9045804
0
LINE
8
DEFAULT_255_1_388
10
7.3081768
20
21.6165987
11
7.3081768
21
21.2325838
0
LINE
8
DEFAULT_255_1_388
10
7.3081768
20
21.2325838
11
7.675024
21
21.2325838
0
LINE
8
DEFAULT_255_1_388
10
7.675024
20
21.2325838
11
7.675024
21
21.0744601
0
LINE
8
DEFAULT_255_1_388
10
7.675024
20
21.0744601
11
7.3081768
21
21.0744601
0
LINE
8
DEFAULT_255_1_388
10
7.3081768
20
21.0744601
11
7.3081768
21
20.6588204
0
LINE
8
DEFAULT_255_1_388
10
7.3081768
20
20.6588204
11
7.1401138
21
20.6588204
0
LINE
8
DEFAULT_255_1_388
10
7.1401138
20
20.6588204
11
7.1401138
21
21.0744601
0
LINE
8
DEFAULT_255_1_388
10
7.1401138
20
21.0744601
11
6.7732667
21
21.0744601
0
LINE
8
DEFAULT_255_1_388
10
6.7732667
20
21.0744601
11
6.7732667
21
21.2325838
0
LINE
8
DEFAULT_255_1_388
10
6.7732667
20
21.2325838
11
7.1401138
21
21.2325838
0
LINE
8
DEFAULT_255_1_388
10
7.1401138
20
21.2325838
11
7.1401138
21
21.6165987
0
LINE
8
DEFAULT_255_1_388
10
7.1401138
20
21.6165987
11
7.3081768
21
21.6165987
0
LINE
8
DEFAULT_255_1_388
10
4.1800367
20
29.7799898
11
4.1800367
21
28.4644
0
LINE
8
DEFAULT_255_1_388
10
4.1800367
20
28.4644
11
4.0065523
21
28.4644
0
LINE
8
DEFAULT_255_1_388
10
4.0065523
20
28.4644
11
4.0065523
21
29.7799898
0
LINE
8
DEFAULT_255_1_388
10
4.0065523
20
29.7799898
11
4.1800367
21
29.7799898
0
LINE
8
DEFAULT_255_1_388
10
5.5082764
20
29.7799898
11
5.5082764
21
28.4644
0
LINE
8
DEFAULT_255_1_388
10
5.5082764
20
28.4644
11
5.3338885
21
28.4644
0
LINE
8
DEFAULT_255_1_388
10
5.3338885
20
28.4644
11
4.6715757
21
29.4781993
0
LINE
8
DEFAULT_255_1_388
10
4.6715757
20
29.4781993
11
4.6715757
21
28.4644
0
LINE
8
DEFAULT_255_1_388
10
4.6715757
20
28.4644
11
4.4971878
21
28.4644
0
LINE
8
DEFAULT_255_1_388
10
4.4971878
20
28.4644
11
4.4971878
21
29.7799898
0
LINE
8
DEFAULT_255_1_388
10
4.4971878
20
29.7799898
11
4.6715757
21
29.7799898
0
LINE
8
DEFAULT_255_1_388
10
4.6715757
20
29.7799898
11
5.3356956
21
28.7616727
0
LINE
8
DEFAULT_255_1_388
10
5.3356956
20
28.7616727
11
5.3356956
21
29.7799898
0
LINE
8
DEFAULT_255_1_388
10
5.3356956
20
29.7799898
11
5.5082764
21
29.7799898
0
LINE
8
DEFAULT_255_1_388
10
6.322388
20
29.7863148
11
6.322388
21
28.4644
0
LINE
8
DEFAULT_255_1_388
10
6.322388
20
28.4644
11
6.154325
21
28.4644
0
LINE
8
DEFAULT_255_1_388
10
6.154325
20
28.4644
11
6.154325
21
29.578495
0
LINE
8
DEFAULT_255_1_388
10
6.154325
20
29.578495
11
5.8172955
21
29.4547066
0
LINE
8
DEFAULT_255_1_388
10
5.8172955
20
29.4547066
11
5.8172955
21
29.6065055
0
LINE
8
DEFAULT_255_1_388
10
5.8172955
20
29.6065055
11
6.2961846
21
29.7863148
0
LINE
8
DEFAULT_255_1_388
10
6.2961846
20
29.7863148
11
6.322388
21
29.7863148
0
LINE
8
DEFAULT_255_1_388
10
7.3081768
20
29.5540987
11
7.3081768
21
29.1700838
0
LINE
8
DEFAULT_255_1_388
10
7.3081768
20
29.1700838
11
7.675024
21
29.1700838
0
LINE
8
DEFAULT_255_1_388
10
7.675024
20
29.1700838
11
7.675024
21
29.0119601
0
LINE
8
DEFAULT_255_1_388
10
7.675024
20
29.0119601
11
7.3081768
21
29.0119601
0
LINE
8
DEFAULT_255_1_388
10
7.3081768
20
29.0119601
11
7.3081768
21
28.5963204
0
LINE
8
DEFAULT_255_1_388
10
7.3081768
20
28.5963204
11
7.1401138
21
28.5963204
0
LINE
8
DEFAULT_255_1_388
10
7.1401138
20
28.5963204
11
7.1401138
21
29.0119601
0
LINE
8
DEFAULT_255_1_388
10
7.1401138
20
29.0119601
11
6.7732667
21
29.0119601
0
LINE
8
DEFAULT_255_1_388
10
6.7732667
20
29.0119601
11
6.7732667
21
29.1700838
0
LINE
8
DEFAULT_255_1_388
10
6.7732667
20
29.1700838
11
7.1401138
21
29.1700838
0
LINE
8
DEFAULT_255_1_388
10
7.1401138
20
29.1700838
11
7.1401138
21
29.5540987
0
LINE
8
DEFAULT_255_1_388
10
7.1401138
20
29.5540987
11
7.3081768
21
29.5540987
0
LINE
8
DEFAULT_255_1_388
10
4.3170367
20
37.7174898
11
4.3170367
21
36.4019
0
LINE
8
DEFAULT_255_1_388
10
4.3170367
20
36.4019
11
4.1435523
21
36.4019
0
LINE
8
DEFAULT_255_1_388
10
4.1435523
20
36.4019
11
4.1435523
21
37.7174898
0
LINE
8
DEFAULT_255_1_388
10
4.1435523
20
37.7174898
11
4.3170367
21
37.7174898
0
LINE
8
DEFAULT_255_1_388
10
5.6452764
20
37.7174898
11
5.6452764
21
36.4019
0
LINE
8
DEFAULT_255_1_388
10
5.6452764
20
36.4019
11
5.4708885
21
36.4019
0
LINE
8
DEFAULT_255_1_388
10
5.4708885
20
36.4019
11
4.8085757
21
37.4156993
0
LINE
8
DEFAULT_255_1_388
10
4.8085757
20
37.4156993
11
4.8085757
21
36.4019
0
LINE
8
DEFAULT_255_1_388
10
4.8085757
20
36.4019
11
4.6341878
21
36.4019
0
LINE
8
DEFAULT_255_1_388
10
4.6341878
20
36.4019
11
4.6341878
21
37.7174898
0
LINE
8
DEFAULT_255_1_388
10
4.6341878
20
37.7174898
11
4.8085757
21
37.7174898
0
LINE
8
DEFAULT_255_1_388
10
4.8085757
20
37.7174898
11
5.4726956
21
36.6991727
0
LINE
8
DEFAULT_255_1_388
10
5.4726956
20
36.6991727
11
5.4726956
21
37.7174898
0
LINE
8
DEFAULT_255_1_388
10
5.4726956
20
37.7174898
11
5.6452764
21
37.7174898
0
LINE
8
DEFAULT_255_1_388
10
6.2750608
20
37.0289737
11
6.2750608
21
36.8925355
0
LINE
8
DEFAULT_255_1_388
10
6.2750608
20
36.8925355
11
5.8341214
21
36.8925355
0
LINE
8
DEFAULT_255_1_388
10
5.8341214
20
36.8925355
11
5.8341214
21
37.0289737
0
LINE
8
DEFAULT_255_1_388
10
5.8341214
20
37.0289737
11
6.2750608
21
37.0289737
0
LINE
8
DEFAULT_255_1_388
10
23.1198856
20
45.117369
11
23.1198856
21
44.9005135
0
LINE
8
DEFAULT_255_1_388
10
22.2895099
20
44.8779244
11
22.2895099
21
45.1011048
0
LINE
8
DEFAULT_255_1_388
10
22.9527262
20
44.8553353
11
22.9527262
21
45.1291153
0
LINE
8
DEFAULT_255_1_388
10
22.4566693
20
45.1417652
11
22.4566693
21
44.8743102
0
ARC
8
DEFAULT_255_1_388
10
21.742119
20
44.8950118
40
1.3777776
50
353.8440855
51
0.2287917
0
ARC
8
DEFAULT_255_1_388
10
22.2640208
20
44.8367414
40
0.852639
50
344.4934746
51
353.9763743
0
ARC
8
DEFAULT_255_1_388
10
22.6007015
20
44.7410191
40
0.5026273
50
329.2803599
51
344.7473406
0
ARC
8
DEFAULT_255_1_388
10
22.7122511
20
44.6798038
40
0.3754848
50
324.9361395
51
328.6153007
0
ARC
8
DEFAULT_255_1_388
10
22.7548161
20
44.6500586
40
0.3235566
50
280.5801797
51
324.9173226
0
ARC
8
DEFAULT_255_1_388
10
22.7096789
20
44.8380236
40
0.5167077
50
269.5979457
51
281.6732777
0
ARC
8
DEFAULT_255_1_388
10
22.7015693
20
44.8245113
40
0.5032026
50
256.6228565
51
270.5105488
0
ARC
8
DEFAULT_255_1_388
10
22.6563435
20
44.6503345
40
0.3233092
50
215.8618351
51
257.2787793
0
ARC
8
DEFAULT_255_1_388
10
22.7712142
20
44.7274106
40
0.4615831
50
197.9695203
51
215.2622745
0
ARC
8
DEFAULT_255_1_388
10
23.0507818
20
44.8217641
40
0.7566307
50
187.8816486
51
198.2346584
0
ARC
8
DEFAULT_255_1_388
10
23.4961056
20
44.8860453
40
1.2065653
50
180.8977266
51
188.0054894
0
ARC
8
DEFAULT_255_1_388
10
23.801127
20
44.89754
40
1.5117443
50
180.7434591
51
181.152202
0
ARC
8
DEFAULT_255_1_388
10
23.6336266
20
45.1065371
40
1.3441277
50
173.7674302
51
180.2315596
0
ARC
8
DEFAULT_255_1_388
10
23.1254135
20
45.1639779
40
0.8326847
50
164.3058537
51
173.9000553
0
ARC
8
DEFAULT_255_1_388
10
22.7978135
20
45.2583652
40
0.4917711
50
148.7922028
51
164.5682288
0
ARC
8
DEFAULT_255_1_388
10
22.6908872
20
45.3180457
40
0.3694204
50
144.5883979
51
148.1161588
0
ARC
8
DEFAULT_255_1_388
10
22.6521618
20
45.3450667
40
0.322202
50
101.6440149
51
144.5142619
0
ARC
8
DEFAULT_255_1_388
10
22.699981
20
45.1550337
40
0.5180451
50
89.528284
51
102.5820197
0
ARC
8
DEFAULT_255_1_388
10
22.7088802
20
45.1506376
40
0.5224441
50
77.0437914
51
90.508231
0
ARC
8
DEFAULT_255_1_388
10
22.7541055
20
45.3354272
40
0.3322297
50
48.2777708
51
77.4996087
0
ARC
8
DEFAULT_255_1_388
10
22.7622795
20
45.3499557
40
0.315966
50
36.3141586
51
47.6307332
0
ARC
8
DEFAULT_255_1_388
10
22.6645518
20
45.2841159
40
0.4337313
50
18.2931065
51
35.6770203
0
ARC
8
DEFAULT_255_1_388
10
22.3784358
20
45.1859107
40
0.7362203
50
8.0246996
51
18.5605636
0
ARC
8
DEFAULT_255_1_388
10
21.9100714
20
45.1167432
40
1.2096583
50
1.127539
51
8.1718423
0
ARC
8
DEFAULT_255_1_388
10
21.5451847
20
45.1024374
40
1.5747719
50
0.5432713
51
1.38669
0
ARC
8
DEFAULT_255_1_388
10
21.7509226
20
45.1331163
40
1.2018103
50
359.8092569
51
4.9408001
0
ARC
8
DEFAULT_255_1_388
10
22.2245807
20
45.17539
40
0.7262727
50
4.8364937
51
12.2906017
0
ARC
8
DEFAULT_255_1_388
10
22.5345272
20
45.2444485
40
0.4087324
50
12.0806994
51
23.8171225
0
ARC
8
DEFAULT_255_1_388
10
22.6665668
20
45.3003508
40
0.2653719
50
24.2874621
51
31.3934353
0
ARC
8
DEFAULT_255_1_388
10
22.7256104
20
45.3389822
40
0.1948607
50
30.7407708
51
82.4658033
0
ARC
8
DEFAULT_255_1_388
10
22.7053765
20
45.2396017
40
0.2961198
50
81.1057101
51
90.2187368
0
ARC
8
DEFAULT_255_1_388
10
22.7013577
20
45.2686421
40
0.2670929
50
89.380395
51
105.6763916
0
ARC
8
DEFAULT_255_1_388
10
22.6807299
20
45.343632
40
0.1893189
50
105.7980655
51
149.7387869
0
ARC
8
DEFAULT_255_1_388
10
22.8004439
20
45.2716719
40
0.3289892
50
149.4208441
51
163.628295
0
ARC
8
DEFAULT_255_1_388
10
23.0356668
20
45.1999345
40
0.5749004
50
163.3764549
51
172.141138
0
ARC
8
DEFAULT_255_1_388
10
23.406939
20
45.1467582
40
0.9499585
50
172.0258462
51
178.0705453
0
ARC
8
DEFAULT_255_1_388
10
23.7490943
20
45.1305682
40
1.2924734
50
177.8639301
51
179.5036263
0
ARC
8
DEFAULT_255_1_388
10
23.6271961
20
44.8702151
40
1.170534
50
179.7995545
51
185.246089
0
ARC
8
DEFAULT_255_1_388
10
23.1723554
20
44.8271404
40
0.7136613
50
185.1411911
51
193.0082205
0
ARC
8
DEFAULT_255_1_388
10
22.8749815
20
44.7568441
40
0.4080987
50
192.7897338
51
205.2507384
0
ARC
8
DEFAULT_255_1_388
10
22.7572025
20
44.7042538
40
0.2791522
50
205.8001921
51
211.2545876
0
ARC
8
DEFAULT_255_1_388
10
22.6983564
20
44.6648132
40
0.2084074
50
210.3789935
51
238.4007996
0
ARC
8
DEFAULT_255_1_388
10
22.696165
20
44.6700786
40
0.2117943
50
239.6521916
51
265.9793852
0
ARC
8
DEFAULT_255_1_388
10
22.7057499
20
44.7457358
40
0.2879689
50
265.1324455
51
270.0603288
0
ARC
8
DEFAULT_255_1_388
10
22.7089876
20
44.7092418
40
0.2514919
50
269.3314378
51
287.2180039
0
ARC
8
DEFAULT_255_1_388
10
22.7244958
20
44.6526291
40
0.1928357
50
287.7957942
51
329.0808983
0
ARC
8
DEFAULT_255_1_388
10
22.6167715
20
44.7198651
40
0.319808
50
328.6635261
51
343.3325043
0
ARC
8
DEFAULT_255_1_388
10
22.3723174
20
44.7960195
40
0.5758408
50
343.0498092
51
351.9392499
0
ARC
8
DEFAULT_255_1_388
10
21.9822496
20
44.8535205
40
0.9701202
50
351.8071632
51
357.7957897
0
ARC
8
DEFAULT_255_1_388
10
21.6187973
20
44.8723724
40
1.3340376
50
357.5870923
51
359.2682493
0
LINE
8
DEFAULT_255_1_388
10
23.4388439
20
45.6549898
11
23.8129196
21
44.5698089
0
LINE
8
DEFAULT_255_1_388
10
23.8129196
20
44.5698089
11
24.1888024
21
45.6549898
0
LINE
8
DEFAULT_255_1_388
10
24.1888024
20
45.6549898
11
24.3785509
21
45.6549898
0
LINE
8
DEFAULT_255_1_388
10
24.3785509
20
45.6549898
11
23.8906261
21
44.3394
0
LINE
8
DEFAULT_255_1_388
10
23.8906261
20
44.3394
11
23.7370202
21
44.3394
0
LINE
8
DEFAULT_255_1_388
10
23.7370202
20
44.3394
11
23.2499989
21
45.6549898
0
LINE
8
DEFAULT_255_1_388
10
23.2499989
20
45.6549898
11
23.4388439
21
45.6549898
0
LINE
8
DEFAULT_255_1_388
10
19.9681946
20
21.2253553
11
19.9681946
21
21.1422274
0
LINE
8
DEFAULT_255_1_388
10
18.9101206
20
21.1304811
11
18.9101206
21
21.2253553
0
LINE
8
DEFAULT_255_1_388
10
19.7956138
20
21.1295775
11
19.7956138
21
21.2271625
0
LINE
8
DEFAULT_255_1_388
10
19.0827014
20
21.2389088
11
19.0827014
21
21.1422274
0
ARC
8
DEFAULT_255_1_388
10
18.9959684
20
21.1377726
40
0.9722364
50
350.4878118
51
0.2625322
0
ARC
8
DEFAULT_255_1_388
10
19.2539644
20
21.0933994
40
0.7104556
50
336.0277991
51
350.5787241
0
ARC
8
DEFAULT_255_1_388
10
19.4052751
20
21.0250243
40
0.544417
50
319.887443
51
336.1331163
0
ARC
8
DEFAULT_255_1_388
10
19.4730563
20
20.9707733
40
0.4576311
50
302.4806296
51
319.6144102
0
ARC
8
DEFAULT_255_1_388
10
19.4601184
20
20.9957067
40
0.4856183
50
275.8196423
51
302.1885521
0
ARC
8
DEFAULT_255_1_388
10
19.4414046
20
21.1242466
40
0.6154183
50
269.9169897
51
276.339506
0
ARC
8
DEFAULT_255_1_388
10
19.4363646
20
21.047068
40
0.5382553
50
252.5221437
51
270.441579
0
ARC
8
DEFAULT_255_1_388
10
19.4201897
20
20.9864046
40
0.4755426
50
237.5349961
51
252.1858334
0
ARC
8
DEFAULT_255_1_388
10
19.4302273
20
20.999212
40
0.4917393
50
209.0632754
51
237.3492577
0
ARC
8
DEFAULT_255_1_388
10
19.5281599
20
21.0607104
40
0.6072464
50
205.118533
51
209.6465345
0
ARC
8
DEFAULT_255_1_388
10
19.6177601
20
21.0987174
40
0.7045164
50
188.7216633
51
204.8239753
0
ARC
8
DEFAULT_255_1_388
10
19.8424376
20
21.1365387
40
0.9323368
50
180.3722704
51
188.9253909
0
ARC
8
DEFAULT_255_1_388
10
19.8393938
20
21.2298416
40
0.929284
50
169.5253055
51
180.2766048
0
ARC
8
DEFAULT_255_1_388
10
19.6253737
20
21.2692024
40
0.7116745
50
155.8314601
51
169.5088611
0
ARC
8
DEFAULT_255_1_388
10
19.48132
20
21.3360312
40
0.5528904
50
139.6259579
51
156.0379072
0
ARC
8
DEFAULT_255_1_388
10
19.4149733
20
21.3894143
40
0.4677708
50
122.6414784
51
139.3431662
0
ARC
8
DEFAULT_255_1_388
10
19.4262988
20
21.3687787
40
0.4912586
50
93.0224537
51
122.4556091
0
ARC
8
DEFAULT_255_1_388
10
19.4384509
20
21.2601776
40
0.6003837
50
89.9756766
51
93.6340839
0
ARC
8
DEFAULT_255_1_388
10
19.4428107
20
21.3050879
40
0.5554884
50
73.7463329
51
90.4234008
0
ARC
8
DEFAULT_255_1_388
10
19.462558
20
21.3815772
40
0.4765353
50
57.663051
51
73.4516911
0
ARC
8
DEFAULT_255_1_388
10
19.4616618
20
21.3840108
40
0.4749629
50
29.1441355
51
57.4146687
0
ARC
8
DEFAULT_255_1_388
10
19.3564429
20
21.3183046
40
0.5988917
50
24.0985653
51
29.732054
0
ARC
8
DEFAULT_255_1_388
10
19.2402061
20
21.2701154
40
0.7246823
50
8.6654943
51
23.8241215
0
ARC
8
DEFAULT_255_1_388
10
18.9888479
20
21.2291037
40
0.9793537
50
359.7807044
51
8.8218476
0
ARC
8
DEFAULT_255_1_388
10
18.8598184
20
21.2319731
40
0.9358078
50
359.7054632
51
8.0359751
0
ARC
8
DEFAULT_255_1_388
10
19.1973235
20
21.2811252
40
0.5947474
50
7.8926278
51
20.2962188
0
ARC
8
DEFAULT_255_1_388
10
19.3804085
20
21.3486367
40
0.3996117
50
20.3231056
51
36.4990255
0
ARC
8
DEFAULT_255_1_388
10
19.4575383
20
21.4080399
40
0.3022818
50
36.1436715
51
85.6627846
0
ARC
8
DEFAULT_255_1_388
10
19.4392638
20
21.2910881
40
0.4203853
50
84.3845912
51
90.076054
0
ARC
8
DEFAULT_255_1_388
10
19.4344993
20
21.3653416
40
0.346157
50
89.3037228
51
109.9046209
0
ARC
8
DEFAULT_255_1_388
10
19.4240826
20
21.4083379
40
0.3022217
50
110.8229774
51
143.917961
0
ARC
8
DEFAULT_255_1_388
10
19.5291185
20
21.3281455
40
0.434348
50
143.5289166
51
163.2980252
0
ARC
8
DEFAULT_255_1_388
10
19.7437472
20
21.2606685
40
0.659321
50
163.0418884
51
174.3139873
0
ARC
8
DEFAULT_255_1_388
10
20.0142437
20
21.2294378
40
0.9315905
50
174.050934
51
179.4174954
0
ARC
8
DEFAULT_255_1_388
10
19.9574381
20
21.1375382
40
0.8747493
50
179.6928582
51
188.7908948
0
ARC
8
DEFAULT_255_1_388
10
19.6578181
20
21.0896086
40
0.5713262
50
188.6328449
51
202.5630732
0
ARC
8
DEFAULT_255_1_388
10
19.5167018
20
21.0329142
40
0.4192612
50
202.8078931
51
216.1195888
0
ARC
8
DEFAULT_255_1_388
10
19.4256535
20
20.9596479
40
0.3025752
50
215.0755613
51
264.6379773
0
ARC
8
DEFAULT_255_1_388
10
19.4399372
20
21.0531376
40
0.3970284
50
263.8464302
51
270.0830805
0
ARC
8
DEFAULT_255_1_388
10
19.4445917
20
21.0240808
40
0.3679937
50
269.3649295
51
287.5149684
0
ARC
8
DEFAULT_255_1_388
10
19.4646358
20
20.9512714
40
0.2925408
50
288.0629019
51
323.8115617
0
ARC
8
DEFAULT_255_1_388
10
19.3666334
20
21.0243754
40
0.4148018
50
323.6546541
51
342.6591359
0
ARC
8
DEFAULT_255_1_388
10
19.1380992
20
21.098728
40
0.6551163
50
342.4092446
51
353.6451501
0
ARC
8
DEFAULT_255_1_388
10
18.8195785
20
21.1383565
40
0.9760748
50
353.4027553
51
359.4846611
0
LINE
8
DEFAULT_255_1_388
10
20.9801868
20
21.8424898
11
21.1545747
21
21.8424898
0
LINE
8
DEFAULT_255_1_388
10
21.1545747
20
21.8424898
11
21.1545747
21
20.947961
0
LINE
8
DEFAULT_255_1_388
10
20.7226709
20
20.5106358
11
20.6765891
21
20.5088287
0
LINE
8
DEFAULT_255_1_388
10
20.2022178
20
20.9461539
11
20.2022178
21
21.8424898
0
LINE
8
DEFAULT_255_1_388
10
20.2022178
20
21.8424898
11
20.373895
21
21.8424898
0
LINE
8
DEFAULT_255_1_388
10
20.373895
20
21.8424898
11
20.373895
21
20.9515753
0
LINE
8
DEFAULT_255_1_388
10
20.9801868
20
20.9506717
11
20.9801868
21
21.8424898
0
ARC
8
DEFAULT_255_1_388
10
20.6648546
20
20.945727
40
0.4897252
50
343.0897723
51
0.2613727
0
ARC
8
DEFAULT_255_1_388
10
20.7580517
20
20.919727
40
0.3930016
50
315.3344451
51
342.7642569
0
ARC
8
DEFAULT_255_1_388
10
20.7329012
20
20.9458085
40
0.4292244
50
284.6605441
51
315.2183439
0
ARC
8
DEFAULT_255_1_388
10
20.6816792
20
21.1197508
40
0.6104926
50
273.8500371
51
285.1796441
0
ARC
8
DEFAULT_255_1_388
10
20.6717857
20
21.1581762
40
0.6493653
50
257.6315393
51
270.4238259
0
ARC
8
DEFAULT_255_1_388
10
20.623994
20
20.9532915
40
0.4390079
50
230.6086859
51
257.9965362
0
ARC
8
DEFAULT_255_1_388
10
20.6093998
20
20.9303643
40
0.4120404
50
227.745033
51
230.1538266
0
ARC
8
DEFAULT_255_1_388
10
20.5940528
20
20.9119253
40
0.3880742
50
189.2524335
51
227.5915299
0
ARC
8
DEFAULT_255_1_388
10
20.7652399
20
20.9487735
40
0.5630282
50
180.2665782
51
190.1525221
0
ARC
8
DEFAULT_255_1_388
10
20.7902127
20
20.9484254
40
0.4163296
50
179.566507
51
191.9954402
0
ARC
8
DEFAULT_255_1_388
10
20.6520816
20
20.9176151
40
0.274815
50
191.6974619
51
215.1403758
0
ARC
8
DEFAULT_255_1_388
10
20.6253208
20
20.9016689
40
0.2437647
50
215.6958251
51
224.8509274
0
ARC
8
DEFAULT_255_1_388
10
20.6315684
20
20.9106016
40
0.2545012
50
225.2846515
51
255.0110023
0
ARC
8
DEFAULT_255_1_388
10
20.668013
20
21.0359017
40
0.384974
50
254.5945979
51
267.9129427
0
ARC
8
DEFAULT_255_1_388
10
20.6763823
20
21.1576444
40
0.506956
50
267.4687563
51
270.0233681
0
ARC
8
DEFAULT_255_1_388
10
20.6797819
20
21.0916288
40
0.440952
50
269.5851384
51
281.1845308
0
ARC
8
DEFAULT_255_1_388
10
20.7111423
20
20.9394469
40
0.2855802
50
280.9345159
51
300.9740496
0
ARC
8
DEFAULT_255_1_388
10
20.7350603
20
20.8954128
40
0.2355257
50
301.4982546
51
315.1468616
0
ARC
8
DEFAULT_255_1_388
10
20.7188099
20
20.9087488
40
0.2564594
50
315.5952932
51
345.6679188
0
ARC
8
DEFAULT_255_1_388
10
20.5928656
20
20.9438235
40
0.3871766
50
345.2525685
51
358.6303941
0
ARC
8
DEFAULT_255_1_388
10
20.4785047
20
20.9505695
40
0.5016822
50
358.1723541
51
0.0116795
0
LINE
8
DEFAULT_255_1_388
10
22.3373406
20
21.8424898
11
22.3373406
21
21.6997267
0
LINE
8
DEFAULT_255_1_388
10
22.3373406
20
21.6997267
11
21.9144724
21
21.6997267
0
LINE
8
DEFAULT_255_1_388
10
21.9144724
20
21.6997267
11
21.9144724
21
20.5269
0
LINE
8
DEFAULT_255_1_388
10
21.9144724
20
20.5269
11
21.7418916
21
20.5269
0
LINE
8
DEFAULT_255_1_388
10
21.7418916
20
20.5269
11
21.7418916
21
21.6997267
0
LINE
8
DEFAULT_255_1_388
10
21.7418916
20
21.6997267
11
21.319927
21
21.6997267
0
LINE
8
DEFAULT_255_1_388
10
21.319927
20
21.6997267
11
21.319927
21
21.8424898
0
LINE
8
DEFAULT_255_1_388
10
21.319927
20
21.8424898
11
22.3373406
21
21.8424898
0
LINE
8
DEFAULT_255_1_388
10
23.3511399
20
20.6633382
11
23.3511399
21
20.5269
0
LINE
8
DEFAULT_255_1_388
10
23.3511399
20
20.5269
11
22.4891394
21
20.5269
0
LINE
8
DEFAULT_255_1_388
10
22.4891394
20
20.5269
11
22.4891394
21
20.6470741
0
LINE
8
DEFAULT_255_1_388
10
22.4891394
20
20.6470741
11
22.9445359
21
21.1530702
0
LINE
8
DEFAULT_255_1_388
10
22.630999
20
21.4548607
11
22.4638396
21
21.4548607
0
LINE
8
DEFAULT_255_1_388
10
23.0430244
20
21.045546
11
22.6906343
21
20.6633382
0
LINE
8
DEFAULT_255_1_388
10
22.6906343
20
20.6633382
11
23.3511399
21
20.6633382
0
ARC
8
DEFAULT_255_1_388
10
21.4269418
20
22.4950983
40
2.0258655
50
318.5132526
51
320.7829045
0
ARC
8
DEFAULT_255_1_388
10
22.0217375
20
22.0109929
40
1.2589638
50
320.7372878
51
323.9739031
0
ARC
8
DEFAULT_255_1_388
10
22.4626307
20
21.6915554
40
0.7145141
50
323.8962701
51
328.64194
0
ARC
8
DEFAULT_255_1_388
10
22.6928565
20
21.5495545
40
0.4440242
50
328.8294576
51
331.7891185
0
ARC
8
DEFAULT_255_1_388
10
22.8050885
20
21.4916374
40
0.3177517
50
331.4254512
51
352.9365785
0
ARC
8
DEFAULT_255_1_388
10
22.8203885
20
21.488205
40
0.3021496
50
353.2257659
51
0.0166158
0
ARC
8
DEFAULT_255_1_388
10
22.8440645
20
21.4907894
40
0.2784847
50
359.486299
51
15.9343185
0
ARC
8
DEFAULT_255_1_388
10
22.9010912
20
21.5061269
40
0.2194403
50
16.1712913
51
43.5286088
0
ARC
8
DEFAULT_255_1_388
10
22.9097857
20
21.5148191
40
0.2071504
50
43.4417391
51
83.1661095
0
ARC
8
DEFAULT_255_1_388
10
22.8947018
20
21.4319316
40
0.2912888
50
82.160179
51
90.1505708
0
ARC
8
DEFAULT_255_1_388
10
22.8911499
20
21.3715279
40
0.3517025
50
89.5460741
51
102.5418361
0
ARC
8
DEFAULT_255_1_388
10
22.8638219
20
21.4874933
40
0.2325748
50
102.1738499
51
129.206123
0
ARC
8
DEFAULT_255_1_388
10
22.8549673
20
21.5014664
40
0.2161591
50
129.72865
51
135.753947
0
ARC
8
DEFAULT_255_1_388
10
22.8686155
20
21.4905728
40
0.2335433
50
136.1757367
51
166.3673339
0
ARC
8
DEFAULT_255_1_388
10
22.9818843
20
21.4602148
40
0.3507873
50
165.9090694
51
178.8684636
0
ARC
8
DEFAULT_255_1_388
10
23.0794615
20
21.4549263
40
0.4484624
50
178.4391136
51
180.0083808
0
ARC
8
DEFAULT_255_1_388
10
22.9215316
20
21.4593197
40
0.4577138
50
163.2878482
51
180.5581842
0
ARC
8
DEFAULT_255_1_388
10
22.8313357
20
21.4841393
40
0.3641968
50
133.4540601
51
162.947111
0
ARC
8
DEFAULT_255_1_388
10
22.8514239
20
21.4627789
40
0.3935189
50
100.7869829
51
133.4382499
0
ARC
8
DEFAULT_255_1_388
10
22.8905484
20
21.2885399
40
0.5720313
50
89.660664
51
101.3702276
0
ARC
8
DEFAULT_255_1_388
10
22.8980093
20
21.2954263
40
0.5651495
50
78.2172678
51
90.412935
0
ARC
8
DEFAULT_255_1_388
10
22.9379559
20
21.4781511
40
0.378122
50
55.9269121
51
78.4888449
0
ARC
8
DEFAULT_255_1_388
10
22.9600274
20
21.5162187
40
0.3342379
50
47.929771
51
55.4049217
0
ARC
8
DEFAULT_255_1_388
10
22.9714804
20
21.5278618
40
0.3179217
50
4.334829
51
48.0560205
0
ARC
8
DEFAULT_255_1_388
10
22.8482606
20
21.5087487
40
0.442341
50
359.9251713
51
5.5971671
0
ARC
8
DEFAULT_255_1_388
10
22.8964761
20
21.5150728
40
0.3941854
50
337.8914027
51
358.9967534
0
ARC
8
DEFAULT_255_1_388
10
22.5912331
20
21.6328295
40
0.7213271
50
326.9132501
51
338.3508308
0
ARC
8
DEFAULT_255_1_388
10
22.1428443
20
21.9202105
40
1.2538973
50
319.6471833
51
327.0959558
0
ARC
8
DEFAULT_255_1_388
10
21.7115101
20
22.276005
40
1.8129975
50
317.2588228
51
319.9045804
0
LINE
8
DEFAULT_255_1_388
10
24.0242954
20
21.6165987
11
24.0242954
21
21.2325838
0
LINE
8
DEFAULT_255_1_388
10
24.0242954
20
21.2325838
11
24.3911426
21
21.2325838
0
LINE
8
DEFAULT_255_1_388
10
24.3911426
20
21.2325838
11
24.3911426
21
21.0744601
0
LINE
8
DEFAULT_255_1_388
10
24.3911426
20
21.0744601
11
24.0242954
21
21.0744601
0
LINE
8
DEFAULT_255_1_388
10
24.0242954
20
21.0744601
11
24.0242954
21
20.6588204
0
LINE
8
DEFAULT_255_1_388
10
24.0242954
20
20.6588204
11
23.8562324
21
20.6588204
0
LINE
8
DEFAULT_255_1_388
10
23.8562324
20
20.6588204
11
23.8562324
21
21.0744601
0
LINE
8
DEFAULT_255_1_388
10
23.8562324
20
21.0744601
11
23.4893853
21
21.0744601
0
LINE
8
DEFAULT_255_1_388
10
23.4893853
20
21.0744601
11
23.4893853
21
21.2325838
0
LINE
8
DEFAULT_255_1_388
10
23.4893853
20
21.2325838
11
23.8562324
21
21.2325838
0
LINE
8
DEFAULT_255_1_388
10
23.8562324
20
21.2325838
11
23.8562324
21
21.6165987
0
LINE
8
DEFAULT_255_1_388
10
23.8562324
20
21.6165987
11
24.0242954
21
21.6165987
0
LINE
8
DEFAULT_255_1_388
10
19.9681946
20
29.1628553
11
19.9681946
21
29.0797274
0
LINE
8
DEFAULT_255_1_388
10
18.9101206
20
29.0679811
11
18.9101206
21
29.1628553
0
LINE
8
DEFAULT_255_1_388
10
19.7956138
20
29.0670775
11
19.7956138
21
29.1646625
0
LINE
8
DEFAULT_255_1_388
10
19.0827014
20
29.1764088
11
19.0827014
21
29.0797274
0
ARC
8
DEFAULT_255_1_388
10
18.9959684
20
29.0752726
40
0.9722364
50
350.4878118
51
0.2625322
0
ARC
8
DEFAULT_255_1_388
10
19.2539644
20
29.0308994
40
0.7104556
50
336.0277991
51
350.5787241
0
ARC
8
DEFAULT_255_1_388
10
19.4052751
20
28.9625243
40
0.544417
50
319.887443
51
336.1331163
0
ARC
8
DEFAULT_255_1_388
10
19.4730563
20
28.9082733
40
0.4576311
50
302.4806296
51
319.6144102
0
ARC
8
DEFAULT_255_1_388
10
19.4601184
20
28.9332067
40
0.4856183
50
275.8196423
51
302.1885521
0
ARC
8
DEFAULT_255_1_388
10
19.4414046
20
29.0617466
40
0.6154183
50
269.9169897
51
276.339506
0
ARC
8
DEFAULT_255_1_388
10
19.4363646
20
28.984568
40
0.5382553
50
252.5221437
51
270.441579
0
ARC
8
DEFAULT_255_1_388
10
19.4201897
20
28.9239046
40
0.4755426
50
237.5349961
51
252.1858334
0
ARC
8
DEFAULT_255_1_388
10
19.4302273
20
28.936712
40
0.4917393
50
209.0632754
51
237.3492577
0
ARC
8
DEFAULT_255_1_388
10
19.5281599
20
28.9982104
40
0.6072464
50
205.118533
51
209.6465345
0
ARC
8
DEFAULT_255_1_388
10
19.6177601
20
29.0362174
40
0.7045164
50
188.7216633
51
204.8239753
0
ARC
8
DEFAULT_255_1_388
10
19.8424376
20
29.0740387
40
0.9323368
50
180.3722704
51
188.9253909
0
ARC
8
DEFAULT_255_1_388
10
19.8393938
20
29.1673416
40
0.929284
50
169.5253055
51
180.2766048
0
ARC
8
DEFAULT_255_1_388
10
19.6253737
20
29.2067024
40
0.7116745
50
155.8314601
51
169.5088611
0
ARC
8
DEFAULT_255_1_388
10
19.48132
20
29.2735312
40
0.5528904
50
139.6259579
51
156.0379072
0
ARC
8
DEFAULT_255_1_388
10
19.4149733
20
29.3269143
40
0.4677708
50
122.6414784
51
139.3431662
0
ARC
8
DEFAULT_255_1_388
10
19.4262988
20
29.3062787
40
0.4912586
50
93.0224537
51
122.4556091
0
ARC
8
DEFAULT_255_1_388
10
19.4384509
20
29.1976776
40
0.6003837
50
89.9756766
51
93.6340839
0
ARC
8
DEFAULT_255_1_388
10
19.4428107
20
29.2425879
40
0.5554884
50
73.7463329
51
90.4234008
0
ARC
8
DEFAULT_255_1_388
10
19.462558
20
29.3190772
40
0.4765353
50
57.663051
51
73.4516911
0
ARC
8
DEFAULT_255_1_388
10
19.4616618
20
29.3215108
40
0.4749629
50
29.1441355
51
57.4146687
0
ARC
8
DEFAULT_255_1_388
10
19.3564429
20
29.2558046
40
0.5988917
50
24.0985653
51
29.732054
0
ARC
8
DEFAULT_255_1_388
10
19.2402061
20
29.2076154
40
0.7246823
50
8.6654943
51
23.8241215
0
ARC
8
DEFAULT_255_1_388
10
18.9888479
20
29.1666037
40
0.9793537
50
359.7807044
51
8.8218476
0
ARC
8
DEFAULT_255_1_388
10
18.8598184
20
29.1694731
40
0.9358078
50
359.7054632
51
8.0359751
0
ARC
8
DEFAULT_255_1_388
10
19.1973235
20
29.2186252
40
0.5947474
50
7.8926278
51
20.2962188
0
ARC
8
DEFAULT_255_1_388
10
19.3804085
20
29.2861367
40
0.3996117
50
20.3231056
51
36.4990255
0
ARC
8
DEFAULT_255_1_388
10
19.4575383
20
29.3455399
40
0.3022818
50
36.1436715
51
85.6627846
0
ARC
8
DEFAULT_255_1_388
10
19.4392638
20
29.2285881
40
0.4203853
50
84.3845912
51
90.076054
0
ARC
8
DEFAULT_255_1_388
10
19.4344993
20
29.3028416
40
0.346157
50
89.3037228
51
109.9046209
0
ARC
8
DEFAULT_255_1_388
10
19.4240826
20
29.3458379
40
0.3022217
50
110.8229774
51
143.917961
0
ARC
8
DEFAULT_255_1_388
10
19.5291185
20
29.2656455
40
0.434348
50
143.5289166
51
163.2980252
0
ARC
8
DEFAULT_255_1_388
10
19.7437472
20
29.1981685
40
0.659321
50
163.0418884
51
174.3139873
0
ARC
8
DEFAULT_255_1_388
10
20.0142437
20
29.1669378
40
0.9315905
50
174.050934
51
179.4174954
0
ARC
8
DEFAULT_255_1_388
10
19.9574381
20
29.0750382
40
0.8747493
50
179.6928582
51
188.7908948
0
ARC
8
DEFAULT_255_1_388
10
19.6578181
20
29.0271086
40
0.5713262
50
188.6328449
51
202.5630732
0
ARC
8
DEFAULT_255_1_388
10
19.5167018
20
28.9704142
40
0.4192612
50
202.8078931
51
216.1195888
0
ARC
8
DEFAULT_255_1_388
10
19.4256535
20
28.8971479
40
0.3025752
50
215.0755613
51
264.6379773
0
ARC
8
DEFAULT_255_1_388
10
19.4399372
20
28.9906376
40
0.3970284
50
263.8464302
51
270.0830805
0
ARC
8
DEFAULT_255_1_388
10
19.4445917
20
28.9615808
40
0.3679937
50
269.3649295
51
287.5149684
0
ARC
8
DEFAULT_255_1_388
10
19.4646358
20
28.8887714
40
0.2925408
50
288.0629019
51
323.8115617
0
ARC
8
DEFAULT_255_1_388
10
19.3666334
20
28.9618754
40
0.4148018
50
323.6546541
51
342.6591359
0
ARC
8
DEFAULT_255_1_388
10
19.1380992
20
29.036228
40
0.6551163
50
342.4092446
51
353.6451501
0
ARC
8
DEFAULT_255_1_388
10
18.8195785
20
29.0758565
40
0.9760748
50
353.4027553
51
359.4846611
0
LINE
8
DEFAULT_255_1_388
10
20.9801868
20
29.7799898
11
21.1545747
21
29.7799898
0
LINE
8
DEFAULT_255_1_388
10
21.1545747
20
29.7799898
11
21.1545747
21
28.885461
0
LINE
8
DEFAULT_255_1_388
10
20.7226709
20
28.4481358
11
20.6765891
21
28.4463287
0
LINE
8
DEFAULT_255_1_388
10
20.2022178
20
28.8836539
11
20.2022178
21
29.7799898
0
LINE
8
DEFAULT_255_1_388
10
20.2022178
20
29.7799898
11
20.373895
21
29.7799898
0
LINE
8
DEFAULT_255_1_388
10
20.373895
20
29.7799898
11
20.373895
21
28.8890753
0
LINE
8
DEFAULT_255_1_388
10
20.9801868
20
28.8881717
11
20.9801868
21
29.7799898
0
ARC
8
DEFAULT_255_1_388
10
20.6648546
20
28.883227
40
0.4897252
50
343.0897723
51
0.2613727
0
ARC
8
DEFAULT_255_1_388
10
20.7580517
20
28.857227
40
0.3930016
50
315.3344451
51
342.7642569
0
ARC
8
DEFAULT_255_1_388
10
20.7329012
20
28.8833085
40
0.4292244
50
284.6605441
51
315.2183439
0
ARC
8
DEFAULT_255_1_388
10
20.6816792
20
29.0572508
40
0.6104926
50
273.8500371
51
285.1796441
0
ARC
8
DEFAULT_255_1_388
10
20.6717857
20
29.0956762
40
0.6493653
50
257.6315393
51
270.4238259
0
ARC
8
DEFAULT_255_1_388
10
20.623994
20
28.8907915
40
0.4390079
50
230.6086859
51
257.9965362
0
ARC
8
DEFAULT_255_1_388
10
20.6093998
20
28.8678643
40
0.4120404
50
227.745033
51
230.1538266
0
ARC
8
DEFAULT_255_1_388
10
20.5940528
20
28.8494253
40
0.3880742
50
189.2524335
51
227.5915299
0
ARC
8
DEFAULT_255_1_388
10
20.7652399
20
28.8862735
40
0.5630282
50
180.2665782
51
190.1525221
0
ARC
8
DEFAULT_255_1_388
10
20.7902127
20
28.8859254
40
0.4163296
50
179.566507
51
191.9954402
0
ARC
8
DEFAULT_255_1_388
10
20.6520816
20
28.8551151
40
0.274815
50
191.6974619
51
215.1403758
0
ARC
8
DEFAULT_255_1_388
10
20.6253208
20
28.8391689
40
0.2437647
50
215.6958251
51
224.8509274
0
ARC
8
DEFAULT_255_1_388
10
20.6315684
20
28.8481016
40
0.2545012
50
225.2846515
51
255.0110023
0
ARC
8
DEFAULT_255_1_388
10
20.668013
20
28.9734017
40
0.384974
50
254.5945979
51
267.9129427
0
ARC
8
DEFAULT_255_1_388
10
20.6763823
20
29.0951444
40
0.506956
50
267.4687563
51
270.0233681
0
ARC
8
DEFAULT_255_1_388
10
20.6797819
20
29.0291288
40
0.440952
50
269.5851384
51
281.1845308
0
ARC
8
DEFAULT_255_1_388
10
20.7111423
20
28.8769469
40
0.2855802
50
280.9345159
51
300.9740496
0
ARC
8
DEFAULT_255_1_388
10
20.7350603
20
28.8329128
40
0.2355257
50
301.4982546
51
315.1468616
0
ARC
8
DEFAULT_255_1_388
10
20.7188099
20
28.8462488
40
0.2564594
50
315.5952932
51
345.6679188
0
ARC
8
DEFAULT_255_1_388
10
20.5928656
20
28.8813235
40
0.3871766
50
345.2525685
51
358.6303941
0
ARC
8
DEFAULT_255_1_388
10
20.4785047
20
28.8880695
40
0.5016822
50
358.1723541
51
0.0116795
0
LINE
8
DEFAULT_255_1_388
10
22.3373406
20
29.7799898
11
22.3373406
21
29.6372267
0
LINE
8
DEFAULT_255_1_388
10
22.3373406
20
29.6372267
11
21.9144724
21
29.6372267
0
LINE
8
DEFAULT_255_1_388
10
21.9144724
20
29.6372267
11
21.9144724
21
28.4644
0
LINE
8
DEFAULT_255_1_388
10
21.9144724
20
28.4644
11
21.7418916
21
28.4644
0
LINE
8
DEFAULT_255_1_388
10
21.7418916
20
28.4644
11
21.7418916
21
29.6372267
0
LINE
8
DEFAULT_255_1_388
10
21.7418916
20
29.6372267
11
21.319927
21
29.6372267
0
LINE
8
DEFAULT_255_1_388
10
21.319927
20
29.6372267
11
21.319927
21
29.7799898
0
LINE
8
DEFAULT_255_1_388
10
21.319927
20
29.7799898
11
22.3373406
21
29.7799898
0
LINE
8
DEFAULT_255_1_388
10
23.0385066
20
29.7863148
11
23.0385066
21
28.4644
0
LINE
8
DEFAULT_255_1_388
10
23.0385066
20
28.4644
11
22.8704436
21
28.4644
0
LINE
8
DEFAULT_255_1_388
10
22.8704436
20
28.4644
11
22.8704436
21
29.578495
0
LINE
8
DEFAULT_255_1_388
10
22.8704436
20
29.578495
11
22.5334141
21
29.4547066
0
LINE
8
DEFAULT_255_1_388
10
22.5334141
20
29.4547066
11
22.5334141
21
29.6065055
0
LINE
8
DEFAULT_255_1_388
10
22.5334141
20
29.6065055
11
23.0123032
21
29.7863148
0
LINE
8
DEFAULT_255_1_388
10
23.0123032
20
29.7863148
11
23.0385066
21
29.7863148
0
LINE
8
DEFAULT_255_1_388
10
24.0242954
20
29.5540987
11
24.0242954
21
29.1700838
0
LINE
8
DEFAULT_255_1_388
10
24.0242954
20
29.1700838
11
24.3911426
21
29.1700838
0
LINE
8
DEFAULT_255_1_388
10
24.3911426
20
29.1700838
11
24.3911426
21
29.0119601
0
LINE
8
DEFAULT_255_1_388
10
24.3911426
20
29.0119601
11
24.0242954
21
29.0119601
0
LINE
8
DEFAULT_255_1_388
10
24.0242954
20
29.0119601
11
24.0242954
21
28.5963204
0
LINE
8
DEFAULT_255_1_388
10
24.0242954
20
28.5963204
11
23.8562324
21
28.5963204
0
LINE
8
DEFAULT_255_1_388
10
23.8562324
20
28.5963204
11
23.8562324
21
29.0119601
0
LINE
8
DEFAULT_255_1_388
10
23.8562324
20
29.0119601
11
23.4893853
21
29.0119601
0
LINE
8
DEFAULT_255_1_388
10
23.4893853
20
29.0119601
11
23.4893853
21
29.1700838
0
LINE
8
DEFAULT_255_1_388
10
23.4893853
20
29.1700838
11
23.8562324
21
29.1700838
0
LINE
8
DEFAULT_255_1_388
10
23.8562324
20
29.1700838
11
23.8562324
21
29.5540987
0
LINE
8
DEFAULT_255_1_388
10
23.8562324
20
29.5540987
11
24.0242954
21
29.5540987
0
LINE
8
DEFAULT_255_1_388
10
21.6193946
20
37.1003553
11
21.6193946
21
37.0172274
0
LINE
8
DEFAULT_255_1_388
10
20.5613206
20
37.0054811
11
20.5613206
21
37.1003553
0
LINE
8
DEFAULT_255_1_388
10
21.4468138
20
37.0045775
11
21.4468138
21
37.1021625
0
LINE
8
DEFAULT_255_1_388
10
20.7339014
20
37.1139088
11
20.7339014
21
37.0172274
0
ARC
8
DEFAULT_255_1_388
10
20.6471684
20
37.0127726
40
0.9722364
50
350.4878118
51
0.2625322
0
ARC
8
DEFAULT_255_1_388
10
20.9051644
20
36.9683994
40
0.7104556
50
336.0277991
51
350.5787241
0
ARC
8
DEFAULT_255_1_388
10
21.0564751
20
36.9000243
40
0.544417
50
319.887443
51
336.1331163
0
ARC
8
DEFAULT_255_1_388
10
21.1242563
20
36.8457733
40
0.4576311
50
302.4806296
51
319.6144102
0
ARC
8
DEFAULT_255_1_388
10
21.1113184
20
36.8707067
40
0.4856183
50
275.8196423
51
302.1885521
0
ARC
8
DEFAULT_255_1_388
10
21.0926046
20
36.9992466
40
0.6154183
50
269.9169897
51
276.339506
0
ARC
8
DEFAULT_255_1_388
10
21.0875646
20
36.922068
40
0.5382553
50
252.5221437
51
270.441579
0
ARC
8
DEFAULT_255_1_388
10
21.0713897
20
36.8614046
40
0.4755426
50
237.5349961
51
252.1858334
0
ARC
8
DEFAULT_255_1_388
10
21.0814273
20
36.874212
40
0.4917393
50
209.0632754
51
237.3492577
0
ARC
8
DEFAULT_255_1_388
10
21.1793599
20
36.9357104
40
0.6072464
50
205.118533
51
209.6465345
0
ARC
8
DEFAULT_255_1_388
10
21.2689601
20
36.9737174
40
0.7045164
50
188.7216633
51
204.8239753
0
ARC
8
DEFAULT_255_1_388
10
21.4936376
20
37.0115387
40
0.9323368
50
180.3722704
51
188.9253909
0
ARC
8
DEFAULT_255_1_388
10
21.4905938
20
37.1048416
40
0.929284
50
169.5253055
51
180.2766048
0
ARC
8
DEFAULT_255_1_388
10
21.2765737
20
37.1442024
40
0.7116745
50
155.8314601
51
169.5088611
0
ARC
8
DEFAULT_255_1_388
10
21.13252
20
37.2110312
40
0.5528904
50
139.6259579
51
156.0379072
0
ARC
8
DEFAULT_255_1_388
10
21.0661733
20
37.2644143
40
0.4677708
50
122.6414784
51
139.3431662
0
ARC
8
DEFAULT_255_1_388
10
21.0774988
20
37.2437787
40
0.4912586
50
93.0224537
51
122.4556091
0
ARC
8
DEFAULT_255_1_388
10
21.0896509
20
37.1351776
40
0.6003837
50
89.9756766
51
93.6340839
0
ARC
8
DEFAULT_255_1_388
10
21.0940107
20
37.1800879
40
0.5554884
50
73.7463329
51
90.4234008
0
ARC
8
DEFAULT_255_1_388
10
21.113758
20
37.2565772
40
0.4765353
50
57.663051
51
73.4516911
0
ARC
8
DEFAULT_255_1_388
10
21.1128618
20
37.2590108
40
0.4749629
50
29.1441355
51
57.4146687
0
ARC
8
DEFAULT_255_1_388
10
21.0076429
20
37.1933046
40
0.5988917
50
24.0985653
51
29.732054
0
ARC
8
DEFAULT_255_1_388
10
20.8914061
20
37.1451154
40
0.7246823
50
8.6654943
51
23.8241215
0
ARC
8
DEFAULT_255_1_388
10
20.6400479
20
37.1041037
40
0.9793537
50
359.7807044
51
8.8218476
0
ARC
8
DEFAULT_255_1_388
10
20.5110184
20
37.1069731
40
0.9358078
50
359.7054632
51
8.0359751
0
ARC
8
DEFAULT_255_1_388
10
20.8485235
20
37.1561252
40
0.5947474
50
7.8926278
51
20.2962188
0
ARC
8
DEFAULT_255_1_388
10
21.0316085
20
37.2236367
40
0.3996117
50
20.3231056
51
36.4990255
0
ARC
8
DEFAULT_255_1_388
10
21.1087383
20
37.2830399
40
0.3022818
50
36.1436715
51
85.6627846
0
ARC
8
DEFAULT_255_1_388
10
21.0904638
20
37.1660881
40
0.4203853
50
84.3845912
51
90.076054
0
ARC
8
DEFAULT_255_1_388
10
21.0856993
20
37.2403416
40
0.346157
50
89.3037228
51
109.9046209
0
ARC
8
DEFAULT_255_1_388
10
21.0752826
20
37.2833379
40
0.3022217
50
110.8229774
51
143.917961
0
ARC
8
DEFAULT_255_1_388
10
21.1803185
20
37.2031455
40
0.434348
50
143.5289166
51
163.2980252
0
ARC
8
DEFAULT_255_1_388
10
21.3949472
20
37.1356685
40
0.659321
50
163.0418884
51
174.3139873
0
ARC
8
DEFAULT_255_1_388
10
21.6654437
20
37.1044378
40
0.9315905
50
174.050934
51
179.4174954
0
ARC
8
DEFAULT_255_1_388
10
21.6086381
20
37.0125382
40
0.8747493
50
179.6928582
51
188.7908948
0
ARC
8
DEFAULT_255_1_388
10
21.3090181
20
36.9646086
40
0.5713262
50
188.6328449
51
202.5630732
0
ARC
8
DEFAULT_255_1_388
10
21.1679018
20
36.9079142
40
0.4192612
50
202.8078931
51
216.1195888
0
ARC
8
DEFAULT_255_1_388
10
21.0768535
20
36.8346479
40
0.3025752
50
215.0755613
51
264.6379773
0
ARC
8
DEFAULT_255_1_388
10
21.0911372
20
36.9281376
40
0.3970284
50
263.8464302
51
270.0830805
0
ARC
8
DEFAULT_255_1_388
10
21.0957917
20
36.8990808
40
0.3679937
50
269.3649295
51
287.5149684
0
ARC
8
DEFAULT_255_1_388
10
21.1158358
20
36.8262714
40
0.2925408
50
288.0629019
51
323.8115617
0
ARC
8
DEFAULT_255_1_388
10
21.0178334
20
36.8993754
40
0.4148018
50
323.6546541
51
342.6591359
0
ARC
8
DEFAULT_255_1_388
10
20.7892992
20
36.973728
40
0.6551163
50
342.4092446
51
353.6451501
0
ARC
8
DEFAULT_255_1_388
10
20.4707785
20
37.0133565
40
0.9760748
50
353.4027553
51
359.4846611
0
LINE
8
DEFAULT_255_1_388
10
22.6313868
20
37.7174898
11
22.8057747
21
37.7174898
0
LINE
8
DEFAULT_255_1_388
10
22.8057747
20
37.7174898
11
22.8057747
21
36.822961
0
LINE
8
DEFAULT_255_1_388
10
22.3738709
20
36.3856358
11
22.3277891
21
36.3838287
0
LINE
8
DEFAULT_255_1_388
10
21.8534178
20
36.8211539
11
21.8534178
21
37.7174898
0
LINE
8
DEFAULT_255_1_388
10
21.8534178
20
37.7174898
11
22.025095
21
37.7174898
0
LINE
8
DEFAULT_255_1_388
10
22.025095
20
37.7174898
11
22.025095
21
36.8265753
0
LINE
8
DEFAULT_255_1_388
10
22.6313868
20
36.8256717
11
22.6313868
21
37.7174898
0
ARC
8
DEFAULT_255_1_388
10
22.3160546
20
36.820727
40
0.4897252
50
343.0897723
51
0.2613727
0
ARC
8
DEFAULT_255_1_388
10
22.4092517
20
36.794727
40
0.3930016
50
315.3344451
51
342.7642569
0
ARC
8
DEFAULT_255_1_388
10
22.3841012
20
36.8208085
40
0.4292244
50
284.6605441
51
315.2183439
0
ARC
8
DEFAULT_255_1_388
10
22.3328792
20
36.9947508
40
0.6104926
50
273.8500371
51
285.1796441
0
ARC
8
DEFAULT_255_1_388
10
22.3229857
20
37.0331762
40
0.6493653
50
257.6315393
51
270.4238259
0
ARC
8
DEFAULT_255_1_388
10
22.275194
20
36.8282915
40
0.4390079
50
230.6086859
51
257.9965362
0
ARC
8
DEFAULT_255_1_388
10
22.2605998
20
36.8053643
40
0.4120404
50
227.745033
51
230.1538266
0
ARC
8
DEFAULT_255_1_388
10
22.2452528
20
36.7869253
40
0.3880742
50
189.2524335
51
227.5915299
0
ARC
8
DEFAULT_255_1_388
10
22.4164399
20
36.8237735
40
0.5630282
50
180.2665782
51
190.1525221
0
ARC
8
DEFAULT_255_1_388
10
22.4414127
20
36.8234254
40
0.4163296
50
179.566507
51
191.9954402
0
ARC
8
DEFAULT_255_1_388
10
22.3032816
20
36.7926151
40
0.274815
50
191.6974619
51
215.1403758
0
ARC
8
DEFAULT_255_1_388
10
22.2765208
20
36.7766689
40
0.2437647
50
215.6958251
51
224.8509274
0
ARC
8
DEFAULT_255_1_388
10
22.2827684
20
36.7856016
40
0.2545012
50
225.2846515
51
255.0110023
0
ARC
8
DEFAULT_255_1_388
10
22.319213
20
36.9109017
40
0.384974
50
254.5945979
51
267.9129427
0
ARC
8
DEFAULT_255_1_388
10
22.3275823
20
37.0326444
40
0.506956
50
267.4687563
51
270.0233681
0
ARC
8
DEFAULT_255_1_388
10
22.3309819
20
36.9666288
40
0.440952
50
269.5851384
51
281.1845308
0
ARC
8
DEFAULT_255_1_388
10
22.3623423
20
36.8144469
40
0.2855802
50
280.9345159
51
300.9740496
0
ARC
8
DEFAULT_255_1_388
10
22.3862603
20
36.7704128
40
0.2355257
50
301.4982546
51
315.1468616
0
ARC
8
DEFAULT_255_1_388
10
22.3700099
20
36.7837488
40
0.2564594
50
315.5952932
51
345.6679188
0
ARC
8
DEFAULT_255_1_388
10
22.2440656
20
36.8188235
40
0.3871766
50
345.2525685
51
358.6303941
0
ARC
8
DEFAULT_255_1_388
10
22.1297047
20
36.8255695
40
0.5016822
50
358.1723541
51
0.0116795
0
LINE
8
DEFAULT_255_1_388
10
23.9885406
20
37.7174898
11
23.9885406
21
37.5747267
0
LINE
8
DEFAULT_255_1_388
10
23.9885406
20
37.5747267
11
23.5656724
21
37.5747267
0
LINE
8
DEFAULT_255_1_388
10
23.5656724
20
37.5747267
11
23.5656724
21
36.4019
0
LINE
8
DEFAULT_255_1_388
10
23.5656724
20
36.4019
11
23.3930916
21
36.4019
0
LINE
8
DEFAULT_255_1_388
10
23.3930916
20
36.4019
11
23.3930916
21
37.5747267
0
LINE
8
DEFAULT_255_1_388
10
23.3930916
20
37.5747267
11
22.971127
21
37.5747267
0
LINE
8
DEFAULT_255_1_388
10
22.971127
20
37.5747267
11
22.971127
21
37.7174898
0
LINE
8
DEFAULT_255_1_388
10
22.971127
20
37.7174898
11
23.9885406
21
37.7174898
0
LINE
8
DEFAULT_255_1_388
10
24.2957525
20
37.0289737
11
24.2957525
21
36.8925355
0
LINE
8
DEFAULT_255_1_388
10
24.2957525
20
36.8925355
11
23.854813
21
36.8925355
0
LINE
8
DEFAULT_255_1_388
10
23.854813
20
36.8925355
11
23.854813
21
37.0289737
0
LINE
8
DEFAULT_255_1_388
10
23.854813
20
37.0289737
11
24.2957525
21
37.0289737
0
ENDSEC
0
EOF