0
SECTION
2
HEADER
9
$MEASUREMENT
70
1
0
ENDSEC
0
SECTION
2
TABLES
0
TABLE
2
LTYPE
0
LTYPE
72
65
70
64
2
CONTINUOUS
3
______
73
0
40
0
0
ENDTAB
0
TABLE
2
LAYER
0
LAYER
2
DEFAULT_255_2_778
70
0
62
255
6
CONTINUOUS
0
LAYER
2
DEFAULT_255_1_234
70
0
62
255
6
CONTINUOUS
0
LAYER
2
DEFAULT_255_2_778_1
70
0
62
255
6
CONTINUOUS
0
ENDTAB
0
ENDSEC
0
SECTION
2
ENTITIES
0
ARC
8
DEFAULT_255_2_778
10
3.5700693
20
44.0552035
40
0.7914215
50
129.1312896
51
180.1450914
0
ARC
8
DEFAULT_255_2_778
10
3.5703345
20
44.0556906
40
0.7912112
50
89.854026
51
129.1684493
0
ARC
8
DEFAULT_255_2_778
10
25.7993937
20
44.0553771
40
0.7915249
50
39.4792447
51
90.147911
0
ARC
8
DEFAULT_255_2_778
10
25.7999935
20
44.0552238
40
0.7911595
50
359.8533901
51
39.5154338
0
ARC
8
DEFAULT_255_2_778
10
25.7996693
20
-1.9863488
40
0.7914836
50
309.4761667
51
0.1482649
0
ARC
8
DEFAULT_255_2_778
10
25.799398
20
-1.9867799
40
0.7913235
50
269.8517415
51
309.511178
0
ARC
8
DEFAULT_255_2_778
10
3.570342
20
-1.9867217
40
0.7913815
50
219.1282118
51
270.1454017
0
ARC
8
DEFAULT_255_2_778
10
3.5700247
20
-1.9863392
40
0.7913769
50
179.8524075
51
219.1641908
0
LINE
8
DEFAULT_255_2_778
10
3.5723503
20
44.8468993
11
25.7973503
21
44.8468993
0
LINE
8
DEFAULT_255_2_778
10
26.5911503
20
44.0531993
11
26.5911503
21
-1.9843007
0
LINE
8
DEFAULT_255_2_778
10
25.7973503
20
-2.7781007
11
3.5723503
21
-2.7781007
0
LINE
8
DEFAULT_255_2_778
10
2.7786503
20
-1.9843007
11
2.7786503
21
44.0531993
0
LINE
8
DEFAULT_255_1_234
10
11.113185
20
-0.0087609
11
11.113185
21
-0.1348592
0
LINE
8
DEFAULT_255_1_234
10
11.113185
20
-0.1348592
11
10.6224458
21
-0.1348592
0
LINE
8
DEFAULT_255_1_234
10
10.6224458
20
-0.1348592
11
10.6224458
21
-0.6513
0
LINE
8
DEFAULT_255_1_234
10
10.6224458
20
-0.6513
11
10.4682364
21
-0.6513
0
LINE
8
DEFAULT_255_1_234
10
10.4682364
20
-0.6513
11
10.4682364
21
0.5181211
0
LINE
8
DEFAULT_255_1_234
10
10.4682364
20
0.5181211
11
11.1926992
21
0.5181211
0
LINE
8
DEFAULT_255_1_234
10
11.1926992
20
0.5181211
11
11.1926992
21
0.3912196
0
LINE
8
DEFAULT_255_1_234
10
11.1926992
20
0.3912196
11
10.6224458
21
0.3912196
0
LINE
8
DEFAULT_255_1_234
10
10.6224458
20
0.3912196
11
10.6224458
21
-0.0087609
0
LINE
8
DEFAULT_255_1_234
10
10.6224458
20
-0.0087609
11
11.113185
21
-0.0087609
0
LINE
8
DEFAULT_255_1_234
10
12.1051046
20
-0.5300208
11
12.1051046
21
-0.6513
0
LINE
8
DEFAULT_255_1_234
10
12.1051046
20
-0.6513
11
11.3388768
21
-0.6513
0
LINE
8
DEFAULT_255_1_234
10
11.3388768
20
-0.6513
11
11.3388768
21
-0.5444779
0
LINE
8
DEFAULT_255_1_234
10
11.3388768
20
-0.5444779
11
11.7436764
21
-0.0947005
0
LINE
8
DEFAULT_255_1_234
10
11.4649751
20
0.1735595
11
11.3163879
21
0.1735595
0
LINE
8
DEFAULT_255_1_234
10
11.8312224
20
-0.1902782
11
11.5179846
21
-0.5300208
0
LINE
8
DEFAULT_255_1_234
10
11.5179846
20
-0.5300208
11
12.1051046
21
-0.5300208
0
ARC
8
DEFAULT_255_1_234
10
10.3946597
20
1.0982527
40
1.8008286
50
318.5132453
51
320.7828378
0
ARC
8
DEFAULT_255_1_234
10
10.9233572
20
0.6679426
40
1.1191493
50
320.7372736
51
323.9737074
0
ARC
8
DEFAULT_255_1_234
10
11.3153428
20
0.3839361
40
0.6350923
50
323.8961724
51
328.6421089
0
ARC
8
DEFAULT_255_1_234
10
11.5200024
20
0.2577031
40
0.3946393
50
328.8299013
51
331.789948
0
ARC
8
DEFAULT_255_1_234
10
11.6197202
20
0.2062509
40
0.2824501
50
331.4255242
51
352.9364833
0
ARC
8
DEFAULT_255_1_234
10
11.6333703
20
0.2031976
40
0.2685315
50
353.2248685
51
0.0169286
0
ARC
8
DEFAULT_255_1_234
10
11.654358
20
0.205495
40
0.2475536
50
359.4866256
51
15.9339782
0
ARC
8
DEFAULT_255_1_234
10
11.7050565
20
0.2191286
40
0.1950618
50
16.1714718
51
43.5284424
0
ARC
8
DEFAULT_255_1_234
10
11.7127873
20
0.2268573
40
0.184134
50
43.4415429
51
83.1661404
0
ARC
8
DEFAULT_255_1_234
10
11.6993792
20
0.1531771
40
0.258926
50
82.160215
51
90.1505798
0
ARC
8
DEFAULT_255_1_234
10
11.6962219
20
0.0994865
40
0.3126255
50
89.5460705
51
102.5418777
0
ARC
8
DEFAULT_255_1_234
10
11.6719305
20
0.2025665
40
0.2067346
50
102.1739365
51
129.2061916
0
ARC
8
DEFAULT_255_1_234
10
11.6640377
20
0.2150094
40
0.1921118
50
129.7279328
51
135.7542026
0
ARC
8
DEFAULT_255_1_234
10
11.6761904
20
0.2053045
40
0.2075944
50
136.175737
51
166.3674722
0
ARC
8
DEFAULT_255_1_234
10
11.7768824
20
0.1783182
40
0.3118201
50
165.9092917
51
178.8683903
0
ARC
8
DEFAULT_255_1_234
10
11.8633685
20
0.1736179
40
0.3983935
50
178.438168
51
180.0083905
0
ARC
8
DEFAULT_255_1_234
10
11.7232287
20
0.1775231
40
0.4068601
50
163.2878735
51
180.5581814
0
ARC
8
DEFAULT_255_1_234
10
11.6430548
20
0.199584
40
0.3237344
50
133.454115
51
162.9470031
0
ARC
8
DEFAULT_255_1_234
10
11.660909
20
0.1806
40
0.349795
50
100.7869394
51
133.4384016
0
ARC
8
DEFAULT_255_1_234
10
11.6956861
20
0.0257319
40
0.5084616
50
89.6605301
51
101.3704185
0
ARC
8
DEFAULT_255_1_234
10
11.70232
20
0.0318496
40
0.502348
50
78.2171172
51
90.4130393
0
ARC
8
DEFAULT_255_1_234
10
11.7378278
20
0.1942637
40
0.3361092
50
55.9268222
51
78.4888551
0
ARC
8
DEFAULT_255_1_234
10
11.7574719
20
0.2281324
40
0.2970617
50
47.9292255
51
55.4054003
0
ARC
8
DEFAULT_255_1_234
10
11.7676279
20
0.2384502
40
0.2825983
50
4.3347696
51
48.0560701
0
ARC
8
DEFAULT_255_1_234
10
11.6580673
20
0.2214601
40
0.393225
50
359.925209
51
5.5967654
0
ARC
8
DEFAULT_255_1_234
10
11.7009565
20
0.2270816
40
0.3503892
50
337.8914096
51
358.9967724
0
ARC
8
DEFAULT_255_1_234
10
11.4295977
20
0.3317706
40
0.6412172
50
326.9135351
51
338.3505194
0
ARC
8
DEFAULT_255_1_234
10
11.0310281
20
0.5872284
40
1.1146189
50
319.6472867
51
327.095818
0
ARC
8
DEFAULT_255_1_234
10
10.6477284
20
0.9034
40
1.6114559
50
317.2586784
51
319.9046139
0
LINE
8
DEFAULT_255_1_234
10
12.5870089
20
-0.0938974
11
12.5870089
21
-0.2151766
0
LINE
8
DEFAULT_255_1_234
10
12.5870089
20
-0.2151766
11
12.1950601
21
-0.2151766
0
LINE
8
DEFAULT_255_1_234
10
12.1950601
20
-0.2151766
11
12.1950601
21
-0.0938974
0
LINE
8
DEFAULT_255_1_234
10
12.1950601
20
-0.0938974
11
12.5870089
21
-0.0938974
0
LINE
8
DEFAULT_255_1_234
10
13.4496176
20
0.0402327
11
13.4496176
21
-0.1525291
0
LINE
8
DEFAULT_255_1_234
10
12.7115009
20
-0.1726084
11
12.7115009
21
0.0257755
0
LINE
8
DEFAULT_255_1_234
10
13.3010305
20
-0.1926877
11
13.3010305
21
0.0506739
0
LINE
8
DEFAULT_255_1_234
10
12.860088
20
0.0619184
11
12.860088
21
-0.1758211
0
ARC
8
DEFAULT_255_1_234
10
12.2249066
20
-0.1574195
40
1.2247208
50
353.8441951
51
0.2287902
0
ARC
8
DEFAULT_255_1_234
10
12.6888569
20
-0.2092194
40
0.7578929
50
344.4934747
51
353.9765454
0
ARC
8
DEFAULT_255_1_234
10
12.988116
20
-0.2943019
40
0.4467846
50
329.2803592
51
344.7472793
0
ARC
8
DEFAULT_255_1_234
10
13.0873985
20
-0.3487982
40
0.3336173
50
324.9352394
51
328.6160465
0
ARC
8
DEFAULT_255_1_234
10
13.1251093
20
-0.3751573
40
0.2876076
50
280.580143
51
324.9173126
0
ARC
8
DEFAULT_255_1_234
10
13.0849886
20
-0.2080901
40
0.4592847
50
269.5977311
51
281.6734359
0
ARC
8
DEFAULT_255_1_234
10
13.0777791
20
-0.2200827
40
0.4472986
50
256.6228859
51
270.51044
0
ARC
8
DEFAULT_255_1_234
10
13.0375769
20
-0.3749123
40
0.2873874
50
215.8618325
51
257.2788573
0
ARC
8
DEFAULT_255_1_234
10
13.1396801
20
-0.3064023
40
0.4102928
50
197.9693508
51
215.2623606
0
ARC
8
DEFAULT_255_1_234
10
13.3881917
20
-0.2225291
40
0.6725652
50
187.8816417
51
198.2346507
0
ARC
8
DEFAULT_255_1_234
10
13.7840125
20
-0.1653921
40
1.0724845
50
180.8976217
51
188.0055519
0
ARC
8
DEFAULT_255_1_234
10
14.0640313
20
-0.1550223
40
1.3526448
50
180.7449369
51
181.1510016
0
ARC
8
DEFAULT_255_1_234
10
13.9063042
20
0.0306042
40
1.1948131
50
173.7675579
51
180.231553
0
ARC
8
DEFAULT_255_1_234
10
13.4545189
20
0.0816666
40
0.7401564
50
164.3058563
51
173.9002247
0
ARC
8
DEFAULT_255_1_234
10
13.1633257
20
0.1655656
40
0.4371288
50
148.7922025
51
164.568378
0
ARC
8
DEFAULT_255_1_234
10
13.068171
20
0.2186929
40
0.3282386
50
144.5883898
51
148.1176286
0
ARC
8
DEFAULT_255_1_234
10
13.0338608
20
0.2426315
40
0.2864044
50
101.6440918
51
144.514236
0
ARC
8
DEFAULT_255_1_234
10
13.0763674
20
0.0737069
40
0.4604934
50
89.5284041
51
102.5819763
0
ARC
8
DEFAULT_255_1_234
10
13.0842762
20
0.0698018
40
0.464401
50
77.0437873
51
90.5081339
0
ARC
8
DEFAULT_255_1_234
10
13.1244764
20
0.2340615
40
0.2953195
50
48.2778575
51
77.4994676
0
ARC
8
DEFAULT_255_1_234
10
13.1317395
20
0.2469746
40
0.2808655
50
36.3142134
51
47.6305865
0
ARC
8
DEFAULT_255_1_234
10
13.0448702
20
0.1884515
40
0.3855453
50
18.2931786
51
35.6769206
0
ARC
8
DEFAULT_255_1_234
10
12.7905461
20
0.1011593
40
0.654423
50
8.024666
51
18.5605216
0
ARC
8
DEFAULT_255_1_234
10
12.3742381
20
0.0396792
40
1.0752407
50
1.1274072
51
8.1718305
0
ARC
8
DEFAULT_255_1_234
10
12.0506571
20
0.0269885
40
1.3990231
50
0.5424119
51
1.3863029
0
ARC
8
DEFAULT_255_1_234
10
12.2327949
20
0.0542342
40
1.0682415
50
359.8090433
51
4.9407866
0
ARC
8
DEFAULT_255_1_234
10
12.6537963
20
0.0918113
40
0.6455691
50
4.8362157
51
12.2904523
0
ARC
8
DEFAULT_255_1_234
10
12.9293078
20
0.1531965
40
0.3633074
50
12.0805627
51
23.8173984
0
ARC
8
DEFAULT_255_1_234
10
13.0466783
20
0.2028919
40
0.2358723
50
24.2871213
51
31.3935614
0
ARC
8
DEFAULT_255_1_234
10
13.0991481
20
0.2372233
40
0.1732111
50
30.7407893
51
82.4657128
0
ARC
8
DEFAULT_255_1_234
10
13.0811615
20
0.1488691
40
0.263235
50
81.1060089
51
90.2184952
0
ARC
8
DEFAULT_255_1_234
10
13.0775914
20
0.1746924
40
0.2374236
50
89.3806855
51
105.6762551
0
ARC
8
DEFAULT_255_1_234
10
13.0592545
20
0.2413567
40
0.1682847
50
105.7981136
51
149.7388061
0
ARC
8
DEFAULT_255_1_234
10
13.1656623
20
0.177395
40
0.2924306
50
149.4208916
51
163.6286378
0
ARC
8
DEFAULT_255_1_234
10
13.3747511
20
0.113625
40
0.5110213
50
163.3763315
51
172.1410975
0
ARC
8
DEFAULT_255_1_234
10
13.704823
20
0.0663518
40
0.8444586
50
172.0259487
51
178.0703232
0
ARC
8
DEFAULT_255_1_234
10
14.0078319
20
0.0519906
40
1.1477868
50
177.8631668
51
179.5044149
0
ARC
8
DEFAULT_255_1_234
10
13.9005724
20
-0.1794611
40
1.0404907
50
179.7995573
51
185.2460446
0
ARC
8
DEFAULT_255_1_234
10
13.4962763
20
-0.2177487
40
0.6343885
50
185.1411642
51
193.0079639
0
ARC
8
DEFAULT_255_1_234
10
13.2319236
20
-0.2802359
40
0.3627568
50
192.7897626
51
205.2507664
0
ARC
8
DEFAULT_255_1_234
10
13.1272783
20
-0.3269585
40
0.2481908
50
205.8005384
51
211.2537509
0
ARC
8
DEFAULT_255_1_234
10
13.0749223
20
-0.362042
40
0.1852521
50
210.3789793
51
238.4008143
0
ARC
8
DEFAULT_255_1_234
10
13.0729745
20
-0.3573624
40
0.1882621
50
239.6520629
51
265.9793761
0
ARC
8
DEFAULT_255_1_234
10
13.0814945
20
-0.2901573
40
0.2559272
50
265.1315437
51
270.060332
0
ARC
8
DEFAULT_255_1_234
10
13.0843724
20
-0.3225466
40
0.2235528
50
269.3314664
51
287.2178029
0
ARC
8
DEFAULT_255_1_234
10
13.0981576
20
-0.3728721
40
0.1714108
50
287.7958004
51
329.080874
0
ARC
8
DEFAULT_255_1_234
10
13.0024033
20
-0.313107
40
0.2842745
50
328.6634704
51
343.3325132
0
ARC
8
DEFAULT_255_1_234
10
12.7851053
20
-0.2454137
40
0.5118644
50
343.0499468
51
351.9393422
0
ARC
8
DEFAULT_255_1_234
10
12.4384353
20
-0.1943051
40
0.8622784
50
351.8069023
51
357.7959224
0
ARC
8
DEFAULT_255_1_234
10
12.1148909
20
-0.1775279
40
1.1862365
50
357.5871873
51
359.2677531
0
LINE
8
DEFAULT_255_1_234
10
14.4061977
20
-0.5300208
11
14.4061977
21
-0.6513
0
LINE
8
DEFAULT_255_1_234
10
14.4061977
20
-0.6513
11
13.6399698
21
-0.6513
0
LINE
8
DEFAULT_255_1_234
10
13.6399698
20
-0.6513
11
13.6399698
21
-0.5444779
0
LINE
8
DEFAULT_255_1_234
10
13.6399698
20
-0.5444779
11
14.0447694
21
-0.0947005
0
LINE
8
DEFAULT_255_1_234
10
13.7660681
20
0.1735595
11
13.617481
21
0.1735595
0
LINE
8
DEFAULT_255_1_234
10
14.1323154
20
-0.1902782
11
13.8190776
21
-0.5300208
0
LINE
8
DEFAULT_255_1_234
10
13.8190776
20
-0.5300208
11
14.4061977
21
-0.5300208
0
ARC
8
DEFAULT_255_1_234
10
12.6957528
20
1.0982527
40
1.8008286
50
318.5132453
51
320.7828378
0
ARC
8
DEFAULT_255_1_234
10
13.2244502
20
0.6679426
40
1.1191493
50
320.7372736
51
323.9737074
0
ARC
8
DEFAULT_255_1_234
10
13.6164358
20
0.3839361
40
0.6350923
50
323.8961724
51
328.6421089
0
ARC
8
DEFAULT_255_1_234
10
13.8210954
20
0.2577031
40
0.3946393
50
328.8299013
51
331.789948
0
ARC
8
DEFAULT_255_1_234
10
13.9208132
20
0.2062509
40
0.2824501
50
331.4255242
51
352.9364833
0
ARC
8
DEFAULT_255_1_234
10
13.9344633
20
0.2031976
40
0.2685315
50
353.2248685
51
0.0169286
0
ARC
8
DEFAULT_255_1_234
10
13.955451
20
0.205495
40
0.2475536
50
359.4866256
51
15.9339782
0
ARC
8
DEFAULT_255_1_234
10
14.0061495
20
0.2191286
40
0.1950618
50
16.1714718
51
43.5284424
0
ARC
8
DEFAULT_255_1_234
10
14.0138804
20
0.2268573
40
0.184134
50
43.4415429
51
83.1661404
0
ARC
8
DEFAULT_255_1_234
10
14.0004722
20
0.1531771
40
0.258926
50
82.160215
51
90.1505798
0
ARC
8
DEFAULT_255_1_234
10
13.9973149
20
0.0994865
40
0.3126255
50
89.5460705
51
102.5418777
0
ARC
8
DEFAULT_255_1_234
10
13.9730235
20
0.2025665
40
0.2067346
50
102.1739365
51
129.2061916
0
ARC
8
DEFAULT_255_1_234
10
13.9651307
20
0.2150094
40
0.1921118
50
129.7279328
51
135.7542026
0
ARC
8
DEFAULT_255_1_234
10
13.9772835
20
0.2053045
40
0.2075944
50
136.175737
51
166.3674722
0
ARC
8
DEFAULT_255_1_234
10
14.0779754
20
0.1783182
40
0.3118201
50
165.9092917
51
178.8683903
0
ARC
8
DEFAULT_255_1_234
10
14.1644615
20
0.1736179
40
0.3983935
50
178.438168
51
180.0083905
0
ARC
8
DEFAULT_255_1_234
10
14.0243217
20
0.1775231
40
0.4068601
50
163.2878735
51
180.5581814
0
ARC
8
DEFAULT_255_1_234
10
13.9441479
20
0.199584
40
0.3237344
50
133.454115
51
162.9470031
0
ARC
8
DEFAULT_255_1_234
10
13.962002
20
0.1806
40
0.349795
50
100.7869394
51
133.4384016
0
ARC
8
DEFAULT_255_1_234
10
13.9967791
20
0.0257319
40
0.5084616
50
89.6605301
51
101.3704185
0
ARC
8
DEFAULT_255_1_234
10
14.003413
20
0.0318496
40
0.502348
50
78.2171172
51
90.4130393
0
ARC
8
DEFAULT_255_1_234
10
14.0389209
20
0.1942637
40
0.3361092
50
55.9268222
51
78.4888551
0
ARC
8
DEFAULT_255_1_234
10
14.0585649
20
0.2281324
40
0.2970617
50
47.9292255
51
55.4054003
0
ARC
8
DEFAULT_255_1_234
10
14.0687209
20
0.2384502
40
0.2825983
50
4.3347696
51
48.0560701
0
ARC
8
DEFAULT_255_1_234
10
13.9591603
20
0.2214601
40
0.393225
50
359.925209
51
5.5967654
0
ARC
8
DEFAULT_255_1_234
10
14.0020495
20
0.2270816
40
0.3503892
50
337.8914096
51
358.9967724
0
ARC
8
DEFAULT_255_1_234
10
13.7306907
20
0.3317706
40
0.6412172
50
326.9135351
51
338.3505194
0
ARC
8
DEFAULT_255_1_234
10
13.3321211
20
0.5872284
40
1.1146189
50
319.6472867
51
327.095818
0
ARC
8
DEFAULT_255_1_234
10
12.9488214
20
0.9034
40
1.6114559
50
317.2586784
51
319.9046139
0
LINE
8
DEFAULT_255_1_234
10
14.9258511
20
-0.6513
11
14.6021721
21
-0.6513
0
LINE
8
DEFAULT_255_1_234
10
14.6021721
20
-0.6513
11
14.6021721
21
0.5181211
0
LINE
8
DEFAULT_255_1_234
10
14.6021721
20
0.5181211
11
14.9322765
21
0.5181211
0
LINE
8
DEFAULT_255_1_234
10
15.4479141
20
-0.0272339
11
15.4479141
21
-0.1019291
0
LINE
8
DEFAULT_255_1_234
10
14.9362924
20
0.3912196
11
14.7563814
21
0.3912196
0
LINE
8
DEFAULT_255_1_234
10
14.7563814
20
0.3912196
11
14.7563814
21
-0.5252017
0
LINE
8
DEFAULT_255_1_234
10
14.7563814
20
-0.5252017
11
14.9186226
21
-0.5252017
0
LINE
8
DEFAULT_255_1_234
10
15.2953111
20
-0.0987164
11
15.2953111
21
-0.0304466
0
ARC
8
DEFAULT_255_1_234
10
14.9361708
20
-0.0684106
40
0.5865446
50
75.4101064
51
90.3804066
0
ARC
8
DEFAULT_255_1_234
10
14.9591221
20
0.0272492
40
0.4881916
50
60.145586
51
75.1888407
0
ARC
8
DEFAULT_255_1_234
10
14.9749997
20
0.0549199
40
0.4562893
50
26.5253612
51
60.1450928
0
ARC
8
DEFAULT_255_1_234
10
14.8629746
20
-0.0044842
40
0.5830602
50
7.4030428
51
26.8320788
0
ARC
8
DEFAULT_255_1_234
10
14.7035503
20
-0.0293196
40
0.7443669
50
0.1605367
51
7.7176192
0
ARC
8
DEFAULT_255_1_234
10
14.7199407
20
-0.1057566
40
0.7279835
50
348.7289388
51
0.3012466
0
ARC
8
DEFAULT_255_1_234
10
14.8855838
20
-0.1386614
40
0.559104
50
333.0706509
51
348.7181832
0
ARC
8
DEFAULT_255_1_234
10
14.9822595
20
-0.1911681
40
0.4491417
50
299.2531685
51
333.4571258
0
ARC
8
DEFAULT_255_1_234
10
14.9461735
20
-0.1226172
40
0.5265881
50
278.107187
51
299.0339503
0
ARC
8
DEFAULT_255_1_234
10
14.9205814
20
0.0281216
40
0.679442
50
270.4443897
51
278.4511052
0
ARC
8
DEFAULT_255_1_234
10
14.9226644
20
-0.0647787
40
0.4604407
50
269.4970433
51
284.0205042
0
ARC
8
DEFAULT_255_1_234
10
14.9581945
20
-0.2013022
40
0.3193797
50
283.7700273
51
318.1555492
0
ARC
8
DEFAULT_255_1_234
10
14.9244703
20
-0.1760633
40
0.3613588
50
318.7415601
51
343.6873628
0
ARC
8
DEFAULT_255_1_234
10
14.7440726
20
-0.1197168
40
0.5503313
50
343.3325091
51
355.8548958
0
ARC
8
DEFAULT_255_1_234
10
14.5342411
20
-0.0997681
40
0.7610708
50
355.4988528
51
0.0791727
0
ARC
8
DEFAULT_255_1_234
10
14.6125033
20
-0.026222
40
0.6828208
50
359.6455037
51
9.8607896
0
ARC
8
DEFAULT_255_1_234
10
14.8485731
20
0.0164099
40
0.4429406
50
9.6571907
51
26.1932807
0
ARC
8
DEFAULT_255_1_234
10
14.941372
20
0.0595118
40
0.3406537
50
26.5777228
51
40.1532208
0
ARC
8
DEFAULT_255_1_234
10
14.9669446
20
0.0794619
40
0.308246
50
40.3840491
51
80.1431104
0
ARC
8
DEFAULT_255_1_234
10
14.9342564
20
-0.0654667
40
0.4566909
50
79.2152159
51
89.7445637
0
LINE
8
DEFAULT_255_1_234
10
16.4213608
20
-0.6513
11
16.3097196
21
-0.3460939
0
LINE
8
DEFAULT_255_1_234
10
16.3097196
20
-0.3460939
11
15.8197836
21
-0.3460939
0
LINE
8
DEFAULT_255_1_234
10
15.8197836
20
-0.3460939
11
15.7097488
21
-0.6513
0
LINE
8
DEFAULT_255_1_234
10
15.7097488
20
-0.6513
11
15.5507204
21
-0.6513
0
LINE
8
DEFAULT_255_1_234
10
15.5507204
20
-0.6513
11
15.997285
21
0.5181211
0
LINE
8
DEFAULT_255_1_234
10
15.997285
20
0.5181211
11
16.1322182
21
0.5181211
0
LINE
8
DEFAULT_255_1_234
10
16.1322182
20
0.5181211
11
16.579586
21
-0.6513
0
LINE
8
DEFAULT_255_1_234
10
16.579586
20
-0.6513
11
16.4213608
21
-0.6513
0
LINE
8
DEFAULT_255_1_234
10
16.0647516
20
0.3277689
11
15.8663677
21
-0.2191925
0
LINE
8
DEFAULT_255_1_234
10
15.8663677
20
-0.2191925
11
16.2639387
21
-0.2191925
0
LINE
8
DEFAULT_255_1_234
10
16.2639387
20
-0.2191925
11
16.0647516
21
0.3277689
0
LINE
8
DEFAULT_255_1_234
10
17.022938
20
-0.0938974
11
17.022938
21
-0.2151766
0
LINE
8
DEFAULT_255_1_234
10
17.022938
20
-0.2151766
11
16.6309892
21
-0.2151766
0
LINE
8
DEFAULT_255_1_234
10
16.6309892
20
-0.2151766
11
16.6309892
21
-0.0938974
0
LINE
8
DEFAULT_255_1_234
10
16.6309892
20
-0.0938974
11
17.022938
21
-0.0938974
0
LINE
8
DEFAULT_255_1_234
10
17.9184768
20
-0.5300208
11
17.9184768
21
-0.6513
0
LINE
8
DEFAULT_255_1_234
10
17.9184768
20
-0.6513
11
17.152249
21
-0.6513
0
LINE
8
DEFAULT_255_1_234
10
17.152249
20
-0.6513
11
17.152249
21
-0.5444779
0
LINE
8
DEFAULT_255_1_234
10
17.152249
20
-0.5444779
11
17.5570486
21
-0.0947005
0
LINE
8
DEFAULT_255_1_234
10
17.2783473
20
0.1735595
11
17.1297601
21
0.1735595
0
LINE
8
DEFAULT_255_1_234
10
17.6445945
20
-0.1902782
11
17.3313567
21
-0.5300208
0
LINE
8
DEFAULT_255_1_234
10
17.3313567
20
-0.5300208
11
17.9184768
21
-0.5300208
0
ARC
8
DEFAULT_255_1_234
10
16.2080319
20
1.0982527
40
1.8008286
50
318.5132453
51
320.7828378
0
ARC
8
DEFAULT_255_1_234
10
16.7367294
20
0.6679426
40
1.1191493
50
320.7372736
51
323.9737074
0
ARC
8
DEFAULT_255_1_234
10
17.128715
20
0.3839361
40
0.6350923
50
323.8961724
51
328.6421089
0
ARC
8
DEFAULT_255_1_234
10
17.3333745
20
0.2577031
40
0.3946393
50
328.8299013
51
331.789948
0
ARC
8
DEFAULT_255_1_234
10
17.4330924
20
0.2062509
40
0.2824501
50
331.4255242
51
352.9364833
0
ARC
8
DEFAULT_255_1_234
10
17.4467425
20
0.2031976
40
0.2685315
50
353.2248685
51
0.0169286
0
ARC
8
DEFAULT_255_1_234
10
17.4677301
20
0.205495
40
0.2475536
50
359.4866256
51
15.9339782
0
ARC
8
DEFAULT_255_1_234
10
17.5184287
20
0.2191286
40
0.1950618
50
16.1714718
51
43.5284424
0
ARC
8
DEFAULT_255_1_234
10
17.5261595
20
0.2268573
40
0.184134
50
43.4415429
51
83.1661404
0
ARC
8
DEFAULT_255_1_234
10
17.5127513
20
0.1531771
40
0.258926
50
82.160215
51
90.1505798
0
ARC
8
DEFAULT_255_1_234
10
17.5095941
20
0.0994865
40
0.3126255
50
89.5460705
51
102.5418777
0
ARC
8
DEFAULT_255_1_234
10
17.4853027
20
0.2025665
40
0.2067346
50
102.1739365
51
129.2061916
0
ARC
8
DEFAULT_255_1_234
10
17.4774099
20
0.2150094
40
0.1921118
50
129.7279328
51
135.7542026
0
ARC
8
DEFAULT_255_1_234
10
17.4895626
20
0.2053045
40
0.2075944
50
136.175737
51
166.3674722
0
ARC
8
DEFAULT_255_1_234
10
17.5902546
20
0.1783182
40
0.3118201
50
165.9092917
51
178.8683903
0
ARC
8
DEFAULT_255_1_234
10
17.6767407
20
0.1736179
40
0.3983935
50
178.438168
51
180.0083905
0
ARC
8
DEFAULT_255_1_234
10
17.5366009
20
0.1775231
40
0.4068601
50
163.2878735
51
180.5581814
0
ARC
8
DEFAULT_255_1_234
10
17.456427
20
0.199584
40
0.3237344
50
133.454115
51
162.9470031
0
ARC
8
DEFAULT_255_1_234
10
17.4742812
20
0.1806
40
0.349795
50
100.7869394
51
133.4384016
0
ARC
8
DEFAULT_255_1_234
10
17.5090583
20
0.0257319
40
0.5084616
50
89.6605301
51
101.3704185
0
ARC
8
DEFAULT_255_1_234
10
17.5156922
20
0.0318496
40
0.502348
50
78.2171172
51
90.4130393
0
ARC
8
DEFAULT_255_1_234
10
17.5512
20
0.1942637
40
0.3361092
50
55.9268222
51
78.4888551
0
ARC
8
DEFAULT_255_1_234
10
17.570844
20
0.2281324
40
0.2970617
50
47.9292255
51
55.4054003
0
ARC
8
DEFAULT_255_1_234
10
17.5810001
20
0.2384502
40
0.2825983
50
4.3347696
51
48.0560701
0
ARC
8
DEFAULT_255_1_234
10
17.4714395
20
0.2214601
40
0.393225
50
359.925209
51
5.5967654
0
ARC
8
DEFAULT_255_1_234
10
17.5143286
20
0.2270816
40
0.3503892
50
337.8914096
51
358.9967724
0
ARC
8
DEFAULT_255_1_234
10
17.2429699
20
0.3317706
40
0.6412172
50
326.9135351
51
338.3505194
0
ARC
8
DEFAULT_255_1_234
10
16.8444002
20
0.5872284
40
1.1146189
50
319.6472867
51
327.095818
0
ARC
8
DEFAULT_255_1_234
10
16.4611005
20
0.9034
40
1.6114559
50
317.2586784
51
319.9046139
0
ARC
8
DEFAULT_255_2_778
10
13.4649021
20
42.1360533
40
2.3035416
50
339.8907409
51
346.994376
0
ARC
8
DEFAULT_255_2_778
10
14.4342357
20
41.7759276
40
1.2694939
50
328.7691853
51
340.1120733
0
ARC
8
DEFAULT_255_2_778
10
14.9618733
20
41.4492249
40
0.6489533
50
308.240385
51
329.2799976
0
ARC
8
DEFAULT_255_2_778
10
15.1031254
20
41.2803956
40
0.42897
50
290.2149747
51
307.3797345
0
ARC
8
DEFAULT_255_2_778
10
14.8246836
20
41.5430832
40
0.5085768
50
279.0582472
51
335.0254579
0
ARC
8
DEFAULT_255_2_778
10
14.3731606
20
41.7913036
40
1.0232605
50
333.100566
51
347.4967948
0
ARC
8
DEFAULT_255_2_778
10
13.8963879
20
41.9152273
40
1.515659
50
346.8251736
51
349.6433145
0
ARC
8
DEFAULT_255_2_778
10
16.7021297
20
42.1877541
40
0.6340004
50
90.2418805
51
180.4975197
0
ARC
8
DEFAULT_255_2_778
10
16.6967765
20
42.187754
40
0.6340006
50
359.5024881
51
89.7581009
0
ARC
8
DEFAULT_255_2_778
10
16.6967768
20
42.1767436
40
0.6340003
50
270.2418684
51
0.4975336
0
ARC
8
DEFAULT_255_2_778
10
16.7021299
20
42.1767437
40
0.6340005
50
179.5024805
51
269.758104
0
ARC
8
DEFAULT_255_2_778
10
17.0885581
20
42.2021235
40
0.5748535
50
158.6224664
51
180.7450103
0
ARC
8
DEFAULT_255_2_778
10
16.7839054
20
42.3291995
40
0.2449488
50
125.6968143
51
160.3264119
0
ARC
8
DEFAULT_255_2_778
10
16.7006393
20
42.4359868
40
0.1097683
50
90.6191325
51
122.9231799
0
ARC
8
DEFAULT_255_2_778
10
16.6857984
20
42.3978461
40
0.1485318
50
26.6299238
51
84.7252528
0
ARC
8
DEFAULT_255_2_778
10
16.4257415
20
42.232402
40
0.4562354
50
6.9672199
51
30.5675002
0
ARC
8
DEFAULT_255_2_778
10
16.230961
20
42.1954325
40
0.6541928
50
359.9313724
51
8.1119436
0
ARC
8
DEFAULT_255_2_778
10
16.3103903
20
42.1872075
40
0.5748111
50
338.6217917
51
0.7417631
0
ARC
8
DEFAULT_255_2_778
10
16.6148775
20
42.0601776
40
0.2450776
50
305.7107467
51
340.3279893
0
ARC
8
DEFAULT_255_2_778
10
16.6982626
20
41.9532757
40
0.1097331
50
270.6216799
51
302.9378787
0
ARC
8
DEFAULT_255_2_778
10
16.7131343
20
41.9914636
40
0.148546
50
206.6181959
51
264.7155805
0
ARC
8
DEFAULT_255_2_778
10
16.9733331
20
42.1569852
40
0.456409
50
186.9714802
51
210.5628916
0
ARC
8
DEFAULT_255_2_778
10
17.1675553
20
42.1938721
40
0.6538026
50
179.9319269
51
188.1143536
0
ARC
8
DEFAULT_255_2_778
10
14.1772298
20
42.1877541
40
0.6340005
50
90.2418914
51
180.4975151
0
ARC
8
DEFAULT_255_2_778
10
14.1718765
20
42.187754
40
0.6340006
50
359.5024881
51
89.7581009
0
ARC
8
DEFAULT_255_2_778
10
14.1718768
20
42.1767436
40
0.6340003
50
270.2418684
51
0.4975336
0
ARC
8
DEFAULT_255_2_778
10
14.1772299
20
42.1767437
40
0.6340005
50
179.5024805
51
269.758104
0
ARC
8
DEFAULT_255_2_778
10
14.5631296
20
42.2021068
40
0.5744248
50
158.6039448
51
180.7439081
0
ARC
8
DEFAULT_255_2_778
10
14.2590145
20
42.329083
40
0.2450547
50
125.6846154
51
160.3063409
0
ARC
8
DEFAULT_255_2_778
10
14.1757439
20
42.435937
40
0.1098183
50
90.6212609
51
122.9155624
0
ARC
8
DEFAULT_255_2_778
10
14.1608984
20
42.3978461
40
0.1485318
50
26.6299238
51
84.7252528
0
ARC
8
DEFAULT_255_2_778
10
13.9008415
20
42.232402
40
0.4562354
50
6.9672199
51
30.5675002
0
ARC
8
DEFAULT_255_2_778
10
13.706061
20
42.1954325
40
0.6541928
50
359.9313724
51
8.1119436
0
ARC
8
DEFAULT_255_2_778
10
13.7854903
20
42.1872075
40
0.5748111
50
338.6217917
51
0.7417631
0
ARC
8
DEFAULT_255_2_778
10
14.0899775
20
42.0601776
40
0.2450776
50
305.7107467
51
340.3279893
0
ARC
8
DEFAULT_255_2_778
10
14.1733626
20
41.9532757
40
0.1097331
50
270.6216799
51
302.9378787
0
ARC
8
DEFAULT_255_2_778
10
14.1879015
20
41.9907507
40
0.1478058
50
207.0367178
51
264.8185874
0
ARC
8
DEFAULT_255_2_778
10
14.4427143
20
42.1549943
40
0.4504617
50
187.4901111
51
210.9147812
0
ARC
8
DEFAULT_255_2_778
10
14.6395142
20
42.1937625
40
0.6507616
50
179.9219565
51
188.6157011
0
LINE
8
DEFAULT_255_2_778
10
14.8553532
20
42.7966489
11
15.3503532
21
42.7966489
0
LINE
8
DEFAULT_255_2_778
10
15.3503532
20
42.7966489
11
15.5236532
21
42.1319489
0
LINE
8
DEFAULT_255_2_778
10
15.5236532
20
42.1319489
11
15.7093532
21
42.8090489
0
LINE
8
DEFAULT_255_2_778
10
15.7093532
20
42.8090489
11
16.0065532
21
42.7212489
0
LINE
8
DEFAULT_255_2_778
10
16.0065532
20
42.7212489
11
15.7093532
21
41.6176489
0
LINE
8
DEFAULT_255_2_778
10
15.2513532
20
40.8778489
11
14.9047532
21
41.0408489
0
LINE
8
DEFAULT_255_2_778
10
15.3873532
20
41.6427489
11
15.1770532
21
41.6427489
0
LINE
8
DEFAULT_255_2_778
10
15.1770532
20
41.6427489
11
14.8553532
21
42.7966489
0
LINE
8
DEFAULT_255_2_778
10
16.0681532
20
42.1822489
11
16.0681532
21
42.1822489
0
LINE
8
DEFAULT_255_2_778
10
16.5137532
20
42.1946489
11
16.5137532
21
42.1946489
0
LINE
8
DEFAULT_255_2_778
10
13.5432532
20
42.1822489
11
13.5432532
21
42.1822489
0
LINE
8
DEFAULT_255_2_778
10
13.9887532
20
42.1946489
11
13.9887532
21
42.1946489
0
LINE
8
DEFAULT_255_2_778
10
12.0086532
20
43.5239489
11
12.5531532
21
43.5239489
0
LINE
8
DEFAULT_255_2_778
10
12.5531532
20
43.5239489
11
12.5531532
21
42.7966489
0
LINE
8
DEFAULT_255_2_778
10
12.5531532
20
42.7966489
11
12.9987532
21
43.5239489
0
LINE
8
DEFAULT_255_2_778
10
12.9987532
20
43.5239489
11
13.4691532
21
43.5239489
0
LINE
8
DEFAULT_255_2_778
10
13.4691532
20
43.5239489
11
12.9492532
21
42.6711489
0
LINE
8
DEFAULT_255_2_778
10
12.9492532
20
42.6711489
11
13.5681532
21
41.6178489
0
LINE
8
DEFAULT_255_2_778
10
13.5681532
20
41.6178489
11
12.9987532
21
41.6178489
0
LINE
8
DEFAULT_255_2_778
10
12.9987532
20
41.6178489
11
12.5285532
21
42.4203489
0
LINE
8
DEFAULT_255_2_778
10
12.5285532
20
42.4203489
11
12.5285532
21
41.6178489
0
LINE
8
DEFAULT_255_2_778
10
12.5285532
20
41.6178489
11
12.0086532
21
41.6178489
0
LINE
8
DEFAULT_255_2_778
10
12.0086532
20
41.6178489
11
12.0086532
21
43.5239489
0
LINE
8
DEFAULT_255_1_234
10
8.5810154
20
38.3747
11
8.2573364
21
38.3747
0
LINE
8
DEFAULT_255_1_234
10
8.2573364
20
38.3747
11
8.2573364
21
39.5441211
0
LINE
8
DEFAULT_255_1_234
10
8.2573364
20
39.5441211
11
8.5874408
21
39.5441211
0
LINE
8
DEFAULT_255_1_234
10
9.1030784
20
38.9987661
11
9.1030784
21
38.9240709
0
LINE
8
DEFAULT_255_1_234
10
8.5914567
20
39.4172196
11
8.4115458
21
39.4172196
0
LINE
8
DEFAULT_255_1_234
10
8.4115458
20
39.4172196
11
8.4115458
21
38.5007983
0
LINE
8
DEFAULT_255_1_234
10
8.4115458
20
38.5007983
11
8.5737869
21
38.5007983
0
LINE
8
DEFAULT_255_1_234
10
8.9504754
20
38.9272836
11
8.9504754
21
38.9955534
0
ARC
8
DEFAULT_255_1_234
10
8.5913351
20
38.9575894
40
0.5865446
50
75.4101064
51
90.3804066
0
ARC
8
DEFAULT_255_1_234
10
8.6142864
20
39.0532492
40
0.4881916
50
60.145586
51
75.1888407
0
ARC
8
DEFAULT_255_1_234
10
8.630164
20
39.0809199
40
0.4562893
50
26.5253612
51
60.1450928
0
ARC
8
DEFAULT_255_1_234
10
8.5181389
20
39.0215158
40
0.5830602
50
7.4030428
51
26.8320788
0
ARC
8
DEFAULT_255_1_234
10
8.3587146
20
38.9966804
40
0.7443669
50
0.1605367
51
7.7176192
0
ARC
8
DEFAULT_255_1_234
10
8.375105
20
38.9202434
40
0.7279835
50
348.7289388
51
0.3012466
0
ARC
8
DEFAULT_255_1_234
10
8.5407481
20
38.8873386
40
0.559104
50
333.0706509
51
348.7181832
0
ARC
8
DEFAULT_255_1_234
10
8.6374238
20
38.8348319
40
0.4491417
50
299.2531685
51
333.4571258
0
ARC
8
DEFAULT_255_1_234
10
8.6013378
20
38.9033828
40
0.5265881
50
278.107187
51
299.0339503
0
ARC
8
DEFAULT_255_1_234
10
8.5757457
20
39.0541216
40
0.679442
50
270.4443897
51
278.4511052
0
ARC
8
DEFAULT_255_1_234
10
8.5778287
20
38.9612213
40
0.4604407
50
269.4970433
51
284.0205042
0
ARC
8
DEFAULT_255_1_234
10
8.6133588
20
38.8246978
40
0.3193797
50
283.7700273
51
318.1555492
0
ARC
8
DEFAULT_255_1_234
10
8.5796346
20
38.8499367
40
0.3613588
50
318.7415601
51
343.6873628
0
ARC
8
DEFAULT_255_1_234
10
8.3992369
20
38.9062832
40
0.5503313
50
343.3325091
51
355.8548958
0
ARC
8
DEFAULT_255_1_234
10
8.1894054
20
38.9262319
40
0.7610708
50
355.4988528
51
0.0791727
0
ARC
8
DEFAULT_255_1_234
10
8.2676676
20
38.999778
40
0.6828208
50
359.6455037
51
9.8607896
0
ARC
8
DEFAULT_255_1_234
10
8.5037374
20
39.0424099
40
0.4429406
50
9.6571907
51
26.1932807
0
ARC
8
DEFAULT_255_1_234
10
8.5965363
20
39.0855118
40
0.3406537
50
26.5777228
51
40.1532208
0
ARC
8
DEFAULT_255_1_234
10
8.6221089
20
39.1054619
40
0.308246
50
40.3840491
51
80.1431104
0
ARC
8
DEFAULT_255_1_234
10
8.5894207
20
38.9605333
40
0.4566909
50
79.2152159
51
89.7445637
0
LINE
8
DEFAULT_255_1_234
10
9.4741447
20
39.2437341
11
9.4741447
21
38.3747
0
LINE
8
DEFAULT_255_1_234
10
9.4741447
20
38.3747
11
9.3255576
21
38.3747
0
LINE
8
DEFAULT_255_1_234
10
9.3255576
20
38.3747
11
9.3255576
21
39.2437341
0
LINE
8
DEFAULT_255_1_234
10
9.3255576
20
39.2437341
11
9.4741447
21
39.2437341
0
ARC
8
DEFAULT_255_1_234
10
9.4113724
20
39.4751889
40
0.097867
50
161.415052
51
180.5526306
0
ARC
8
DEFAULT_255_1_234
10
9.3989503
20
39.4786077
40
0.0850062
50
138.1827368
51
160.9307106
0
ARC
8
DEFAULT_255_1_234
10
9.3879448
20
39.4881588
40
0.0704362
50
104.6368899
51
138.0039868
0
ARC
8
DEFAULT_255_1_234
10
9.3986603
20
39.4514963
40
0.1086221
50
92.0600725
51
105.2189128
0
ARC
8
DEFAULT_255_1_234
10
9.4009951
20
39.4172117
40
0.1429728
50
89.9756393
51
92.5012496
0
ARC
8
DEFAULT_255_1_234
10
9.4019971
20
39.4397731
40
0.1204151
50
78.0235316
51
90.4478182
0
ARC
8
DEFAULT_255_1_234
10
9.4112062
20
39.4811295
40
0.0780493
50
55.051506
51
78.3369085
0
ARC
8
DEFAULT_255_1_234
10
9.4162337
20
39.4895711
40
0.0682538
50
42.0501187
51
54.4513741
0
ARC
8
DEFAULT_255_1_234
10
9.4027204
20
39.4771798
40
0.0865878
50
1.7497075
51
42.1496013
0
ARC
8
DEFAULT_255_1_234
10
9.3772537
20
39.4742738
40
0.1121515
50
359.9852656
51
2.8364544
0
ARC
8
DEFAULT_255_1_234
10
9.3938529
20
39.4733229
40
0.0955566
50
342.1070653
51
0.552888
0
ARC
8
DEFAULT_255_1_234
10
9.4081226
20
39.4693904
40
0.0807713
50
316.7107116
51
341.6516965
0
ARC
8
DEFAULT_255_1_234
10
9.4148263
20
39.4633823
40
0.0717724
50
285.4397031
51
316.5324284
0
ARC
8
DEFAULT_255_1_234
10
9.4038181
20
39.4999554
40
0.1099597
50
272.3547054
51
285.8953117
0
ARC
8
DEFAULT_255_1_234
10
9.4011338
20
39.5365048
40
0.1465932
50
269.9695369
51
272.8160237
0
ARC
8
DEFAULT_255_1_234
10
9.400152
20
39.5145863
40
0.1246779
50
258.8431134
51
270.4153935
0
ARC
8
DEFAULT_255_1_234
10
9.3911562
20
39.4710414
40
0.0802162
50
238.5431189
51
259.1288175
0
ARC
8
DEFAULT_255_1_234
10
9.3843447
20
39.4586856
40
0.0661247
50
222.5062634
51
237.9906969
0
ARC
8
DEFAULT_255_1_234
10
9.3971035
20
39.4702889
40
0.0833707
50
184.1069131
51
222.460413
0
ARC
8
DEFAULT_255_1_234
10
9.4240275
20
39.4741349
40
0.1105176
50
179.9429482
51
185.0960898
0
LINE
8
DEFAULT_255_1_234
10
10.1319441
20
39.2485531
11
10.1319441
21
39.1104072
0
LINE
8
DEFAULT_255_1_234
10
9.8604713
20
38.9915375
11
9.8604713
21
38.3747
0
LINE
8
DEFAULT_255_1_234
10
9.8604713
20
38.3747
11
9.7118842
21
38.3747
0
LINE
8
DEFAULT_255_1_234
10
9.7118842
20
38.3747
11
9.7118842
21
39.2437341
0
LINE
8
DEFAULT_255_1_234
10
9.7118842
20
39.2437341
11
9.8564555
21
39.2437341
0
LINE
8
DEFAULT_255_1_234
10
9.8564555
20
39.2437341
11
9.858865
21
39.1433374
0
ARC
8
DEFAULT_255_1_234
10
10.0652846
20
38.7044342
40
0.4114092
50
80.6754243
51
86.8932892
0
ARC
8
DEFAULT_255_1_234
10
10.0592381
20
38.60767
40
0.5083596
50
86.8038578
51
90.0431435
0
ARC
8
DEFAULT_255_1_234
10
10.0555362
20
38.8533866
40
0.2626638
50
89.2759698
51
106.6213787
0
ARC
8
DEFAULT_255_1_234
10
10.0350925
20
38.927683
40
0.1856317
50
107.1346045
51
157.6458115
0
ARC
8
DEFAULT_255_1_234
10
10.1042527
20
38.8893311
40
0.2643398
50
155.6586782
51
157.2539184
0
ARC
8
DEFAULT_255_1_234
10
10.0837729
20
39.0062157
40
0.2634121
50
127.8165941
51
148.6302098
0
ARC
8
DEFAULT_255_1_234
10
10.0584198
20
39.0322218
40
0.2273596
50
91.3329982
51
126.7875809
0
ARC
8
DEFAULT_255_1_234
10
10.0660139
20
38.9607195
40
0.299078
50
89.986594
51
92.4688449
0
ARC
8
DEFAULT_255_1_234
10
10.0668534
20
38.9882078
40
0.2715908
50
85.3589899
51
90.1623399
0
ARC
8
DEFAULT_255_1_234
10
10.0753049
20
39.0886164
40
0.1708278
50
78.401942
51
85.4594656
0
ARC
8
DEFAULT_255_1_234
10
10.0897933
20
39.1577236
40
0.1002194
50
67.7858312
51
78.5728455
0
ARC
8
DEFAULT_255_1_234
10
10.1005786
20
39.1856887
40
0.0702548
50
63.4835954
51
67.3062642
0
LINE
8
DEFAULT_255_1_234
10
10.2154742
20
38.7851218
11
10.2154742
21
38.8124297
0
LINE
8
DEFAULT_255_1_234
10
10.9527877
20
38.8284932
11
10.9527877
21
38.7666488
0
LINE
8
DEFAULT_255_1_234
10
10.9527877
20
38.7666488
11
10.3640613
21
38.7666488
0
LINE
8
DEFAULT_255_1_234
10
10.8507847
20
38.5971792
11
10.9415433
21
38.5264999
0
LINE
8
DEFAULT_255_1_234
10
10.3688804
20
38.8887313
11
10.8042006
21
38.8887313
0
LINE
8
DEFAULT_255_1_234
10
10.8042006
20
38.8887313
11
10.8042006
21
38.8999757
0
ARC
8
DEFAULT_255_1_234
10
10.6094107
20
38.7962332
40
0.4376191
50
252.3266134
51
270.5810217
0
ARC
8
DEFAULT_255_1_234
10
10.5889196
20
38.7221644
40
0.3608374
50
223.3000567
51
251.8561855
0
ARC
8
DEFAULT_255_1_234
10
10.6100556
20
38.7426937
40
0.3902993
50
190.9374509
51
223.3654032
0
ARC
8
DEFAULT_255_1_234
10
10.7825529
20
38.7816885
40
0.5670891
50
179.6531105
51
191.4989439
0
ARC
8
DEFAULT_255_1_234
10
10.7947541
20
38.8156417
40
0.5792888
50
167.4007466
51
180.3176909
0
ARC
8
DEFAULT_255_1_234
10
10.6895603
20
38.8378885
40
0.471777
50
154.1835823
51
167.250763
0
ARC
8
DEFAULT_255_1_234
10
10.626407
20
38.8711417
40
0.4004528
50
134.3149965
51
154.5315275
0
ARC
8
DEFAULT_255_1_234
10
10.6046565
20
38.8902228
40
0.371612
50
122.8616532
51
133.9707695
0
ARC
8
DEFAULT_255_1_234
10
10.5943139
20
38.9124703
40
0.3473289
50
89.8249009
51
123.4199222
0
ARC
8
DEFAULT_255_1_234
10
10.599318
20
38.8477967
40
0.4120197
50
74.7876118
51
90.5482747
0
ARC
8
DEFAULT_255_1_234
10
10.6286924
20
38.956303
40
0.2996077
50
39.8178249
51
74.7633718
0
ARC
8
DEFAULT_255_1_234
10
10.5774244
20
38.9163351
40
0.3645855
50
16.8990863
51
39.4829761
0
ARC
8
DEFAULT_255_1_234
10
10.387954
20
38.8556526
40
0.5635218
50
4.9636328
51
17.2026414
0
ARC
8
DEFAULT_255_1_234
10
10.146161
20
38.830134
40
0.8066286
50
359.8834553
51
5.2834307
0
ARC
8
DEFAULT_255_1_234
10
10.7499135
20
38.7732803
40
0.3859091
50
180.9846213
51
194.9401313
0
ARC
8
DEFAULT_255_1_234
10
10.6449413
20
38.7445849
40
0.2770883
50
194.80314
51
222.0412631
0
ARC
8
DEFAULT_255_1_234
10
10.6145294
20
38.7144116
40
0.2343055
50
221.5417084
51
268.8614402
0
ARC
8
DEFAULT_255_1_234
10
10.6218289
20
38.7820686
40
0.3021528
50
267.732405
51
270.0097136
0
ARC
8
DEFAULT_255_1_234
10
10.6236099
20
38.8022105
40
0.3222994
50
269.6924892
51
280.4117579
0
ARC
8
DEFAULT_255_1_234
10
10.6412506
20
38.7103193
40
0.2287344
50
280.2255091
51
298.6338936
0
ARC
8
DEFAULT_255_1_234
10
10.6529298
20
38.6859223
40
0.2017294
50
299.0430333
51
300.4643464
0
ARC
8
DEFAULT_255_1_234
10
10.5849303
20
38.7993038
40
0.3339357
50
300.6577328
51
322.0378878
0
ARC
8
DEFAULT_255_1_234
10
10.5498842
20
38.8297021
40
0.3802736
50
321.6750233
51
322.3046845
0
ARC
8
DEFAULT_255_1_234
10
10.6429804
20
38.713037
40
0.3520454
50
276.9728461
51
328.0035423
0
ARC
8
DEFAULT_255_1_234
10
10.6152857
20
38.8610841
40
0.5024498
50
269.8361028
51
278.0581756
0
ARC
8
DEFAULT_255_1_234
10
10.5925594
20
38.9355757
40
0.202159
50
89.2018686
51
117.2851756
0
ARC
8
DEFAULT_255_1_234
10
10.5978763
20
38.9313752
40
0.2083484
50
118.0551165
51
137.4540413
0
ARC
8
DEFAULT_255_1_234
10
10.6353503
20
38.8973304
40
0.2589774
50
137.5109581
51
158.8516286
0
ARC
8
DEFAULT_255_1_234
10
10.7491339
20
38.8514074
40
0.38167
50
158.5845963
51
170.1721436
0
ARC
8
DEFAULT_255_1_234
10
10.8660728
20
38.8281823
40
0.5008657
50
169.8376422
51
173.0566086
0
ARC
8
DEFAULT_255_1_234
10
10.3963802
20
38.8792509
40
0.4083467
50
2.9091802
51
12.8847116
0
ARC
8
DEFAULT_255_1_234
10
10.5334478
20
38.9115101
40
0.2675383
50
12.6957781
51
28.6404489
0
ARC
8
DEFAULT_255_1_234
10
10.5876149
20
38.9395458
40
0.2065654
50
29.0169854
51
41.1487595
0
ARC
8
DEFAULT_255_1_234
10
10.6078934
20
38.9572003
40
0.1796786
50
41.1646065
51
85.0013516
0
ARC
8
DEFAULT_255_1_234
10
10.5958031
20
38.8837431
40
0.2539726
50
83.7280015
51
90.0964893
0
LINE
8
DEFAULT_255_1_234
10
11.6780537
20
38.6485823
11
11.8186091
21
38.6485823
0
LINE
8
DEFAULT_255_1_234
10
11.0861146
20
38.8011853
11
11.0861146
21
38.8260837
0
LINE
8
DEFAULT_255_1_234
10
11.8186091
20
38.9449534
11
11.6780537
21
38.9449534
0
LINE
8
DEFAULT_255_1_234
10
11.2347018
20
38.8204615
11
11.2347018
21
38.7923504
0
ARC
8
DEFAULT_255_1_234
10
11.4768572
20
38.6939121
40
0.2140268
50
269.0327816
51
309.2224514
0
ARC
8
DEFAULT_255_1_234
10
11.4978327
20
38.6724108
40
0.1841255
50
308.396669
51
329.6984113
0
ARC
8
DEFAULT_255_1_234
10
11.5116182
20
38.661982
40
0.166974
50
330.401383
51
355.3970571
0
ARC
8
DEFAULT_255_1_234
10
11.5573048
20
38.6637082
40
0.2617417
50
329.2357853
51
356.6870514
0
ARC
8
DEFAULT_255_1_234
10
11.502307
20
38.6927971
40
0.3238945
50
324.8706984
51
329.7905871
0
ARC
8
DEFAULT_255_1_234
10
11.4944788
20
38.6995106
40
0.3341614
50
298.8769168
51
324.7016144
0
ARC
8
DEFAULT_255_1_234
10
11.461298
20
38.7523917
40
0.3965068
50
296.9023738
51
299.385174
0
ARC
8
DEFAULT_255_1_234
10
11.4742593
20
38.7236422
40
0.365007
50
269.8406811
51
297.1299281
0
ARC
8
DEFAULT_255_1_234
10
11.468925
20
38.7874407
40
0.4288259
50
253.315473
51
270.5771285
0
ARC
8
DEFAULT_255_1_234
10
11.4442285
20
38.6980739
40
0.3361372
50
221.1002312
51
252.9744583
0
ARC
8
DEFAULT_255_1_234
10
11.4902282
20
38.737559
40
0.3967576
50
194.5394537
51
221.0302238
0
ARC
8
DEFAULT_255_1_234
10
11.6751103
20
38.7890952
40
0.5886672
50
182.0499201
51
194.8773585
0
ARC
8
DEFAULT_255_1_234
10
11.8521302
20
38.800906
40
0.7660157
50
179.9791086
51
182.4591564
0
ARC
8
DEFAULT_255_1_234
10
11.6783346
20
38.8290498
40
0.5922274
50
168.614861
51
180.2869651
0
ARC
8
DEFAULT_255_1_234
10
11.5581491
20
38.8526269
40
0.4697532
50
154.9162259
51
168.5402336
0
ARC
8
DEFAULT_255_1_234
10
11.4659998
20
38.898163
40
0.3669966
50
133.5746694
51
155.2558665
0
ARC
8
DEFAULT_255_1_234
10
11.4497157
20
38.9120467
40
0.3457206
50
122.0165146
51
133.2055214
0
ARC
8
DEFAULT_255_1_234
10
11.4532996
20
38.9032361
40
0.355095
50
97.8731644
51
121.7531281
0
ARC
8
DEFAULT_255_1_234
10
11.4712078
20
38.7975159
40
0.4622833
50
89.8471353
51
98.2769494
0
ARC
8
DEFAULT_255_1_234
10
11.4760831
20
38.8585091
40
0.401305
50
73.3760412
51
90.5199766
0
ARC
8
DEFAULT_255_1_234
10
11.4957194
20
38.9307516
40
0.3264695
50
47.7085968
51
73.0509704
0
ARC
8
DEFAULT_255_1_234
10
11.5087065
20
38.9420128
40
0.309407
50
3.7443473
51
48.0843753
0
ARC
8
DEFAULT_255_1_234
10
11.4100014
20
38.9262614
40
0.4090351
50
2.6192045
51
5.0432185
0
ARC
8
DEFAULT_255_1_234
10
11.4556867
20
38.9302592
40
0.2228519
50
3.780656
51
23.9356886
0
ARC
8
DEFAULT_255_1_234
10
11.4785484
20
38.9383155
40
0.198697
50
24.4869552
51
46.9440088
0
ARC
8
DEFAULT_255_1_234
10
11.4786334
20
38.9406484
40
0.1969404
50
46.498716
51
89.3298174
0
ARC
8
DEFAULT_255_1_234
10
11.4724688
20
38.8811723
40
0.2565428
50
88.1083975
51
90.0061569
0
ARC
8
DEFAULT_255_1_234
10
11.4697118
20
38.8865759
40
0.251154
50
89.3773333
51
107.2071161
0
ARC
8
DEFAULT_255_1_234
10
11.4554241
20
38.938319
40
0.1975072
50
107.6883219
51
143.3583002
0
ARC
8
DEFAULT_255_1_234
10
11.5121625
20
38.8956873
40
0.2684762
50
143.2846717
51
162.935323
0
ARC
8
DEFAULT_255_1_234
10
11.6627226
20
38.8473652
40
0.4265927
50
162.6650068
51
174.0805419
0
ARC
8
DEFAULT_255_1_234
10
11.8770065
20
38.8224636
40
0.6423078
50
173.8423985
51
180.1785963
0
ARC
8
DEFAULT_255_1_234
10
11.8222165
20
38.7893039
40
0.5875227
50
179.7028978
51
188.2277152
0
ARC
8
DEFAULT_255_1_234
10
11.6120467
20
38.7578247
40
0.3750127
50
188.0629871
51
201.1160002
0
ARC
8
DEFAULT_255_1_234
10
11.5022666
20
38.7159238
40
0.2575093
50
201.2187293
51
216.9761968
0
ARC
8
DEFAULT_255_1_234
10
11.4571229
20
38.6820993
40
0.2010998
50
217.0135981
51
265.2056839
0
ARC
8
DEFAULT_255_1_234
10
11.4727088
20
38.7742695
40
0.2943543
50
263.681807
51
270.104251
0
LINE
8
DEFAULT_255_1_234
10
12.0386788
20
39.4541656
11
12.1872659
21
39.4541656
0
LINE
8
DEFAULT_255_1_234
10
12.1872659
20
39.4541656
11
12.1872659
21
39.2437341
0
LINE
8
DEFAULT_255_1_234
10
12.1872659
20
39.2437341
11
12.349507
21
39.2437341
0
LINE
8
DEFAULT_255_1_234
10
12.349507
20
39.2437341
11
12.349507
21
39.1288802
0
LINE
8
DEFAULT_255_1_234
10
12.349507
20
39.1288802
11
12.1872659
21
39.1288802
0
LINE
8
DEFAULT_255_1_234
10
12.1872659
20
39.1288802
11
12.1872659
21
38.5899506
0
LINE
8
DEFAULT_255_1_234
10
12.3535229
20
38.4951761
11
12.3535229
21
38.3747
0
LINE
8
DEFAULT_255_1_234
10
12.0386788
20
38.5899506
11
12.0386788
21
39.1288802
0
LINE
8
DEFAULT_255_1_234
10
12.0386788
20
39.1288802
11
11.8804535
21
39.1288802
0
LINE
8
DEFAULT_255_1_234
10
11.8804535
20
39.1288802
11
11.8804535
21
39.2437341
0
LINE
8
DEFAULT_255_1_234
10
11.8804535
20
39.2437341
11
12.0386788
21
39.2437341
0
LINE
8
DEFAULT_255_1_234
10
12.0386788
20
39.2437341
11
12.0386788
21
39.4541656
0
ARC
8
DEFAULT_255_1_234
10
12.3880162
20
38.5889084
40
0.200753
50
179.7025659
51
187.917967
0
ARC
8
DEFAULT_255_1_234
10
12.3134188
20
38.5781724
40
0.1253883
50
187.7545981
51
200.2447476
0
ARC
8
DEFAULT_255_1_234
10
12.2713509
20
38.5624859
40
0.0804913
50
200.130383
51
219.174133
0
ARC
8
DEFAULT_255_1_234
10
12.2577686
20
38.5532515
40
0.0641445
50
220.4434483
51
249.6172
0
ARC
8
DEFAULT_255_1_234
10
12.2732536
20
38.5921968
40
0.1060489
50
249.1032952
51
262.775154
0
ARC
8
DEFAULT_255_1_234
10
12.2820708
20
38.6550715
40
0.1695354
50
262.4913187
51
270.2611758
0
ARC
8
DEFAULT_255_1_234
10
12.2818125
20
38.6766103
40
0.191075
50
270.3091804
51
275.6625139
0
ARC
8
DEFAULT_255_1_234
10
12.267535
20
38.8267435
40
0.3418851
50
275.5610264
51
279.0879356
0
ARC
8
DEFAULT_255_1_234
10
12.2345227
20
39.0362699
40
0.5539959
50
279.0365489
51
281.5011378
0
ARC
8
DEFAULT_255_1_234
10
12.1988304
20
39.2166423
40
0.7378639
50
281.4243939
51
282.1017894
0
ARC
8
DEFAULT_255_1_234
10
12.2331551
20
38.8084858
40
0.4501761
50
275.2597045
51
285.5083879
0
ARC
8
DEFAULT_255_1_234
10
12.2392875
20
38.7528606
40
0.3942242
50
270.0268409
51
275.1132796
0
ARC
8
DEFAULT_255_1_234
10
12.237284
20
38.6201614
40
0.261534
50
257.3573315
51
270.479383
0
ARC
8
DEFAULT_255_1_234
10
12.2159731
20
38.5303406
40
0.1692304
50
230.8037497
51
257.741658
0
ARC
8
DEFAULT_255_1_234
10
12.2091635
20
38.5193777
40
0.1564393
50
219.974146
51
230.1990686
0
ARC
8
DEFAULT_255_1_234
10
12.2423581
20
38.5447579
40
0.1981916
50
196.5084186
51
219.4318458
0
ARC
8
DEFAULT_255_1_234
10
12.3439026
20
38.5766194
40
0.3046086
50
184.6404872
51
196.8269686
0
ARC
8
DEFAULT_255_1_234
10
12.4684091
20
38.5891908
40
0.4297309
50
179.8986958
51
184.9681077
0
LINE
8
DEFAULT_255_1_234
10
12.7012972
20
39.5441211
11
12.7012972
21
38.5007983
0
LINE
8
DEFAULT_255_1_234
10
12.7012972
20
38.5007983
11
13.2554871
21
38.5007983
0
LINE
8
DEFAULT_255_1_234
10
13.2554871
20
38.5007983
11
13.2554871
21
38.3747
0
LINE
8
DEFAULT_255_1_234
10
13.2554871
20
38.3747
11
12.5462846
21
38.3747
0
LINE
8
DEFAULT_255_1_234
10
12.5462846
20
38.3747
11
12.5462846
21
39.5441211
0
LINE
8
DEFAULT_255_1_234
10
12.5462846
20
39.5441211
11
12.7012972
21
39.5441211
0
LINE
8
DEFAULT_255_1_234
10
14.2787306
20
38.9955534
11
14.2787306
21
38.9216614
0
LINE
8
DEFAULT_255_1_234
10
13.338214
20
38.9112201
11
13.338214
21
38.9955534
0
LINE
8
DEFAULT_255_1_234
10
14.1253244
20
38.9104169
11
14.1253244
21
38.9971597
0
LINE
8
DEFAULT_255_1_234
10
13.4916202
20
39.007601
11
13.4916202
21
38.9216614
0
ARC
8
DEFAULT_255_1_234
10
13.4145332
20
38.9177015
40
0.8642064
50
350.487711
51
0.2625388
0
ARC
8
DEFAULT_255_1_234
10
13.6438573
20
38.8782578
40
0.631518
50
336.0277639
51
350.5787438
0
ARC
8
DEFAULT_255_1_234
10
13.7783397
20
38.8174892
40
0.4839466
50
319.8877444
51
336.1328423
0
ARC
8
DEFAULT_255_1_234
10
13.8386038
20
38.769258
40
0.4067874
50
302.4806467
51
319.6143626
0
ARC
8
DEFAULT_255_1_234
10
13.8271048
20
38.7914202
40
0.4316636
50
275.8195682
51
302.1884709
0
ARC
8
DEFAULT_255_1_234
10
13.8104681
20
38.9056665
40
0.5470306
50
269.9171439
51
276.3397983
0
ARC
8
DEFAULT_255_1_234
10
13.8059891
20
38.8370681
40
0.4784458
50
252.5219675
51
270.4416499
0
ARC
8
DEFAULT_255_1_234
10
13.791615
20
38.7831592
40
0.422716
50
237.5352116
51
252.1857531
0
ARC
8
DEFAULT_255_1_234
10
13.8005346
20
38.7945363
40
0.4371052
50
209.063312
51
237.3492538
0
ARC
8
DEFAULT_255_1_234
10
13.8875194
20
38.8491685
40
0.5397041
50
205.1183774
51
209.6470015
0
ARC
8
DEFAULT_255_1_234
10
13.9672231
20
38.882983
40
0.6262326
50
188.7215458
51
204.8240747
0
ARC
8
DEFAULT_255_1_234
10
14.1669759
20
38.9166067
40
0.8287794
50
180.3723947
51
188.9252049
0
ARC
8
DEFAULT_255_1_234
10
14.1642511
20
38.9995402
40
0.8260467
50
169.5253763
51
180.2765336
0
ARC
8
DEFAULT_255_1_234
10
13.9739959
20
39.0345309
40
0.6326007
50
155.8315255
51
169.5089989
0
ARC
8
DEFAULT_255_1_234
10
13.8459461
20
39.0939348
40
0.4914567
50
139.6258461
51
156.0379525
0
ARC
8
DEFAULT_255_1_234
10
13.7869794
20
39.1413799
40
0.4158054
50
122.6416387
51
139.3430715
0
ARC
8
DEFAULT_255_1_234
10
13.7970414
20
39.1230451
40
0.4366739
50
93.0223692
51
122.455762
0
ARC
8
DEFAULT_255_1_234
10
13.8078411
20
39.0265709
40
0.5336137
50
89.975342
51
93.6341897
0
ARC
8
DEFAULT_255_1_234
10
13.811719
20
39.0664242
40
0.4937738
50
73.746375
51
90.4233405
0
ARC
8
DEFAULT_255_1_234
10
13.8292769
20
39.1344287
40
0.4235786
50
57.662753
51
73.4518111
0
ARC
8
DEFAULT_255_1_234
10
13.8284775
20
39.1365832
40
0.4221899
50
29.1440151
51
57.414694
0
ARC
8
DEFAULT_255_1_234
10
13.7349969
20
39.0782005
40
0.5322966
50
24.0982783
51
29.7323517
0
ARC
8
DEFAULT_255_1_234
10
13.6316245
20
39.0353399
40
0.6441673
50
8.6655297
51
23.8241346
0
ARC
8
DEFAULT_255_1_234
10
13.4081983
20
38.9988854
40
0.8705386
50
359.7806941
51
8.8218784
0
ARC
8
DEFAULT_255_1_234
10
13.2934981
20
39.0014345
40
0.8318373
50
359.7055579
51
8.036044
0
ARC
8
DEFAULT_255_1_234
10
13.5934987
20
39.0451239
40
0.5286768
50
7.8928306
51
20.2962107
0
ARC
8
DEFAULT_255_1_234
10
13.7562557
20
39.1051395
40
0.3552073
50
20.3231126
51
36.4992797
0
ARC
8
DEFAULT_255_1_234
10
13.8248103
20
39.1579402
40
0.2686974
50
36.1437156
51
85.6627023
0
ARC
8
DEFAULT_255_1_234
10
13.8085649
20
39.0539221
40
0.373739
50
84.3852322
51
90.0757696
0
ARC
8
DEFAULT_255_1_234
10
13.8043322
20
39.1199839
40
0.3076997
50
89.3038458
51
109.9045693
0
ARC
8
DEFAULT_255_1_234
10
13.7950713
20
39.1582062
40
0.2686424
50
110.8228367
51
143.9179474
0
ARC
8
DEFAULT_255_1_234
10
13.8884373
20
39.0869236
40
0.3860887
50
143.5289163
51
163.2980757
0
ARC
8
DEFAULT_255_1_234
10
14.0792194
20
39.0269433
40
0.5860659
50
163.0418846
51
174.3140048
0
ARC
8
DEFAULT_255_1_234
10
14.3196306
20
38.9991854
40
0.8280531
50
174.0509143
51
179.4176892
0
ARC
8
DEFAULT_255_1_234
10
14.2692045
20
38.9174954
40
0.7775954
50
179.6930361
51
188.7906598
0
ARC
8
DEFAULT_255_1_234
10
14.0028524
20
38.8748935
40
0.5078633
50
188.6331305
51
202.5629587
0
ARC
8
DEFAULT_255_1_234
10
13.8774116
20
38.8244996
40
0.3726913
50
202.8081362
51
216.1193925
0
ARC
8
DEFAULT_255_1_234
10
13.7964686
20
38.7593676
40
0.2689577
50
215.0755913
51
264.6379694
0
ARC
8
DEFAULT_255_1_234
10
13.8091635
20
38.8424513
40
0.3528978
50
263.846392
51
270.0833719
0
ARC
8
DEFAULT_255_1_234
10
13.8133026
20
38.8166374
40
0.3271036
50
269.3649385
51
287.5152008
0
ARC
8
DEFAULT_255_1_234
10
13.8311183
20
38.7519238
40
0.2600406
50
288.0630309
51
323.8113348
0
ARC
8
DEFAULT_255_1_234
10
13.7440025
20
38.8169049
40
0.3687189
50
323.6547608
51
342.6590488
0
ARC
8
DEFAULT_255_1_234
10
13.540864
20
38.8829952
40
0.5823286
50
342.4091907
51
353.6451149
0
ARC
8
DEFAULT_255_1_234
10
13.2577151
20
38.918219
40
0.8676442
50
353.4029884
51
359.4847795
0
LINE
8
DEFAULT_255_1_234
10
15.3734565
20
38.957001
11
15.3734565
21
38.5281062
0
LINE
8
DEFAULT_255_1_234
10
14.4722955
20
38.9031884
11
14.4722955
21
39.0051915
0
LINE
8
DEFAULT_255_1_234
10
15.3734565
20
39.2011659
11
15.2192471
21
39.2011659
0
LINE
8
DEFAULT_255_1_234
10
14.627308
20
39.0092073
11
14.627308
21
38.9136296
0
LINE
8
DEFAULT_255_1_234
10
15.2200503
20
38.5690681
11
15.2200503
21
38.8317059
0
LINE
8
DEFAULT_255_1_234
10
15.2200503
20
38.8317059
11
14.9493807
21
38.8317059
0
LINE
8
DEFAULT_255_1_234
10
14.9493807
20
38.8317059
11
14.9493807
21
38.957001
0
LINE
8
DEFAULT_255_1_234
10
14.9493807
20
38.957001
11
15.3734565
21
38.957001
0
ARC
8
DEFAULT_255_1_234
10
15.0903071
20
38.7274396
40
0.3462765
50
295.8437914
51
324.8549609
0
ARC
8
DEFAULT_255_1_234
10
15.0487038
20
38.8027567
40
0.4322211
50
291.5695085
51
296.4549398
0
ARC
8
DEFAULT_255_1_234
10
14.997629
20
38.9392275
40
0.5779178
50
278.6622409
51
291.3045483
0
ARC
8
DEFAULT_255_1_234
10
14.9636781
20
39.1540408
40
0.7953952
50
270.020006
51
278.7494541
0
ARC
8
DEFAULT_255_1_234
10
14.9598705
20
39.2857036
40
0.927067
50
269.9969998
51
270.2524872
0
ARC
8
DEFAULT_255_1_234
10
14.9560418
20
38.8773589
40
0.5187361
50
253.5786322
51
270.4175299
0
ARC
8
DEFAULT_255_1_234
10
14.9387074
20
38.8102236
40
0.4494451
50
238.8203306
51
253.2788235
0
ARC
8
DEFAULT_255_1_234
10
14.9367448
20
38.8051231
40
0.4440665
50
206.7883783
51
238.6962764
0
ARC
8
DEFAULT_255_1_234
10
15.0141358
20
38.8515405
40
0.5341121
50
206.1129412
51
207.4916643
0
ARC
8
DEFAULT_255_1_234
10
15.0738273
20
38.8769488
40
0.5989041
50
188.6921119
51
205.7821245
0
ARC
8
DEFAULT_255_1_234
10
15.2594634
20
38.908523
40
0.7871862
50
180.3882829
51
188.9219216
0
ARC
8
DEFAULT_255_1_234
10
15.3822449
20
39.0108464
40
0.909967
50
170.2024264
51
180.3560651
0
ARC
8
DEFAULT_255_1_234
10
15.0658967
20
39.0674237
40
0.5886083
50
154.2857445
51
170.3893044
0
ARC
8
DEFAULT_255_1_234
10
14.937717
20
39.126095
40
0.4476743
50
139.8401567
51
153.9332699
0
ARC
8
DEFAULT_255_1_234
10
14.9017906
20
39.1548577
40
0.4016697
50
98.4190291
51
139.6707122
0
ARC
8
DEFAULT_255_1_234
10
14.9397423
20
38.9703328
40
0.5898566
50
89.7659205
51
99.4415478
0
ARC
8
DEFAULT_255_1_234
10
14.9462673
20
38.9768844
40
0.5833147
50
78.0551672
51
90.4042112
0
ARC
8
DEFAULT_255_1_234
10
14.9867183
20
39.1587644
40
0.3970055
50
54.6380464
51
78.3339173
0
ARC
8
DEFAULT_255_1_234
10
15.0057239
20
39.1907795
40
0.3599102
50
50.031736
51
54.1558201
0
ARC
8
DEFAULT_255_1_234
10
14.9950026
20
39.1811766
40
0.3741624
50
18.1092409
51
49.7180913
0
ARC
8
DEFAULT_255_1_234
10
14.8493226
20
39.1278089
40
0.5292424
50
7.9672797
51
18.6984571
0
ARC
8
DEFAULT_255_1_234
10
14.8643704
20
39.1401504
40
0.3600838
50
9.7557294
51
27.3215714
0
ARC
8
DEFAULT_255_1_234
10
14.9771176
20
39.1964912
40
0.2340608
50
27.7361077
51
84.5257964
0
ARC
8
DEFAULT_255_1_234
10
14.9443563
20
39.032164
40
0.4011215
50
82.106034
51
90.2001166
0
ARC
8
DEFAULT_255_1_234
10
14.939378
20
39.0829215
40
0.3503799
50
89.4150119
51
105.5823402
0
ARC
8
DEFAULT_255_1_234
10
14.9136778
20
39.1764867
40
0.2533503
50
105.6678618
51
144.2648758
0
ARC
8
DEFAULT_255_1_234
10
15.0030034
20
39.1129289
40
0.3629787
50
144.3561283
51
162.8564086
0
ARC
8
DEFAULT_255_1_234
10
15.2113943
20
39.0460017
40
0.5818441
50
162.6076014
51
173.6780284
0
ARC
8
DEFAULT_255_1_234
10
15.5175086
20
39.008789
40
0.8902007
50
173.4670142
51
179.9730753
0
ARC
8
DEFAULT_255_1_234
10
15.3266758
20
38.909426
40
0.6993804
50
179.6556203
51
190.0080463
0
ARC
8
DEFAULT_255_1_234
10
15.0950586
20
38.8669375
40
0.4639066
50
189.8116607
51
206.6796816
0
ARC
8
DEFAULT_255_1_234
10
15.0105739
20
38.8275503
40
0.3707421
50
207.1031645
51
217.7074368
0
ARC
8
DEFAULT_255_1_234
10
14.9471427
20
38.7723559
40
0.2868417
50
216.7345547
51
265.6812148
0
ARC
8
DEFAULT_255_1_234
10
14.9602218
20
38.8627855
40
0.3780509
50
264.7366618
51
270.0611241
0
ARC
8
DEFAULT_255_1_234
10
14.9625482
20
39.1468111
40
0.662079
50
269.8335834
51
276.0539546
0
ARC
8
DEFAULT_255_1_234
10
14.9832486
20
38.956656
40
0.4708016
50
275.9894168
51
284.4615085
0
ARC
8
DEFAULT_255_1_234
10
15.0030493
20
38.8733663
40
0.3852094
50
284.7034461
51
286.4953897
0
ARC
8
DEFAULT_255_1_234
10
15.0437507
20
38.7422965
40
0.2479842
50
286.0770838
51
304.2625829
0
ARC
8
DEFAULT_255_1_234
10
15.057092
20
38.7204594
40
0.2224291
50
304.5891602
51
317.1073298
0
LINE
8
DEFAULT_255_1_234
10
15.7959259
20
39.5441211
11
15.7959259
21
38.3747
0
LINE
8
DEFAULT_255_1_234
10
15.7959259
20
38.3747
11
15.6417166
21
38.3747
0
LINE
8
DEFAULT_255_1_234
10
15.6417166
20
38.3747
11
15.6417166
21
39.5441211
0
LINE
8
DEFAULT_255_1_234
10
15.6417166
20
39.5441211
11
15.7959259
21
39.5441211
0
LINE
8
DEFAULT_255_1_234
10
16.7830266
20
38.7457663
11
16.9380391
21
38.7457663
0
LINE
8
DEFAULT_255_1_234
10
16.0376813
20
38.9047947
11
16.0376813
21
39.0172391
0
LINE
8
DEFAULT_255_1_234
10
16.9380391
20
39.1682357
11
16.7830266
21
39.1682357
0
LINE
8
DEFAULT_255_1_234
10
16.1926938
20
39.0132232
11
16.1926938
21
38.8999757
0
ARC
8
DEFAULT_255_1_234
10
16.3899778
20
38.8054846
40
0.5513052
50
340.1774281
51
353.7814284
0
ARC
8
DEFAULT_255_1_234
10
16.547113
20
38.7469582
40
0.3836379
50
311.4558989
51
340.4421614
0
ARC
8
DEFAULT_255_1_234
10
16.5437799
20
38.7580528
40
0.3941894
50
282.4333181
51
310.7513653
0
ARC
8
DEFAULT_255_1_234
10
16.4998538
20
38.9395679
40
0.5809175
50
269.9358511
51
282.809604
0
ARC
8
DEFAULT_255_1_234
10
16.4946604
20
39.0853212
40
0.7266847
50
270.0021091
51
270.3581957
0
ARC
8
DEFAULT_255_1_234
10
16.4894021
20
38.8252585
40
0.4666519
50
250.7884749
51
270.6489167
0
ARC
8
DEFAULT_255_1_234
10
16.4725855
20
38.7615319
40
0.4009729
50
219.3627325
51
250.0611886
0
ARC
8
DEFAULT_255_1_234
10
16.5555067
20
38.8320042
40
0.5097822
50
193.5479632
51
219.5756669
0
ARC
8
DEFAULT_255_1_234
10
16.7926687
20
38.8935919
40
0.7547848
50
181.1218675
51
193.87563
0
ARC
8
DEFAULT_255_1_234
10
16.9996868
20
38.904658
40
0.9620055
50
179.9918545
51
181.5394234
0
ARC
8
DEFAULT_255_1_234
10
16.814597
20
39.0209788
40
0.7769248
50
169.5837241
51
180.2757934
0
ARC
8
DEFAULT_255_1_234
10
16.6308909
20
39.0549229
40
0.590109
50
155.0365899
51
169.6003176
0
ARC
8
DEFAULT_255_1_234
10
16.5173373
20
39.1096677
40
0.4640625
50
136.783148
51
155.2472683
0
ARC
8
DEFAULT_255_1_234
10
16.4783849
20
39.1427562
40
0.4130255
50
121.7633186
51
136.428115
0
ARC
8
DEFAULT_255_1_234
10
16.4918812
20
39.1178227
40
0.4413323
50
95.6459699
51
121.5490577
0
ARC
8
DEFAULT_255_1_234
10
16.5076093
20
39.0069949
40
0.55319
50
89.924208
51
96.1377933
0
ARC
8
DEFAULT_255_1_234
10
16.5126526
20
39.0188542
40
0.5413475
50
76.6779277
51
90.4563316
0
ARC
8
DEFAULT_255_1_234
10
16.552015
20
39.1779114
40
0.3775041
50
47.485847
51
76.9287264
0
ARC
8
DEFAULT_255_1_234
10
16.5373122
20
39.1679159
40
0.3948286
50
16.5424086
51
46.8933463
0
ARC
8
DEFAULT_255_1_234
10
16.3765279
20
39.1150861
40
0.564021
50
5.4072051
51
17.0365086
0
ARC
8
DEFAULT_255_1_234
10
16.2326297
20
39.0919679
40
0.5556559
50
7.8891745
51
15.9239216
0
ARC
8
DEFAULT_255_1_234
10
16.431331
20
39.1496631
40
0.3487515
50
15.7653144
51
27.9410532
0
ARC
8
DEFAULT_255_1_234
10
16.5417528
20
39.208779
40
0.2235026
50
27.8166557
51
46.4008329
0
ARC
8
DEFAULT_255_1_234
10
16.5467171
20
39.2082082
40
0.2205286
50
47.4371857
51
75.0698205
0
ARC
8
DEFAULT_255_1_234
10
16.5158565
20
39.1007765
40
0.3322915
50
74.7008593
51
87.8124495
0
ARC
8
DEFAULT_255_1_234
10
16.5085253
20
38.9951844
40
0.4380987
50
87.3814673
51
90.0240855
0
ARC
8
DEFAULT_255_1_234
10
16.5046796
20
39.1129291
40
0.3203749
50
89.3451631
51
108.5745436
0
ARC
8
DEFAULT_255_1_234
10
16.4909901
20
39.1642908
40
0.2673494
50
109.2998449
51
143.3037509
0
ARC
8
DEFAULT_255_1_234
10
16.5671974
20
39.1056881
40
0.3634757
50
143.0753173
51
163.1916937
0
ARC
8
DEFAULT_255_1_234
10
16.7623701
20
39.0440967
40
0.5681262
50
162.9373603
51
174.6208611
0
ARC
8
DEFAULT_255_1_234
10
17.0249744
20
39.015301
40
0.8322832
50
174.3419979
51
180.1430411
0
ARC
8
DEFAULT_255_1_234
10
16.93189
20
38.8958698
40
0.7392076
50
179.6817502
51
189.150529
0
ARC
8
DEFAULT_255_1_234
10
16.6818148
20
38.854219
40
0.4856932
50
188.9910863
51
203.5773039
0
ARC
8
DEFAULT_255_1_234
10
16.5738481
20
38.8094211
40
0.3688271
50
203.9077269
51
215.1312379
0
ARC
8
DEFAULT_255_1_234
10
16.4815574
20
38.7378941
40
0.2522457
50
213.9071664
51
263.8849284
0
ARC
8
DEFAULT_255_1_234
10
16.4940904
20
38.8163518
40
0.3316174
50
263.1758525
51
270.1031083
0
ARC
8
DEFAULT_255_1_234
10
16.4972995
20
38.9410365
40
0.4563091
50
269.6719807
51
279.0609165
0
ARC
8
DEFAULT_255_1_234
10
16.5239763
20
38.7797907
40
0.2928759
50
278.8750225
51
293.6346586
0
ARC
8
DEFAULT_255_1_234
10
16.5559972
20
38.70459
40
0.2111472
50
293.8553404
51
310.0518804
0
ARC
8
DEFAULT_255_1_234
10
16.5564825
20
38.6983516
40
0.2060917
50
311.0646779
51
332.0108348
0
ARC
8
DEFAULT_255_1_234
10
16.4372552
20
38.7640978
40
0.3422352
50
331.6588543
51
343.2878891
0
ARC
8
DEFAULT_255_1_234
10
16.2310067
20
38.8274798
40
0.5580003
50
343.1446044
51
351.010618
0
ARC
8
DEFAULT_255_1_234
10
16.0768714
20
38.8555871
40
0.7146438
50
350.7157277
51
351.1602153
0
LINE
8
DEFAULT_255_1_234
10
18.2833553
20
38.4959792
11
18.2833553
21
38.3747
0
LINE
8
DEFAULT_255_1_234
10
18.2833553
20
38.3747
11
17.5171274
21
38.3747
0
LINE
8
DEFAULT_255_1_234
10
17.5171274
20
38.3747
11
17.5171274
21
38.4815221
0
LINE
8
DEFAULT_255_1_234
10
17.5171274
20
38.4815221
11
17.9219271
21
38.9312995
0
LINE
8
DEFAULT_255_1_234
10
17.6432257
20
39.1995595
11
17.4946386
21
39.1995595
0
LINE
8
DEFAULT_255_1_234
10
18.009473
20
38.8357218
11
17.6962352
21
38.4959792
0
LINE
8
DEFAULT_255_1_234
10
17.6962352
20
38.4959792
11
18.2833553
21
38.4959792
0
ARC
8
DEFAULT_255_1_234
10
16.5729104
20
40.1242527
40
1.8008286
50
318.5132453
51
320.7828378
0
ARC
8
DEFAULT_255_1_234
10
17.1016078
20
39.6939426
40
1.1191493
50
320.7372736
51
323.9737074
0
ARC
8
DEFAULT_255_1_234
10
17.4935935
20
39.4099361
40
0.6350923
50
323.8961724
51
328.6421089
0
ARC
8
DEFAULT_255_1_234
10
17.698253
20
39.2837031
40
0.3946393
50
328.8299013
51
331.789948
0
ARC
8
DEFAULT_255_1_234
10
17.7979709
20
39.2322509
40
0.2824501
50
331.4255242
51
352.9364833
0
ARC
8
DEFAULT_255_1_234
10
17.8116209
20
39.2291976
40
0.2685315
50
353.2248685
51
0.0169286
0
ARC
8
DEFAULT_255_1_234
10
17.8326086
20
39.231495
40
0.2475536
50
359.4866256
51
15.9339782
0
ARC
8
DEFAULT_255_1_234
10
17.8833071
20
39.2451286
40
0.1950618
50
16.1714718
51
43.5284424
0
ARC
8
DEFAULT_255_1_234
10
17.891038
20
39.2528573
40
0.184134
50
43.4415429
51
83.1661404
0
ARC
8
DEFAULT_255_1_234
10
17.8776298
20
39.1791771
40
0.258926
50
82.160215
51
90.1505798
0
ARC
8
DEFAULT_255_1_234
10
17.8744725
20
39.1254865
40
0.3126255
50
89.5460705
51
102.5418777
0
ARC
8
DEFAULT_255_1_234
10
17.8501812
20
39.2285665
40
0.2067346
50
102.1739365
51
129.2061916
0
ARC
8
DEFAULT_255_1_234
10
17.8422883
20
39.2410094
40
0.1921118
50
129.7279328
51
135.7542026
0
ARC
8
DEFAULT_255_1_234
10
17.8544411
20
39.2313045
40
0.2075944
50
136.175737
51
166.3674722
0
ARC
8
DEFAULT_255_1_234
10
17.955133
20
39.2043182
40
0.3118201
50
165.9092917
51
178.8683903
0
ARC
8
DEFAULT_255_1_234
10
18.0416191
20
39.1996179
40
0.3983935
50
178.438168
51
180.0083905
0
ARC
8
DEFAULT_255_1_234
10
17.9014794
20
39.2035231
40
0.4068601
50
163.2878735
51
180.5581814
0
ARC
8
DEFAULT_255_1_234
10
17.8213055
20
39.225584
40
0.3237344
50
133.454115
51
162.9470031
0
ARC
8
DEFAULT_255_1_234
10
17.8391596
20
39.2066
40
0.349795
50
100.7869394
51
133.4384016
0
ARC
8
DEFAULT_255_1_234
10
17.8739368
20
39.0517319
40
0.5084616
50
89.6605301
51
101.3704185
0
ARC
8
DEFAULT_255_1_234
10
17.8805707
20
39.0578496
40
0.502348
50
78.2171172
51
90.4130393
0
ARC
8
DEFAULT_255_1_234
10
17.9160785
20
39.2202637
40
0.3361092
50
55.9268222
51
78.4888551
0
ARC
8
DEFAULT_255_1_234
10
17.9357225
20
39.2541324
40
0.2970617
50
47.9292255
51
55.4054003
0
ARC
8
DEFAULT_255_1_234
10
17.9458786
20
39.2644502
40
0.2825983
50
4.3347696
51
48.0560701
0
ARC
8
DEFAULT_255_1_234
10
17.8363179
20
39.2474601
40
0.393225
50
359.925209
51
5.5967654
0
ARC
8
DEFAULT_255_1_234
10
17.8792071
20
39.2530816
40
0.3503892
50
337.8914096
51
358.9967724
0
ARC
8
DEFAULT_255_1_234
10
17.6078483
20
39.3577706
40
0.6412172
50
326.9135351
51
338.3505194
0
ARC
8
DEFAULT_255_1_234
10
17.2092787
20
39.6132284
40
1.1146189
50
319.6472867
51
327.095818
0
ARC
8
DEFAULT_255_1_234
10
16.825979
20
39.9294
40
1.6114559
50
317.2586784
51
319.9046139
0
LINE
8
DEFAULT_255_1_234
10
19.174075
20
39.0662327
11
19.174075
21
38.8734709
0
LINE
8
DEFAULT_255_1_234
10
18.4359583
20
38.8533916
11
18.4359583
21
39.0517755
0
LINE
8
DEFAULT_255_1_234
10
19.0254879
20
38.8333123
11
19.0254879
21
39.0766739
0
LINE
8
DEFAULT_255_1_234
10
18.5845455
20
39.0879184
11
18.5845455
21
38.8501789
0
ARC
8
DEFAULT_255_1_234
10
17.949364
20
38.8685805
40
1.2247208
50
353.8441951
51
0.2287902
0
ARC
8
DEFAULT_255_1_234
10
18.4133144
20
38.8167806
40
0.7578929
50
344.4934747
51
353.9765454
0
ARC
8
DEFAULT_255_1_234
10
18.7125734
20
38.7316981
40
0.4467846
50
329.2803592
51
344.7472793
0
ARC
8
DEFAULT_255_1_234
10
18.8118559
20
38.6772018
40
0.3336173
50
324.9352394
51
328.6160465
0
ARC
8
DEFAULT_255_1_234
10
18.8495668
20
38.6508427
40
0.2876076
50
280.580143
51
324.9173126
0
ARC
8
DEFAULT_255_1_234
10
18.809446
20
38.8179099
40
0.4592847
50
269.5977311
51
281.6734359
0
ARC
8
DEFAULT_255_1_234
10
18.8022366
20
38.8059173
40
0.4472986
50
256.6228859
51
270.51044
0
ARC
8
DEFAULT_255_1_234
10
18.7620344
20
38.6510877
40
0.2873874
50
215.8618325
51
257.2788573
0
ARC
8
DEFAULT_255_1_234
10
18.8641375
20
38.7195977
40
0.4102928
50
197.9693508
51
215.2623606
0
ARC
8
DEFAULT_255_1_234
10
19.1126491
20
38.8034709
40
0.6725652
50
187.8816417
51
198.2346507
0
ARC
8
DEFAULT_255_1_234
10
19.5084699
20
38.8606079
40
1.0724845
50
180.8976217
51
188.0055519
0
ARC
8
DEFAULT_255_1_234
10
19.7884887
20
38.8709777
40
1.3526448
50
180.7449369
51
181.1510016
0
ARC
8
DEFAULT_255_1_234
10
19.6307616
20
39.0566042
40
1.1948131
50
173.7675579
51
180.231553
0
ARC
8
DEFAULT_255_1_234
10
19.1789763
20
39.1076666
40
0.7401564
50
164.3058563
51
173.9002247
0
ARC
8
DEFAULT_255_1_234
10
18.8877832
20
39.1915656
40
0.4371288
50
148.7922025
51
164.568378
0
ARC
8
DEFAULT_255_1_234
10
18.7926284
20
39.2446929
40
0.3282386
50
144.5883898
51
148.1176286
0
ARC
8
DEFAULT_255_1_234
10
18.7583182
20
39.2686315
40
0.2864044
50
101.6440918
51
144.514236
0
ARC
8
DEFAULT_255_1_234
10
18.8008249
20
39.0997069
40
0.4604934
50
89.5284041
51
102.5819763
0
ARC
8
DEFAULT_255_1_234
10
18.8087336
20
39.0958018
40
0.464401
50
77.0437873
51
90.5081339
0
ARC
8
DEFAULT_255_1_234
10
18.8489338
20
39.2600615
40
0.2953195
50
48.2778575
51
77.4994676
0
ARC
8
DEFAULT_255_1_234
10
18.8561969
20
39.2729746
40
0.2808655
50
36.3142134
51
47.6305865
0
ARC
8
DEFAULT_255_1_234
10
18.7693276
20
39.2144515
40
0.3855453
50
18.2931786
51
35.6769206
0
ARC
8
DEFAULT_255_1_234
10
18.5150035
20
39.1271593
40
0.654423
50
8.024666
51
18.5605216
0
ARC
8
DEFAULT_255_1_234
10
18.0986955
20
39.0656792
40
1.0752407
50
1.1274072
51
8.1718305
0
ARC
8
DEFAULT_255_1_234
10
17.7751146
20
39.0529885
40
1.3990231
50
0.5424119
51
1.3863029
0
ARC
8
DEFAULT_255_1_234
10
17.9572524
20
39.0802342
40
1.0682415
50
359.8090433
51
4.9407866
0
ARC
8
DEFAULT_255_1_234
10
18.3782538
20
39.1178113
40
0.6455691
50
4.8362157
51
12.2904523
0
ARC
8
DEFAULT_255_1_234
10
18.6537652
20
39.1791965
40
0.3633074
50
12.0805627
51
23.8173984
0
ARC
8
DEFAULT_255_1_234
10
18.7711358
20
39.2288919
40
0.2358723
50
24.2871213
51
31.3935614
0
ARC
8
DEFAULT_255_1_234
10
18.8236055
20
39.2632233
40
0.1732111
50
30.7407893
51
82.4657128
0
ARC
8
DEFAULT_255_1_234
10
18.8056189
20
39.1748691
40
0.263235
50
81.1060089
51
90.2184952
0
ARC
8
DEFAULT_255_1_234
10
18.8020488
20
39.2006924
40
0.2374236
50
89.3806855
51
105.6762551
0
ARC
8
DEFAULT_255_1_234
10
18.7837119
20
39.2673567
40
0.1682847
50
105.7981136
51
149.7388061
0
ARC
8
DEFAULT_255_1_234
10
18.8901197
20
39.203395
40
0.2924306
50
149.4208916
51
163.6286378
0
ARC
8
DEFAULT_255_1_234
10
19.0992085
20
39.139625
40
0.5110213
50
163.3763315
51
172.1410975
0
ARC
8
DEFAULT_255_1_234
10
19.4292804
20
39.0923518
40
0.8444586
50
172.0259487
51
178.0703232
0
ARC
8
DEFAULT_255_1_234
10
19.7322894
20
39.0779906
40
1.1477868
50
177.8631668
51
179.5044149
0
ARC
8
DEFAULT_255_1_234
10
19.6250298
20
38.8465389
40
1.0404907
50
179.7995573
51
185.2460446
0
ARC
8
DEFAULT_255_1_234
10
19.2207337
20
38.8082513
40
0.6343885
50
185.1411642
51
193.0079639
0
ARC
8
DEFAULT_255_1_234
10
18.956381
20
38.7457641
40
0.3627568
50
192.7897626
51
205.2507664
0
ARC
8
DEFAULT_255_1_234
10
18.8517357
20
38.6990415
40
0.2481908
50
205.8005384
51
211.2537509
0
ARC
8
DEFAULT_255_1_234
10
18.7993797
20
38.663958
40
0.1852521
50
210.3789793
51
238.4008143
0
ARC
8
DEFAULT_255_1_234
10
18.7974319
20
38.6686376
40
0.1882621
50
239.6520629
51
265.9793761
0
ARC
8
DEFAULT_255_1_234
10
18.8059519
20
38.7358427
40
0.2559272
50
265.1315437
51
270.060332
0
ARC
8
DEFAULT_255_1_234
10
18.8088298
20
38.7034534
40
0.2235528
50
269.3314664
51
287.2178029
0
ARC
8
DEFAULT_255_1_234
10
18.822615
20
38.6531279
40
0.1714108
50
287.7958004
51
329.080874
0
ARC
8
DEFAULT_255_1_234
10
18.7268607
20
38.712893
40
0.2842745
50
328.6634704
51
343.3325132
0
ARC
8
DEFAULT_255_1_234
10
18.5095627
20
38.7805863
40
0.5118644
50
343.0499468
51
351.9393422
0
ARC
8
DEFAULT_255_1_234
10
18.1628927
20
38.8316949
40
0.8622784
50
351.8069023
51
357.7959224
0
ARC
8
DEFAULT_255_1_234
10
17.8393483
20
38.8484721
40
1.1862365
50
357.5871873
51
359.2677531
0
LINE
8
DEFAULT_255_1_234
10
19.5515667
20
38.9304963
11
19.432697
21
38.9610169
0
LINE
8
DEFAULT_255_1_234
10
19.432697
20
38.9610169
11
19.4921319
21
39.5441211
0
LINE
8
DEFAULT_255_1_234
10
19.4921319
20
39.5441211
11
20.0912996
21
39.5441211
0
LINE
8
DEFAULT_255_1_234
10
20.0912996
20
39.5441211
11
20.0912996
21
39.4067784
0
LINE
8
DEFAULT_255_1_234
10
20.0912996
20
39.4067784
11
19.6182302
21
39.4067784
0
LINE
8
DEFAULT_255_1_234
10
19.6182302
20
39.4067784
11
19.5828905
21
39.0879184
0
LINE
8
DEFAULT_255_1_234
10
19.390932
20
38.6823156
11
19.5314874
21
38.6823156
0
LINE
8
DEFAULT_255_1_234
10
19.5909223
20
38.9626232
11
19.5515667
21
38.9304963
0
ARC
8
DEFAULT_255_1_234
10
19.7683689
20
38.769923
40
0.3681349
50
93.7182161
51
120.2538958
0
ARC
8
DEFAULT_255_1_234
10
19.7777952
20
38.6891394
40
0.449379
50
89.9660152
51
94.2496022
0
ARC
8
DEFAULT_255_1_234
10
19.7818686
20
38.7480549
40
0.390482
50
73.8043271
51
90.5585896
0
ARC
8
DEFAULT_255_1_234
10
19.8053583
20
38.8338602
40
0.3015334
50
41.3071453
51
73.5430202
0
ARC
8
DEFAULT_255_1_234
10
19.763741
20
38.7980324
40
0.3564457
50
13.5075983
51
41.2174222
0
ARC
8
DEFAULT_255_1_234
10
19.5995614
20
38.7550486
40
0.5261351
50
1.1331335
51
13.8829381
0
ARC
8
DEFAULT_255_1_234
10
19.4583983
20
38.7474665
40
0.6674378
50
359.9919444
51
1.544251
0
ARC
8
DEFAULT_255_1_234
10
19.5860809
20
38.743328
40
0.5397702
50
347.8572367
51
0.4293338
0
ARC
8
DEFAULT_255_1_234
10
19.7611127
20
38.7036736
40
0.3603188
50
323.673004
51
348.1672506
0
ARC
8
DEFAULT_255_1_234
10
19.7905635
20
38.6857168
40
0.3259678
50
316.8171152
51
323.1492751
0
ARC
8
DEFAULT_255_1_234
10
19.7966824
20
38.682046
40
0.3189975
50
281.8396411
51
316.5457803
0
ARC
8
DEFAULT_255_1_234
10
19.7591088
20
38.8375762
40
0.4789527
50
269.5770101
51
282.4214771
0
ARC
8
DEFAULT_255_1_234
10
19.75199
20
38.8162125
40
0.45759
50
256.2427136
51
270.4486331
0
ARC
8
DEFAULT_255_1_234
10
19.7220802
20
38.6962229
40
0.3339303
50
228.9023911
51
256.3314342
0
ARC
8
DEFAULT_255_1_234
10
19.7147034
20
38.6845746
40
0.32031
50
193.753695
51
228.5271154
0
ARC
8
DEFAULT_255_1_234
10
19.8384988
20
38.72088
40
0.4492253
50
184.924711
51
194.497588
0
ARC
8
DEFAULT_255_1_234
10
19.8577555
20
38.7244591
40
0.3289787
50
187.3600538
51
198.6732863
0
ARC
8
DEFAULT_255_1_234
10
19.7527849
20
38.6880674
40
0.217884
50
198.4451669
51
217.794479
0
ARC
8
DEFAULT_255_1_234
10
19.7232024
20
38.6671085
40
0.1816698
50
218.2887171
51
228.5612368
0
ARC
8
DEFAULT_255_1_234
10
19.7329811
20
38.6802963
40
0.1980329
50
228.9654866
51
258.1234728
0
ARC
8
DEFAULT_255_1_234
10
19.7535521
20
38.7683833
40
0.2884748
50
257.7258293
51
270.401361
0
ARC
8
DEFAULT_255_1_234
10
19.7580408
20
38.7238821
40
0.2439788
50
269.4204404
51
286.4209037
0
ARC
8
DEFAULT_255_1_234
10
19.7728895
20
38.6699657
40
0.1880666
50
286.7251356
51
320.600362
0
ARC
8
DEFAULT_255_1_234
10
19.734572
20
38.7010595
40
0.2374121
50
320.6712579
51
344.5441685
0
ARC
8
DEFAULT_255_1_234
10
19.6189046
20
38.7350045
40
0.3579479
50
344.2412205
51
356.7357071
0
ARC
8
DEFAULT_255_1_234
10
19.4940195
20
38.7453444
40
0.4832297
50
356.3548756
51
0.0500261
0
ARC
8
DEFAULT_255_1_234
10
19.6276704
20
38.748465
40
0.3495889
50
359.5576869
51
12.953486
0
ARC
8
DEFAULT_255_1_234
10
19.7331601
20
38.7740434
40
0.2410532
50
12.6490276
51
41.6081334
0
ARC
8
DEFAULT_255_1_234
10
19.7561972
20
38.7936321
40
0.2108218
50
41.7850273
51
85.9892764
0
ARC
8
DEFAULT_255_1_234
10
19.7438709
20
38.7123462
40
0.2928454
50
84.6957577
51
90.0676183
0
ARC
8
DEFAULT_255_1_234
10
19.7415193
20
38.6454716
40
0.3597255
50
89.6804936
51
99.1614436
0
ARC
8
DEFAULT_255_1_234
10
19.7209824
20
38.7682131
40
0.235281
50
98.9830931
51
113.8908934
0
ARC
8
DEFAULT_255_1_234
10
19.6980234
20
38.8223587
40
0.176479
50
114.1950727
51
127.3641004
0
LINE
8
DEFAULT_255_2_778
10
19.9765417
20
28.9719082
11
18.6536417
21
28.9719082
0
LINE
8
DEFAULT_255_2_778
10
18.6536417
20
28.9719082
11
18.6536417
21
19.7115082
0
LINE
8
DEFAULT_255_2_778
10
17.3307834
20
19.7114333
11
19.9765834
21
19.7114333
0
LINE
8
DEFAULT_255_2_778
10
19.9765834
20
19.7114333
11
19.9765834
21
14.4197333
0
LINE
8
DEFAULT_255_2_778
10
19.9765834
20
14.4197333
11
17.3307834
21
14.4197333
0
LINE
8
DEFAULT_255_2_778
10
17.3307834
20
14.4197333
11
17.3307834
21
19.7114333
0
ARC
8
DEFAULT_255_2_778_1
10
21.130363
20
14.522177
40
4.816461
50
120.9442904
51
122.351755
0
ARC
8
DEFAULT_255_2_778_1
10
20.6837561
20
15.2258039
40
3.9830657
50
122.3407904
51
124.1946752
0
ARC
8
DEFAULT_255_2_778_1
10
20.2438503
20
15.8723306
40
3.2010724
50
124.1855758
51
126.4338849
0
ARC
8
DEFAULT_255_2_778_1
10
19.8579167
20
16.3950611
40
2.5513094
50
126.4326926
51
128.8877368
0
ARC
8
DEFAULT_255_2_778_1
10
19.5231006
20
16.8094658
40
2.0185498
50
128.8749205
51
131.8726567
0
ARC
8
DEFAULT_255_2_778_1
10
19.2259715
20
17.1404854
40
1.5737356
50
131.8616166
51
135.4168838
0
ARC
8
DEFAULT_255_2_778_1
10
18.9631718
20
17.3986765
40
1.2053256
50
135.3893975
51
139.9687014
0
ARC
8
DEFAULT_255_2_778_1
10
18.7302927
20
17.5935102
40
0.9016937
50
139.9301659
51
145.9260426
0
ARC
8
DEFAULT_255_2_778_1
10
18.5341578
20
17.7255104
40
0.6652776
50
145.8787362
51
153.8146208
0
ARC
8
DEFAULT_255_2_778_1
10
18.3820592
20
17.7998797
40
0.4959714
50
153.770634
51
164.3484794
0
ARC
8
DEFAULT_255_2_778_1
10
18.2807425
20
17.8280786
40
0.3908039
50
164.3220276
51
179.8083066
0
ARC
8
DEFAULT_255_2_778_1
10
18.3017827
20
17.836215
40
0.4118985
50
180.9499449
51
213.8111542
0
ARC
8
DEFAULT_255_2_778_1
10
18.5776866
20
18.0057896
40
0.73561
50
212.8271214
51
224.258472
0
ARC
8
DEFAULT_255_2_778_1
10
18.9605373
20
18.3751236
40
1.267567
50
224.1376218
51
231.4508261
0
ARC
8
DEFAULT_255_2_778_1
10
19.6032233
20
19.1781168
40
2.2960809
50
231.3955893
51
236.1256478
0
ARC
8
DEFAULT_255_2_778_1
10
21.4355261
20
21.9246293
40
5.5976905
50
236.2233172
51
239.1314682
0
ARC
8
DEFAULT_255_2_778_1
10
33.3854308
20
41.6523568
40
28.6623793
50
238.8606853
51
239.0711101
0
ARC
8
DEFAULT_255_2_778_1
10
14.2132319
20
9.5552653
40
8.7248518
50
57.2420924
51
59.4062964
0
ARC
8
DEFAULT_255_2_778_1
10
17.4409279
20
14.5862102
40
2.747542
50
52.8289294
51
57.079028
0
ARC
8
DEFAULT_255_2_778_1
10
18.2155821
20
15.6065488
40
1.466457
50
46.3041868
51
52.8596521
0
ARC
8
DEFAULT_255_2_778_1
10
18.6478111
20
16.0566842
40
0.8424061
50
36.2174211
51
46.4090895
0
ARC
8
DEFAULT_255_2_778_1
10
18.9323127
20
16.2615128
40
0.4918609
50
17.400375
51
36.5489745
0
ARC
8
DEFAULT_255_2_778_1
10
19.0464032
20
16.3013754
40
0.3710912
50
0.0676858
51
16.7951297
0
ARC
8
DEFAULT_255_2_778_1
10
19.0253651
20
16.3032428
40
0.3921317
50
343.8035191
51
359.7912046
0
ARC
8
DEFAULT_255_2_778_1
10
18.919095
20
16.3337167
40
0.5026844
50
333.2506233
51
343.8465691
0
ARC
8
DEFAULT_255_2_778_1
10
18.7652796
20
16.4104313
40
0.6745679
50
325.6600948
51
333.3122657
0
ARC
8
DEFAULT_255_2_778_1
10
18.5698382
20
16.5432296
40
0.9108568
50
319.7560915
51
325.6976089
0
ARC
8
DEFAULT_255_2_778_1
10
18.3417028
20
16.7350002
40
1.2088854
50
315.4577584
51
319.8037947
0
ARC
8
DEFAULT_255_2_778_1
10
18.0783165
20
16.9938507
40
1.5781764
50
311.7298824
51
315.4670864
0
ARC
8
DEFAULT_255_2_778_1
10
17.7692917
20
17.3394074
40
2.0417554
50
308.723055
51
311.7470879
0
ARC
8
DEFAULT_255_2_778_1
10
17.4150928
20
17.7806492
40
2.6075745
50
306.1165163
51
308.7300151
0
ARC
8
DEFAULT_255_2_778_1
10
17.0121129
20
18.3319523
40
3.2904564
50
303.9559446
51
306.1266333
0
ARC
8
DEFAULT_255_2_778_1
10
16.600547
20
18.941215
40
4.0257023
50
302.3733397
51
303.9712246
0
ARC
8
DEFAULT_255_2_778_1
10
16.1809385
20
19.6027058
40
4.8090549
50
300.9434827
51
302.3758078
0
LINE
8
DEFAULT_255_2_778
10
18.6536417
20
14.4198082
11
18.6536417
21
5.1594082
0
LINE
8
DEFAULT_255_2_778
10
18.6536417
20
5.1594082
11
19.9765417
21
5.1594082
0
LINE
8
DEFAULT_255_1_234
10
4.9274119
20
36.5116792
11
4.9274119
21
36.3904
0
LINE
8
DEFAULT_255_1_234
10
4.9274119
20
36.3904
11
4.161184
21
36.3904
0
LINE
8
DEFAULT_255_1_234
10
4.161184
20
36.3904
11
4.161184
21
36.4972221
0
LINE
8
DEFAULT_255_1_234
10
4.161184
20
36.4972221
11
4.5659836
21
36.9469995
0
LINE
8
DEFAULT_255_1_234
10
4.2872823
20
37.2152595
11
4.1386952
21
37.2152595
0
LINE
8
DEFAULT_255_1_234
10
4.6535296
20
36.8514218
11
4.3402918
21
36.5116792
0
LINE
8
DEFAULT_255_1_234
10
4.3402918
20
36.5116792
11
4.9274119
21
36.5116792
0
ARC
8
DEFAULT_255_1_234
10
3.216967
20
38.1399527
40
1.8008286
50
318.5132453
51
320.7828378
0
ARC
8
DEFAULT_255_1_234
10
3.7456644
20
37.7096426
40
1.1191493
50
320.7372736
51
323.9737074
0
ARC
8
DEFAULT_255_1_234
10
4.1376501
20
37.4256361
40
0.6350923
50
323.8961724
51
328.6421089
0
ARC
8
DEFAULT_255_1_234
10
4.3423096
20
37.2994031
40
0.3946393
50
328.8299013
51
331.789948
0
ARC
8
DEFAULT_255_1_234
10
4.4420274
20
37.2479509
40
0.2824501
50
331.4255242
51
352.9364833
0
ARC
8
DEFAULT_255_1_234
10
4.4556775
20
37.2448976
40
0.2685315
50
353.2248685
51
0.0169286
0
ARC
8
DEFAULT_255_1_234
10
4.4766652
20
37.247195
40
0.2475536
50
359.4866256
51
15.9339782
0
ARC
8
DEFAULT_255_1_234
10
4.5273637
20
37.2608286
40
0.1950618
50
16.1714718
51
43.5284424
0
ARC
8
DEFAULT_255_1_234
10
4.5350946
20
37.2685573
40
0.184134
50
43.4415429
51
83.1661404
0
ARC
8
DEFAULT_255_1_234
10
4.5216864
20
37.1948771
40
0.258926
50
82.160215
51
90.1505798
0
ARC
8
DEFAULT_255_1_234
10
4.5185291
20
37.1411865
40
0.3126255
50
89.5460705
51
102.5418777
0
ARC
8
DEFAULT_255_1_234
10
4.4942377
20
37.2442665
40
0.2067346
50
102.1739365
51
129.2061916
0
ARC
8
DEFAULT_255_1_234
10
4.4863449
20
37.2567094
40
0.1921118
50
129.7279328
51
135.7542026
0
ARC
8
DEFAULT_255_1_234
10
4.4984977
20
37.2470045
40
0.2075944
50
136.175737
51
166.3674722
0
ARC
8
DEFAULT_255_1_234
10
4.5991896
20
37.2200182
40
0.3118201
50
165.9092917
51
178.8683903
0
ARC
8
DEFAULT_255_1_234
10
4.6856757
20
37.2153179
40
0.3983935
50
178.438168
51
180.0083905
0
ARC
8
DEFAULT_255_1_234
10
4.5455359
20
37.2192231
40
0.4068601
50
163.2878735
51
180.5581814
0
ARC
8
DEFAULT_255_1_234
10
4.4653621
20
37.241284
40
0.3237344
50
133.454115
51
162.9470031
0
ARC
8
DEFAULT_255_1_234
10
4.4832162
20
37.2223
40
0.349795
50
100.7869394
51
133.4384016
0
ARC
8
DEFAULT_255_1_234
10
4.5179934
20
37.0674319
40
0.5084616
50
89.6605301
51
101.3704185
0
ARC
8
DEFAULT_255_1_234
10
4.5246273
20
37.0735496
40
0.502348
50
78.2171172
51
90.4130393
0
ARC
8
DEFAULT_255_1_234
10
4.5601351
20
37.2359637
40
0.3361092
50
55.9268222
51
78.4888551
0
ARC
8
DEFAULT_255_1_234
10
4.5797791
20
37.2698324
40
0.2970617
50
47.9292255
51
55.4054003
0
ARC
8
DEFAULT_255_1_234
10
4.5899352
20
37.2801502
40
0.2825983
50
4.3347696
51
48.0560701
0
ARC
8
DEFAULT_255_1_234
10
4.4803745
20
37.2631601
40
0.393225
50
359.925209
51
5.5967654
0
ARC
8
DEFAULT_255_1_234
10
4.5232637
20
37.2687816
40
0.3503892
50
337.8914096
51
358.9967724
0
ARC
8
DEFAULT_255_1_234
10
4.2519049
20
37.3734706
40
0.6412172
50
326.9135351
51
338.3505194
0
ARC
8
DEFAULT_255_1_234
10
3.8533353
20
37.6289284
40
1.1146189
50
319.6472867
51
327.095818
0
ARC
8
DEFAULT_255_1_234
10
3.4700356
20
37.9451
40
1.6114559
50
317.2586784
51
319.9046139
0
LINE
8
DEFAULT_255_1_234
10
5.7121127
20
37.5598211
11
5.7121127
21
36.783152
0
LINE
8
DEFAULT_255_1_234
10
5.7121127
20
36.783152
11
5.8743538
21
36.783152
0
LINE
8
DEFAULT_255_1_234
10
5.8743538
20
36.783152
11
5.8743538
21
36.6618728
0
LINE
8
DEFAULT_255_1_234
10
5.8743538
20
36.6618728
11
5.7121127
21
36.6618728
0
LINE
8
DEFAULT_255_1_234
10
5.7121127
20
36.6618728
11
5.7121127
21
36.3904
0
LINE
8
DEFAULT_255_1_234
10
5.7121127
20
36.3904
11
5.5627224
21
36.3904
0
LINE
8
DEFAULT_255_1_234
10
5.5627224
20
36.3904
11
5.5627224
21
36.6618728
0
LINE
8
DEFAULT_255_1_234
10
5.5627224
20
36.6618728
11
5.0302181
21
36.6618728
0
LINE
8
DEFAULT_255_1_234
10
5.0302181
20
36.6618728
11
5.0302181
21
36.7494187
0
LINE
8
DEFAULT_255_1_234
10
5.0302181
20
36.7494187
11
5.5538875
21
37.5598211
0
LINE
8
DEFAULT_255_1_234
10
5.5538875
20
37.5598211
11
5.7121127
21
37.5598211
0
LINE
8
DEFAULT_255_1_234
10
5.5450525
20
37.3244912
11
5.1988846
21
36.783152
0
LINE
8
DEFAULT_255_1_234
10
5.1988846
20
36.783152
11
5.5627224
21
36.783152
0
LINE
8
DEFAULT_255_1_234
10
5.5627224
20
36.783152
11
5.5627224
21
37.3566181
0
LINE
8
DEFAULT_255_1_234
10
5.5627224
20
37.3566181
11
5.5450525
21
37.3244912
0
LINE
8
DEFAULT_255_1_234
10
6.101652
20
37.5598211
11
6.434166
21
36.5952093
0
LINE
8
DEFAULT_255_1_234
10
6.434166
20
36.5952093
11
6.7682863
21
37.5598211
0
LINE
8
DEFAULT_255_1_234
10
6.7682863
20
37.5598211
11
6.9369528
21
37.5598211
0
LINE
8
DEFAULT_255_1_234
10
6.9369528
20
37.5598211
11
6.5032389
21
36.3904
0
LINE
8
DEFAULT_255_1_234
10
6.5032389
20
36.3904
11
6.3666994
21
36.3904
0
LINE
8
DEFAULT_255_1_234
10
6.3666994
20
36.3904
11
5.9337887
21
37.5598211
0
LINE
8
DEFAULT_255_1_234
10
5.9337887
20
37.5598211
11
6.101652
21
37.5598211
0
LINE
8
DEFAULT_255_1_234
10
23.1654817
20
37.0819327
11
23.1654817
21
36.8891709
0
LINE
8
DEFAULT_255_1_234
10
22.427365
20
36.8690916
11
22.427365
21
37.0674755
0
LINE
8
DEFAULT_255_1_234
10
23.0168946
20
36.8490123
11
23.0168946
21
37.0923739
0
LINE
8
DEFAULT_255_1_234
10
22.5759521
20
37.1036184
11
22.5759521
21
36.8658789
0
ARC
8
DEFAULT_255_1_234
10
21.9407707
20
36.8842805
40
1.2247208
50
353.8441951
51
0.2287902
0
ARC
8
DEFAULT_255_1_234
10
22.4047211
20
36.8324806
40
0.7578929
50
344.4934747
51
353.9765454
0
ARC
8
DEFAULT_255_1_234
10
22.7039801
20
36.7473981
40
0.4467846
50
329.2803592
51
344.7472793
0
ARC
8
DEFAULT_255_1_234
10
22.8032626
20
36.6929018
40
0.3336173
50
324.9352394
51
328.6160465
0
ARC
8
DEFAULT_255_1_234
10
22.8409734
20
36.6665427
40
0.2876076
50
280.580143
51
324.9173126
0
ARC
8
DEFAULT_255_1_234
10
22.8008527
20
36.8336099
40
0.4592847
50
269.5977311
51
281.6734359
0
ARC
8
DEFAULT_255_1_234
10
22.7936433
20
36.8216173
40
0.4472986
50
256.6228859
51
270.51044
0
ARC
8
DEFAULT_255_1_234
10
22.753441
20
36.6667877
40
0.2873874
50
215.8618325
51
257.2788573
0
ARC
8
DEFAULT_255_1_234
10
22.8555442
20
36.7352977
40
0.4102928
50
197.9693508
51
215.2623606
0
ARC
8
DEFAULT_255_1_234
10
23.1040558
20
36.8191709
40
0.6725652
50
187.8816417
51
198.2346507
0
ARC
8
DEFAULT_255_1_234
10
23.4998766
20
36.8763079
40
1.0724845
50
180.8976217
51
188.0055519
0
ARC
8
DEFAULT_255_1_234
10
23.7798954
20
36.8866777
40
1.3526448
50
180.7449369
51
181.1510016
0
ARC
8
DEFAULT_255_1_234
10
23.6221683
20
37.0723042
40
1.1948131
50
173.7675579
51
180.231553
0
ARC
8
DEFAULT_255_1_234
10
23.170383
20
37.1233666
40
0.7401564
50
164.3058563
51
173.9002247
0
ARC
8
DEFAULT_255_1_234
10
22.8791899
20
37.2072656
40
0.4371288
50
148.7922025
51
164.568378
0
ARC
8
DEFAULT_255_1_234
10
22.7840351
20
37.2603929
40
0.3282386
50
144.5883898
51
148.1176286
0
ARC
8
DEFAULT_255_1_234
10
22.7497249
20
37.2843315
40
0.2864044
50
101.6440918
51
144.514236
0
ARC
8
DEFAULT_255_1_234
10
22.7922315
20
37.1154069
40
0.4604934
50
89.5284041
51
102.5819763
0
ARC
8
DEFAULT_255_1_234
10
22.8001403
20
37.1115018
40
0.464401
50
77.0437873
51
90.5081339
0
ARC
8
DEFAULT_255_1_234
10
22.8403405
20
37.2757615
40
0.2953195
50
48.2778575
51
77.4994676
0
ARC
8
DEFAULT_255_1_234
10
22.8476036
20
37.2886746
40
0.2808655
50
36.3142134
51
47.6305865
0
ARC
8
DEFAULT_255_1_234
10
22.7607343
20
37.2301515
40
0.3855453
50
18.2931786
51
35.6769206
0
ARC
8
DEFAULT_255_1_234
10
22.5064102
20
37.1428593
40
0.654423
50
8.024666
51
18.5605216
0
ARC
8
DEFAULT_255_1_234
10
22.0901022
20
37.0813792
40
1.0752407
50
1.1274072
51
8.1718305
0
ARC
8
DEFAULT_255_1_234
10
21.7665213
20
37.0686885
40
1.3990231
50
0.5424119
51
1.3863029
0
ARC
8
DEFAULT_255_1_234
10
21.948659
20
37.0959342
40
1.0682415
50
359.8090433
51
4.9407866
0
ARC
8
DEFAULT_255_1_234
10
22.3696604
20
37.1335113
40
0.6455691
50
4.8362157
51
12.2904523
0
ARC
8
DEFAULT_255_1_234
10
22.6451719
20
37.1948965
40
0.3633074
50
12.0805627
51
23.8173984
0
ARC
8
DEFAULT_255_1_234
10
22.7625425
20
37.2445919
40
0.2358723
50
24.2871213
51
31.3935614
0
ARC
8
DEFAULT_255_1_234
10
22.8150122
20
37.2789233
40
0.1732111
50
30.7407893
51
82.4657128
0
ARC
8
DEFAULT_255_1_234
10
22.7970256
20
37.1905691
40
0.263235
50
81.1060089
51
90.2184952
0
ARC
8
DEFAULT_255_1_234
10
22.7934555
20
37.2163924
40
0.2374236
50
89.3806855
51
105.6762551
0
ARC
8
DEFAULT_255_1_234
10
22.7751186
20
37.2830567
40
0.1682847
50
105.7981136
51
149.7388061
0
ARC
8
DEFAULT_255_1_234
10
22.8815264
20
37.219095
40
0.2924306
50
149.4208916
51
163.6286378
0
ARC
8
DEFAULT_255_1_234
10
23.0906152
20
37.155325
40
0.5110213
50
163.3763315
51
172.1410975
0
ARC
8
DEFAULT_255_1_234
10
23.4206871
20
37.1080518
40
0.8444586
50
172.0259487
51
178.0703232
0
ARC
8
DEFAULT_255_1_234
10
23.723696
20
37.0936906
40
1.1477868
50
177.8631668
51
179.5044149
0
ARC
8
DEFAULT_255_1_234
10
23.6164365
20
36.8622389
40
1.0404907
50
179.7995573
51
185.2460446
0
ARC
8
DEFAULT_255_1_234
10
23.2121404
20
36.8239513
40
0.6343885
50
185.1411642
51
193.0079639
0
ARC
8
DEFAULT_255_1_234
10
22.9477877
20
36.7614641
40
0.3627568
50
192.7897626
51
205.2507664
0
ARC
8
DEFAULT_255_1_234
10
22.8431424
20
36.7147415
40
0.2481908
50
205.8005384
51
211.2537509
0
ARC
8
DEFAULT_255_1_234
10
22.7907864
20
36.679658
40
0.1852521
50
210.3789793
51
238.4008143
0
ARC
8
DEFAULT_255_1_234
10
22.7888386
20
36.6843376
40
0.1882621
50
239.6520629
51
265.9793761
0
ARC
8
DEFAULT_255_1_234
10
22.7973586
20
36.7515427
40
0.2559272
50
265.1315437
51
270.060332
0
ARC
8
DEFAULT_255_1_234
10
22.8002365
20
36.7191534
40
0.2235528
50
269.3314664
51
287.2178029
0
ARC
8
DEFAULT_255_1_234
10
22.8140217
20
36.6688279
40
0.1714108
50
287.7958004
51
329.080874
0
ARC
8
DEFAULT_255_1_234
10
22.7182674
20
36.728593
40
0.2842745
50
328.6634704
51
343.3325132
0
ARC
8
DEFAULT_255_1_234
10
22.5009694
20
36.7962863
40
0.5118644
50
343.0499468
51
351.9393422
0
ARC
8
DEFAULT_255_1_234
10
22.1542994
20
36.8473949
40
0.8622784
50
351.8069023
51
357.7959224
0
ARC
8
DEFAULT_255_1_234
10
21.830755
20
36.8641721
40
1.1862365
50
357.5871873
51
359.2677531
0
LINE
8
DEFAULT_255_1_234
10
23.4490021
20
37.5598211
11
23.7815161
21
36.5952093
0
LINE
8
DEFAULT_255_1_234
10
23.7815161
20
36.5952093
11
24.1156364
21
37.5598211
0
LINE
8
DEFAULT_255_1_234
10
24.1156364
20
37.5598211
11
24.2843029
21
37.5598211
0
LINE
8
DEFAULT_255_1_234
10
24.2843029
20
37.5598211
11
23.850589
21
36.3904
0
LINE
8
DEFAULT_255_1_234
10
23.850589
20
36.3904
11
23.7140495
21
36.3904
0
LINE
8
DEFAULT_255_1_234
10
23.7140495
20
36.3904
11
23.2811388
21
37.5598211
0
LINE
8
DEFAULT_255_1_234
10
23.2811388
20
37.5598211
11
23.4490021
21
37.5598211
0
LINE
8
DEFAULT_255_1_234
10
21.405323
20
5.0114663
11
21.5603355
21
5.0114663
0
LINE
8
DEFAULT_255_1_234
10
20.6599777
20
5.1704947
11
20.6599777
21
5.2829391
0
LINE
8
DEFAULT_255_1_234
10
21.5603355
20
5.4339357
11
21.405323
21
5.4339357
0
LINE
8
DEFAULT_255_1_234
10
20.8149902
20
5.2789232
11
20.8149902
21
5.1656757
0
ARC
8
DEFAULT_255_1_234
10
21.0122742
20
5.0711846
40
0.5513052
50
340.1774281
51
353.7814284
0
ARC
8
DEFAULT_255_1_234
10
21.1694095
20
5.0126582
40
0.3836379
50
311.4558989
51
340.4421614
0
ARC
8
DEFAULT_255_1_234
10
21.1660763
20
5.0237528
40
0.3941894
50
282.4333181
51
310.7513653
0
ARC
8
DEFAULT_255_1_234
10
21.1221502
20
5.2052679
40
0.5809175
50
269.9358511
51
282.809604
0
ARC
8
DEFAULT_255_1_234
10
21.1169568
20
5.3510212
40
0.7266847
50
270.0021091
51
270.3581957
0
ARC
8
DEFAULT_255_1_234
10
21.1116985
20
5.0909585
40
0.4666519
50
250.7884749
51
270.6489167
0
ARC
8
DEFAULT_255_1_234
10
21.094882
20
5.0272319
40
0.4009729
50
219.3627325
51
250.0611886
0
ARC
8
DEFAULT_255_1_234
10
21.1778031
20
5.0977042
40
0.5097822
50
193.5479632
51
219.5756669
0
ARC
8
DEFAULT_255_1_234
10
21.4149652
20
5.1592919
40
0.7547848
50
181.1218675
51
193.87563
0
ARC
8
DEFAULT_255_1_234
10
21.6219833
20
5.170358
40
0.9620055
50
179.9918545
51
181.5394234
0
ARC
8
DEFAULT_255_1_234
10
21.4368935
20
5.2866788
40
0.7769248
50
169.5837241
51
180.2757934
0
ARC
8
DEFAULT_255_1_234
10
21.2531873
20
5.3206229
40
0.590109
50
155.0365899
51
169.6003176
0
ARC
8
DEFAULT_255_1_234
10
21.1396337
20
5.3753677
40
0.4640625
50
136.783148
51
155.2472683
0
ARC
8
DEFAULT_255_1_234
10
21.1006814
20
5.4084562
40
0.4130255
50
121.7633186
51
136.428115
0
ARC
8
DEFAULT_255_1_234
10
21.1141776
20
5.3835227
40
0.4413323
50
95.6459699
51
121.5490577
0
ARC
8
DEFAULT_255_1_234
10
21.1299058
20
5.2726949
40
0.55319
50
89.924208
51
96.1377933
0
ARC
8
DEFAULT_255_1_234
10
21.1349491
20
5.2845542
40
0.5413475
50
76.6779277
51
90.4563316
0
ARC
8
DEFAULT_255_1_234
10
21.1743114
20
5.4436114
40
0.3775041
50
47.485847
51
76.9287264
0
ARC
8
DEFAULT_255_1_234
10
21.1596087
20
5.4336159
40
0.3948286
50
16.5424086
51
46.8933463
0
ARC
8
DEFAULT_255_1_234
10
20.9988244
20
5.3807861
40
0.564021
50
5.4072051
51
17.0365086
0
ARC
8
DEFAULT_255_1_234
10
20.8549261
20
5.3576679
40
0.5556559
50
7.8891745
51
15.9239216
0
ARC
8
DEFAULT_255_1_234
10
21.0536274
20
5.4153631
40
0.3487515
50
15.7653144
51
27.9410532
0
ARC
8
DEFAULT_255_1_234
10
21.1640492
20
5.474479
40
0.2235026
50
27.8166557
51
46.4008329
0
ARC
8
DEFAULT_255_1_234
10
21.1690135
20
5.4739082
40
0.2205286
50
47.4371857
51
75.0698205
0
ARC
8
DEFAULT_255_1_234
10
21.1381529
20
5.3664765
40
0.3322915
50
74.7008593
51
87.8124495
0
ARC
8
DEFAULT_255_1_234
10
21.1308217
20
5.2608844
40
0.4380987
50
87.3814673
51
90.0240855
0
ARC
8
DEFAULT_255_1_234
10
21.126976
20
5.3786291
40
0.3203749
50
89.3451631
51
108.5745436
0
ARC
8
DEFAULT_255_1_234
10
21.1132865
20
5.4299908
40
0.2673494
50
109.2998449
51
143.3037509
0
ARC
8
DEFAULT_255_1_234
10
21.1894938
20
5.3713881
40
0.3634757
50
143.0753173
51
163.1916937
0
ARC
8
DEFAULT_255_1_234
10
21.3846666
20
5.3097967
40
0.5681262
50
162.9373603
51
174.6208611
0
ARC
8
DEFAULT_255_1_234
10
21.6472708
20
5.281001
40
0.8322832
50
174.3419979
51
180.1430411
0
ARC
8
DEFAULT_255_1_234
10
21.5541864
20
5.1615698
40
0.7392076
50
179.6817502
51
189.150529
0
ARC
8
DEFAULT_255_1_234
10
21.3041112
20
5.119919
40
0.4856932
50
188.9910863
51
203.5773039
0
ARC
8
DEFAULT_255_1_234
10
21.1961445
20
5.0751211
40
0.3688271
50
203.9077269
51
215.1312379
0
ARC
8
DEFAULT_255_1_234
10
21.1038539
20
5.0035941
40
0.2522457
50
213.9071664
51
263.8849284
0
ARC
8
DEFAULT_255_1_234
10
21.1163868
20
5.0820518
40
0.3316174
50
263.1758525
51
270.1031083
0
ARC
8
DEFAULT_255_1_234
10
21.119596
20
5.2067365
40
0.4563091
50
269.6719807
51
279.0609165
0
ARC
8
DEFAULT_255_1_234
10
21.1462728
20
5.0454907
40
0.2928759
50
278.8750225
51
293.6346586
0
ARC
8
DEFAULT_255_1_234
10
21.1782936
20
4.97029
40
0.2111472
50
293.8553404
51
310.0518804
0
ARC
8
DEFAULT_255_1_234
10
21.178779
20
4.9640516
40
0.2060917
50
311.0646779
51
332.0108348
0
ARC
8
DEFAULT_255_1_234
10
21.0595517
20
5.0297978
40
0.3422352
50
331.6588543
51
343.2878891
0
ARC
8
DEFAULT_255_1_234
10
20.8533032
20
5.0931798
40
0.5580003
50
343.1446044
51
351.010618
0
ARC
8
DEFAULT_255_1_234
10
20.6991678
20
5.1212871
40
0.7146438
50
350.7157277
51
351.1602153
0
LINE
8
DEFAULT_255_1_234
10
22.6695186
20
5.8098211
11
22.6695186
21
4.6404
0
LINE
8
DEFAULT_255_1_234
10
22.6695186
20
4.6404
11
22.5145061
21
4.6404
0
LINE
8
DEFAULT_255_1_234
10
22.5145061
20
4.6404
11
22.5145061
21
5.180936
0
LINE
8
DEFAULT_255_1_234
10
22.5145061
20
5.180936
11
21.9249765
21
5.180936
0
LINE
8
DEFAULT_255_1_234
10
21.9249765
20
5.180936
11
21.9249765
21
4.6404
0
LINE
8
DEFAULT_255_1_234
10
21.9249765
20
4.6404
11
21.7707671
21
4.6404
0
LINE
8
DEFAULT_255_1_234
10
21.7707671
20
4.6404
11
21.7707671
21
5.8098211
0
LINE
8
DEFAULT_255_1_234
10
21.7707671
20
5.8098211
11
21.9249765
21
5.8098211
0
LINE
8
DEFAULT_255_1_234
10
21.9249765
20
5.8098211
11
21.9249765
21
5.3070343
0
LINE
8
DEFAULT_255_1_234
10
21.9249765
20
5.3070343
11
22.5145061
21
5.3070343
0
LINE
8
DEFAULT_255_1_234
10
22.5145061
20
5.3070343
11
22.5145061
21
5.8098211
0
LINE
8
DEFAULT_255_1_234
10
22.5145061
20
5.8098211
11
22.6695186
21
5.8098211
0
LINE
8
DEFAULT_255_1_234
10
23.6710764
20
4.7616792
11
23.6710764
21
4.6404
0
LINE
8
DEFAULT_255_1_234
10
23.6710764
20
4.6404
11
22.9048485
21
4.6404
0
LINE
8
DEFAULT_255_1_234
10
22.9048485
20
4.6404
11
22.9048485
21
4.7472221
0
LINE
8
DEFAULT_255_1_234
10
22.9048485
20
4.7472221
11
23.3096481
21
5.1969995
0
LINE
8
DEFAULT_255_1_234
10
23.0309468
20
5.4652595
11
22.8823597
21
5.4652595
0
LINE
8
DEFAULT_255_1_234
10
23.3971941
20
5.1014218
11
23.0839563
21
4.7616792
0
LINE
8
DEFAULT_255_1_234
10
23.0839563
20
4.7616792
11
23.6710764
21
4.7616792
0
ARC
8
DEFAULT_255_1_234
10
21.9606315
20
6.3899527
40
1.8008286
50
318.5132453
51
320.7828378
0
ARC
8
DEFAULT_255_1_234
10
22.4893289
20
5.9596426
40
1.1191493
50
320.7372736
51
323.9737074
0
ARC
8
DEFAULT_255_1_234
10
22.8813146
20
5.6756361
40
0.6350923
50
323.8961724
51
328.6421089
0
ARC
8
DEFAULT_255_1_234
10
23.0859741
20
5.5494031
40
0.3946393
50
328.8299013
51
331.789948
0
ARC
8
DEFAULT_255_1_234
10
23.1856919
20
5.4979509
40
0.2824501
50
331.4255242
51
352.9364833
0
ARC
8
DEFAULT_255_1_234
10
23.199342
20
5.4948976
40
0.2685315
50
353.2248685
51
0.0169286
0
ARC
8
DEFAULT_255_1_234
10
23.2203297
20
5.497195
40
0.2475536
50
359.4866256
51
15.9339782
0
ARC
8
DEFAULT_255_1_234
10
23.2710282
20
5.5108286
40
0.1950618
50
16.1714718
51
43.5284424
0
ARC
8
DEFAULT_255_1_234
10
23.2787591
20
5.5185573
40
0.184134
50
43.4415429
51
83.1661404
0
ARC
8
DEFAULT_255_1_234
10
23.2653509
20
5.4448771
40
0.258926
50
82.160215
51
90.1505798
0
ARC
8
DEFAULT_255_1_234
10
23.2621936
20
5.3911865
40
0.3126255
50
89.5460705
51
102.5418777
0
ARC
8
DEFAULT_255_1_234
10
23.2379022
20
5.4942665
40
0.2067346
50
102.1739365
51
129.2061916
0
ARC
8
DEFAULT_255_1_234
10
23.2300094
20
5.5067094
40
0.1921118
50
129.7279328
51
135.7542026
0
ARC
8
DEFAULT_255_1_234
10
23.2421622
20
5.4970045
40
0.2075944
50
136.175737
51
166.3674722
0
ARC
8
DEFAULT_255_1_234
10
23.3428541
20
5.4700182
40
0.3118201
50
165.9092917
51
178.8683903
0
ARC
8
DEFAULT_255_1_234
10
23.4293402
20
5.4653179
40
0.3983935
50
178.438168
51
180.0083905
0
ARC
8
DEFAULT_255_1_234
10
23.2892005
20
5.4692231
40
0.4068601
50
163.2878735
51
180.5581814
0
ARC
8
DEFAULT_255_1_234
10
23.2090266
20
5.491284
40
0.3237344
50
133.454115
51
162.9470031
0
ARC
8
DEFAULT_255_1_234
10
23.2268807
20
5.4723
40
0.349795
50
100.7869394
51
133.4384016
0
ARC
8
DEFAULT_255_1_234
10
23.2616579
20
5.3174319
40
0.5084616
50
89.6605301
51
101.3704185
0
ARC
8
DEFAULT_255_1_234
10
23.2682918
20
5.3235496
40
0.502348
50
78.2171172
51
90.4130393
0
ARC
8
DEFAULT_255_1_234
10
23.3037996
20
5.4859637
40
0.3361092
50
55.9268222
51
78.4888551
0
ARC
8
DEFAULT_255_1_234
10
23.3234436
20
5.5198324
40
0.2970617
50
47.9292255
51
55.4054003
0
ARC
8
DEFAULT_255_1_234
10
23.3335997
20
5.5301502
40
0.2825983
50
4.3347696
51
48.0560701
0
ARC
8
DEFAULT_255_1_234
10
23.224039
20
5.5131601
40
0.393225
50
359.925209
51
5.5967654
0
ARC
8
DEFAULT_255_1_234
10
23.2669282
20
5.5187816
40
0.3503892
50
337.8914096
51
358.9967724
0
ARC
8
DEFAULT_255_1_234
10
22.9955694
20
5.6234706
40
0.6412172
50
326.9135351
51
338.3505194
0
ARC
8
DEFAULT_255_1_234
10
22.5969998
20
5.8789284
40
1.1146189
50
319.6472867
51
327.095818
0
ARC
8
DEFAULT_255_1_234
10
22.2137001
20
6.1951
40
1.6114559
50
317.2586784
51
319.9046139
0
LINE
8
DEFAULT_255_1_234
10
24.1529807
20
5.1978026
11
24.1529807
21
5.0765234
0
LINE
8
DEFAULT_255_1_234
10
24.1529807
20
5.0765234
11
23.7610318
21
5.0765234
0
LINE
8
DEFAULT_255_1_234
10
23.7610318
20
5.0765234
11
23.7610318
21
5.1978026
0
LINE
8
DEFAULT_255_1_234
10
23.7610318
20
5.1978026
11
24.1529807
21
5.1978026
0
LINE
8
DEFAULT_255_1_234
10
20.954723
20
12.9489663
11
21.1097355
21
12.9489663
0
LINE
8
DEFAULT_255_1_234
10
20.2093777
20
13.1079947
11
20.2093777
21
13.2204391
0
LINE
8
DEFAULT_255_1_234
10
21.1097355
20
13.3714357
11
20.954723
21
13.3714357
0
LINE
8
DEFAULT_255_1_234
10
20.3643902
20
13.2164232
11
20.3643902
21
13.1031757
0
ARC
8
DEFAULT_255_1_234
10
20.5616742
20
13.0086846
40
0.5513052
50
340.1774281
51
353.7814284
0
ARC
8
DEFAULT_255_1_234
10
20.7188095
20
12.9501582
40
0.3836379
50
311.4558989
51
340.4421614
0
ARC
8
DEFAULT_255_1_234
10
20.7154763
20
12.9612528
40
0.3941894
50
282.4333181
51
310.7513653
0
ARC
8
DEFAULT_255_1_234
10
20.6715502
20
13.1427679
40
0.5809175
50
269.9358511
51
282.809604
0
ARC
8
DEFAULT_255_1_234
10
20.6663568
20
13.2885212
40
0.7266847
50
270.0021091
51
270.3581957
0
ARC
8
DEFAULT_255_1_234
10
20.6610985
20
13.0284585
40
0.4666519
50
250.7884749
51
270.6489167
0
ARC
8
DEFAULT_255_1_234
10
20.644282
20
12.9647319
40
0.4009729
50
219.3627325
51
250.0611886
0
ARC
8
DEFAULT_255_1_234
10
20.7272031
20
13.0352042
40
0.5097822
50
193.5479632
51
219.5756669
0
ARC
8
DEFAULT_255_1_234
10
20.9643652
20
13.0967919
40
0.7547848
50
181.1218675
51
193.87563
0
ARC
8
DEFAULT_255_1_234
10
21.1713833
20
13.107858
40
0.9620055
50
179.9918545
51
181.5394234
0
ARC
8
DEFAULT_255_1_234
10
20.9862935
20
13.2241788
40
0.7769248
50
169.5837241
51
180.2757934
0
ARC
8
DEFAULT_255_1_234
10
20.8025873
20
13.2581229
40
0.590109
50
155.0365899
51
169.6003176
0
ARC
8
DEFAULT_255_1_234
10
20.6890337
20
13.3128677
40
0.4640625
50
136.783148
51
155.2472683
0
ARC
8
DEFAULT_255_1_234
10
20.6500814
20
13.3459562
40
0.4130255
50
121.7633186
51
136.428115
0
ARC
8
DEFAULT_255_1_234
10
20.6635776
20
13.3210227
40
0.4413323
50
95.6459699
51
121.5490577
0
ARC
8
DEFAULT_255_1_234
10
20.6793058
20
13.2101949
40
0.55319
50
89.924208
51
96.1377933
0
ARC
8
DEFAULT_255_1_234
10
20.6843491
20
13.2220542
40
0.5413475
50
76.6779277
51
90.4563316
0
ARC
8
DEFAULT_255_1_234
10
20.7237114
20
13.3811114
40
0.3775041
50
47.485847
51
76.9287264
0
ARC
8
DEFAULT_255_1_234
10
20.7090087
20
13.3711159
40
0.3948286
50
16.5424086
51
46.8933463
0
ARC
8
DEFAULT_255_1_234
10
20.5482244
20
13.3182861
40
0.564021
50
5.4072051
51
17.0365086
0
ARC
8
DEFAULT_255_1_234
10
20.4043261
20
13.2951679
40
0.5556559
50
7.8891745
51
15.9239216
0
ARC
8
DEFAULT_255_1_234
10
20.6030274
20
13.3528631
40
0.3487515
50
15.7653144
51
27.9410532
0
ARC
8
DEFAULT_255_1_234
10
20.7134492
20
13.411979
40
0.2235026
50
27.8166557
51
46.4008329
0
ARC
8
DEFAULT_255_1_234
10
20.7184135
20
13.4114082
40
0.2205286
50
47.4371857
51
75.0698205
0
ARC
8
DEFAULT_255_1_234
10
20.6875529
20
13.3039765
40
0.3322915
50
74.7008593
51
87.8124495
0
ARC
8
DEFAULT_255_1_234
10
20.6802217
20
13.1983844
40
0.4380987
50
87.3814673
51
90.0240855
0
ARC
8
DEFAULT_255_1_234
10
20.676376
20
13.3161291
40
0.3203749
50
89.3451631
51
108.5745436
0
ARC
8
DEFAULT_255_1_234
10
20.6626865
20
13.3674908
40
0.2673494
50
109.2998449
51
143.3037509
0
ARC
8
DEFAULT_255_1_234
10
20.7388938
20
13.3088881
40
0.3634757
50
143.0753173
51
163.1916937
0
ARC
8
DEFAULT_255_1_234
10
20.9340666
20
13.2472967
40
0.5681262
50
162.9373603
51
174.6208611
0
ARC
8
DEFAULT_255_1_234
10
21.1966708
20
13.218501
40
0.8322832
50
174.3419979
51
180.1430411
0
ARC
8
DEFAULT_255_1_234
10
21.1035864
20
13.0990698
40
0.7392076
50
179.6817502
51
189.150529
0
ARC
8
DEFAULT_255_1_234
10
20.8535112
20
13.057419
40
0.4856932
50
188.9910863
51
203.5773039
0
ARC
8
DEFAULT_255_1_234
10
20.7455445
20
13.0126211
40
0.3688271
50
203.9077269
51
215.1312379
0
ARC
8
DEFAULT_255_1_234
10
20.6532539
20
12.9410941
40
0.2522457
50
213.9071664
51
263.8849284
0
ARC
8
DEFAULT_255_1_234
10
20.6657868
20
13.0195518
40
0.3316174
50
263.1758525
51
270.1031083
0
ARC
8
DEFAULT_255_1_234
10
20.668996
20
13.1442365
40
0.4563091
50
269.6719807
51
279.0609165
0
ARC
8
DEFAULT_255_1_234
10
20.6956728
20
12.9829907
40
0.2928759
50
278.8750225
51
293.6346586
0
ARC
8
DEFAULT_255_1_234
10
20.7276936
20
12.90779
40
0.2111472
50
293.8553404
51
310.0518804
0
ARC
8
DEFAULT_255_1_234
10
20.728179
20
12.9015516
40
0.2060917
50
311.0646779
51
332.0108348
0
ARC
8
DEFAULT_255_1_234
10
20.6089517
20
12.9672978
40
0.3422352
50
331.6588543
51
343.2878891
0
ARC
8
DEFAULT_255_1_234
10
20.4027032
20
13.0306798
40
0.5580003
50
343.1446044
51
351.010618
0
ARC
8
DEFAULT_255_1_234
10
20.2485678
20
13.0587871
40
0.7146438
50
350.7157277
51
351.1602153
0
LINE
8
DEFAULT_255_1_234
10
22.2189186
20
13.7473211
11
22.2189186
21
12.5779
0
LINE
8
DEFAULT_255_1_234
10
22.2189186
20
12.5779
11
22.0639061
21
12.5779
0
LINE
8
DEFAULT_255_1_234
10
22.0639061
20
12.5779
11
22.0639061
21
13.118436
0
LINE
8
DEFAULT_255_1_234
10
22.0639061
20
13.118436
11
21.4743765
21
13.118436
0
LINE
8
DEFAULT_255_1_234
10
21.4743765
20
13.118436
11
21.4743765
21
12.5779
0
LINE
8
DEFAULT_255_1_234
10
21.4743765
20
12.5779
11
21.3201671
21
12.5779
0
LINE
8
DEFAULT_255_1_234
10
21.3201671
20
12.5779
11
21.3201671
21
13.7473211
0
LINE
8
DEFAULT_255_1_234
10
21.3201671
20
13.7473211
11
21.4743765
21
13.7473211
0
LINE
8
DEFAULT_255_1_234
10
21.4743765
20
13.7473211
11
21.4743765
21
13.2445343
0
LINE
8
DEFAULT_255_1_234
10
21.4743765
20
13.2445343
11
22.0639061
21
13.2445343
0
LINE
8
DEFAULT_255_1_234
10
22.0639061
20
13.2445343
11
22.0639061
21
13.7473211
0
LINE
8
DEFAULT_255_1_234
10
22.0639061
20
13.7473211
11
22.2189186
21
13.7473211
0
LINE
8
DEFAULT_255_1_234
10
23.2204764
20
12.6991792
11
23.2204764
21
12.5779
0
LINE
8
DEFAULT_255_1_234
10
23.2204764
20
12.5779
11
22.4542485
21
12.5779
0
LINE
8
DEFAULT_255_1_234
10
22.4542485
20
12.5779
11
22.4542485
21
12.6847221
0
LINE
8
DEFAULT_255_1_234
10
22.4542485
20
12.6847221
11
22.8590481
21
13.1344995
0
LINE
8
DEFAULT_255_1_234
10
22.5803468
20
13.4027595
11
22.4317597
21
13.4027595
0
LINE
8
DEFAULT_255_1_234
10
22.9465941
20
13.0389218
11
22.6333563
21
12.6991792
0
LINE
8
DEFAULT_255_1_234
10
22.6333563
20
12.6991792
11
23.2204764
21
12.6991792
0
ARC
8
DEFAULT_255_1_234
10
21.5100315
20
14.3274527
40
1.8008286
50
318.5132453
51
320.7828378
0
ARC
8
DEFAULT_255_1_234
10
22.0387289
20
13.8971426
40
1.1191493
50
320.7372736
51
323.9737074
0
ARC
8
DEFAULT_255_1_234
10
22.4307146
20
13.6131361
40
0.6350923
50
323.8961724
51
328.6421089
0
ARC
8
DEFAULT_255_1_234
10
22.6353741
20
13.4869031
40
0.3946393
50
328.8299013
51
331.789948
0
ARC
8
DEFAULT_255_1_234
10
22.7350919
20
13.4354509
40
0.2824501
50
331.4255242
51
352.9364833
0
ARC
8
DEFAULT_255_1_234
10
22.748742
20
13.4323976
40
0.2685315
50
353.2248685
51
0.0169286
0
ARC
8
DEFAULT_255_1_234
10
22.7697297
20
13.434695
40
0.2475536
50
359.4866256
51
15.9339782
0
ARC
8
DEFAULT_255_1_234
10
22.8204282
20
13.4483286
40
0.1950618
50
16.1714718
51
43.5284424
0
ARC
8
DEFAULT_255_1_234
10
22.8281591
20
13.4560573
40
0.184134
50
43.4415429
51
83.1661404
0
ARC
8
DEFAULT_255_1_234
10
22.8147509
20
13.3823771
40
0.258926
50
82.160215
51
90.1505798
0
ARC
8
DEFAULT_255_1_234
10
22.8115936
20
13.3286865
40
0.3126255
50
89.5460705
51
102.5418777
0
ARC
8
DEFAULT_255_1_234
10
22.7873022
20
13.4317665
40
0.2067346
50
102.1739365
51
129.2061916
0
ARC
8
DEFAULT_255_1_234
10
22.7794094
20
13.4442094
40
0.1921118
50
129.7279328
51
135.7542026
0
ARC
8
DEFAULT_255_1_234
10
22.7915622
20
13.4345045
40
0.2075944
50
136.175737
51
166.3674722
0
ARC
8
DEFAULT_255_1_234
10
22.8922541
20
13.4075182
40
0.3118201
50
165.9092917
51
178.8683903
0
ARC
8
DEFAULT_255_1_234
10
22.9787402
20
13.4028179
40
0.3983935
50
178.438168
51
180.0083905
0
ARC
8
DEFAULT_255_1_234
10
22.8386005
20
13.4067231
40
0.4068601
50
163.2878735
51
180.5581814
0
ARC
8
DEFAULT_255_1_234
10
22.7584266
20
13.428784
40
0.3237344
50
133.454115
51
162.9470031
0
ARC
8
DEFAULT_255_1_234
10
22.7762807
20
13.4098
40
0.349795
50
100.7869394
51
133.4384016
0
ARC
8
DEFAULT_255_1_234
10
22.8110579
20
13.2549319
40
0.5084616
50
89.6605301
51
101.3704185
0
ARC
8
DEFAULT_255_1_234
10
22.8176918
20
13.2610496
40
0.502348
50
78.2171172
51
90.4130393
0
ARC
8
DEFAULT_255_1_234
10
22.8531996
20
13.4234637
40
0.3361092
50
55.9268222
51
78.4888551
0
ARC
8
DEFAULT_255_1_234
10
22.8728436
20
13.4573324
40
0.2970617
50
47.9292255
51
55.4054003
0
ARC
8
DEFAULT_255_1_234
10
22.8829997
20
13.4676502
40
0.2825983
50
4.3347696
51
48.0560701
0
ARC
8
DEFAULT_255_1_234
10
22.773439
20
13.4506601
40
0.393225
50
359.925209
51
5.5967654
0
ARC
8
DEFAULT_255_1_234
10
22.8163282
20
13.4562816
40
0.3503892
50
337.8914096
51
358.9967724
0
ARC
8
DEFAULT_255_1_234
10
22.5449694
20
13.5609706
40
0.6412172
50
326.9135351
51
338.3505194
0
ARC
8
DEFAULT_255_1_234
10
22.1463998
20
13.8164284
40
1.1146189
50
319.6472867
51
327.095818
0
ARC
8
DEFAULT_255_1_234
10
21.7631001
20
14.1326
40
1.6114559
50
317.2586784
51
319.9046139
0
LINE
8
DEFAULT_255_1_234
10
23.8188409
20
13.5465276
11
23.8188409
21
13.2051788
0
LINE
8
DEFAULT_255_1_234
10
23.8188409
20
13.2051788
11
24.1449294
21
13.2051788
0
LINE
8
DEFAULT_255_1_234
10
24.1449294
20
13.2051788
11
24.1449294
21
13.0646233
0
LINE
8
DEFAULT_255_1_234
10
24.1449294
20
13.0646233
11
23.8188409
21
13.0646233
0
LINE
8
DEFAULT_255_1_234
10
23.8188409
20
13.0646233
11
23.8188409
21
12.6951634
0
LINE
8
DEFAULT_255_1_234
10
23.8188409
20
12.6951634
11
23.6694505
21
12.6951634
0
LINE
8
DEFAULT_255_1_234
10
23.6694505
20
12.6951634
11
23.6694505
21
13.0646233
0
LINE
8
DEFAULT_255_1_234
10
23.6694505
20
13.0646233
11
23.343362
21
13.0646233
0
LINE
8
DEFAULT_255_1_234
10
23.343362
20
13.0646233
11
23.343362
21
13.2051788
0
LINE
8
DEFAULT_255_1_234
10
23.343362
20
13.2051788
11
23.6694505
21
13.2051788
0
LINE
8
DEFAULT_255_1_234
10
23.6694505
20
13.2051788
11
23.6694505
21
13.5465276
0
LINE
8
DEFAULT_255_1_234
10
23.6694505
20
13.5465276
11
23.8188409
21
13.5465276
0
LINE
8
DEFAULT_255_1_234
10
21.405323
20
20.8864663
11
21.5603355
21
20.8864663
0
LINE
8
DEFAULT_255_1_234
10
20.6599777
20
21.0454947
11
20.6599777
21
21.1579391
0
LINE
8
DEFAULT_255_1_234
10
21.5603355
20
21.3089357
11
21.405323
21
21.3089357
0
LINE
8
DEFAULT_255_1_234
10
20.8149902
20
21.1539232
11
20.8149902
21
21.0406757
0
ARC
8
DEFAULT_255_1_234
10
21.0122742
20
20.9461846
40
0.5513052
50
340.1774281
51
353.7814284
0
ARC
8
DEFAULT_255_1_234
10
21.1694095
20
20.8876582
40
0.3836379
50
311.4558989
51
340.4421614
0
ARC
8
DEFAULT_255_1_234
10
21.1660763
20
20.8987528
40
0.3941894
50
282.4333181
51
310.7513653
0
ARC
8
DEFAULT_255_1_234
10
21.1221502
20
21.0802679
40
0.5809175
50
269.9358511
51
282.809604
0
ARC
8
DEFAULT_255_1_234
10
21.1169568
20
21.2260212
40
0.7266847
50
270.0021091
51
270.3581957
0
ARC
8
DEFAULT_255_1_234
10
21.1116985
20
20.9659585
40
0.4666519
50
250.7884749
51
270.6489167
0
ARC
8
DEFAULT_255_1_234
10
21.094882
20
20.9022319
40
0.4009729
50
219.3627325
51
250.0611886
0
ARC
8
DEFAULT_255_1_234
10
21.1778031
20
20.9727042
40
0.5097822
50
193.5479632
51
219.5756669
0
ARC
8
DEFAULT_255_1_234
10
21.4149652
20
21.0342919
40
0.7547848
50
181.1218675
51
193.87563
0
ARC
8
DEFAULT_255_1_234
10
21.6219833
20
21.045358
40
0.9620055
50
179.9918545
51
181.5394234
0
ARC
8
DEFAULT_255_1_234
10
21.4368935
20
21.1616788
40
0.7769248
50
169.5837241
51
180.2757934
0
ARC
8
DEFAULT_255_1_234
10
21.2531873
20
21.1956229
40
0.590109
50
155.0365899
51
169.6003176
0
ARC
8
DEFAULT_255_1_234
10
21.1396337
20
21.2503677
40
0.4640625
50
136.783148
51
155.2472683
0
ARC
8
DEFAULT_255_1_234
10
21.1006814
20
21.2834562
40
0.4130255
50
121.7633186
51
136.428115
0
ARC
8
DEFAULT_255_1_234
10
21.1141776
20
21.2585227
40
0.4413323
50
95.6459699
51
121.5490577
0
ARC
8
DEFAULT_255_1_234
10
21.1299058
20
21.1476949
40
0.55319
50
89.924208
51
96.1377933
0
ARC
8
DEFAULT_255_1_234
10
21.1349491
20
21.1595542
40
0.5413475
50
76.6779277
51
90.4563316
0
ARC
8
DEFAULT_255_1_234
10
21.1743114
20
21.3186114
40
0.3775041
50
47.485847
51
76.9287264
0
ARC
8
DEFAULT_255_1_234
10
21.1596087
20
21.3086159
40
0.3948286
50
16.5424086
51
46.8933463
0
ARC
8
DEFAULT_255_1_234
10
20.9988244
20
21.2557861
40
0.564021
50
5.4072051
51
17.0365086
0
ARC
8
DEFAULT_255_1_234
10
20.8549261
20
21.2326679
40
0.5556559
50
7.8891745
51
15.9239216
0
ARC
8
DEFAULT_255_1_234
10
21.0536274
20
21.2903631
40
0.3487515
50
15.7653144
51
27.9410532
0
ARC
8
DEFAULT_255_1_234
10
21.1640492
20
21.349479
40
0.2235026
50
27.8166557
51
46.4008329
0
ARC
8
DEFAULT_255_1_234
10
21.1690135
20
21.3489082
40
0.2205286
50
47.4371857
51
75.0698205
0
ARC
8
DEFAULT_255_1_234
10
21.1381529
20
21.2414765
40
0.3322915
50
74.7008593
51
87.8124495
0
ARC
8
DEFAULT_255_1_234
10
21.1308217
20
21.1358844
40
0.4380987
50
87.3814673
51
90.0240855
0
ARC
8
DEFAULT_255_1_234
10
21.126976
20
21.2536291
40
0.3203749
50
89.3451631
51
108.5745436
0
ARC
8
DEFAULT_255_1_234
10
21.1132865
20
21.3049908
40
0.2673494
50
109.2998449
51
143.3037509
0
ARC
8
DEFAULT_255_1_234
10
21.1894938
20
21.2463881
40
0.3634757
50
143.0753173
51
163.1916937
0
ARC
8
DEFAULT_255_1_234
10
21.3846666
20
21.1847967
40
0.5681262
50
162.9373603
51
174.6208611
0
ARC
8
DEFAULT_255_1_234
10
21.6472708
20
21.156001
40
0.8322832
50
174.3419979
51
180.1430411
0
ARC
8
DEFAULT_255_1_234
10
21.5541864
20
21.0365698
40
0.7392076
50
179.6817502
51
189.150529
0
ARC
8
DEFAULT_255_1_234
10
21.3041112
20
20.994919
40
0.4856932
50
188.9910863
51
203.5773039
0
ARC
8
DEFAULT_255_1_234
10
21.1961445
20
20.9501211
40
0.3688271
50
203.9077269
51
215.1312379
0
ARC
8
DEFAULT_255_1_234
10
21.1038539
20
20.8785941
40
0.2522457
50
213.9071664
51
263.8849284
0
ARC
8
DEFAULT_255_1_234
10
21.1163868
20
20.9570518
40
0.3316174
50
263.1758525
51
270.1031083
0
ARC
8
DEFAULT_255_1_234
10
21.119596
20
21.0817365
40
0.4563091
50
269.6719807
51
279.0609165
0
ARC
8
DEFAULT_255_1_234
10
21.1462728
20
20.9204907
40
0.2928759
50
278.8750225
51
293.6346586
0
ARC
8
DEFAULT_255_1_234
10
21.1782936
20
20.84529
40
0.2111472
50
293.8553404
51
310.0518804
0
ARC
8
DEFAULT_255_1_234
10
21.178779
20
20.8390516
40
0.2060917
50
311.0646779
51
332.0108348
0
ARC
8
DEFAULT_255_1_234
10
21.0595517
20
20.9047978
40
0.3422352
50
331.6588543
51
343.2878891
0
ARC
8
DEFAULT_255_1_234
10
20.8533032
20
20.9681798
40
0.5580003
50
343.1446044
51
351.010618
0
ARC
8
DEFAULT_255_1_234
10
20.6991678
20
20.9962871
40
0.7146438
50
350.7157277
51
351.1602153
0
LINE
8
DEFAULT_255_1_234
10
22.6695186
20
21.6848211
11
22.6695186
21
20.5154
0
LINE
8
DEFAULT_255_1_234
10
22.6695186
20
20.5154
11
22.5145061
21
20.5154
0
LINE
8
DEFAULT_255_1_234
10
22.5145061
20
20.5154
11
22.5145061
21
21.055936
0
LINE
8
DEFAULT_255_1_234
10
22.5145061
20
21.055936
11
21.9249765
21
21.055936
0
LINE
8
DEFAULT_255_1_234
10
21.9249765
20
21.055936
11
21.9249765
21
20.5154
0
LINE
8
DEFAULT_255_1_234
10
21.9249765
20
20.5154
11
21.7707671
21
20.5154
0
LINE
8
DEFAULT_255_1_234
10
21.7707671
20
20.5154
11
21.7707671
21
21.6848211
0
LINE
8
DEFAULT_255_1_234
10
21.7707671
20
21.6848211
11
21.9249765
21
21.6848211
0
LINE
8
DEFAULT_255_1_234
10
21.9249765
20
21.6848211
11
21.9249765
21
21.1820343
0
LINE
8
DEFAULT_255_1_234
10
21.9249765
20
21.1820343
11
22.5145061
21
21.1820343
0
LINE
8
DEFAULT_255_1_234
10
22.5145061
20
21.1820343
11
22.5145061
21
21.6848211
0
LINE
8
DEFAULT_255_1_234
10
22.5145061
20
21.6848211
11
22.6695186
21
21.6848211
0
LINE
8
DEFAULT_255_1_234
10
23.3931782
20
21.6904433
11
23.3931782
21
20.5154
0
LINE
8
DEFAULT_255_1_234
10
23.3931782
20
20.5154
11
23.2437879
21
20.5154
0
LINE
8
DEFAULT_255_1_234
10
23.2437879
20
20.5154
11
23.2437879
21
21.5057133
0
LINE
8
DEFAULT_255_1_234
10
23.2437879
20
21.5057133
11
22.9442041
21
21.3956785
0
LINE
8
DEFAULT_255_1_234
10
22.9442041
20
21.3956785
11
22.9442041
21
21.5306117
0
LINE
8
DEFAULT_255_1_234
10
22.9442041
20
21.5306117
11
23.3698862
21
21.6904433
0
LINE
8
DEFAULT_255_1_234
10
23.3698862
20
21.6904433
11
23.3931782
21
21.6904433
0
LINE
8
DEFAULT_255_1_234
10
24.1529807
20
21.0728026
11
24.1529807
21
20.9515234
0
LINE
8
DEFAULT_255_1_234
10
24.1529807
20
20.9515234
11
23.7610318
21
20.9515234
0
LINE
8
DEFAULT_255_1_234
10
23.7610318
20
20.9515234
11
23.7610318
21
21.0728026
0
LINE
8
DEFAULT_255_1_234
10
23.7610318
20
21.0728026
11
24.1529807
21
21.0728026
0
LINE
8
DEFAULT_255_1_234
10
20.954723
20
28.8239663
11
21.1097355
21
28.8239663
0
LINE
8
DEFAULT_255_1_234
10
20.2093777
20
28.9829947
11
20.2093777
21
29.0954391
0
LINE
8
DEFAULT_255_1_234
10
21.1097355
20
29.2464357
11
20.954723
21
29.2464357
0
LINE
8
DEFAULT_255_1_234
10
20.3643902
20
29.0914232
11
20.3643902
21
28.9781757
0
ARC
8
DEFAULT_255_1_234
10
20.5616742
20
28.8836846
40
0.5513052
50
340.1774281
51
353.7814284
0
ARC
8
DEFAULT_255_1_234
10
20.7188095
20
28.8251582
40
0.3836379
50
311.4558989
51
340.4421614
0
ARC
8
DEFAULT_255_1_234
10
20.7154763
20
28.8362528
40
0.3941894
50
282.4333181
51
310.7513653
0
ARC
8
DEFAULT_255_1_234
10
20.6715502
20
29.0177679
40
0.5809175
50
269.9358511
51
282.809604
0
ARC
8
DEFAULT_255_1_234
10
20.6663568
20
29.1635212
40
0.7266847
50
270.0021091
51
270.3581957
0
ARC
8
DEFAULT_255_1_234
10
20.6610985
20
28.9034585
40
0.4666519
50
250.7884749
51
270.6489167
0
ARC
8
DEFAULT_255_1_234
10
20.644282
20
28.8397319
40
0.4009729
50
219.3627325
51
250.0611886
0
ARC
8
DEFAULT_255_1_234
10
20.7272031
20
28.9102042
40
0.5097822
50
193.5479632
51
219.5756669
0
ARC
8
DEFAULT_255_1_234
10
20.9643652
20
28.9717919
40
0.7547848
50
181.1218675
51
193.87563
0
ARC
8
DEFAULT_255_1_234
10
21.1713833
20
28.982858
40
0.9620055
50
179.9918545
51
181.5394234
0
ARC
8
DEFAULT_255_1_234
10
20.9862935
20
29.0991788
40
0.7769248
50
169.5837241
51
180.2757934
0
ARC
8
DEFAULT_255_1_234
10
20.8025873
20
29.1331229
40
0.590109
50
155.0365899
51
169.6003176
0
ARC
8
DEFAULT_255_1_234
10
20.6890337
20
29.1878677
40
0.4640625
50
136.783148
51
155.2472683
0
ARC
8
DEFAULT_255_1_234
10
20.6500814
20
29.2209562
40
0.4130255
50
121.7633186
51
136.428115
0
ARC
8
DEFAULT_255_1_234
10
20.6635776
20
29.1960227
40
0.4413323
50
95.6459699
51
121.5490577
0
ARC
8
DEFAULT_255_1_234
10
20.6793058
20
29.0851949
40
0.55319
50
89.924208
51
96.1377933
0
ARC
8
DEFAULT_255_1_234
10
20.6843491
20
29.0970542
40
0.5413475
50
76.6779277
51
90.4563316
0
ARC
8
DEFAULT_255_1_234
10
20.7237114
20
29.2561114
40
0.3775041
50
47.485847
51
76.9287264
0
ARC
8
DEFAULT_255_1_234
10
20.7090087
20
29.2461159
40
0.3948286
50
16.5424086
51
46.8933463
0
ARC
8
DEFAULT_255_1_234
10
20.5482244
20
29.1932861
40
0.564021
50
5.4072051
51
17.0365086
0
ARC
8
DEFAULT_255_1_234
10
20.4043261
20
29.1701679
40
0.5556559
50
7.8891745
51
15.9239216
0
ARC
8
DEFAULT_255_1_234
10
20.6030274
20
29.2278631
40
0.3487515
50
15.7653144
51
27.9410532
0
ARC
8
DEFAULT_255_1_234
10
20.7134492
20
29.286979
40
0.2235026
50
27.8166557
51
46.4008329
0
ARC
8
DEFAULT_255_1_234
10
20.7184135
20
29.2864082
40
0.2205286
50
47.4371857
51
75.0698205
0
ARC
8
DEFAULT_255_1_234
10
20.6875529
20
29.1789765
40
0.3322915
50
74.7008593
51
87.8124495
0
ARC
8
DEFAULT_255_1_234
10
20.6802217
20
29.0733844
40
0.4380987
50
87.3814673
51
90.0240855
0
ARC
8
DEFAULT_255_1_234
10
20.676376
20
29.1911291
40
0.3203749
50
89.3451631
51
108.5745436
0
ARC
8
DEFAULT_255_1_234
10
20.6626865
20
29.2424908
40
0.2673494
50
109.2998449
51
143.3037509
0
ARC
8
DEFAULT_255_1_234
10
20.7388938
20
29.1838881
40
0.3634757
50
143.0753173
51
163.1916937
0
ARC
8
DEFAULT_255_1_234
10
20.9340666
20
29.1222967
40
0.5681262
50
162.9373603
51
174.6208611
0
ARC
8
DEFAULT_255_1_234
10
21.1966708
20
29.093501
40
0.8322832
50
174.3419979
51
180.1430411
0
ARC
8
DEFAULT_255_1_234
10
21.1035864
20
28.9740698
40
0.7392076
50
179.6817502
51
189.150529
0
ARC
8
DEFAULT_255_1_234
10
20.8535112
20
28.932419
40
0.4856932
50
188.9910863
51
203.5773039
0
ARC
8
DEFAULT_255_1_234
10
20.7455445
20
28.8876211
40
0.3688271
50
203.9077269
51
215.1312379
0
ARC
8
DEFAULT_255_1_234
10
20.6532539
20
28.8160941
40
0.2522457
50
213.9071664
51
263.8849284
0
ARC
8
DEFAULT_255_1_234
10
20.6657868
20
28.8945518
40
0.3316174
50
263.1758525
51
270.1031083
0
ARC
8
DEFAULT_255_1_234
10
20.668996
20
29.0192365
40
0.4563091
50
269.6719807
51
279.0609165
0
ARC
8
DEFAULT_255_1_234
10
20.6956728
20
28.8579907
40
0.2928759
50
278.8750225
51
293.6346586
0
ARC
8
DEFAULT_255_1_234
10
20.7276936
20
28.78279
40
0.2111472
50
293.8553404
51
310.0518804
0
ARC
8
DEFAULT_255_1_234
10
20.728179
20
28.7765516
40
0.2060917
50
311.0646779
51
332.0108348
0
ARC
8
DEFAULT_255_1_234
10
20.6089517
20
28.8422978
40
0.3422352
50
331.6588543
51
343.2878891
0
ARC
8
DEFAULT_255_1_234
10
20.4027032
20
28.9056798
40
0.5580003
50
343.1446044
51
351.010618
0
ARC
8
DEFAULT_255_1_234
10
20.2485678
20
28.9337871
40
0.7146438
50
350.7157277
51
351.1602153
0
LINE
8
DEFAULT_255_1_234
10
22.2189186
20
29.6223211
11
22.2189186
21
28.4529
0
LINE
8
DEFAULT_255_1_234
10
22.2189186
20
28.4529
11
22.0639061
21
28.4529
0
LINE
8
DEFAULT_255_1_234
10
22.0639061
20
28.4529
11
22.0639061
21
28.993436
0
LINE
8
DEFAULT_255_1_234
10
22.0639061
20
28.993436
11
21.4743765
21
28.993436
0
LINE
8
DEFAULT_255_1_234
10
21.4743765
20
28.993436
11
21.4743765
21
28.4529
0
LINE
8
DEFAULT_255_1_234
10
21.4743765
20
28.4529
11
21.3201671
21
28.4529
0
LINE
8
DEFAULT_255_1_234
10
21.3201671
20
28.4529
11
21.3201671
21
29.6223211
0
LINE
8
DEFAULT_255_1_234
10
21.3201671
20
29.6223211
11
21.4743765
21
29.6223211
0
LINE
8
DEFAULT_255_1_234
10
21.4743765
20
29.6223211
11
21.4743765
21
29.1195343
0
LINE
8
DEFAULT_255_1_234
10
21.4743765
20
29.1195343
11
22.0639061
21
29.1195343
0
LINE
8
DEFAULT_255_1_234
10
22.0639061
20
29.1195343
11
22.0639061
21
29.6223211
0
LINE
8
DEFAULT_255_1_234
10
22.0639061
20
29.6223211
11
22.2189186
21
29.6223211
0
LINE
8
DEFAULT_255_1_234
10
22.9425782
20
29.6279433
11
22.9425782
21
28.4529
0
LINE
8
DEFAULT_255_1_234
10
22.9425782
20
28.4529
11
22.7931879
21
28.4529
0
LINE
8
DEFAULT_255_1_234
10
22.7931879
20
28.4529
11
22.7931879
21
29.4432133
0
LINE
8
DEFAULT_255_1_234
10
22.7931879
20
29.4432133
11
22.4936041
21
29.3331785
0
LINE
8
DEFAULT_255_1_234
10
22.4936041
20
29.3331785
11
22.4936041
21
29.4681117
0
LINE
8
DEFAULT_255_1_234
10
22.4936041
20
29.4681117
11
22.9192862
21
29.6279433
0
LINE
8
DEFAULT_255_1_234
10
22.9192862
20
29.6279433
11
22.9425782
21
29.6279433
0
LINE
8
DEFAULT_255_1_234
10
23.8188409
20
29.4215276
11
23.8188409
21
29.0801788
0
LINE
8
DEFAULT_255_1_234
10
23.8188409
20
29.0801788
11
24.1449294
21
29.0801788
0
LINE
8
DEFAULT_255_1_234
10
24.1449294
20
29.0801788
11
24.1449294
21
28.9396233
0
LINE
8
DEFAULT_255_1_234
10
24.1449294
20
28.9396233
11
23.8188409
21
28.9396233
0
LINE
8
DEFAULT_255_1_234
10
23.8188409
20
28.9396233
11
23.8188409
21
28.5701634
0
LINE
8
DEFAULT_255_1_234
10
23.8188409
20
28.5701634
11
23.6694505
21
28.5701634
0
LINE
8
DEFAULT_255_1_234
10
23.6694505
20
28.5701634
11
23.6694505
21
28.9396233
0
LINE
8
DEFAULT_255_1_234
10
23.6694505
20
28.9396233
11
23.343362
21
28.9396233
0
LINE
8
DEFAULT_255_1_234
10
23.343362
20
28.9396233
11
23.343362
21
29.0801788
0
LINE
8
DEFAULT_255_1_234
10
23.343362
20
29.0801788
11
23.6694505
21
29.0801788
0
LINE
8
DEFAULT_255_1_234
10
23.6694505
20
29.0801788
11
23.6694505
21
29.4215276
0
LINE
8
DEFAULT_255_1_234
10
23.6694505
20
29.4215276
11
23.8188409
21
29.4215276
0
ENDSEC
0
EOF