0
SECTION
2
HEADER
9
$MEASUREMENT
70
1
0
ENDSEC
0
SECTION
2
TABLES
0
TABLE
2
LTYPE
0
LTYPE
72
65
70
64
2
CONTINUOUS
3
______
73
0
40
0
0
ENDTAB
0
TABLE
2
LAYER
0
LAYER
2
DEFAULT_255_2_778
70
0
62
255
6
CONTINUOUS
0
ENDTAB
0
ENDSEC
0
SECTION
2
ENTITIES
0
LINE
8
DEFAULT_255_2_778
10
64.9793803
20
60.2833766
11
71.7391803
21
60.2833766
0
LINE
8
DEFAULT_255_2_778
10
71.7391803
20
60.2833766
11
71.7391803
21
22.0335766
0
LINE
8
DEFAULT_255_2_778
10
71.7391803
20
22.0335766
11
64.9793803
21
22.0335766
0
LINE
8
DEFAULT_255_2_778
10
64.9793803
20
22.0335766
11
64.9793803
21
60.2833766
0
ARC
8
DEFAULT_255_2_778
10
68.3868073
20
24.545589
40
0.9013022
50
179.9176867
51
225.6555986
0
ARC
8
DEFAULT_255_2_778
10
68.3846665
20
24.5399844
40
0.8958011
50
225.502957
51
270.0600892
0
ARC
8
DEFAULT_255_2_778
10
68.3863567
20
24.5408516
40
0.8966681
50
269.9520314
51
318.2696533
0
ARC
8
DEFAULT_255_2_778
10
68.3848503
20
24.5454507
40
0.9008568
50
318.1151316
51
0.0911529
0
ARC
8
DEFAULT_255_2_778
10
68.3825122
20
24.547519
40
0.9031941
50
359.9597117
51
59.8829639
0
ARC
8
DEFAULT_255_2_778
10
68.3859935
20
24.5531137
40
0.8966078
50
59.8960046
51
90.0077097
0
LINE
8
DEFAULT_255_2_778
10
68.3858728
20
25.4497214
11
68.385656
21
25.4497214
0
ARC
8
DEFAULT_255_2_778
10
68.3859359
20
24.5508167
40
0.8989047
50
90.0178374
51
120.0645999
0
ARC
8
DEFAULT_255_2_778
10
68.3884286
20
24.5476171
40
0.9029229
50
120.0997826
51
180.0465285
0
ARC
8
DEFAULT_255_2_778
10
68.3959144
20
24.5002159
40
0.9976684
50
90.0579092
51
150.1038049
0
ARC
8
DEFAULT_255_2_778
10
68.3993711
20
24.4973572
40
1.0020901
50
150.0606151
51
180.0099111
0
ARC
8
DEFAULT_255_2_778
10
68.3993711
20
24.4970105
40
1.0020901
50
179.9900889
51
209.9393849
0
ARC
8
DEFAULT_255_2_778
10
68.3956817
20
24.493949
40
0.9973654
50
209.892758
51
269.9554413
0
ARC
8
DEFAULT_255_2_778
10
68.3961748
20
24.4890676
40
0.9924845
50
269.9267508
51
312.4282587
0
ARC
8
DEFAULT_255_2_778
10
68.3934522
20
24.4955482
40
0.9991076
50
312.2927683
51
357.7368088
0
ARC
8
DEFAULT_255_2_778
10
68.3714253
20
24.4971484
40
1.0211807
50
357.6959017
51
0.0019924
0
ARC
8
DEFAULT_255_2_778
10
68.3940093
20
24.49888
40
0.9985981
50
359.9026841
51
40.8526692
0
ARC
8
DEFAULT_255_2_778
10
68.3957024
20
24.5037051
40
0.9941646
50
40.7061528
51
88.4226974
0
ARC
8
DEFAULT_255_2_778
10
68.3949078
20
24.4831488
40
1.014735
50
88.4097989
51
90.0001005
0
ARC
8
DEFAULT_255_2_778
10
68.3871239
20
57.7441585
40
0.9013189
50
179.9157458
51
225.6517538
0
ARC
8
DEFAULT_255_2_778
10
68.3849211
20
57.7385664
40
0.8957831
50
225.5024857
51
270.0629979
0
ARC
8
DEFAULT_255_2_778
10
68.3865829
20
57.7395683
40
0.8967847
50
269.9567505
51
318.6005699
0
ARC
8
DEFAULT_255_2_778
10
68.3852232
20
57.744068
40
0.9007839
50
318.4430751
51
0.0900604
0
ARC
8
DEFAULT_255_2_778
10
68.3829296
20
57.7461286
40
0.9030766
50
359.9590954
51
59.8945895
0
ARC
8
DEFAULT_255_2_778
10
68.3861935
20
57.7517137
40
0.8966078
50
59.8960046
51
90.0077097
0
LINE
8
DEFAULT_255_2_778
10
68.3860728
20
58.6483214
11
68.385856
21
58.6483214
0
ARC
8
DEFAULT_255_2_778
10
68.3861359
20
57.7494167
40
0.8989047
50
90.0178374
51
120.0645999
0
ARC
8
DEFAULT_255_2_778
10
68.388636
20
57.7463285
40
0.9028303
50
120.103735
51
180.0535995
0
ARC
8
DEFAULT_255_2_778
10
68.3960327
20
57.7503309
40
0.9974533
50
90.0474865
51
150.1043277
0
ARC
8
DEFAULT_255_2_778
10
68.4000927
20
57.7472445
40
1.0025117
50
150.0670583
51
179.9877387
0
LINE
8
DEFAULT_255_2_778
10
67.3975811
20
57.747459
11
67.397581
21
57.7470964
0
ARC
8
DEFAULT_255_2_778
10
68.3996829
20
57.7469137
40
1.002102
50
179.9895564
51
209.939204
0
ARC
8
DEFAULT_255_2_778
10
68.3960326
20
57.7439369
40
0.9974534
50
209.8956772
51
269.9525185
0
ARC
8
DEFAULT_255_2_778
10
68.3964748
20
57.7389676
40
0.9924845
50
269.9267508
51
312.4282587
0
ARC
8
DEFAULT_255_2_778
10
68.3937522
20
57.7454482
40
0.9991076
50
312.2927683
51
357.7368088
0
ARC
8
DEFAULT_255_2_778
10
68.3717253
20
57.7470484
40
1.0211807
50
357.6959017
51
0.0019924
0
ARC
8
DEFAULT_255_2_778
10
68.3943093
20
57.74878
40
0.9985981
50
359.9026841
51
40.8526692
0
ARC
8
DEFAULT_255_2_778
10
68.3960024
20
57.7536051
40
0.9941646
50
40.7061528
51
88.4226974
0
ARC
8
DEFAULT_255_2_778
10
68.3952078
20
57.7330488
40
1.014735
50
88.4097989
51
90.0001005
0
LINE
8
DEFAULT_255_2_778
10
69.285506
20
24.5468839
11
67.485506
21
24.5468839
0
LINE
8
DEFAULT_255_2_778
10
67.485506
20
24.5468839
11
67.485506
21
24.5468839
0
LINE
8
DEFAULT_255_2_778
10
68.394906
20
25.4978839
11
68.394906
21
25.4978839
0
LINE
8
DEFAULT_255_2_778
10
69.516406
20
54.2469839
11
67.273006
21
54.2469839
0
LINE
8
DEFAULT_255_2_778
10
67.273006
20
54.2469839
11
67.273006
21
27.9970839
0
LINE
8
DEFAULT_255_2_778
10
67.273006
20
27.9970839
11
69.516406
21
27.9970839
0
LINE
8
DEFAULT_255_2_778
10
69.516406
20
27.9970839
11
69.516406
21
54.2469839
0
LINE
8
DEFAULT_255_2_778
10
69.356606
20
28.2711839
11
67.362506
21
28.2711839
0
LINE
8
DEFAULT_255_2_778
10
67.362506
20
28.2711839
11
67.362506
21
54.0212839
0
LINE
8
DEFAULT_255_2_778
10
67.362506
20
54.0212839
11
69.356606
21
54.0212839
0
LINE
8
DEFAULT_255_2_778
10
69.356606
20
54.0212839
11
69.356606
21
28.2711839
0
LINE
8
DEFAULT_255_2_778
10
69.285706
20
57.7454839
11
67.485806
21
57.7454839
0
LINE
8
DEFAULT_255_2_778
10
67.485806
20
57.7454839
11
67.485806
21
57.7454839
0
LINE
8
DEFAULT_255_2_778
10
68.395206
20
58.7477839
11
68.395206
21
58.7477839
0
LINE
8
DEFAULT_255_2_778
10
70.837806
20
27.3721839
11
70.837806
21
54.8721839
0
LINE
8
DEFAULT_255_2_778
10
70.837806
20
54.8721839
11
65.952506
21
54.8721839
0
LINE
8
DEFAULT_255_2_778
10
65.952506
20
54.8721839
11
65.952506
21
27.3721839
0
LINE
8
DEFAULT_255_2_778
10
65.952506
20
27.3721839
11
70.837806
21
27.3721839
0
LINE
8
DEFAULT_255_2_778
10
66.026606
20
59.1221839
11
66.026606
21
56.3720839
0
LINE
8
DEFAULT_255_2_778
10
66.026606
20
56.3720839
11
70.762406
21
56.3720839
0
LINE
8
DEFAULT_255_2_778
10
70.762406
20
56.3720839
11
70.762406
21
59.1221839
0
LINE
8
DEFAULT_255_2_778
10
70.762406
20
59.1221839
11
66.026606
21
59.1221839
0
LINE
8
DEFAULT_255_2_778
10
70.762406
20
23.1223839
11
70.762406
21
25.8724839
0
LINE
8
DEFAULT_255_2_778
10
70.762406
20
25.8724839
11
66.026606
21
25.8724839
0
LINE
8
DEFAULT_255_2_778
10
66.026606
20
25.8724839
11
66.026606
21
23.1223839
0
LINE
8
DEFAULT_255_2_778
10
66.026606
20
23.1223839
11
70.762406
21
23.1223839
0
LINE
8
DEFAULT_255_2_778
10
65.866806
20
23.0334839
11
65.866806
21
59.2832839
0
LINE
8
DEFAULT_255_2_778
10
65.866806
20
59.2832839
11
70.851806
21
59.2832839
0
LINE
8
DEFAULT_255_2_778
10
70.851806
20
59.2832839
11
70.851806
21
23.0334839
0
LINE
8
DEFAULT_255_2_778
10
70.851806
20
23.0334839
11
65.866806
21
23.0334839
0
ARC
8
DEFAULT_255_2_778
10
5.3178835
20
76.5076052
40
1.9851704
50
155.8126729
51
163.4263065
0
LINE
8
DEFAULT_255_2_778
10
79.7153897
20
57.2832718
11
83.2049897
21
57.2832718
0
LINE
8
DEFAULT_255_2_778
10
83.2049897
20
57.2832718
11
83.2049897
21
67.1331718
0
LINE
8
DEFAULT_255_2_778
10
83.2049897
20
67.1331718
11
77.4722897
21
67.1331718
0
LINE
8
DEFAULT_255_2_778
10
77.4722897
20
67.1331718
11
77.4722897
21
77.7831718
0
LINE
8
DEFAULT_255_2_778
10
77.4722897
20
77.7831718
11
62.9656897
21
77.7831718
0
LINE
8
DEFAULT_255_2_778
10
62.9656897
20
77.7831718
11
62.9656897
21
1.7834718
0
LINE
8
DEFAULT_255_2_778
10
62.9656897
20
1.7834718
11
83.2049897
21
1.7834718
0
LINE
8
DEFAULT_255_2_778
10
83.2049897
20
1.7834718
11
83.2049897
21
22.2833718
0
LINE
8
DEFAULT_255_2_778
10
83.2049897
20
22.2833718
11
79.7153897
21
22.2833718
0
LINE
8
DEFAULT_255_2_778
10
79.7153897
20
22.2833718
11
79.7153897
21
57.2832718
0
LINE
8
DEFAULT_255_2_778
10
6.8544897
20
77.7831718
11
6.8544897
21
79.7831718
0
LINE
8
DEFAULT_255_2_778
10
6.8544897
20
79.7831718
11
62.9656897
21
79.7831718
0
LINE
8
DEFAULT_255_2_778
10
62.9656897
20
79.7831718
11
62.9656897
21
77.7831718
0
LINE
8
DEFAULT_255_2_778
10
62.9656897
20
77.7831718
11
45.6280897
21
77.7831718
0
LINE
8
DEFAULT_255_2_778
10
45.6280897
20
77.7831718
11
45.6280897
21
70.4113718
0
LINE
8
DEFAULT_255_2_778
10
45.6280897
20
70.4113718
11
47.6222897
21
70.4113718
0
LINE
8
DEFAULT_255_2_778
10
47.6222897
20
70.4113718
11
47.6222897
21
79.6611718
0
LINE
8
DEFAULT_255_2_778
10
47.6222897
20
79.6611718
11
45.6280897
21
79.6611718
0
LINE
8
DEFAULT_255_2_778
10
45.6280897
20
79.6611718
11
45.6280897
21
77.7831718
0
LINE
8
DEFAULT_255_2_778
10
45.6280897
20
77.7831718
11
41.3907897
21
77.7831718
0
LINE
8
DEFAULT_255_2_778
10
41.3907897
20
77.7831718
11
41.3907897
21
70.4113718
0
LINE
8
DEFAULT_255_2_778
10
41.3907897
20
70.4113718
11
43.3846897
21
70.4113718
0
LINE
8
DEFAULT_255_2_778
10
43.3846897
20
70.4113718
11
43.3846897
21
79.6611718
0
LINE
8
DEFAULT_255_2_778
10
43.3846897
20
79.6611718
11
41.3907897
21
79.6611718
0
LINE
8
DEFAULT_255_2_778
10
41.3907897
20
79.6611718
11
41.3907897
21
77.7831718
0
LINE
8
DEFAULT_255_2_778
10
41.3907897
20
77.7831718
11
37.1534897
21
77.7831718
0
LINE
8
DEFAULT_255_2_778
10
37.1534897
20
77.7831718
11
37.1534897
21
70.4113718
0
LINE
8
DEFAULT_255_2_778
10
37.1534897
20
70.4113718
11
39.1476897
21
70.4113718
0
LINE
8
DEFAULT_255_2_778
10
39.1476897
20
70.4113718
11
39.1476897
21
79.6611718
0
LINE
8
DEFAULT_255_2_778
10
39.1476897
20
79.6611718
11
37.1534897
21
79.6611718
0
LINE
8
DEFAULT_255_2_778
10
37.1534897
20
79.6611718
11
37.1534897
21
77.7831718
0
LINE
8
DEFAULT_255_2_778
10
37.1534897
20
77.7831718
11
32.9161897
21
77.7831718
0
LINE
8
DEFAULT_255_2_778
10
32.9161897
20
77.7831718
11
32.9161897
21
70.4113718
0
LINE
8
DEFAULT_255_2_778
10
32.9161897
20
70.4113718
11
34.9103897
21
70.4113718
0
LINE
8
DEFAULT_255_2_778
10
34.9103897
20
70.4113718
11
34.9103897
21
79.6611718
0
LINE
8
DEFAULT_255_2_778
10
34.9103897
20
79.6611718
11
32.9161897
21
79.6611718
0
LINE
8
DEFAULT_255_2_778
10
32.9161897
20
79.6611718
11
32.9161897
21
77.7831718
0
LINE
8
DEFAULT_255_2_778
10
32.9161897
20
77.7831718
11
28.6788897
21
77.7831718
0
LINE
8
DEFAULT_255_2_778
10
28.6788897
20
77.7831718
11
28.6788897
21
70.4113718
0
LINE
8
DEFAULT_255_2_778
10
28.6788897
20
70.4113718
11
30.6727897
21
70.4113718
0
LINE
8
DEFAULT_255_2_778
10
30.6727897
20
70.4113718
11
30.6727897
21
79.6611718
0
LINE
8
DEFAULT_255_2_778
10
30.6727897
20
79.6611718
11
28.6788897
21
79.6611718
0
LINE
8
DEFAULT_255_2_778
10
28.6788897
20
79.6611718
11
28.6788897
21
77.7831718
0
LINE
8
DEFAULT_255_2_778
10
28.6788897
20
77.7831718
11
24.4415897
21
77.7831718
0
LINE
8
DEFAULT_255_2_778
10
24.4415897
20
77.7831718
11
24.4415897
21
70.4113718
0
LINE
8
DEFAULT_255_2_778
10
24.4415897
20
70.4113718
11
26.4357897
21
70.4113718
0
LINE
8
DEFAULT_255_2_778
10
26.4357897
20
70.4113718
11
26.4357897
21
79.6611718
0
LINE
8
DEFAULT_255_2_778
10
26.4357897
20
79.6611718
11
24.4415897
21
79.6611718
0
LINE
8
DEFAULT_255_2_778
10
24.4415897
20
79.6611718
11
24.4415897
21
77.7831718
0
LINE
8
DEFAULT_255_2_778
10
24.4415897
20
77.7831718
11
20.2045897
21
77.7831718
0
LINE
8
DEFAULT_255_2_778
10
20.2045897
20
77.7831718
11
20.2045897
21
70.4113718
0
LINE
8
DEFAULT_255_2_778
10
20.2045897
20
70.4113718
11
22.1984897
21
70.4113718
0
LINE
8
DEFAULT_255_2_778
10
22.1984897
20
70.4113718
11
22.1984897
21
79.6611718
0
LINE
8
DEFAULT_255_2_778
10
22.1984897
20
79.6611718
11
20.2045897
21
79.6611718
0
LINE
8
DEFAULT_255_2_778
10
20.2045897
20
79.6611718
11
20.2045897
21
77.7831718
0
LINE
8
DEFAULT_255_2_778
10
20.2045897
20
77.7831718
11
15.9672897
21
77.7831718
0
LINE
8
DEFAULT_255_2_778
10
15.9672897
20
77.7831718
11
15.9672897
21
70.4113718
0
LINE
8
DEFAULT_255_2_778
10
15.9672897
20
70.4113718
11
17.9611897
21
70.4113718
0
LINE
8
DEFAULT_255_2_778
10
17.9611897
20
70.4113718
11
17.9611897
21
79.6611718
0
LINE
8
DEFAULT_255_2_778
10
17.9611897
20
79.6611718
11
15.9672897
21
79.6611718
0
LINE
8
DEFAULT_255_2_778
10
15.9672897
20
79.6611718
11
15.9672897
21
77.7831718
0
LINE
8
DEFAULT_255_2_778
10
15.9672897
20
77.7831718
11
11.7298897
21
77.7831718
0
LINE
8
DEFAULT_255_2_778
10
11.7298897
20
77.7831718
11
11.7298897
21
70.4113718
0
LINE
8
DEFAULT_255_2_778
10
11.7298897
20
70.4113718
11
13.7237897
21
70.4113718
0
LINE
8
DEFAULT_255_2_778
10
13.7237897
20
70.4113718
11
13.7237897
21
79.6611718
0
LINE
8
DEFAULT_255_2_778
10
13.7237897
20
79.6611718
11
11.7298897
21
79.6611718
0
LINE
8
DEFAULT_255_2_778
10
11.7298897
20
79.6611718
11
11.7298897
21
77.7831718
0
LINE
8
DEFAULT_255_2_778
10
11.7298897
20
77.7831718
11
9.4867897
21
77.7831718
0
LINE
8
DEFAULT_255_2_778
10
9.4867897
20
77.7831718
11
9.4867897
21
79.6611718
0
LINE
8
DEFAULT_255_2_778
10
9.4867897
20
79.6611718
11
7.4928897
21
79.6611718
0
LINE
8
DEFAULT_255_2_778
10
7.4928897
20
79.6611718
11
7.4928897
21
77.7831718
0
LINE
8
DEFAULT_255_2_778
10
7.4928897
20
77.7831718
11
9.4867897
21
77.7831718
0
LINE
8
DEFAULT_255_2_778
10
9.4867897
20
77.7831718
11
9.4867897
21
70.4113718
0
LINE
8
DEFAULT_255_2_778
10
9.4867897
20
70.4113718
11
7.4928897
21
70.4113718
0
LINE
8
DEFAULT_255_2_778
10
7.4928897
20
70.4113718
11
7.4928897
21
77.7831718
0
LINE
8
DEFAULT_255_2_778
10
7.4928897
20
77.7831718
11
6.8546897
21
77.7831718
0
LINE
8
DEFAULT_255_2_778
10
6.8546897
20
77.7831718
11
6.5001897
21
77.7503718
0
LINE
8
DEFAULT_255_2_778
10
6.5001897
20
77.7503718
11
6.1675897
21
77.6260718
0
LINE
8
DEFAULT_255_2_778
10
6.1675897
20
77.6260718
11
5.8908897
21
77.4026718
0
LINE
8
DEFAULT_255_2_778
10
5.8908897
20
77.4026718
11
5.6682897
21
77.1254718
0
LINE
8
DEFAULT_255_2_778
10
5.6682897
20
77.1254718
11
5.4833897
21
76.8206718
0
LINE
8
DEFAULT_255_2_778
10
5.4833897
20
76.8206718
11
5.3259897
21
76.5004718
0
LINE
8
DEFAULT_255_2_778
10
5.3259897
20
76.5004718
11
3.6651897
21
70.9323718
0
LINE
8
DEFAULT_255_2_778
10
3.6651897
20
70.9323718
11
3.4225897
21
70.1438718
0
LINE
8
DEFAULT_255_2_778
10
3.4225897
20
70.1438718
11
3.2396897
21
69.4604718
0
LINE
8
DEFAULT_255_2_778
10
3.2396897
20
69.4604718
11
3.0761897
21
68.7722718
0
LINE
8
DEFAULT_255_2_778
10
3.0761897
20
68.7722718
11
2.9287897
21
68.0801718
0
LINE
8
DEFAULT_255_2_778
10
2.9287897
20
68.0801718
11
2.7957897
21
67.3847718
0
LINE
8
DEFAULT_255_2_778
10
2.7957897
20
67.3847718
11
2.6761897
21
66.6868718
0
LINE
8
DEFAULT_255_2_778
10
2.6761897
20
66.6868718
11
2.5692897
21
65.9867718
0
LINE
8
DEFAULT_255_2_778
10
2.5692897
20
65.9867718
11
2.4742897
21
65.2850718
0
LINE
8
DEFAULT_255_2_778
10
2.4742897
20
65.2850718
11
2.3909897
21
64.5817718
0
LINE
8
DEFAULT_255_2_778
10
2.3909897
20
64.5817718
11
2.3194897
21
63.8771718
0
LINE
8
DEFAULT_255_2_778
10
2.3194897
20
63.8771718
11
2.2599897
21
63.1715718
0
LINE
8
DEFAULT_255_2_778
10
2.2599897
20
63.1715718
11
2.2123897
21
62.4651718
0
LINE
8
DEFAULT_255_2_778
10
2.2123897
20
62.4651718
11
2.1773897
21
61.7581718
0
LINE
8
DEFAULT_255_2_778
10
2.1773897
20
61.7581718
11
2.1556897
21
61.0503718
0
LINE
8
DEFAULT_255_2_778
10
2.1556897
20
61.0503718
11
2.1482897
21
1.7834718
0
LINE
8
DEFAULT_255_2_778
10
2.1482897
20
1.7834718
11
62.9656897
21
1.7834718
0
LINE
8
DEFAULT_255_2_778
10
62.9656897
20
1.7834718
11
62.9656897
21
79.7831718
0
LINE
8
DEFAULT_255_2_778
10
62.9656897
20
79.7831718
11
83.2049897
21
79.7831718
0
LINE
8
DEFAULT_255_2_778
10
83.2049897
20
79.7831718
11
83.2049897
21
67.1331718
0
LINE
8
DEFAULT_255_2_778
10
1.7368897
20
71.4500718
11
1.7543897
21
71.5056718
0
LINE
8
DEFAULT_255_2_778
10
1.7543897
20
71.5056718
11
3.4151897
21
77.0738718
0
LINE
8
DEFAULT_255_2_778
10
3.4151897
20
77.0738718
11
5.3253897
21
76.5007718
0
LINE
8
DEFAULT_255_2_778
10
5.3253897
20
76.5007718
11
3.5069897
21
77.3209718
0
LINE
8
DEFAULT_255_2_778
10
62.9654897
20
1.7831718
11
62.9654897
21
-0.2167282
0
LINE
8
DEFAULT_255_2_778
10
62.9654897
20
-0.2167282
11
2.0966897
21
-0.2167282
0
LINE
8
DEFAULT_255_2_778
10
3.5069897
20
77.3209718
11
3.7931897
21
77.8879718
0
LINE
8
DEFAULT_255_2_778
10
3.7931897
20
77.8879718
11
4.1403897
21
78.4194718
0
LINE
8
DEFAULT_255_2_778
10
4.1403897
20
78.4194718
11
4.5570897
21
78.8930718
0
LINE
8
DEFAULT_255_2_778
10
4.5570897
20
78.8930718
11
5.0531897
21
79.2865718
0
LINE
8
DEFAULT_255_2_778
10
5.0531897
20
79.2865718
11
5.6145897
21
79.5693718
0
LINE
8
DEFAULT_255_2_778
10
5.6145897
20
79.5693718
11
6.2255897
21
79.7331718
0
LINE
8
DEFAULT_255_2_778
10
6.2255897
20
79.7331718
11
6.8544897
21
79.7831718
0
LINE
8
DEFAULT_255_2_778
10
0.1541897
20
1.5479718
11
0.1541897
21
60.3418718
0
LINE
8
DEFAULT_255_2_778
10
0.1541897
20
60.3418718
11
0.1620897
21
61.0924718
0
LINE
8
DEFAULT_255_2_778
10
0.1620897
20
61.0924718
11
0.1850897
21
61.8428718
0
LINE
8
DEFAULT_255_2_778
10
0.1850897
20
61.8428718
11
0.2223897
21
62.5926718
0
LINE
8
DEFAULT_255_2_778
10
0.2223897
20
62.5926718
11
0.2729897
21
63.3416718
0
LINE
8
DEFAULT_255_2_778
10
0.2729897
20
63.3416718
11
0.3364897
21
64.0899718
0
LINE
8
DEFAULT_255_2_778
10
0.3364897
20
64.0899718
11
0.4128897
21
64.8371718
0
LINE
8
DEFAULT_255_2_778
10
0.4128897
20
64.8371718
11
0.5017897
21
65.5826718
0
LINE
8
DEFAULT_255_2_778
10
0.5017897
20
65.5826718
11
0.6033897
21
66.3264718
0
LINE
8
DEFAULT_255_2_778
10
0.6033897
20
66.3264718
11
0.7176897
21
67.0685718
0
LINE
8
DEFAULT_255_2_778
10
0.7176897
20
67.0685718
11
0.8457897
21
67.8086718
0
LINE
8
DEFAULT_255_2_778
10
0.8457897
20
67.8086718
11
0.9880897
21
68.5457718
0
LINE
8
DEFAULT_255_2_778
10
0.9880897
20
68.5457718
11
1.1457897
21
69.2791718
0
LINE
8
DEFAULT_255_2_778
10
1.1457897
20
69.2791718
11
1.3209897
21
70.0083718
0
LINE
8
DEFAULT_255_2_778
10
1.3209897
20
70.0083718
11
1.5161897
21
70.7325718
0
LINE
8
DEFAULT_255_2_778
10
1.5161897
20
70.7325718
11
1.7371897
21
71.4503718
0
LINE
8
DEFAULT_255_2_778
10
1.7371897
20
71.4503718
11
3.6299897
21
70.8217718
0
LINE
8
DEFAULT_255_2_778
10
6.0532897
20
77.5498718
11
6.0532897
21
77.5498718
0
LINE
8
DEFAULT_255_2_778
10
50.2873897
20
1.7837718
11
2.1480897
21
1.7837718
0
LINE
8
DEFAULT_255_2_778
10
2.1480897
20
1.7837718
11
2.1313897
21
-0.2162282
0
LINE
8
DEFAULT_255_2_778
10
2.1313897
20
-0.2162282
11
1.9104897
21
-0.2162282
0
LINE
8
DEFAULT_255_2_778
10
1.9104897
20
-0.2162282
11
1.7461897
21
-0.2085282
0
LINE
8
DEFAULT_255_2_778
10
1.7461897
20
-0.2085282
11
1.5860897
21
-0.1863282
0
LINE
8
DEFAULT_255_2_778
10
1.5860897
20
-0.1863282
11
1.4309897
21
-0.1501282
0
LINE
8
DEFAULT_255_2_778
10
1.4309897
20
-0.1501282
11
1.2815897
21
-0.1003282
0
LINE
8
DEFAULT_255_2_778
10
1.2815897
20
-0.1003282
11
1.1383897
21
-0.0379282
0
LINE
8
DEFAULT_255_2_778
10
1.1383897
20
-0.0379282
11
1.0021897
21
0.0366718
0
LINE
8
DEFAULT_255_2_778
10
1.0021897
20
0.0366718
11
0.8735897
21
0.1226718
0
LINE
8
DEFAULT_255_2_778
10
0.8735897
20
0.1226718
11
0.7531897
21
0.2195718
0
LINE
8
DEFAULT_255_2_778
10
0.7531897
20
0.2195718
11
0.6417897
21
0.3263718
0
LINE
8
DEFAULT_255_2_778
10
0.6417897
20
0.3263718
11
0.5401897
21
0.4425718
0
LINE
8
DEFAULT_255_2_778
10
0.5401897
20
0.4425718
11
0.4930897
21
0.5039718
0
LINE
8
DEFAULT_255_2_778
10
0.4930897
20
0.5039718
11
0.4485897
21
0.5674718
0
LINE
8
DEFAULT_255_2_778
10
0.4485897
20
0.5674718
11
0.4070897
21
0.6330718
0
LINE
8
DEFAULT_255_2_778
10
0.4070897
20
0.6330718
11
0.3684897
21
0.7005718
0
LINE
8
DEFAULT_255_2_778
10
0.3684897
20
0.7005718
11
0.3327897
21
0.7698718
0
LINE
8
DEFAULT_255_2_778
10
0.3327897
20
0.7698718
11
0.2998897
21
0.8410718
0
LINE
8
DEFAULT_255_2_778
10
0.2998897
20
0.8410718
11
0.2702897
21
0.9137718
0
LINE
8
DEFAULT_255_2_778
10
0.2702897
20
0.9137718
11
0.2438897
21
0.9883718
0
LINE
8
DEFAULT_255_2_778
10
0.2438897
20
0.9883718
11
0.2205897
21
1.0643718
0
LINE
8
DEFAULT_255_2_778
10
0.2205897
20
1.0643718
11
0.2006897
21
1.1418718
0
LINE
8
DEFAULT_255_2_778
10
0.2006897
20
1.1418718
11
0.1842897
21
1.2206718
0
LINE
8
DEFAULT_255_2_778
10
0.1842897
20
1.2206718
11
0.1713897
21
1.3008718
0
LINE
8
DEFAULT_255_2_778
10
0.1713897
20
1.3008718
11
0.1620897
21
1.3820718
0
LINE
8
DEFAULT_255_2_778
10
0.1620897
20
1.3820718
11
0.1564897
21
1.4646718
0
LINE
8
DEFAULT_255_2_778
10
0.1564897
20
1.4646718
11
0.1546897
21
1.5482718
0
LINE
8
DEFAULT_255_2_778
10
0.1546897
20
1.5482718
11
2.1485897
21
1.7834718
0
LINE
8
DEFAULT_255_2_778
10
2.1485897
20
1.7834718
11
1.9106897
21
-0.2165282
0
LINE
8
DEFAULT_255_2_778
10
83.2052897
20
1.7837718
11
83.2052897
21
-0.2162282
0
LINE
8
DEFAULT_255_2_778
10
83.2052897
20
-0.2162282
11
62.9659897
21
-0.2162282
0
LINE
8
DEFAULT_255_2_778
10
62.9659897
20
-0.2162282
11
62.9659897
21
-0.1781282
0
LINE
8
DEFAULT_255_2_778
10
61.9689897
20
1.7834718
11
61.9689897
21
6.7838718
0
LINE
8
DEFAULT_255_2_778
10
61.9689897
20
6.7838718
11
2.1480897
21
6.7838718
0
LINE
8
DEFAULT_255_2_778
10
2.1480897
20
6.7838718
11
2.1480897
21
4.7838718
0
LINE
8
DEFAULT_255_2_778
10
2.1480897
20
4.7838718
11
1.9630897
21
4.7925718
0
LINE
8
DEFAULT_255_2_778
10
1.9630897
20
4.7925718
11
1.7733897
21
4.8195718
0
LINE
8
DEFAULT_255_2_778
10
1.7733897
20
4.8195718
11
1.5815897
21
4.8663718
0
LINE
8
DEFAULT_255_2_778
10
1.5815897
20
4.8663718
11
1.4857897
21
4.8976718
0
LINE
8
DEFAULT_255_2_778
10
1.4857897
20
4.8976718
11
1.3905897
21
4.9341718
0
LINE
8
DEFAULT_255_2_778
10
1.3905897
20
4.9341718
11
1.2963897
21
4.9759718
0
LINE
8
DEFAULT_255_2_778
10
1.2963897
20
4.9759718
11
1.2034897
21
5.0227718
0
LINE
8
DEFAULT_255_2_778
10
1.2034897
20
5.0227718
11
1.1126897
21
5.0748718
0
LINE
8
DEFAULT_255_2_778
10
1.1126897
20
5.0748718
11
1.0240897
21
5.1320718
0
LINE
8
DEFAULT_255_2_778
10
1.0240897
20
5.1320718
11
0.9383897
21
5.1941718
0
LINE
8
DEFAULT_255_2_778
10
0.9383897
20
5.1941718
11
0.8555897
21
5.2611718
0
LINE
8
DEFAULT_255_2_778
10
0.8555897
20
5.2611718
11
0.7764897
21
5.3325718
0
LINE
8
DEFAULT_255_2_778
10
0.7764897
20
5.3325718
11
0.7010897
21
5.4082718
0
LINE
8
DEFAULT_255_2_778
10
0.7010897
20
5.4082718
11
0.6298897
21
5.4876718
0
LINE
8
DEFAULT_255_2_778
10
0.6298897
20
5.4876718
11
0.5631897
21
5.5707718
0
LINE
8
DEFAULT_255_2_778
10
0.5631897
20
5.5707718
11
0.5012897
21
5.6566718
0
LINE
8
DEFAULT_255_2_778
10
0.5012897
20
5.6566718
11
0.4440897
21
5.7455718
0
LINE
8
DEFAULT_255_2_778
10
0.4440897
20
5.7455718
11
0.3919897
21
5.8366718
0
LINE
8
DEFAULT_255_2_778
10
0.3919897
20
5.8366718
11
0.3451897
21
5.9297718
0
LINE
8
DEFAULT_255_2_778
10
0.3451897
20
5.9297718
11
0.3036897
21
6.0241718
0
LINE
8
DEFAULT_255_2_778
10
0.3036897
20
6.0241718
11
0.2673897
21
6.1197718
0
LINE
8
DEFAULT_255_2_778
10
0.2673897
20
6.1197718
11
0.2363897
21
6.2157718
0
LINE
8
DEFAULT_255_2_778
10
0.2363897
20
6.2157718
11
0.2104897
21
6.3120718
0
LINE
8
DEFAULT_255_2_778
10
0.2104897
20
6.3120718
11
0.1895897
21
6.4081718
0
LINE
8
DEFAULT_255_2_778
10
0.1895897
20
6.4081718
11
0.1736897
21
6.5036718
0
LINE
8
DEFAULT_255_2_778
10
0.1736897
20
6.5036718
11
0.1625897
21
6.5983718
0
LINE
8
DEFAULT_255_2_778
10
0.1625897
20
6.5983718
11
0.1559897
21
6.6920718
0
LINE
8
DEFAULT_255_2_778
10
0.1559897
20
6.6920718
11
0.1538897
21
6.7840718
0
LINE
8
DEFAULT_255_2_778
10
0.1538897
20
6.7840718
11
2.1477897
21
6.7840718
0
LINE
8
DEFAULT_255_2_778
10
83.2049897
20
57.2832718
11
83.2049897
21
55.6833718
0
LINE
8
DEFAULT_255_2_778
10
83.2049897
20
55.6833718
11
81.4603897
21
55.6833718
0
LINE
8
DEFAULT_255_2_778
10
81.4603897
20
55.6833718
11
81.4603897
21
57.2832718
0
LINE
8
DEFAULT_255_2_778
10
79.4664897
20
77.7900718
11
83.2052897
21
77.7900718
0
LINE
8
DEFAULT_255_2_778
10
83.2052897
20
64.2830718
11
79.4664897
21
64.2830718
0
LINE
8
DEFAULT_255_2_778
10
79.4664897
20
64.2830718
11
79.4664897
21
79.7831718
0
LINE
8
DEFAULT_255_2_778
10
79.4664897
20
79.7831718
11
79.4664897
21
64.2833718
0
LINE
8
DEFAULT_255_2_778
10
79.4664897
20
64.2833718
11
82.9559897
21
64.2833718
0
LINE
8
DEFAULT_255_2_778
10
82.9559897
20
64.2833718
11
82.9559897
21
79.7831718
0
LINE
8
DEFAULT_255_2_778
10
77.4725897
20
79.7831718
11
77.4725897
21
77.7831718
0
LINE
8
DEFAULT_255_2_778
10
77.4725897
20
69.5331718
11
83.2052897
21
69.5331718
0
LINE
8
DEFAULT_255_2_778
10
82.9559897
20
74.9894718
11
79.4664897
21
74.9894718
0
LINE
8
DEFAULT_255_2_778
10
82.9559897
20
76.9790718
11
79.4664897
21
76.9790718
0
LINE
8
DEFAULT_255_2_778
10
82.9559897
20
74.9812718
11
79.4664897
21
74.9812718
0
LINE
8
DEFAULT_255_2_778
10
79.4664897
20
67.8795718
11
82.9559897
21
67.8795718
0
LINE
8
DEFAULT_255_2_778
10
79.4664897
20
68.7095718
11
82.9559897
21
68.7095718
0
LINE
8
DEFAULT_255_2_778
10
83.4544897
20
19.6584718
11
79.9648897
21
19.6584718
0
LINE
8
DEFAULT_255_2_778
10
82.2082897
20
18.4739718
11
82.2082897
21
19.6584718
0
LINE
8
DEFAULT_255_2_778
10
79.7156897
20
22.2833718
11
79.4664897
21
22.2833718
0
LINE
8
DEFAULT_255_2_778
10
79.4664897
20
22.2833718
11
79.4664897
21
2.2835718
0
LINE
8
DEFAULT_255_2_778
10
79.4664897
20
2.2835718
11
79.9648897
21
2.2835718
0
LINE
8
DEFAULT_255_2_778
10
79.9648897
20
2.2835718
11
79.9648897
21
-0.2165282
0
LINE
8
DEFAULT_255_2_778
10
79.9648897
20
-0.2165282
11
83.4544897
21
-0.2165282
0
LINE
8
DEFAULT_255_2_778
10
83.4544897
20
-0.2165282
11
83.4544897
21
23.2832718
0
LINE
8
DEFAULT_255_2_778
10
83.4544897
20
23.2832718
11
82.4575897
21
24.2833718
0
LINE
8
DEFAULT_255_2_778
10
82.4575897
20
24.2833718
11
80.8454897
21
24.2833718
0
LINE
8
DEFAULT_255_2_778
10
80.8454897
20
24.2833718
11
80.8454897
21
20.0756718
0
LINE
8
DEFAULT_255_2_778
10
80.8454897
20
20.0756718
11
79.9648897
21
20.0756718
0
LINE
8
DEFAULT_255_2_778
10
79.9648897
20
20.0756718
11
79.9648897
21
2.2835718
0
LINE
8
DEFAULT_255_2_778
10
79.9648897
20
2.2835718
11
83.2052897
21
2.2835718
0
LINE
8
DEFAULT_255_2_778
10
83.4544897
20
23.2834718
11
83.4544897
21
23.2834718
0
LINE
8
DEFAULT_255_2_778
10
82.2082897
20
19.3496718
11
79.9648897
21
19.3496718
0
LINE
8
DEFAULT_255_2_778
10
83.4544897
20
4.4083718
11
79.9648897
21
4.4083718
0
LINE
8
DEFAULT_255_2_778
10
77.8712897
20
5.5278718
11
83.2052897
21
5.5278718
0
LINE
8
DEFAULT_255_2_778
10
77.8712897
20
7.6923718
11
83.2052897
21
7.6923718
0
LINE
8
DEFAULT_255_2_778
10
77.8712897
20
9.8580718
11
83.2052897
21
9.8580718
0
LINE
8
DEFAULT_255_2_778
10
77.8712897
20
8.3033718
11
83.2052897
21
8.3033718
0
LINE
8
DEFAULT_255_2_778
10
77.8712897
20
7.0827718
11
83.2052897
21
7.0827718
0
LINE
8
DEFAULT_255_2_778
10
83.2052897
20
10.2532718
11
77.8712897
21
10.2532718
0
LINE
8
DEFAULT_255_2_778
10
77.8712897
20
10.2532718
11
77.8712897
21
5.1333718
0
LINE
8
DEFAULT_255_2_778
10
77.8712897
20
5.1333718
11
83.2052897
21
5.1333718
0
LINE
8
DEFAULT_255_2_778
10
79.9648897
20
18.7128718
11
82.2082897
21
18.7128718
0
LINE
8
DEFAULT_255_2_778
10
79.9648897
20
18.3365718
11
82.2082897
21
18.3365718
0
LINE
8
DEFAULT_255_2_778
10
79.9648897
20
19.0409718
11
82.2082897
21
19.0409718
0
LINE
8
DEFAULT_255_2_778
10
79.9648897
20
9.7310718
11
82.2082897
21
9.7310718
0
LINE
8
DEFAULT_255_2_778
10
82.2082897
20
11.5394718
11
79.9648897
21
11.5394718
0
LINE
8
DEFAULT_255_2_778
10
79.9648897
20
11.9392718
11
82.2082897
21
11.9392718
0
LINE
8
DEFAULT_255_2_778
10
82.2082897
20
9.3230718
11
79.9648897
21
9.3230718
0
LINE
8
DEFAULT_255_2_778
10
79.9648897
20
18.4736718
11
82.2082897
21
18.4736718
0
LINE
8
DEFAULT_255_2_778
10
82.2082897
20
18.4736718
11
82.2082897
21
18.0341718
0
LINE
8
DEFAULT_255_2_778
10
82.2082897
20
18.0341718
11
79.9648897
21
18.0341718
0
LINE
8
DEFAULT_255_2_778
10
79.9648897
20
18.0341718
11
82.2082897
21
18.0341718
0
LINE
8
DEFAULT_255_2_778
10
82.2082897
20
18.0341718
11
82.2082897
21
11.6545718
0
LINE
8
DEFAULT_255_2_778
10
82.2082897
20
11.6545718
11
79.9648897
21
11.6545718
0
LINE
8
DEFAULT_255_2_778
10
79.9648897
20
11.6545718
11
82.2082897
21
11.6545718
0
LINE
8
DEFAULT_255_2_778
10
82.2082897
20
11.6545718
11
82.2082897
21
11.2150718
0
LINE
8
DEFAULT_255_2_778
10
82.2082897
20
11.2150718
11
79.9648897
21
11.2150718
0
LINE
8
DEFAULT_255_2_778
10
79.9648897
20
11.2150718
11
82.2082897
21
11.2150718
0
LINE
8
DEFAULT_255_2_778
10
82.2082897
20
11.2150718
11
82.2082897
21
10.8478718
0
LINE
8
DEFAULT_255_2_778
10
82.2082897
20
10.8478718
11
79.9648897
21
10.8478718
0
LINE
8
DEFAULT_255_2_778
10
79.9648897
20
10.8478718
11
82.2082897
21
10.8478718
0
LINE
8
DEFAULT_255_2_778
10
82.2082897
20
10.8478718
11
82.2082897
21
10.0151718
0
LINE
8
DEFAULT_255_2_778
10
82.2082897
20
10.0151718
11
79.9648897
21
10.0151718
0
LINE
8
DEFAULT_255_2_778
10
79.9648897
20
10.0151718
11
82.2082897
21
10.0151718
0
LINE
8
DEFAULT_255_2_778
10
82.2082897
20
10.0151718
11
82.2082897
21
8.5784718
0
LINE
8
DEFAULT_255_2_778
10
82.2082897
20
8.5784718
11
79.9648897
21
8.5784718
0
LINE
8
DEFAULT_255_2_778
10
79.9648897
20
8.5784718
11
82.2082897
21
8.5784718
0
LINE
8
DEFAULT_255_2_778
10
82.2082897
20
8.5784718
11
82.2082897
21
8.4530718
0
LINE
8
DEFAULT_255_2_778
10
82.2082897
20
8.4530718
11
79.9648897
21
8.4530718
0
LINE
8
DEFAULT_255_2_778
10
79.9648897
20
8.4530718
11
82.2082897
21
8.4530718
0
LINE
8
DEFAULT_255_2_778
10
79.9648897
20
8.6938718
11
82.2082897
21
8.6938718
0
LINE
8
DEFAULT_255_2_778
10
79.9648897
20
10.9957718
11
82.2082897
21
10.9957718
0
ENDSEC
0
EOF