0
SECTION
2
HEADER
9
$MEASUREMENT
70
1
0
ENDSEC
0
SECTION
2
TABLES
0
TABLE
2
LTYPE
0
LTYPE
72
65
70
64
2
CONTINUOUS
3
______
73
0
40
0
0
ENDTAB
0
TABLE
2
LAYER
0
LAYER
2
DEFAULT_255_2_778
70
0
62
255
6
CONTINUOUS
0
ENDTAB
0
ENDSEC
0
SECTION
2
ENTITIES
0
LINE
8
DEFAULT_255_2_778
10
0.7937336
20
16.2718658
11
17.7270336
21
16.2718658
0
LINE
8
DEFAULT_255_2_778
10
17.7270336
20
16.2718658
11
17.7270336
21
5.6713658
0
LINE
8
DEFAULT_255_2_778
10
17.7270336
20
5.6713658
11
0.7937336
21
5.6713658
0
LINE
8
DEFAULT_255_2_778
10
0.7937336
20
5.6713658
11
0.7937336
21
16.2718658
0
LINE
8
DEFAULT_255_2_778
10
0.7937342
20
5.6713006
11
11.3942342
21
5.6713006
0
LINE
8
DEFAULT_255_2_778
10
11.3942342
20
5.6713006
11
11.3942342
21
-0.6614994
0
LINE
8
DEFAULT_255_2_778
10
11.3942342
20
-0.6614994
11
0.7937342
21
-0.6614994
0
LINE
8
DEFAULT_255_2_778
10
0.7937342
20
-0.6614994
11
0.7937342
21
5.6713006
0
LINE
8
DEFAULT_255_2_778
10
11.3942994
20
5.6713006
11
17.7270994
21
5.6713006
0
LINE
8
DEFAULT_255_2_778
10
17.7270994
20
5.6713006
11
17.7270994
21
-0.6614994
0
LINE
8
DEFAULT_255_2_778
10
17.7270994
20
-0.6614994
11
11.3942994
21
-0.6614994
0
LINE
8
DEFAULT_255_2_778
10
11.3942994
20
-0.6614994
11
11.3942994
21
5.6713006
0
ENDSEC
0
EOF