0
SECTION
2
HEADER
9
$MEASUREMENT
70
1
0
ENDSEC
0
SECTION
2
TABLES
0
TABLE
2
LTYPE
0
LTYPE
72
65
70
64
2
CONTINUOUS
3
______
73
0
40
0
0
ENDTAB
0
TABLE
2
LAYER
0
LAYER
2
DEFAULT_255_2_778
70
0
62
255
6
CONTINUOUS
0
ENDTAB
0
ENDSEC
0
SECTION
2
ENTITIES
0
ARC
8
DEFAULT_255_2_778
10
4.6324045
20
2.533434
40
1.2146508
50
90.4797699
51
115.5304165
0
ARC
8
DEFAULT_255_2_778
10
4.8681628
20
2.0165312
40
1.7827191
50
115.2076703
51
127.6160966
0
ARC
8
DEFAULT_255_2_778
10
5.2000619
20
1.5617179
40
2.3456117
50
127.2570189
51
130.6986676
0
ARC
8
DEFAULT_255_2_778
10
4.4970286
20
1.4027104
40
1.5421613
50
116.2026582
51
128.932213
0
ARC
8
DEFAULT_255_2_778
10
4.2430295
20
1.9346635
40
0.9527457
50
90.6793203
51
116.622721
0
ARC
8
DEFAULT_255_2_778
10
4.2571767
20
2.4982595
40
0.3899136
50
90.0006235
51
93.7413779
0
ARC
8
DEFAULT_255_2_778
10
4.2571149
20
2.4991247
40
0.3890484
50
34.1358938
51
89.9915151
0
ARC
8
DEFAULT_255_2_778
10
4.1442134
20
2.4515898
40
0.5097383
50
11.9242763
51
31.4360549
0
ARC
8
DEFAULT_255_2_778
10
3.4763435
20
2.2966418
40
1.1952891
50
3.1826856
51
12.5766821
0
ARC
8
DEFAULT_255_2_778
10
2.3870073
20
2.2187706
40
2.2873338
50
359.8540029
51
3.6153254
0
ARC
8
DEFAULT_255_2_778
10
1.8845793
20
2.3234585
40
3.6832753
50
359.8068555
51
5.403706
0
ARC
8
DEFAULT_255_2_778
10
3.2338251
20
2.4553365
40
2.3276102
50
5.2995865
51
13.4630271
0
ARC
8
DEFAULT_255_2_778
10
4.1295262
20
2.6745154
40
1.4055016
50
13.2746589
51
26.0407517
0
ARC
8
DEFAULT_255_2_778
10
4.6321953
20
2.9271168
40
0.8429912
50
25.6138524
51
50.7142657
0
ARC
8
DEFAULT_255_2_778
10
4.684538
20
2.9600558
40
0.7846
50
52.1498483
51
84.0212355
0
ARC
8
DEFAULT_255_2_778
10
4.6255176
20
2.6006929
40
1.1483526
50
82.9600203
51
90.1388993
0
ARC
8
DEFAULT_255_2_778
10
8.0638102
20
3.9636273
40
1.1715262
50
170.7338428
51
180.5274782
0
ARC
8
DEFAULT_255_2_778
10
7.489315
20
4.0619587
40
0.5887117
50
152.6094006
51
171.1759435
0
ARC
8
DEFAULT_255_2_778
10
7.3726089
20
4.1012713
40
0.4673812
50
108.5223547
51
150.3058458
0
ARC
8
DEFAULT_255_2_778
10
7.4359527
20
4.0011395
40
0.5831338
50
98.0484094
51
111.2994699
0
ARC
8
DEFAULT_255_2_778
10
7.4698191
20
3.7897157
40
0.7972264
50
89.8654246
51
98.3309533
0
ARC
8
DEFAULT_255_2_778
10
7.4691043
20
3.6338989
40
0.9530446
50
77.8737162
51
89.8444566
0
ARC
8
DEFAULT_255_2_778
10
7.4604865
20
3.5852884
40
1.0023822
50
73.2592266
51
77.9757966
0
ARC
8
DEFAULT_255_2_778
10
7.4662837
20
3.6015737
40
0.9851179
50
59.8527471
51
73.3092885
0
ARC
8
DEFAULT_255_2_778
10
7.2095615
20
3.2279088
40
1.8922489
50
66.6010038
51
89.7676902
0
ARC
8
DEFAULT_255_2_778
10
7.207187
20
3.708988
40
1.4111899
50
89.5920911
51
106.1443478
0
ARC
8
DEFAULT_255_2_778
10
7.0862406
20
4.1058168
40
0.9963973
50
105.8087998
51
131.2338308
0
ARC
8
DEFAULT_255_2_778
10
6.9756704
20
4.2475034
40
0.8170289
50
131.9518604
51
139.755816
0
ARC
8
DEFAULT_255_2_778
10
7.3996257
20
3.9372765
40
1.3415674
50
141.3404567
51
180.0025154
0
ARC
8
DEFAULT_255_2_778
10
7.401108
20
3.9372256
40
1.3430497
50
180.0003433
51
182.0688017
0
ARC
8
DEFAULT_255_2_778
10
9.385226
20
1.9363945
40
1.8440211
50
88.8469455
51
90.0003477
0
ARC
8
DEFAULT_255_2_778
10
9.3851504
20
1.9386017
40
1.8418138
50
89.997994
51
134.6079293
0
ARC
8
DEFAULT_255_2_778
10
9.300568
20
2.0237919
40
1.7217664
50
134.5948946
51
164.1271064
0
ARC
8
DEFAULT_255_2_778
10
9.9010731
20
1.8368068
40
2.3505679
50
163.7464863
51
175.6831427
0
ARC
8
DEFAULT_255_2_778
10
10.5306769
20
1.7765894
40
2.982945
50
175.4400691
51
180.0604521
0
ARC
8
DEFAULT_255_2_778
10
10.2601187
20
1.7605902
40
2.7124154
50
179.7285212
51
190.2333178
0
ARC
8
DEFAULT_255_2_778
10
9.5580225
20
1.6298835
40
1.9982707
50
190.1216325
51
206.1238074
0
ARC
8
DEFAULT_255_2_778
10
9.2731327
20
1.4972227
40
1.6840835
50
206.3392225
51
225.4518336
0
ARC
8
DEFAULT_255_2_778
10
9.4229281
20
1.7003479
40
1.9342558
50
226.5105946
51
243.0966731
0
ARC
8
DEFAULT_255_2_778
10
9.4212255
20
1.7015119
40
1.9345247
50
243.1572399
51
270.0098808
0
LINE
8
DEFAULT_255_2_778
10
9.4215592
20
-0.2330128
11
9.4223379
21
-0.233013
0
ARC
8
DEFAULT_255_2_778
10
9.4236029
20
1.7009383
40
1.9339517
50
269.9625219
51
298.9747759
0
ARC
8
DEFAULT_255_2_778
10
9.4201659
20
1.7028402
40
1.9372816
50
299.0364546
51
313.7382147
0
ARC
8
DEFAULT_255_2_778
10
9.498007
20
1.5507774
40
1.7742727
50
315.3172039
51
344.6920162
0
ARC
8
DEFAULT_255_2_778
10
8.9118328
20
1.7247558
40
2.385617
50
344.3785553
51
356.7422957
0
ARC
8
DEFAULT_255_2_778
10
8.3375271
20
1.7718723
40
2.9617073
50
356.4636365
51
0.0342378
0
ARC
8
DEFAULT_255_2_778
10
8.6292957
20
1.7865839
40
2.6699693
50
359.7222769
51
10.9258987
0
ARC
8
DEFAULT_255_2_778
10
9.3083736
20
1.922352
40
1.977473
50
10.7927604
51
28.0402777
0
ARC
8
DEFAULT_255_2_778
10
9.5830733
20
2.0602041
40
1.6702319
50
28.296306
51
45.428804
0
ARC
8
DEFAULT_255_2_778
10
9.4616867
20
1.9390408
40
1.8417351
50
45.3839607
51
89.9989045
0
ARC
8
DEFAULT_255_2_778
10
9.4617342
20
1.9363397
40
1.8444361
50
90.0003826
51
91.2426789
0
ARC
8
DEFAULT_255_2_778
10
9.4305307
20
1.2460307
40
0.8070317
50
270.008949
51
325.4758117
0
ARC
8
DEFAULT_255_2_778
10
9.4306553
20
1.2469337
40
0.8079349
50
268.9204781
51
270.0001081
0
ARC
8
DEFAULT_255_2_778
10
9.3857578
20
1.2168246
40
0.7782485
50
270.0016046
51
272.1853161
0
ARC
8
DEFAULT_255_2_778
10
9.3855949
20
1.1971223
40
0.7585461
50
208.588845
51
270.0139444
0
ARC
8
DEFAULT_255_2_778
10
9.9551678
20
1.5550116
40
1.4305398
50
192.6762152
51
210.2593048
0
ARC
8
DEFAULT_255_2_778
10
10.6041295
20
1.7081002
40
2.0972892
50
181.8348097
51
192.8660361
0
ARC
8
DEFAULT_255_2_778
10
11.1610578
20
1.7409018
40
2.6550241
50
179.9840245
51
182.1575003
0
ARC
8
DEFAULT_255_2_778
10
11.8017318
20
1.7538835
40
3.2957209
50
173.974736
51
180.2128153
0
ARC
8
DEFAULT_255_2_778
10
10.6135158
20
1.882995
40
2.1005196
50
165.2331796
51
174.0749744
0
ARC
8
DEFAULT_255_2_778
10
9.8249386
20
2.0955786
40
1.2838117
50
151.5698848
51
165.4369135
0
ARC
8
DEFAULT_255_2_778
10
9.3830387
20
2.3438079
40
0.7770671
50
120.9726066
51
152.1531217
0
ARC
8
DEFAULT_255_2_778
10
9.3830466
20
2.3035757
40
0.8118306
50
92.9547591
51
119.5116718
0
ARC
8
DEFAULT_255_2_778
10
9.4175473
20
2.0012872
40
1.1156553
50
89.9596129
51
93.9240322
0
ARC
8
DEFAULT_255_2_778
10
9.4365773
20
2.3238511
40
0.7933008
50
90.0003765
51
91.3177502
0
ARC
8
DEFAULT_255_2_778
10
9.4364669
20
2.3259633
40
0.7911885
50
32.1634854
51
89.9923809
0
ARC
8
DEFAULT_255_2_778
10
9.1172038
20
2.0782436
40
1.1939872
50
15.4271698
51
34.0711883
0
ARC
8
DEFAULT_255_2_778
10
8.4565428
20
1.8867264
40
1.8818113
50
4.7512769
51
15.6973033
0
ARC
8
DEFAULT_255_2_778
10
7.6492511
20
1.8067058
40
2.6929877
50
359.8880116
51
5.0252546
0
ARC
8
DEFAULT_255_2_778
10
7.3053904
20
1.7893624
40
3.0368673
50
353.5416315
51
0.2279053
0
ARC
8
DEFAULT_255_2_778
10
8.4247274
20
1.6580248
40
1.9098663
50
343.8240289
51
353.6796238
0
ARC
8
DEFAULT_255_2_778
10
9.1646972
20
1.4385107
40
1.1380471
50
328.4654284
51
344.0594799
0
ARC
8
DEFAULT_255_2_778
10
9.4188748
20
1.2938238
40
0.8457866
50
323.4166538
51
327.813867
0
ARC
8
DEFAULT_255_2_778
10
17.6700733
20
1.9416497
40
1.8390947
50
88.801703
51
90.0002708
0
ARC
8
DEFAULT_255_2_778
10
17.6699907
20
1.9445283
40
1.8362162
50
89.9976941
51
134.7207383
0
ARC
8
DEFAULT_255_2_778
10
17.5862098
20
2.0234647
40
1.7211803
50
134.5880395
51
164.1277976
0
ARC
8
DEFAULT_255_2_778
10
18.1871449
20
1.8363198
40
2.350439
50
163.7460913
51
175.683229
0
ARC
8
DEFAULT_255_2_778
10
18.8168689
20
1.7760894
40
2.9829371
50
175.4400623
51
180.0604531
0
ARC
8
DEFAULT_255_2_778
10
18.5418074
20
1.7601864
40
2.7079038
50
179.7301032
51
190.2539202
0
ARC
8
DEFAULT_255_2_778
10
17.8460359
20
1.6304196
40
2.0001485
50
190.1439401
51
206.1327162
0
ARC
8
DEFAULT_255_2_778
10
17.5626446
20
1.4983537
40
1.6875695
50
206.3450705
51
225.4105463
0
ARC
8
DEFAULT_255_2_778
10
17.7094689
20
1.7003854
40
1.9348803
50
226.5142264
51
243.0940312
0
ARC
8
DEFAULT_255_2_778
10
17.7075393
20
1.7010574
40
1.9346075
50
243.1539986
51
270.0025661
0
LINE
8
DEFAULT_255_2_778
10
17.707626
20
-0.2335501
11
17.7086262
21
-0.2335504
0
ARC
8
DEFAULT_255_2_778
10
17.7098986
20
1.7000353
40
1.9335861
50
269.9622966
51
298.9782688
0
ARC
8
DEFAULT_255_2_778
10
17.7063265
20
1.7021738
40
1.9371887
50
299.0400486
51
313.742459
0
ARC
8
DEFAULT_255_2_778
10
17.7874992
20
1.5487448
40
1.7708546
50
315.2775581
51
344.7370282
0
ARC
8
DEFAULT_255_2_778
10
17.1958979
20
1.723946
40
2.3877473
50
344.418299
51
356.7572721
0
ARC
8
DEFAULT_255_2_778
10
16.616017
20
1.7713548
40
2.9694172
50
356.4768853
51
0.0344871
0
ARC
8
DEFAULT_255_2_778
10
16.9153045
20
1.7860792
40
2.6701606
50
359.7223974
51
10.9252089
0
ARC
8
DEFAULT_255_2_778
10
17.5942015
20
1.921806
40
1.9778497
50
10.792034
51
28.0359738
0
ARC
8
DEFAULT_255_2_778
10
17.8690495
20
2.0597192
40
1.6704483
50
28.2917204
51
45.4205289
0
ARC
8
DEFAULT_255_2_778
10
17.7494593
20
1.9446559
40
1.8363508
50
45.2826607
51
89.9968777
0
ARC
8
DEFAULT_255_2_778
10
17.7495558
20
1.9431551
40
1.8378516
50
89.9998897
51
91.2883428
0
ARC
8
DEFAULT_255_2_778
10
17.7172304
20
1.2433751
40
0.8040401
50
269.9972815
51
325.5847298
0
ARC
8
DEFAULT_255_2_778
10
17.7171992
20
1.2478339
40
0.8084991
50
269.0669618
51
269.9995089
0
ARC
8
DEFAULT_255_2_778
10
17.672859
20
1.2029259
40
0.7641199
50
270.0000254
51
272.338209
0
ARC
8
DEFAULT_255_2_778
10
17.673091
20
1.2006529
40
0.7618471
50
208.7303494
51
269.9825799
0
ARC
8
DEFAULT_255_2_778
10
18.2538764
20
1.556599
40
1.4426083
50
192.6223494
51
210.0391151
0
ARC
8
DEFAULT_255_2_778
10
18.901909
20
1.7089426
40
2.1082815
50
181.8400508
51
192.8139723
0
ARC
8
DEFAULT_255_2_778
10
19.449731
20
1.741208
40
2.6568974
50
179.9841695
51
182.1561638
0
ARC
8
DEFAULT_255_2_778
10
20.0889541
20
1.7541767
40
3.2961431
50
173.975392
51
180.2126699
0
ARC
8
DEFAULT_255_2_778
10
18.9010579
20
1.8832396
40
2.1012651
50
165.2369757
51
174.0755648
0
ARC
8
DEFAULT_255_2_778
10
18.1123042
20
2.0958155
40
1.2843888
50
151.5806209
51
165.4406935
0
ARC
8
DEFAULT_255_2_778
10
17.6702203
20
2.343969
40
0.7775194
50
121.125213
51
152.1591476
0
ARC
8
DEFAULT_255_2_778
10
17.6691544
20
2.3057193
40
0.8099757
50
92.9701588
51
119.6619095
0
ARC
8
DEFAULT_255_2_778
10
17.703743
20
2.0039531
40
1.1132894
50
89.9593039
51
93.9432001
0
ARC
8
DEFAULT_255_2_778
10
17.7219075
20
2.3263302
40
0.7911028
50
89.9995939
51
91.2584044
0
ARC
8
DEFAULT_255_2_778
10
17.7217464
20
2.3279275
40
0.7895054
50
32.0890816
51
89.9879008
0
ARC
8
DEFAULT_255_2_778
10
17.374973
20
2.0735833
40
1.2188181
50
15.5188975
51
33.5590992
0
ARC
8
DEFAULT_255_2_778
10
16.7250418
20
1.8844898
40
1.8956656
50
4.8406832
51
15.7699593
0
ARC
8
DEFAULT_255_2_778
10
15.9530378
20
1.8067906
40
2.6715008
50
359.8917256
51
5.1039726
0
ARC
8
DEFAULT_255_2_778
10
15.4104775
20
1.8138363
40
3.2140789
50
353.4651973
51
359.7844031
0
ARC
8
DEFAULT_255_2_778
10
16.6555077
20
1.6661771
40
1.9603398
50
344.0109894
51
353.6115404
0
ARC
8
DEFAULT_255_2_778
10
17.4477486
20
1.4339657
40
1.1347947
50
328.6456819
51
344.2635976
0
ARC
8
DEFAULT_255_2_778
10
17.7106645
20
1.2854279
40
0.8330445
50
323.5023978
51
327.9608647
0
ARC
8
DEFAULT_255_2_778
10
25.3523167
20
1.2460869
40
4.4943398
50
175.379855
51
180.478643
0
ARC
8
DEFAULT_255_2_778
10
22.5237078
20
1.4895868
40
1.6553752
50
160.4259784
51
175.8944004
0
ARC
8
DEFAULT_255_2_778
10
22.0373494
20
1.6416054
40
1.1463632
50
155.5083703
51
159.4408861
0
ARC
8
DEFAULT_255_2_778
10
22.2810669
20
1.5559389
40
1.4038552
50
143.6691089
51
156.4502677
0
ARC
8
DEFAULT_255_2_778
10
21.814062
20
1.907541
40
0.8193526
50
120.6538647
51
144.1290909
0
ARC
8
DEFAULT_255_2_778
10
21.7138432
20
2.0563894
40
0.6402904
50
113.3044359
51
119.7299789
0
ARC
8
DEFAULT_255_2_778
10
22.1178373
20
0.7637518
40
1.992246
50
90.7162296
51
109.2645824
0
ARC
8
DEFAULT_255_2_778
10
22.0983295
20
3.0049373
40
0.7410245
50
90.4172064
51
102.3113381
0
ARC
8
DEFAULT_255_2_778
10
22.1650024
20
2.6900217
40
1.0629163
50
102.2031045
51
111.5856234
0
ARC
8
DEFAULT_255_2_778
10
22.2754305
20
2.4036864
40
1.3697986
50
111.4745062
51
118.4713641
0
ARC
8
DEFAULT_255_2_778
10
22.4246537
20
2.1351521
40
1.6769957
50
118.5793248
51
131.1107657
0
ARC
8
DEFAULT_255_2_778
10
22.4484285
20
2.0948884
40
1.7229855
50
130.8260722
51
150.4941953
0
ARC
8
DEFAULT_255_2_778
10
22.2560292
20
2.2096882
40
1.4990078
50
150.6911197
51
160.5537235
0
ARC
8
DEFAULT_255_2_778
10
24.9712335
20
2.643643
40
1.1364397
50
42.467977
51
89.5159825
0
ARC
8
DEFAULT_255_2_778
10
24.9715085
20
2.4645336
40
1.3155416
50
89.5938547
51
135.4366897
0
ARC
8
DEFAULT_255_2_778
10
25.2704627
20
2.1230317
40
1.768488
50
134.3501056
51
140.4196026
0
ARC
8
DEFAULT_255_2_778
10
25.2378759
20
2.1632608
40
1.7177705
50
140.7612482
51
159.6516959
0
ARC
8
DEFAULT_255_2_778
10
25.8346173
20
1.9344039
40
2.3568631
50
159.4797586
51
171.0105734
0
ARC
8
DEFAULT_255_2_778
10
26.7050287
20
1.7926232
40
3.2387395
50
170.9391801
51
179.5642397
0
ARC
8
DEFAULT_255_2_778
10
27.3059978
20
1.7735088
40
3.8398641
50
179.347235
51
180.000994
0
ARC
8
DEFAULT_255_2_778
10
26.8211202
20
1.7606295
40
3.355011
50
179.7811894
51
188.063012
0
ARC
8
DEFAULT_255_2_778
10
25.8982805
20
1.6271607
40
2.4225751
50
187.9989202
51
199.100779
0
ARC
8
DEFAULT_255_2_778
10
25.278549
20
1.4067616
40
1.7648502
50
198.9232032
51
217.760433
0
ARC
8
DEFAULT_255_2_778
10
25.1201745
20
1.297695
40
1.5728913
50
218.1522738
51
219.5080681
0
ARC
8
DEFAULT_255_2_778
10
25.140782
20
1.298273
40
1.589209
50
219.0514792
51
235.1100177
0
ARC
8
DEFAULT_255_2_778
10
24.9647511
20
1.0591622
40
1.2924103
50
235.4477297
51
270.6775325
0
ARC
8
DEFAULT_255_2_778
10
24.961237
20
0.927972
40
1.161282
50
270.9274408
51
316.869146
0
ARC
8
DEFAULT_255_2_778
10
25.011229
20
1.2306633
40
0.83381
50
306.8393574
51
328.0510953
0
ARC
8
DEFAULT_255_2_778
10
25.1326204
20
1.0834351
40
0.6432585
50
269.1817065
51
306.0485816
0
ARC
8
DEFAULT_255_2_778
10
25.1062676
20
1.0813933
40
0.6413809
50
213.0889727
51
271.5336664
0
ARC
8
DEFAULT_255_2_778
10
25.3392884
20
1.2616727
40
0.9353367
50
207.219979
51
214.5486861
0
ARC
8
DEFAULT_255_2_778
10
25.8423763
20
1.517733
40
1.4998371
50
191.7399727
51
207.1277966
0
ARC
8
DEFAULT_255_2_778
10
26.647017
20
1.6933032
40
2.3233833
50
182.309549
51
191.9416211
0
ARC
8
DEFAULT_255_2_778
10
27.4038266
20
1.7398004
40
3.0814933
50
179.9694745
51
182.6063259
0
ARC
8
DEFAULT_255_2_778
10
28.0418887
20
1.7536845
40
3.7195751
50
174.6634661
51
180.1885796
0
ARC
8
DEFAULT_255_2_778
10
26.6811495
20
1.8847977
40
2.3525431
50
166.8954238
51
174.7606113
0
ARC
8
DEFAULT_255_2_778
10
25.7709313
20
2.1004867
40
1.4171308
50
155.430766
51
167.0449786
0
ARC
8
DEFAULT_255_2_778
10
25.2348452
20
2.3521637
40
0.8249585
50
134.495646
51
155.8467565
0
ARC
8
DEFAULT_255_2_778
10
25.1001422
20
2.469425
40
0.6470575
50
89.6790973
51
133.2646415
0
ARC
8
DEFAULT_255_2_778
10
25.1257597
20
2.2195165
40
0.8972256
50
89.9952752
51
91.4046208
0
ARC
8
DEFAULT_255_2_778
10
25.1319722
20
2.4595905
40
0.6571803
50
33.5903687
51
90.5351847
0
ARC
8
DEFAULT_255_2_778
10
24.8532597
20
2.2249586
40
1.0199969
50
30.7739348
51
35.9083185
0
ARC
8
DEFAULT_255_2_778
10
24.6263047
20
2.1077405
40
1.2750631
50
14.6869177
51
30.0815038
0
ARC
8
DEFAULT_255_2_778
10
23.8961212
20
1.9076362
40
2.0321396
50
5.3961133
51
14.9248093
0
ARC
8
DEFAULT_255_2_778
10
22.9490998
20
1.8090984
40
2.9842442
50
359.8491632
51
5.569723
0
ARC
8
DEFAULT_255_2_778
10
21.9690104
20
1.7703193
40
3.9644439
50
0.0016125
51
0.446914
0
ARC
8
DEFAULT_255_2_778
10
22.7242712
20
1.7595336
40
3.2092015
50
354.0780222
51
0.1945565
0
ARC
8
DEFAULT_255_2_778
10
23.8447578
20
1.6397882
40
2.0823429
50
345.745872
51
354.174357
0
ARC
8
DEFAULT_255_2_778
10
24.6406199
20
1.4329413
40
1.2600605
50
333.061998
51
345.9513566
0
ARC
8
DEFAULT_255_2_778
10
24.9737551
20
1.2727414
40
0.8905336
50
327.1318586
51
332.5407722
0
ARC
8
DEFAULT_255_2_778
10
14.5847436
20
-0.0080068
40
0.4796971
50
344.5176452
51
346.818217
0
ARC
8
DEFAULT_255_2_778
10
9.4508856
20
1.240975
40
5.7632832
50
346.3674515
51
346.7585482
0
ARC
8
DEFAULT_255_2_778
10
-4.3266823
20
4.4931326
40
19.919479
50
346.7301562
51
346.8867002
0
ARC
8
DEFAULT_255_2_778
10
-28.3172606
20
10.0862342
40
44.5534114
50
346.8811287
51
346.9653381
0
ARC
8
DEFAULT_255_2_778
10
-73.4104908
20
20.5248502
40
90.8390909
50
346.965777
51
347.0377148
0
ARC
8
DEFAULT_255_2_778
10
-156.2693695
20
39.6011622
40
175.8655542
50
347.0363583
51
347.0839525
0
ARC
8
DEFAULT_255_2_778
10
-281.5591693
20
68.337366
40
304.4085561
50
347.083205
51
347.1157125
0
ARC
8
DEFAULT_255_2_778
10
-432.2796635
20
102.8188602
40
459.0230471
50
347.1150565
51
347.1361062
0
ARC
8
DEFAULT_255_2_778
10
-644.8088289
20
151.353003
40
677.0235268
50
347.1361556
51
347.1566882
0
ARC
8
DEFAULT_255_2_778
10
-949.7162835
20
220.8707074
40
989.755468
50
347.1565752
51
347.1730855
0
ARC
8
DEFAULT_255_2_778
10
-1380.9554475
20
319.0568046
40
1432.0310904
50
347.173167
51
347.1891764
0
ARC
8
DEFAULT_255_2_778
10
-2033.8769971
20
467.5251737
40
2101.6200736
50
347.1892158
51
347.20388
0
ARC
8
DEFAULT_255_2_778
10
-597.2668772
20
141.2464574
40
628.4240795
50
347.2030986
51
347.2040607
0
ARC
8
DEFAULT_255_2_778
10
-2893.3370476
20
662.7304954
40
2982.9694346
50
347.2040454
51
347.2160922
0
ARC
8
DEFAULT_255_2_778
10
-3538.9575076
20
809.236477
40
3645.0040115
50
347.2158578
51
347.2209497
0
ARC
8
DEFAULT_255_2_778
10
-3949.2435217
20
902.2937305
40
4065.710876
50
347.2209455
51
347.2247099
0
ARC
8
DEFAULT_255_2_778
10
-4115.8431086
20
940.0634345
40
4236.5381949
50
347.224779
51
347.2277181
0
ARC
8
DEFAULT_255_2_778
10
-3803.4759086
20
869.2628648
40
3916.2477203
50
347.2275951
51
347.2301548
0
ARC
8
DEFAULT_255_2_778
10
-4517.8490374
20
1031.1727812
40
4648.7392138
50
347.2301109
51
347.2318327
0
ARC
8
DEFAULT_255_2_778
10
-4435.2568476
20
1012.4383705
40
4564.0489095
50
347.2320552
51
347.2340876
0
ARC
8
DEFAULT_255_2_778
10
-3560.7099702
20
814.2892568
40
3667.3352919
50
347.2341489
51
347.236153
0
ARC
8
DEFAULT_255_2_778
10
-3084.2096375
20
706.3462481
40
3178.7615919
50
347.2361693
51
347.2378193
0
ARC
8
DEFAULT_255_2_778
10
-2581.2315751
20
592.4292363
40
2663.044599
50
347.2376574
51
347.2388017
0
ARC
8
DEFAULT_255_2_778
10
-1377.3993552
20
319.7854053
40
1428.7242708
50
347.238687
51
347.2406187
0
LINE
8
DEFAULT_255_2_778
10
16.0442437
20
4.241464
11
16.0493337
21
4.2639421
0
LINE
8
DEFAULT_255_2_778
10
1.7657337
20
4.3089421
11
2.3777337
21
4.3089421
0
LINE
8
DEFAULT_255_2_778
10
2.3777337
20
4.3089421
11
2.3777337
21
4.9275421
0
LINE
8
DEFAULT_255_2_778
10
2.3777337
20
4.9275421
11
0.2645337
21
4.9275421
0
LINE
8
DEFAULT_255_2_778
10
0.2645337
20
4.9275421
11
0.2645337
21
4.3089421
0
LINE
8
DEFAULT_255_2_778
10
0.2645337
20
4.3089421
11
0.8651337
21
4.3089421
0
LINE
8
DEFAULT_255_2_778
10
0.8651337
20
4.3089421
11
0.8651337
21
0.4571421
0
LINE
8
DEFAULT_255_2_778
10
0.8651337
20
0.4571421
11
0.2645337
21
0.4571421
0
LINE
8
DEFAULT_255_2_778
10
0.2645337
20
0.4571421
11
0.2645337
21
-0.1635579
0
LINE
8
DEFAULT_255_2_778
10
0.2645337
20
-0.1635579
11
2.3759337
21
-0.1635579
0
LINE
8
DEFAULT_255_2_778
10
2.3759337
20
-0.1635579
11
2.3759337
21
0.4571421
0
LINE
8
DEFAULT_255_2_778
10
2.3759337
20
0.4571421
11
1.7673337
21
0.4571421
0
LINE
8
DEFAULT_255_2_778
10
1.7673337
20
0.4571421
11
1.7673337
21
4.3089421
0
LINE
8
DEFAULT_255_2_778
10
1.7673337
20
4.3089421
11
1.7657337
21
4.3089421
0
LINE
8
DEFAULT_255_2_778
10
3.6705337
20
3.3400421
11
3.4853337
21
3.1812421
0
LINE
8
DEFAULT_255_2_778
10
3.4853337
20
3.1812421
11
3.4853337
21
3.6845421
0
LINE
8
DEFAULT_255_2_778
10
3.4853337
20
3.6845421
11
2.1359337
21
3.6845421
0
LINE
8
DEFAULT_255_2_778
10
2.1359337
20
3.6845421
11
2.1359337
21
3.0910421
0
LINE
8
DEFAULT_255_2_778
10
2.1359337
20
3.0910421
11
2.5910337
21
3.0910421
0
LINE
8
DEFAULT_255_2_778
10
2.5910337
20
3.0910421
11
2.5910337
21
-0.1519579
0
LINE
8
DEFAULT_255_2_778
10
2.5910337
20
-0.1519579
11
3.4863337
21
-0.1519579
0
LINE
8
DEFAULT_255_2_778
10
3.4863337
20
-0.1519579
11
3.4863337
21
2.5679421
0
LINE
8
DEFAULT_255_2_778
10
3.4863337
20
2.5679421
11
3.5279337
21
2.6023421
0
LINE
8
DEFAULT_255_2_778
10
4.6743337
20
2.2129421
11
4.6743337
21
-0.1514579
0
LINE
8
DEFAULT_255_2_778
10
4.6743337
20
-0.1514579
11
5.5678337
21
-0.1514579
0
LINE
8
DEFAULT_255_2_778
10
5.5678337
20
-0.1514579
11
5.5678337
21
2.3110421
0
LINE
8
DEFAULT_255_2_778
10
4.6227337
20
3.7490421
11
4.6222337
21
3.7480421
0
LINE
8
DEFAULT_255_2_778
10
7.7374337
20
3.7146421
11
6.8923337
21
3.7146421
0
LINE
8
DEFAULT_255_2_778
10
6.8923337
20
3.7146421
11
6.8923337
21
3.9528421
0
LINE
8
DEFAULT_255_2_778
10
7.9610337
20
4.4534421
11
7.9610337
21
4.9645421
0
LINE
8
DEFAULT_255_2_778
10
6.0589337
20
3.8887421
11
6.0589337
21
3.7154421
0
LINE
8
DEFAULT_255_2_778
10
6.0589337
20
3.7154421
11
5.6551337
21
3.7154421
0
LINE
8
DEFAULT_255_2_778
10
5.6551337
20
3.7154421
11
5.6551337
21
3.0910421
0
LINE
8
DEFAULT_255_2_778
10
5.6551337
20
3.0910421
11
6.0589337
21
3.0910421
0
LINE
8
DEFAULT_255_2_778
10
6.0589337
20
3.0910421
11
6.0589337
21
-0.1601579
0
LINE
8
DEFAULT_255_2_778
10
6.0589337
20
-0.1601579
11
6.8857337
21
-0.1601579
0
LINE
8
DEFAULT_255_2_778
10
6.8857337
20
-0.1601579
11
6.8857337
21
3.0897421
0
LINE
8
DEFAULT_255_2_778
10
6.8857337
20
3.0897421
11
7.7369337
21
3.0897421
0
LINE
8
DEFAULT_255_2_778
10
7.7369337
20
3.0897421
11
7.7369337
21
3.7115421
0
LINE
8
DEFAULT_255_2_778
10
7.7369337
20
3.7115421
11
7.7374337
21
3.7146421
0
LINE
8
DEFAULT_255_2_778
10
9.4217337
20
3.7803421
11
9.4223337
21
3.7800421
0
LINE
8
DEFAULT_255_2_778
10
10.0980337
20
0.7897421
11
10.0954337
21
0.7886421
0
LINE
8
DEFAULT_255_2_778
10
17.7082337
20
3.7805421
11
17.7085337
21
3.7803421
0
LINE
8
DEFAULT_255_2_778
10
18.3803337
20
0.7899421
11
18.3805337
21
0.7889421
0
LINE
8
DEFAULT_255_2_778
10
20.8425337
20
2.7097421
11
20.8425337
21
3.6850421
0
LINE
8
DEFAULT_255_2_778
10
20.8425337
20
3.6850421
11
19.5976337
21
3.6850421
0
LINE
8
DEFAULT_255_2_778
10
19.5976337
20
3.6850421
11
19.5976337
21
3.0915421
0
LINE
8
DEFAULT_255_2_778
10
19.5976337
20
3.0915421
11
19.9585337
21
3.0915421
0
LINE
8
DEFAULT_255_2_778
10
19.9585337
20
3.0915421
11
19.9585337
21
-0.1514579
0
LINE
8
DEFAULT_255_2_778
10
19.9585337
20
-0.1514579
11
20.8581337
21
-0.1514579
0
LINE
8
DEFAULT_255_2_778
10
20.8581337
20
-0.1514579
11
20.8581337
21
1.2085421
0
LINE
8
DEFAULT_255_2_778
10
22.0929337
20
2.7558421
11
22.0929337
21
3.7459421
0
LINE
8
DEFAULT_255_2_778
10
20.8425337
20
2.7087421
11
20.8425337
21
2.7097421
0
LINE
8
DEFAULT_255_2_778
10
22.0146337
20
4.4428421
11
22.3400337
21
4.4428421
0
LINE
8
DEFAULT_255_2_778
10
22.3400337
20
4.4428421
11
22.3400337
21
-0.1609579
0
LINE
8
DEFAULT_255_2_778
10
22.3400337
20
-0.1609579
11
23.2510337
21
-0.1609579
0
LINE
8
DEFAULT_255_2_778
10
23.2510337
20
-0.1609579
11
23.2510337
21
5.0857421
0
LINE
8
DEFAULT_255_2_778
10
23.2510337
20
5.0857421
11
22.0143337
21
5.0857421
0
LINE
8
DEFAULT_255_2_778
10
22.0143337
20
5.0857421
11
22.0146337
21
4.4428421
0
LINE
8
DEFAULT_255_2_778
10
25.4576337
20
5.0857421
11
25.4576337
21
4.4428421
0
LINE
8
DEFAULT_255_2_778
10
25.4576337
20
4.4428421
11
25.8095337
21
4.4428421
0
LINE
8
DEFAULT_255_2_778
10
25.8095337
20
4.4428421
11
25.8095337
21
3.4109421
0
LINE
8
DEFAULT_255_2_778
10
25.8087337
20
0.1340421
11
25.8087337
21
-0.1516579
0
LINE
8
DEFAULT_255_2_778
10
25.8087337
20
-0.1516579
11
26.7228337
21
-0.1516579
0
LINE
8
DEFAULT_255_2_778
10
26.7228337
20
-0.1516579
11
26.7228337
21
5.0833421
0
LINE
8
DEFAULT_255_2_778
10
26.7228337
20
5.0833421
11
25.4576337
21
5.0833421
0
LINE
8
DEFAULT_255_2_778
10
25.4576337
20
5.0833421
11
25.4576337
21
5.0857421
0
LINE
8
DEFAULT_255_2_778
10
25.7217337
20
0.7894421
11
25.7187337
21
0.7894421
0
LINE
8
DEFAULT_255_2_778
10
16.4305337
20
4.2660421
11
16.4305337
21
4.9460421
0
LINE
8
DEFAULT_255_2_778
10
16.4305337
20
4.9460421
11
14.9634337
21
4.9460421
0
LINE
8
DEFAULT_255_2_778
10
14.9634337
20
4.9460421
11
14.9634337
21
4.2660421
0
LINE
8
DEFAULT_255_2_778
10
14.9634337
20
4.2660421
11
15.3714337
21
4.2660421
0
LINE
8
DEFAULT_255_2_778
10
15.3714337
20
4.2660421
11
14.7121337
21
1.2773421
0
LINE
8
DEFAULT_255_2_778
10
14.7121337
20
1.2773421
11
14.0117337
21
4.9508421
0
LINE
8
DEFAULT_255_2_778
10
14.0117337
20
4.9508421
11
12.8190337
21
4.9508421
0
LINE
8
DEFAULT_255_2_778
10
12.8190337
20
4.9508421
11
12.8190337
21
4.2708421
0
LINE
8
DEFAULT_255_2_778
10
12.8190337
20
4.2708421
11
13.2868337
21
4.2708421
0
LINE
8
DEFAULT_255_2_778
10
13.2868337
20
4.2708421
11
13.2868337
21
4.2531421
0
LINE
8
DEFAULT_255_2_778
10
13.2868337
20
4.2531421
11
12.6533337
21
1.2694421
0
LINE
8
DEFAULT_255_2_778
10
12.6533337
20
1.2694421
11
11.9326337
21
4.2660421
0
LINE
8
DEFAULT_255_2_778
10
11.9326337
20
4.2660421
11
12.3718337
21
4.2660421
0
LINE
8
DEFAULT_255_2_778
10
12.3718337
20
4.2660421
11
12.3718337
21
4.9460421
0
LINE
8
DEFAULT_255_2_778
10
12.3718337
20
4.9460421
11
10.6639337
21
4.9460421
0
LINE
8
DEFAULT_255_2_778
10
10.6639337
20
4.9460421
11
10.6639337
21
4.2660421
0
LINE
8
DEFAULT_255_2_778
10
10.6639337
20
4.2660421
11
11.0230337
21
4.2660421
0
LINE
8
DEFAULT_255_2_778
10
11.0230337
20
4.2660421
11
12.1721337
21
-0.1339579
0
LINE
8
DEFAULT_255_2_778
10
12.1721337
20
-0.1339579
11
12.9076337
21
-0.1339579
0
LINE
8
DEFAULT_255_2_778
10
12.9076337
20
-0.1339579
11
13.5876337
21
2.8738421
0
LINE
8
DEFAULT_255_2_778
10
13.5876337
20
2.8738421
11
14.2533337
21
-0.1360579
0
LINE
8
DEFAULT_255_2_778
10
14.2533337
20
-0.1360579
11
15.0470337
21
-0.1360579
0
LINE
8
DEFAULT_255_2_778
10
16.0493337
20
4.2639421
11
16.4276337
21
4.2639421
0
LINE
8
DEFAULT_255_2_778
10
16.4276337
20
4.2639421
11
16.4305337
21
4.2660421
0
ENDSEC
0
EOF