0
SECTION
2
HEADER
9
$MEASUREMENT
70
1
0
ENDSEC
0
SECTION
2
TABLES
0
TABLE
2
LTYPE
0
LTYPE
72
65
70
64
2
CONTINUOUS
3
______
73
0
40
0
0
ENDTAB
0
TABLE
2
LAYER
0
LAYER
2
DEFAULT_255_2_778
70
0
62
255
6
CONTINUOUS
0
ENDTAB
0
ENDSEC
0
SECTION
2
ENTITIES
0
ARC
8
DEFAULT_255_2_778
10
11.5408429
20
6.4927198
40
0.4993204
50
45.2176131
51
90.3451888
0
ARC
8
DEFAULT_255_2_778
10
11.537829
20
6.4704263
40
0.5216047
50
89.9993722
51
91.5061049
0
ARC
8
DEFAULT_255_2_778
10
11.5374868
20
6.4700699
40
0.5219521
50
91.4675227
51
132.7081753
0
ARC
8
DEFAULT_255_2_778
10
11.541034
20
6.4662628
40
0.5271556
50
132.7108272
51
133.7389993
0
ARC
8
DEFAULT_255_2_778
10
11.5076749
20
6.5009328
40
0.479043
50
133.7232188
51
177.4479226
0
ARC
8
DEFAULT_255_2_778
10
11.5361437
20
6.4967757
40
0.507677
50
177.1222853
51
180.0015697
0
ARC
8
DEFAULT_255_2_778
10
11.5395948
20
6.4967664
40
0.511128
50
180.0005086
51
182.0351331
0
ARC
8
DEFAULT_255_2_778
10
11.5592277
20
6.499193
40
0.5308376
50
182.2216295
51
222.5185113
0
ARC
8
DEFAULT_255_2_778
10
11.5685025
20
6.5060893
40
0.5423357
50
222.3933034
51
223.7245581
0
ARC
8
DEFAULT_255_2_778
10
14.9245015
20
3.0894423
40
0.4993204
50
225.2176131
51
270.3451888
0
ARC
8
DEFAULT_255_2_778
10
14.9275154
20
3.1117358
40
0.5216047
50
269.9993722
51
271.5061049
0
ARC
8
DEFAULT_255_2_778
10
14.9278576
20
3.1120921
40
0.5219521
50
271.4675227
51
312.7081753
0
ARC
8
DEFAULT_255_2_778
10
14.9243103
20
3.1158992
40
0.5271556
50
312.7108272
51
313.7389993
0
ARC
8
DEFAULT_255_2_778
10
14.9343515
20
3.086658
40
0.499255
50
315.2267082
51
0.3512325
0
ARC
8
DEFAULT_255_2_778
10
14.911374
20
3.0897243
40
0.5222232
50
359.9993699
51
1.5018759
0
ARC
8
DEFAULT_255_2_778
10
14.9117061
20
3.0901265
40
0.5218807
50
1.4586833
51
42.8721233
0
ARC
8
DEFAULT_255_2_778
10
14.9098128
20
3.0882806
40
0.5245241
50
42.8791945
51
43.740194
0
ARC
8
DEFAULT_255_2_778
10
6.4092496
20
10.3129242
40
4.3003081
50
89.9570636
51
105.0986952
0
ARC
8
DEFAULT_255_2_778
10
6.4102189
20
10.3257438
40
4.2881855
50
105.155816
51
131.0285161
0
ARC
8
DEFAULT_255_2_778
10
6.4120584
20
10.3151328
40
4.2974016
50
130.9541496
51
161.8601686
0
ARC
8
DEFAULT_255_2_778
10
6.4022721
20
10.3240941
40
4.285315
50
161.9332922
51
177.7605288
0
ARC
8
DEFAULT_255_2_778
10
6.4958479
20
10.3175594
40
4.3790757
50
177.7229364
51
180.0016793
0
ARC
8
DEFAULT_255_2_778
10
6.4194873
20
10.3136414
40
4.3027168
50
179.9495372
51
194.4095446
0
ARC
8
DEFAULT_255_2_778
10
6.3732579
20
10.3054506
40
4.255905
50
194.4576203
51
217.8395071
0
ARC
8
DEFAULT_255_2_778
10
6.4062398
20
10.3278869
40
4.2957161
50
217.805975
51
251.4188468
0
ARC
8
DEFAULT_255_2_778
10
6.4052633
20
10.3369887
40
4.3040339
50
251.4697765
51
267.4098739
0
ARC
8
DEFAULT_255_2_778
10
6.4123088
20
10.4305715
40
4.3978405
50
267.3732745
51
270.0021285
0
LINE
8
DEFAULT_255_2_778
10
6.4124722
20
6.032731
11
6.4139818
21
6.0327308
0
ARC
8
DEFAULT_255_2_778
10
6.4139769
20
10.327122
40
4.2943913
50
270.0000647
51
315.00004
0
ARC
8
DEFAULT_255_2_778
10
6.4140368
20
10.3269619
40
4.2942356
50
315.000986
51
0.0007918
0
ARC
8
DEFAULT_255_2_778
10
7.8585404
20
10.3273987
40
2.849732
50
359.9924112
51
0.0227666
0
ARC
8
DEFAULT_255_2_778
10
6.3914749
20
10.3324086
40
4.316799
50
359.9485333
51
14.363115
0
ARC
8
DEFAULT_255_2_778
10
6.4481976
20
10.3437121
40
4.2590464
50
14.4050987
51
37.4771918
0
ARC
8
DEFAULT_255_2_778
10
6.4239771
20
10.3277077
40
4.2880058
50
37.4499896
51
70.697827
0
ARC
8
DEFAULT_255_2_778
10
6.4216817
20
10.3102021
40
4.3052878
50
70.7460046
51
86.7059432
0
ARC
8
DEFAULT_255_2_778
10
6.4127566
20
10.2057004
40
4.4101306
50
86.6681938
51
90.0036955
0
ARC
8
DEFAULT_255_2_778
10
6.4669421
20
10.3240226
40
3.2836917
50
242.3085205
51
270.0109946
0
ARC
8
DEFAULT_255_2_778
10
6.4662494
20
10.3250452
40
3.2842753
50
211.5391374
51
242.3275104
0
ARC
8
DEFAULT_255_2_778
10
6.4776431
20
10.3321711
40
3.2977134
50
209.9976599
51
211.5411089
0
ARC
8
DEFAULT_255_2_778
10
6.4648498
20
10.3256818
40
3.2833895
50
193.4726738
51
210.0112044
0
ARC
8
DEFAULT_255_2_778
10
6.4688452
20
10.3263163
40
3.2874229
50
179.9977828
51
193.4672049
0
LINE
8
DEFAULT_255_2_778
10
3.1814222
20
10.3264435
11
3.1814222
21
10.3268044
0
ARC
8
DEFAULT_255_2_778
10
6.4661438
20
10.3268741
40
3.2847216
50
156.6621794
51
180.0012169
0
ARC
8
DEFAULT_255_2_778
10
6.471443
20
10.3241306
40
3.2906742
50
149.9987266
51
156.6548712
0
ARC
8
DEFAULT_255_2_778
10
6.4654759
20
10.328336
40
3.2834038
50
122.3057071
51
150.010213
0
ARC
8
DEFAULT_255_2_778
10
6.4670807
20
10.3278536
40
3.2846694
50
91.5409094
51
122.3248691
0
ARC
8
DEFAULT_255_2_778
10
6.4675548
20
10.3147006
40
3.2978303
50
89.9996983
51
91.5429994
0
ARC
8
DEFAULT_255_2_778
10
6.4703284
20
10.3361202
40
3.276412
50
72.036867
51
90.0481988
0
ARC
8
DEFAULT_255_2_778
10
6.4589954
20
10.31784
40
3.2973003
50
15.3873381
51
71.947501
0
ARC
8
DEFAULT_255_2_778
10
6.468764
20
10.3290815
40
3.2849094
50
359.953771
51
15.2435017
0
ARC
8
DEFAULT_255_2_778
10
6.4747891
20
10.3232288
40
3.2788847
50
342.3471886
51
0.0559562
0
ARC
8
DEFAULT_255_2_778
10
6.458742
20
10.335973
40
3.2980488
50
285.5428741
51
342.2207542
0
ARC
8
DEFAULT_255_2_778
10
6.4698364
20
10.3206583
40
3.2803282
50
269.9604527
51
285.4278573
0
ARC
8
DEFAULT_255_2_778
10
11.1168094
20
4.6049614
40
0.5133211
50
44.6532641
51
75.612342
0
ARC
8
DEFAULT_255_2_778
10
11.12392
20
4.6252705
40
0.4918855
50
75.8267972
51
89.9939148
0
ARC
8
DEFAULT_255_2_778
10
11.1254418
20
4.616622
40
0.5005362
50
90.1682276
51
129.421798
0
ARC
8
DEFAULT_255_2_778
10
11.1499484
20
4.5820193
40
0.5428373
50
129.1006757
51
135.0197435
0
ARC
8
DEFAULT_255_2_778
10
11.1267418
20
4.6005682
40
0.5133211
50
134.6532641
51
165.612342
0
ARC
8
DEFAULT_255_2_778
10
11.1064327
20
4.6076788
40
0.4918855
50
165.8267972
51
179.9939148
0
ARC
8
DEFAULT_255_2_778
10
11.1150812
20
4.6092007
40
0.5005362
50
180.1682276
51
219.421798
0
ARC
8
DEFAULT_255_2_778
10
11.1496839
20
4.6337072
40
0.5428373
50
219.1006757
51
225.0197435
0
ARC
8
DEFAULT_255_2_778
10
15.491435
20
0.2502006
40
0.5133211
50
224.6532641
51
255.612342
0
ARC
8
DEFAULT_255_2_778
10
15.4843244
20
0.2298915
40
0.4918855
50
255.8267972
51
269.9939148
0
ARC
8
DEFAULT_255_2_778
10
15.4828026
20
0.2385401
40
0.5005362
50
270.1682276
51
309.421798
0
ARC
8
DEFAULT_255_2_778
10
15.458296
20
0.2731427
40
0.5428373
50
309.1006757
51
315.0197435
0
ARC
8
DEFAULT_255_2_778
10
15.4648973
20
0.2503303
40
0.5221687
50
316.278428
51
356.5318095
0
ARC
8
DEFAULT_255_2_778
10
15.4632232
20
0.250896
40
0.5238742
50
356.4811309
51
358.4029938
0
ARC
8
DEFAULT_255_2_778
10
15.464284
20
0.2508708
40
0.5228133
50
358.4025108
51
359.9997514
0
ARC
8
DEFAULT_255_2_778
10
15.4888761
20
0.2541245
40
0.4982317
50
359.6255607
51
44.8219525
0
ARC
8
DEFAULT_255_2_778
10
8.4310118
20
4.9168098
40
0.4524335
50
45.7576651
51
66.8237054
0
ARC
8
DEFAULT_255_2_778
10
6.4260571
20
10.3286406
40
5.2714198
50
269.9975493
51
292.8313397
0
ARC
8
DEFAULT_255_2_778
10
6.4258318
20
10.3170145
40
5.2597938
50
269.8860613
51
269.9999976
0
ARC
8
DEFAULT_255_2_778
10
6.4120281
20
10.4259356
40
5.3687056
50
257.0279979
51
270.0356887
0
ARC
8
DEFAULT_255_2_778
10
6.4049707
20
10.3815913
40
5.3239097
50
237.6768221
51
256.9948851
0
ARC
8
DEFAULT_255_2_778
10
6.4242485
20
10.4188173
40
5.3656762
50
199.1075373
51
237.7154114
0
ARC
8
DEFAULT_255_2_778
10
6.37467
20
10.3928099
40
5.3103225
50
184.1785966
51
199.0174948
0
ARC
8
DEFAULT_255_2_778
10
6.4679223
20
10.401362
40
5.4039501
50
179.9950267
51
184.196986
0
ARC
8
DEFAULT_255_2_778
10
6.3981784
20
10.4046809
40
5.334207
50
166.2412881
51
180.0306115
0
ARC
8
DEFAULT_255_2_778
10
6.4056253
20
10.3981082
40
5.3430054
50
144.7505441
51
166.1918206
0
ARC
8
DEFAULT_255_2_778
10
6.454749
20
10.3715073
40
5.3984785
50
109.5260224
51
144.8208844
0
ARC
8
DEFAULT_255_2_778
10
6.4171019
20
10.4518813
40
5.3101509
50
94.2850943
51
109.4330329
0
ARC
8
DEFAULT_255_2_778
10
6.4239372
20
10.376044
40
5.3862871
50
89.9953725
51
94.2973235
0
ARC
8
DEFAULT_255_2_778
10
6.4276992
20
10.4113997
40
5.3509323
50
76.6389215
51
90.0356238
0
ARC
8
DEFAULT_255_2_778
10
6.4310033
20
10.440825
40
5.3215411
50
56.7828225
51
76.6003213
0
ARC
8
DEFAULT_255_2_778
10
6.406411
20
10.3956772
40
5.3727853
50
19.2871771
51
56.8271712
0
ARC
8
DEFAULT_255_2_778
10
6.4683337
20
10.4260709
40
5.3043053
50
4.2257793
51
19.1982285
0
ARC
8
DEFAULT_255_2_778
10
6.3849891
20
10.4184787
40
5.387983
50
359.9952398
51
4.2409881
0
ARC
8
DEFAULT_255_2_778
10
5.8863089
20
10.4139592
40
5.8866647
50
0.0030487
51
0.0396321
0
ARC
8
DEFAULT_255_2_778
10
6.467781
20
10.4141327
40
5.3051926
50
337.2426737
51
0.001509
0
ARC
8
DEFAULT_255_2_778
10
14.9061926
20
5.5217778
40
0.499056
50
225.2050916
51
270.3478199
0
ARC
8
DEFAULT_255_2_778
10
14.9092276
20
5.544311
40
0.52158
50
269.999402
51
271.5227679
0
ARC
8
DEFAULT_255_2_778
10
14.90956
20
5.5446853
40
0.5219454
50
271.4851999
51
312.7089061
0
ARC
8
DEFAULT_255_2_778
10
14.9063147
20
5.5481882
40
0.5267206
50
312.7098672
51
313.7384725
0
ARC
8
DEFAULT_255_2_778
10
14.9397473
20
5.5137301
40
0.4787103
50
313.6987431
51
356.9199235
0
ARC
8
DEFAULT_255_2_778
10
14.9118776
20
5.5179719
40
0.506775
50
356.6103337
51
0.0034441
0
ARC
8
DEFAULT_255_2_778
10
14.907659
20
5.517998
40
0.5109937
50
0.000492
51
2.0354078
0
ARC
8
DEFAULT_255_2_778
10
14.888042
20
5.5155496
40
0.530688
50
2.2243607
51
42.5361784
0
ARC
8
DEFAULT_255_2_778
10
14.8784297
20
5.5083764
40
0.5426217
50
42.4081089
51
43.7389829
0
ARC
8
DEFAULT_255_2_778
10
6.6449412
20
10.3845263
40
5.9976044
50
344.0960636
51
0.4356711
0
ARC
8
DEFAULT_255_2_778
10
5.4310262
20
10.4357704
40
7.2113482
50
359.9551943
51
359.9978644
0
ARC
8
DEFAULT_255_2_778
10
6.3749001
20
10.439237
40
6.2674755
50
359.9658512
51
12.0687733
0
ARC
8
DEFAULT_255_2_778
10
6.4519297
20
10.4530742
40
6.1892558
50
12.0926062
51
28.9738362
0
ARC
8
DEFAULT_255_2_778
10
6.3995772
20
10.4234946
40
6.2493843
50
28.9785791
51
69.4087471
0
ARC
8
DEFAULT_255_2_778
10
6.4189045
20
10.4563254
40
6.2118572
50
69.4691246
51
83.5458092
0
ARC
8
DEFAULT_255_2_778
10
6.4047865
20
10.3398227
40
6.3292086
50
83.5373667
51
90.0118976
0
ARC
8
DEFAULT_255_2_778
10
6.3997482
20
10.3620775
40
6.3069546
50
89.9661691
51
102.1028764
0
ARC
8
DEFAULT_255_2_778
10
6.3846693
20
10.4435444
40
6.2241373
50
102.1243913
51
118.9202915
0
ARC
8
DEFAULT_255_2_778
10
6.3927912
20
10.4228015
40
6.2462217
50
118.8934888
51
160.2817361
0
ARC
8
DEFAULT_255_2_778
10
6.3439259
20
10.4510848
40
6.1906874
50
160.3755639
51
174.1463502
0
ARC
8
DEFAULT_255_2_778
10
6.4652503
20
10.4373678
40
6.3127783
50
174.1348066
51
180.0103177
0
ARC
8
DEFAULT_255_2_778
10
6.4374505
20
10.4324691
40
6.2849795
50
179.965705
51
192.0547583
0
ARC
8
DEFAULT_255_2_778
10
6.3571585
20
10.4178502
40
6.2034052
50
192.077592
51
208.6434222
0
ARC
8
DEFAULT_255_2_778
10
6.4017756
20
10.4421848
40
6.254227
50
208.6431381
51
250.0110739
0
ARC
8
DEFAULT_255_2_778
10
6.3817777
20
10.4093313
40
6.2165212
50
250.0807761
51
264.0563346
0
ARC
8
DEFAULT_255_2_778
10
6.395525
20
10.5292028
40
6.3371718
50
264.0449365
51
270.0103718
0
ARC
8
DEFAULT_255_2_778
10
6.4020877
20
10.3021711
40
6.1101424
50
269.9492175
51
269.9999985
0
ARC
8
DEFAULT_255_2_778
10
6.4021402
20
10.5091739
40
6.3171452
50
269.9995226
51
285.8009253
0
ARC
8
DEFAULT_255_2_778
10
13.0241992
20
0.2348517
40
0.499255
50
225.2267082
51
270.3512325
0
ARC
8
DEFAULT_255_2_778
10
13.0272654
20
0.2578293
40
0.5222232
50
269.9993699
51
271.5018759
0
ARC
8
DEFAULT_255_2_778
10
13.0276677
20
0.2574972
40
0.5218807
50
271.4586833
51
312.8721233
0
ARC
8
DEFAULT_255_2_778
10
13.0258218
20
0.2593904
40
0.5245241
50
312.8791945
51
313.740194
0
ARC
8
DEFAULT_255_2_778
10
13.0575557
20
0.2266393
40
0.4789216
50
313.7062926
51
357.2721989
0
ARC
8
DEFAULT_255_2_778
10
13.0291549
20
0.230833
40
0.5074977
50
356.9518579
51
0.0020936
0
ARC
8
DEFAULT_255_2_778
10
13.0254503
20
0.2308414
40
0.5112024
50
0.0011401
51
2.0343602
0
ARC
8
DEFAULT_255_2_778
10
13.0059682
20
0.228422
40
0.5307609
50
2.2207125
51
42.5329418
0
ARC
8
DEFAULT_255_2_778
10
12.9971896
20
0.2219941
40
0.5415765
50
42.4062202
51
43.7397078
0
LINE
8
DEFAULT_255_2_778
10
11.1765722
20
6.131231
11
14.5727722
21
2.735031
0
LINE
8
DEFAULT_255_2_778
10
15.2887722
20
3.450931
11
11.8925722
21
6.847131
0
LINE
8
DEFAULT_255_2_778
10
11.8925722
20
6.847131
11
11.8925722
21
6.847131
0
LINE
8
DEFAULT_255_2_778
10
6.4124722
20
14.615831
11
6.4124722
21
14.613231
0
LINE
8
DEFAULT_255_2_778
10
6.4675722
20
7.040331
11
6.4675722
21
7.040331
0
LINE
8
DEFAULT_255_2_778
10
15.8422722
20
0.605331
11
11.4819722
21
4.965731
0
LINE
8
DEFAULT_255_2_778
10
10.7659722
20
4.249731
11
15.1262722
21
-0.110569
0
LINE
8
DEFAULT_255_2_778
10
15.8422722
20
0.605331
11
15.8422722
21
0.605331
0
LINE
8
DEFAULT_255_2_778
10
8.6090722
20
5.332731
11
8.4714722
21
5.470231
0
LINE
8
DEFAULT_255_2_778
10
11.3599722
20
8.361931
11
14.5545722
21
5.167631
0
LINE
8
DEFAULT_255_2_778
10
15.2704722
20
5.883531
11
12.4129722
21
8.741031
0
LINE
8
DEFAULT_255_2_778
10
8.1222722
20
4.430731
11
12.6725722
21
-0.119569
0
LINE
8
DEFAULT_255_2_778
10
13.3884722
20
0.596431
11
8.7442722
21
5.240931
0
LINE
8
DEFAULT_255_2_778
10
8.7442722
20
5.240931
11
8.7466722
21
5.240931
0
ENDSEC
0
EOF