0
SECTION
2
HEADER
9
$MEASUREMENT
70
1
0
ENDSEC
0
SECTION
2
TABLES
0
TABLE
2
LTYPE
0
LTYPE
72
65
70
64
2
CONTINUOUS
3
______
73
0
40
0
0
ENDTAB
0
TABLE
2
LAYER
0
LAYER
2
DEFAULT_255_2_778
70
0
62
255
6
CONTINUOUS
0
LAYER
2
DEFAULT_255_1_234
70
0
62
255
6
CONTINUOUS
0
ENDTAB
0
ENDSEC
0
SECTION
2
ENTITIES
0
ARC
8
DEFAULT_255_2_778
10
3.5700693
20
139.3052021
40
0.7914215
50
129.1312896
51
180.1450914
0
ARC
8
DEFAULT_255_2_778
10
3.5703345
20
139.3056893
40
0.7912112
50
89.854026
51
129.1684493
0
ARC
8
DEFAULT_255_2_778
10
25.7993937
20
139.3053758
40
0.7915249
50
39.4792447
51
90.147911
0
ARC
8
DEFAULT_255_2_778
10
25.7999935
20
139.3052224
40
0.7911595
50
359.8533901
51
39.5154338
0
ARC
8
DEFAULT_255_2_778
10
25.7996693
20
-1.9863501
40
0.7914836
50
309.4761667
51
0.1482649
0
ARC
8
DEFAULT_255_2_778
10
25.799398
20
-1.9867812
40
0.7913235
50
269.8517415
51
309.511178
0
ARC
8
DEFAULT_255_2_778
10
3.570342
20
-1.986723
40
0.7913815
50
219.1282118
51
270.1454017
0
ARC
8
DEFAULT_255_2_778
10
3.5700247
20
-1.9863406
40
0.7913769
50
179.8524075
51
219.1641908
0
LINE
8
DEFAULT_255_2_778
10
3.5723503
20
140.096898
11
25.7973503
21
140.096898
0
LINE
8
DEFAULT_255_2_778
10
26.5911503
20
139.303198
11
26.5911503
21
-1.984302
0
LINE
8
DEFAULT_255_2_778
10
25.7973503
20
-2.778102
11
3.5723503
21
-2.778102
0
LINE
8
DEFAULT_255_2_778
10
2.7786503
20
-1.984302
11
2.7786503
21
139.303198
0
LINE
8
DEFAULT_255_1_234
10
11.5110292
20
0.5181211
11
11.5110292
21
0.3912196
0
LINE
8
DEFAULT_255_1_234
10
11.5110292
20
0.3912196
11
11.1351439
21
0.3912196
0
LINE
8
DEFAULT_255_1_234
10
11.1351439
20
0.3912196
11
11.1351439
21
-0.6513
0
LINE
8
DEFAULT_255_1_234
10
11.1351439
20
-0.6513
11
10.9817377
21
-0.6513
0
LINE
8
DEFAULT_255_1_234
10
10.9817377
20
-0.6513
11
10.9817377
21
0.3912196
0
LINE
8
DEFAULT_255_1_234
10
10.9817377
20
0.3912196
11
10.6066555
21
0.3912196
0
LINE
8
DEFAULT_255_1_234
10
10.6066555
20
0.3912196
11
10.6066555
21
0.5181211
0
LINE
8
DEFAULT_255_1_234
10
10.6066555
20
0.5181211
11
11.5110292
21
0.5181211
0
LINE
8
DEFAULT_255_1_234
10
12.1342921
20
0.5237433
11
12.1342921
21
-0.6513
0
LINE
8
DEFAULT_255_1_234
10
12.1342921
20
-0.6513
11
11.9849018
21
-0.6513
0
LINE
8
DEFAULT_255_1_234
10
11.9849018
20
-0.6513
11
11.9849018
21
0.3390133
0
LINE
8
DEFAULT_255_1_234
10
11.9849018
20
0.3390133
11
11.685318
21
0.2289785
0
LINE
8
DEFAULT_255_1_234
10
11.685318
20
0.2289785
11
11.685318
21
0.3639117
0
LINE
8
DEFAULT_255_1_234
10
11.685318
20
0.3639117
11
12.1110001
21
0.5237433
0
LINE
8
DEFAULT_255_1_234
10
12.1110001
20
0.5237433
11
12.1342921
21
0.5237433
0
LINE
8
DEFAULT_255_1_234
10
13.3197767
20
-0.6513
11
12.905339
21
-0.1075513
0
LINE
8
DEFAULT_255_1_234
10
12.905339
20
-0.1075513
11
12.7623741
21
-0.2561385
0
LINE
8
DEFAULT_255_1_234
10
12.7623741
20
-0.2561385
11
12.7623741
21
-0.6513
0
LINE
8
DEFAULT_255_1_234
10
12.7623741
20
-0.6513
11
12.6081647
21
-0.6513
0
LINE
8
DEFAULT_255_1_234
10
12.6081647
20
-0.6513
11
12.6081647
21
0.5181211
0
LINE
8
DEFAULT_255_1_234
10
12.6081647
20
0.5181211
11
12.7623741
21
0.5181211
0
LINE
8
DEFAULT_255_1_234
10
12.7623741
20
0.5181211
11
12.7623741
21
-0.0601641
0
LINE
8
DEFAULT_255_1_234
10
12.7623741
20
-0.0601641
11
13.2820275
21
0.5181211
0
LINE
8
DEFAULT_255_1_234
10
13.2820275
20
0.5181211
11
13.4683639
21
0.5181211
0
LINE
8
DEFAULT_255_1_234
10
13.4683639
20
0.5181211
11
13.0081453
21
0.0016803
0
LINE
8
DEFAULT_255_1_234
10
13.0081453
20
0.0016803
11
13.5045067
21
-0.6513
0
LINE
8
DEFAULT_255_1_234
10
13.5045067
20
-0.6513
11
13.3197767
21
-0.6513
0
LINE
8
DEFAULT_255_1_234
10
13.8739667
20
-0.0938974
11
13.8739667
21
-0.2151766
0
LINE
8
DEFAULT_255_1_234
10
13.8739667
20
-0.2151766
11
13.4820178
21
-0.2151766
0
LINE
8
DEFAULT_255_1_234
10
13.4820178
20
-0.2151766
11
13.4820178
21
-0.0938974
0
LINE
8
DEFAULT_255_1_234
10
13.4820178
20
-0.0938974
11
13.8739667
21
-0.0938974
0
LINE
8
DEFAULT_255_1_234
10
14.4916073
20
0.5237433
11
14.4916073
21
-0.6513
0
LINE
8
DEFAULT_255_1_234
10
14.4916073
20
-0.6513
11
14.342217
21
-0.6513
0
LINE
8
DEFAULT_255_1_234
10
14.342217
20
-0.6513
11
14.342217
21
0.3390133
0
LINE
8
DEFAULT_255_1_234
10
14.342217
20
0.3390133
11
14.0426332
21
0.2289785
0
LINE
8
DEFAULT_255_1_234
10
14.0426332
20
0.2289785
11
14.0426332
21
0.3639117
0
LINE
8
DEFAULT_255_1_234
10
14.0426332
20
0.3639117
11
14.4683153
21
0.5237433
0
LINE
8
DEFAULT_255_1_234
10
14.4683153
20
0.5237433
11
14.4916073
21
0.5237433
0
LINE
8
DEFAULT_255_1_234
10
15.483527
20
0.5189243
11
15.5100317
21
0.5189243
0
LINE
8
DEFAULT_255_1_234
10
15.5100317
20
0.5189243
11
15.5100317
21
0.392826
0
LINE
8
DEFAULT_255_1_234
10
15.5100317
20
0.392826
11
15.4827238
21
0.392826
0
LINE
8
DEFAULT_255_1_234
10
14.9357625
20
-0.2063417
11
14.9357625
21
-0.1493164
0
LINE
8
DEFAULT_255_1_234
10
15.0851528
20
-0.1685925
11
15.0851528
21
-0.2232083
0
ARC
8
DEFAULT_255_1_234
10
15.4879586
20
-0.1069545
40
0.4998079
50
90.6001036
51
104.514704
0
ARC
8
DEFAULT_255_1_234
10
15.4491102
20
0.0375131
40
0.3502176
50
104.2855254
51
133.862935
0
ARC
8
DEFAULT_255_1_234
10
15.4654859
20
0.026683
40
0.3693984
50
134.5302688
51
161.6210873
0
ARC
8
DEFAULT_255_1_234
10
15.6308048
20
-0.0316105
40
0.5446739
50
161.2849839
51
174.2076652
0
ARC
8
DEFAULT_255_1_234
10
15.7714985
20
-0.0510213
40
0.6866274
50
173.7810589
51
174.9254635
0
ARC
8
DEFAULT_255_1_234
10
15.3164817
20
-0.1893161
40
0.3033419
50
95.8330959
51
138.9954921
0
ARC
8
DEFAULT_255_1_234
10
15.3388173
20
-0.3171625
40
0.4328947
50
89.8753725
51
97.0544009
0
ARC
8
DEFAULT_255_1_234
10
15.3435639
20
-0.2336252
40
0.3493769
50
71.6407809
51
90.6240094
0
ARC
8
DEFAULT_255_1_234
10
15.3586212
20
-0.1781918
40
0.2920396
50
39.6367836
51
71.019018
0
ARC
8
DEFAULT_255_1_234
10
15.2949685
20
-0.2332002
40
0.3761538
50
10.658731
51
39.9043955
0
ARC
8
DEFAULT_255_1_234
10
15.1401768
20
-0.2668314
40
0.5345136
50
359.682601
51
11.132623
0
ARC
8
DEFAULT_255_1_234
10
15.1361899
20
-0.273899
40
0.5385081
50
347.2486944
51
0.4369317
0
ARC
8
DEFAULT_255_1_234
10
15.3029376
20
-0.3140193
40
0.3670249
50
318.1409698
51
347.6118597
0
ARC
8
DEFAULT_255_1_234
10
15.3354369
20
-0.3407298
40
0.3250007
50
275.6342139
51
317.8248465
0
ARC
8
DEFAULT_255_1_234
10
15.313348
20
-0.2107781
40
0.4565864
50
269.8874292
51
276.7917694
0
ARC
8
DEFAULT_255_1_234
10
15.3078551
20
-0.3133257
40
0.3540676
50
246.9140195
51
270.7437342
0
ARC
8
DEFAULT_255_1_234
10
15.3084941
20
-0.3275616
40
0.3412781
50
218.1665114
51
245.878116
0
ARC
8
DEFAULT_255_1_234
10
15.3964402
20
-0.2539721
40
0.455911
50
191.4115814
51
218.6077802
0
ARC
8
DEFAULT_255_1_234
10
15.5902491
20
-0.2105167
40
0.6545001
50
179.6345085
51
191.7836486
0
ARC
8
DEFAULT_255_1_234
10
16.1484828
20
-0.1426303
40
1.2127388
50
171.4525249
51
180.3158839
0
ARC
8
DEFAULT_255_1_234
10
15.7089704
20
-0.0742392
40
0.7679464
50
157.9802646
51
171.6246686
0
ARC
8
DEFAULT_255_1_234
10
15.4875725
20
0.0140421
40
0.5296008
50
141.4298019
51
157.854097
0
ARC
8
DEFAULT_255_1_234
10
15.4234045
20
0.0594381
40
0.4511509
50
102.8715806
51
140.8564722
0
ARC
8
DEFAULT_255_1_234
10
15.4881661
20
-0.1845448
40
0.7034845
50
90.3778349
51
103.5869322
0
ARC
8
DEFAULT_255_1_234
10
15.3143437
20
-0.245027
40
0.2370698
50
89.8751008
51
126.2071704
0
ARC
8
DEFAULT_255_1_234
10
15.3189227
20
-0.2604697
40
0.2522934
50
124.9745049
51
144.895901
0
ARC
8
DEFAULT_255_1_234
10
15.3013417
20
-0.246144
40
0.2296779
50
145.2974905
51
160.2660252
0
ARC
8
DEFAULT_255_1_234
10
15.6085956
20
-0.2263929
40
0.5234525
50
179.6514266
51
190.2855912
0
ARC
8
DEFAULT_255_1_234
10
15.4392093
20
-0.2583214
40
0.3510893
50
190.0945431
51
207.5098196
0
ARC
8
DEFAULT_255_1_234
10
15.3826363
20
-0.2852377
40
0.288489
50
207.9583163
51
216.3251085
0
ARC
8
DEFAULT_255_1_234
10
15.3486471
20
-0.3131895
40
0.2445587
50
215.7661442
51
232.5456785
0
ARC
8
DEFAULT_255_1_234
10
15.3103454
20
-0.3618518
40
0.1826382
50
232.8005391
51
270.6605633
0
ARC
8
DEFAULT_255_1_234
10
15.3149155
20
-0.3254388
40
0.2190529
50
269.35537
51
288.4744281
0
ARC
8
DEFAULT_255_1_234
10
15.3242052
20
-0.3603882
40
0.1829749
50
289.1833337
51
322.9683818
0
ARC
8
DEFAULT_255_1_234
10
15.2630574
20
-0.3121609
40
0.2608399
50
322.6007884
51
346.5182367
0
ARC
8
DEFAULT_255_1_234
10
15.147317
20
-0.2826384
40
0.3802777
50
346.2582162
51
358.7741648
0
ARC
8
DEFAULT_255_1_234
10
15.0454839
20
-0.2771035
40
0.4822176
50
358.3755224
51
0.0098023
0
ARC
8
DEFAULT_255_1_234
10
15.1211026
20
-0.2743343
40
0.4066078
50
359.6214041
51
11.2839074
0
ARC
8
DEFAULT_255_1_234
10
15.2488173
20
-0.2476934
40
0.2761514
50
11.0482309
51
31.8146458
0
ARC
8
DEFAULT_255_1_234
10
15.2797216
20
-0.2309416
40
0.2410679
50
32.3035391
51
38.082671
0
ARC
8
DEFAULT_255_1_234
10
15.3217876
20
-0.1928338
40
0.1844966
50
36.825067
51
85.7415724
0
ARC
8
DEFAULT_255_1_234
10
15.3150709
20
-0.2428699
40
0.2349122
50
85.0140713
51
90.0513278
0
LINE
8
DEFAULT_255_1_234
10
16.6971227
20
0.5181211
11
16.6971227
21
0.3912196
0
LINE
8
DEFAULT_255_1_234
10
16.6971227
20
0.3912196
11
16.3212373
21
0.3912196
0
LINE
8
DEFAULT_255_1_234
10
16.3212373
20
0.3912196
11
16.3212373
21
-0.6513
0
LINE
8
DEFAULT_255_1_234
10
16.3212373
20
-0.6513
11
16.1678311
21
-0.6513
0
LINE
8
DEFAULT_255_1_234
10
16.1678311
20
-0.6513
11
16.1678311
21
0.3912196
0
LINE
8
DEFAULT_255_1_234
10
16.1678311
20
0.3912196
11
15.7927489
21
0.3912196
0
LINE
8
DEFAULT_255_1_234
10
15.7927489
20
0.3912196
11
15.7927489
21
0.5181211
0
LINE
8
DEFAULT_255_1_234
10
15.7927489
20
0.5181211
11
16.6971227
21
0.5181211
0
LINE
8
DEFAULT_255_1_234
10
17.553306
20
-0.6513
11
17.299503
21
-0.1782306
0
LINE
8
DEFAULT_255_1_234
10
17.299503
20
-0.1782306
11
17.0248176
21
-0.1782306
0
LINE
8
DEFAULT_255_1_234
10
17.0248176
20
-0.1782306
11
17.0248176
21
-0.6513
0
LINE
8
DEFAULT_255_1_234
10
17.0248176
20
-0.6513
11
16.869805
21
-0.6513
0
LINE
8
DEFAULT_255_1_234
10
16.869805
20
-0.6513
11
16.869805
21
0.5181211
0
LINE
8
DEFAULT_255_1_234
10
16.869805
20
0.5181211
11
17.2569348
21
0.5181211
0
LINE
8
DEFAULT_255_1_234
10
17.4440743
20
-0.1453005
11
17.7187598
21
-0.6416619
0
LINE
8
DEFAULT_255_1_234
10
17.7187598
20
-0.6416619
11
17.7187598
21
-0.6513
0
LINE
8
DEFAULT_255_1_234
10
17.7187598
20
-0.6513
11
17.553306
21
-0.6513
0
LINE
8
DEFAULT_255_1_234
10
17.0248176
20
0.3912196
11
17.0248176
21
-0.0521323
0
LINE
8
DEFAULT_255_1_234
10
17.0248176
20
-0.0521323
11
17.2617539
21
-0.0521323
0
LINE
8
DEFAULT_255_1_234
10
17.2609507
20
0.3912196
11
17.0248176
21
0.3912196
0
ARC
8
DEFAULT_255_1_234
10
17.2610988
20
-0.1780239
40
0.6961575
50
80.653586
51
90.3427061
0
ARC
8
DEFAULT_255_1_234
10
17.3030462
20
0.0682348
40
0.4463577
50
65.6987447
51
80.8329603
0
ARC
8
DEFAULT_255_1_234
10
17.3508103
20
0.1777322
40
0.3269094
50
50.0017161
51
65.4305835
0
ARC
8
DEFAULT_255_1_234
10
17.3726567
20
0.2072482
40
0.2902647
50
11.628416
51
49.5603263
0
ARC
8
DEFAULT_255_1_234
10
17.2190903
20
0.1697299
40
0.4482792
50
359.5655735
51
12.3691
0
ARC
8
DEFAULT_255_1_234
10
17.3267763
20
0.1634644
40
0.3405924
50
341.9983148
51
0.4822259
0
ARC
8
DEFAULT_255_1_234
10
17.3662603
20
0.1527471
40
0.2997359
50
323.8609373
51
341.61416
0
ARC
8
DEFAULT_255_1_234
10
17.3360847
20
0.1760484
40
0.3378487
50
296.7018614
51
323.6876402
0
ARC
8
DEFAULT_255_1_234
10
17.2919743
20
0.2549235
40
0.4281516
50
290.8086567
51
297.2323311
0
ARC
8
DEFAULT_255_1_234
10
17.2643272
20
0.3072351
40
0.3593766
50
269.589728
51
281.8058135
0
ARC
8
DEFAULT_255_1_234
10
17.2894171
20
0.1924743
40
0.2419125
50
281.5501019
51
303.9357432
0
ARC
8
DEFAULT_255_1_234
10
17.3031359
20
0.1686936
40
0.2145323
50
304.4415616
51
311.2106213
0
ARC
8
DEFAULT_255_1_234
10
17.3163464
20
0.1547632
40
0.1953505
50
310.9875673
51
356.2715578
0
ARC
8
DEFAULT_255_1_234
10
17.2407113
20
0.1660422
40
0.2716331
50
354.9348262
51
0.0609027
0
ARC
8
DEFAULT_255_1_234
10
17.2219987
20
0.1687435
40
0.2903554
50
359.5239371
51
12.8808918
0
ARC
8
DEFAULT_255_1_234
10
17.3197543
20
0.1926728
40
0.1897315
50
12.4173452
51
43.1022135
0
ARC
8
DEFAULT_255_1_234
10
17.3259147
20
0.1963724
40
0.1827118
50
43.5751728
51
48.203944
0
ARC
8
DEFAULT_255_1_234
10
17.3089639
20
0.1742302
40
0.2105272
50
48.7809703
51
72.6969569
0
ARC
8
DEFAULT_255_1_234
10
17.2735264
20
0.066682
40
0.3237537
50
72.3702241
51
84.8791103
0
ARC
8
DEFAULT_255_1_234
10
17.258774
20
-0.0675231
40
0.4587478
50
84.5400526
51
89.7281406
0
ARC
8
DEFAULT_255_2_778
10
13.4953021
20
137.3860533
40
2.3035416
50
339.8907409
51
346.994376
0
ARC
8
DEFAULT_255_2_778
10
14.4646357
20
137.0259276
40
1.2694939
50
328.7691853
51
340.1120733
0
ARC
8
DEFAULT_255_2_778
10
14.9922733
20
136.6992249
40
0.6489533
50
308.240385
51
329.2799976
0
ARC
8
DEFAULT_255_2_778
10
15.1335254
20
136.5303956
40
0.42897
50
290.2149747
51
307.3797345
0
ARC
8
DEFAULT_255_2_778
10
14.8550836
20
136.7930832
40
0.5085768
50
279.0582472
51
335.0254579
0
ARC
8
DEFAULT_255_2_778
10
14.4035606
20
137.0413036
40
1.0232605
50
333.100566
51
347.4967948
0
ARC
8
DEFAULT_255_2_778
10
13.9267879
20
137.1652273
40
1.515659
50
346.8251736
51
349.6433145
0
ARC
8
DEFAULT_255_2_778
10
16.7325297
20
137.4377541
40
0.6340004
50
90.2418805
51
180.4975197
0
ARC
8
DEFAULT_255_2_778
10
16.7271765
20
137.437754
40
0.6340006
50
359.5024881
51
89.7581009
0
ARC
8
DEFAULT_255_2_778
10
16.7271768
20
137.4267436
40
0.6340003
50
270.2418684
51
0.4975336
0
ARC
8
DEFAULT_255_2_778
10
16.7325299
20
137.4267437
40
0.6340005
50
179.5024805
51
269.758104
0
ARC
8
DEFAULT_255_2_778
10
17.1189581
20
137.4521235
40
0.5748535
50
158.6224664
51
180.7450103
0
ARC
8
DEFAULT_255_2_778
10
16.8143054
20
137.5791995
40
0.2449488
50
125.6968143
51
160.3264119
0
ARC
8
DEFAULT_255_2_778
10
16.7310393
20
137.6859868
40
0.1097683
50
90.6191325
51
122.9231799
0
ARC
8
DEFAULT_255_2_778
10
16.7161984
20
137.6478461
40
0.1485318
50
26.6299238
51
84.7252528
0
ARC
8
DEFAULT_255_2_778
10
16.4561415
20
137.482402
40
0.4562354
50
6.9672199
51
30.5675002
0
ARC
8
DEFAULT_255_2_778
10
16.261361
20
137.4454325
40
0.6541928
50
359.9313724
51
8.1119436
0
ARC
8
DEFAULT_255_2_778
10
16.3407903
20
137.4372075
40
0.5748111
50
338.6217917
51
0.7417631
0
ARC
8
DEFAULT_255_2_778
10
16.6452775
20
137.3101776
40
0.2450776
50
305.7107467
51
340.3279893
0
ARC
8
DEFAULT_255_2_778
10
16.7286626
20
137.2032757
40
0.1097331
50
270.6216799
51
302.9378787
0
ARC
8
DEFAULT_255_2_778
10
16.7435343
20
137.2414636
40
0.148546
50
206.6181959
51
264.7155805
0
ARC
8
DEFAULT_255_2_778
10
17.0037331
20
137.4069852
40
0.456409
50
186.9714802
51
210.5628916
0
ARC
8
DEFAULT_255_2_778
10
17.1979553
20
137.4438721
40
0.6538026
50
179.9319269
51
188.1143536
0
ARC
8
DEFAULT_255_2_778
10
14.2076298
20
137.4377541
40
0.6340005
50
90.2418914
51
180.4975151
0
ARC
8
DEFAULT_255_2_778
10
14.2022765
20
137.437754
40
0.6340006
50
359.5024881
51
89.7581009
0
ARC
8
DEFAULT_255_2_778
10
14.2022768
20
137.4267436
40
0.6340003
50
270.2418684
51
0.4975336
0
ARC
8
DEFAULT_255_2_778
10
14.2076299
20
137.4267437
40
0.6340005
50
179.5024805
51
269.758104
0
ARC
8
DEFAULT_255_2_778
10
14.5935296
20
137.4521068
40
0.5744248
50
158.6039448
51
180.7439081
0
ARC
8
DEFAULT_255_2_778
10
14.2894145
20
137.579083
40
0.2450547
50
125.6846154
51
160.3063409
0
ARC
8
DEFAULT_255_2_778
10
14.2061439
20
137.685937
40
0.1098183
50
90.6212609
51
122.9155624
0
ARC
8
DEFAULT_255_2_778
10
14.1912984
20
137.6478461
40
0.1485318
50
26.6299238
51
84.7252528
0
ARC
8
DEFAULT_255_2_778
10
13.9312415
20
137.482402
40
0.4562354
50
6.9672199
51
30.5675002
0
ARC
8
DEFAULT_255_2_778
10
13.736461
20
137.4454325
40
0.6541928
50
359.9313724
51
8.1119436
0
ARC
8
DEFAULT_255_2_778
10
13.8158903
20
137.4372075
40
0.5748111
50
338.6217917
51
0.7417631
0
ARC
8
DEFAULT_255_2_778
10
14.1203775
20
137.3101776
40
0.2450776
50
305.7107467
51
340.3279893
0
ARC
8
DEFAULT_255_2_778
10
14.2037626
20
137.2032757
40
0.1097331
50
270.6216799
51
302.9378787
0
ARC
8
DEFAULT_255_2_778
10
14.2183015
20
137.2407507
40
0.1478058
50
207.0367178
51
264.8185874
0
ARC
8
DEFAULT_255_2_778
10
14.4731143
20
137.4049943
40
0.4504617
50
187.4901111
51
210.9147812
0
ARC
8
DEFAULT_255_2_778
10
14.6699142
20
137.4437625
40
0.6507616
50
179.9219565
51
188.6157011
0
LINE
8
DEFAULT_255_2_778
10
14.8857532
20
138.0466489
11
15.3807532
21
138.0466489
0
LINE
8
DEFAULT_255_2_778
10
15.3807532
20
138.0466489
11
15.5540532
21
137.3819489
0
LINE
8
DEFAULT_255_2_778
10
15.5540532
20
137.3819489
11
15.7397532
21
138.0590489
0
LINE
8
DEFAULT_255_2_778
10
15.7397532
20
138.0590489
11
16.0369532
21
137.9712489
0
LINE
8
DEFAULT_255_2_778
10
16.0369532
20
137.9712489
11
15.7397532
21
136.8676489
0
LINE
8
DEFAULT_255_2_778
10
15.2817532
20
136.1278489
11
14.9351532
21
136.2908489
0
LINE
8
DEFAULT_255_2_778
10
15.4177532
20
136.8927489
11
15.2074532
21
136.8927489
0
LINE
8
DEFAULT_255_2_778
10
15.2074532
20
136.8927489
11
14.8857532
21
138.0466489
0
LINE
8
DEFAULT_255_2_778
10
16.0985532
20
137.4322489
11
16.0985532
21
137.4322489
0
LINE
8
DEFAULT_255_2_778
10
16.5441532
20
137.4446489
11
16.5441532
21
137.4446489
0
LINE
8
DEFAULT_255_2_778
10
13.5736532
20
137.4322489
11
13.5736532
21
137.4322489
0
LINE
8
DEFAULT_255_2_778
10
14.0191532
20
137.4446489
11
14.0191532
21
137.4446489
0
LINE
8
DEFAULT_255_2_778
10
12.0390532
20
138.7739489
11
12.5835532
21
138.7739489
0
LINE
8
DEFAULT_255_2_778
10
12.5835532
20
138.7739489
11
12.5835532
21
138.0466489
0
LINE
8
DEFAULT_255_2_778
10
12.5835532
20
138.0466489
11
13.0291532
21
138.7739489
0
LINE
8
DEFAULT_255_2_778
10
13.0291532
20
138.7739489
11
13.4992532
21
138.7739489
0
LINE
8
DEFAULT_255_2_778
10
13.4992532
20
138.7739489
11
12.9793532
21
137.9211489
0
LINE
8
DEFAULT_255_2_778
10
12.9793532
20
137.9211489
11
13.5982532
21
136.8678489
0
LINE
8
DEFAULT_255_2_778
10
13.5982532
20
136.8678489
11
13.0288532
21
136.8678489
0
LINE
8
DEFAULT_255_2_778
10
13.0288532
20
136.8678489
11
12.5584532
21
137.6703489
0
LINE
8
DEFAULT_255_2_778
10
12.5584532
20
137.6703489
11
12.5584532
21
136.8678489
0
LINE
8
DEFAULT_255_2_778
10
12.5584532
20
136.8678489
11
12.0390532
21
136.8678489
0
LINE
8
DEFAULT_255_2_778
10
12.0390532
20
136.8678489
11
12.0390532
21
138.7739489
0
LINE
8
DEFAULT_255_1_234
10
9.7747292
20
134.7941211
11
9.7747292
21
134.6672196
0
LINE
8
DEFAULT_255_1_234
10
9.7747292
20
134.6672196
11
9.3988439
21
134.6672196
0
LINE
8
DEFAULT_255_1_234
10
9.3988439
20
134.6672196
11
9.3988439
21
133.6247
0
LINE
8
DEFAULT_255_1_234
10
9.3988439
20
133.6247
11
9.2454377
21
133.6247
0
LINE
8
DEFAULT_255_1_234
10
9.2454377
20
133.6247
11
9.2454377
21
134.6672196
0
LINE
8
DEFAULT_255_1_234
10
9.2454377
20
134.6672196
11
8.8703555
21
134.6672196
0
LINE
8
DEFAULT_255_1_234
10
8.8703555
20
134.6672196
11
8.8703555
21
134.7941211
0
LINE
8
DEFAULT_255_1_234
10
8.8703555
20
134.7941211
11
9.7747292
21
134.7941211
0
LINE
8
DEFAULT_255_1_234
10
9.8076594
20
134.0351218
11
9.8076594
21
134.0624297
0
LINE
8
DEFAULT_255_1_234
10
10.5449729
20
134.0784932
11
10.5449729
21
134.0166488
0
LINE
8
DEFAULT_255_1_234
10
10.5449729
20
134.0166488
11
9.9562465
21
134.0166488
0
LINE
8
DEFAULT_255_1_234
10
10.4429699
20
133.8471792
11
10.5337285
21
133.7764999
0
LINE
8
DEFAULT_255_1_234
10
9.9610656
20
134.1387313
11
10.3963858
21
134.1387313
0
LINE
8
DEFAULT_255_1_234
10
10.3963858
20
134.1387313
11
10.3963858
21
134.1499757
0
ARC
8
DEFAULT_255_1_234
10
10.2015959
20
134.0462332
40
0.4376191
50
252.3266134
51
270.5810217
0
ARC
8
DEFAULT_255_1_234
10
10.1811048
20
133.9721644
40
0.3608374
50
223.3000567
51
251.8561855
0
ARC
8
DEFAULT_255_1_234
10
10.2022409
20
133.9926937
40
0.3902993
50
190.9374509
51
223.3654032
0
ARC
8
DEFAULT_255_1_234
10
10.3747381
20
134.0316885
40
0.5670891
50
179.6531105
51
191.4989439
0
ARC
8
DEFAULT_255_1_234
10
10.3869393
20
134.0656417
40
0.5792888
50
167.4007466
51
180.3176909
0
ARC
8
DEFAULT_255_1_234
10
10.2817455
20
134.0878885
40
0.471777
50
154.1835823
51
167.250763
0
ARC
8
DEFAULT_255_1_234
10
10.2185922
20
134.1211417
40
0.4004528
50
134.3149965
51
154.5315275
0
ARC
8
DEFAULT_255_1_234
10
10.1968417
20
134.1402228
40
0.371612
50
122.8616532
51
133.9707695
0
ARC
8
DEFAULT_255_1_234
10
10.1864991
20
134.1624703
40
0.3473289
50
89.8249009
51
123.4199222
0
ARC
8
DEFAULT_255_1_234
10
10.1915032
20
134.0977967
40
0.4120197
50
74.7876118
51
90.5482747
0
ARC
8
DEFAULT_255_1_234
10
10.2208776
20
134.206303
40
0.2996077
50
39.8178249
51
74.7633718
0
ARC
8
DEFAULT_255_1_234
10
10.1696096
20
134.1663351
40
0.3645855
50
16.8990863
51
39.4829761
0
ARC
8
DEFAULT_255_1_234
10
9.9801392
20
134.1056526
40
0.5635218
50
4.9636328
51
17.2026414
0
ARC
8
DEFAULT_255_1_234
10
9.7383462
20
134.080134
40
0.8066286
50
359.8834553
51
5.2834307
0
ARC
8
DEFAULT_255_1_234
10
10.3420987
20
134.0232803
40
0.3859091
50
180.9846213
51
194.9401313
0
ARC
8
DEFAULT_255_1_234
10
10.2371265
20
133.9945849
40
0.2770883
50
194.80314
51
222.0412631
0
ARC
8
DEFAULT_255_1_234
10
10.2067147
20
133.9644116
40
0.2343055
50
221.5417084
51
268.8614402
0
ARC
8
DEFAULT_255_1_234
10
10.2140141
20
134.0320686
40
0.3021528
50
267.732405
51
270.0097136
0
ARC
8
DEFAULT_255_1_234
10
10.2157951
20
134.0522105
40
0.3222994
50
269.6924892
51
280.4117579
0
ARC
8
DEFAULT_255_1_234
10
10.2334358
20
133.9603193
40
0.2287344
50
280.2255091
51
298.6338936
0
ARC
8
DEFAULT_255_1_234
10
10.245115
20
133.9359223
40
0.2017294
50
299.0430333
51
300.4643464
0
ARC
8
DEFAULT_255_1_234
10
10.1771155
20
134.0493038
40
0.3339357
50
300.6577328
51
322.0378878
0
ARC
8
DEFAULT_255_1_234
10
10.1420695
20
134.0797021
40
0.3802736
50
321.6750233
51
322.3046845
0
ARC
8
DEFAULT_255_1_234
10
10.2351656
20
133.963037
40
0.3520454
50
276.9728461
51
328.0035423
0
ARC
8
DEFAULT_255_1_234
10
10.2074709
20
134.1110841
40
0.5024498
50
269.8361028
51
278.0581756
0
ARC
8
DEFAULT_255_1_234
10
10.1847446
20
134.1855757
40
0.202159
50
89.2018686
51
117.2851756
0
ARC
8
DEFAULT_255_1_234
10
10.1900615
20
134.1813752
40
0.2083484
50
118.0551165
51
137.4540413
0
ARC
8
DEFAULT_255_1_234
10
10.2275355
20
134.1473304
40
0.2589774
50
137.5109581
51
158.8516286
0
ARC
8
DEFAULT_255_1_234
10
10.3413191
20
134.1014074
40
0.38167
50
158.5845963
51
170.1721436
0
ARC
8
DEFAULT_255_1_234
10
10.458258
20
134.0781823
40
0.5008657
50
169.8376422
51
173.0566086
0
ARC
8
DEFAULT_255_1_234
10
9.9885654
20
134.1292509
40
0.4083467
50
2.9091802
51
12.8847116
0
ARC
8
DEFAULT_255_1_234
10
10.125633
20
134.1615101
40
0.2675383
50
12.6957781
51
28.6404489
0
ARC
8
DEFAULT_255_1_234
10
10.1798001
20
134.1895458
40
0.2065654
50
29.0169854
51
41.1487595
0
ARC
8
DEFAULT_255_1_234
10
10.2000786
20
134.2072003
40
0.1796786
50
41.1646065
51
85.0013516
0
ARC
8
DEFAULT_255_1_234
10
10.1879883
20
134.1337431
40
0.2539726
50
83.7280015
51
90.0964893
0
LINE
8
DEFAULT_255_1_234
10
11.1369121
20
134.4985531
11
11.1369121
21
134.3604072
0
LINE
8
DEFAULT_255_1_234
10
10.8654393
20
134.2415375
11
10.8654393
21
133.6247
0
LINE
8
DEFAULT_255_1_234
10
10.8654393
20
133.6247
11
10.7168521
21
133.6247
0
LINE
8
DEFAULT_255_1_234
10
10.7168521
20
133.6247
11
10.7168521
21
134.4937341
0
LINE
8
DEFAULT_255_1_234
10
10.7168521
20
134.4937341
11
10.8614234
21
134.4937341
0
LINE
8
DEFAULT_255_1_234
10
10.8614234
20
134.4937341
11
10.863833
21
134.3933374
0
ARC
8
DEFAULT_255_1_234
10
11.0702526
20
133.9544342
40
0.4114092
50
80.6754243
51
86.8932892
0
ARC
8
DEFAULT_255_1_234
10
11.064206
20
133.85767
40
0.5083596
50
86.8038578
51
90.0431435
0
ARC
8
DEFAULT_255_1_234
10
11.0605041
20
134.1033866
40
0.2626638
50
89.2759698
51
106.6213787
0
ARC
8
DEFAULT_255_1_234
10
11.0400605
20
134.177683
40
0.1856317
50
107.1346045
51
157.6458115
0
ARC
8
DEFAULT_255_1_234
10
11.1092207
20
134.1393311
40
0.2643398
50
155.6586782
51
157.2539184
0
ARC
8
DEFAULT_255_1_234
10
11.0887409
20
134.2562157
40
0.2634121
50
127.8165941
51
148.6302098
0
ARC
8
DEFAULT_255_1_234
10
11.0633878
20
134.2822218
40
0.2273596
50
91.3329982
51
126.7875809
0
ARC
8
DEFAULT_255_1_234
10
11.0709818
20
134.2107195
40
0.299078
50
89.986594
51
92.4688449
0
ARC
8
DEFAULT_255_1_234
10
11.0718213
20
134.2382078
40
0.2715908
50
85.3589899
51
90.1623399
0
ARC
8
DEFAULT_255_1_234
10
11.0802729
20
134.3386164
40
0.1708278
50
78.401942
51
85.4594656
0
ARC
8
DEFAULT_255_1_234
10
11.0947613
20
134.4077236
40
0.1002194
50
67.7858312
51
78.5728455
0
ARC
8
DEFAULT_255_1_234
10
11.1055466
20
134.4356887
40
0.0702548
50
63.4835954
51
67.3062642
0
LINE
8
DEFAULT_255_1_234
10
11.2726484
20
134.4937341
11
11.4132039
21
134.4937341
0
LINE
8
DEFAULT_255_1_234
10
11.4132039
20
134.4937341
11
11.4172197
21
134.3973532
0
LINE
8
DEFAULT_255_1_234
10
12.4910631
20
134.207001
11
12.4910631
21
133.6247
0
LINE
8
DEFAULT_255_1_234
10
12.4910631
20
133.6247
11
12.342476
21
133.6247
0
LINE
8
DEFAULT_255_1_234
10
12.342476
20
133.6247
11
12.342476
21
134.1981661
0
LINE
8
DEFAULT_255_1_234
10
11.9561494
20
134.2013788
11
11.9561494
21
133.6247
0
LINE
8
DEFAULT_255_1_234
10
11.9561494
20
133.6247
11
11.806759
21
133.6247
0
LINE
8
DEFAULT_255_1_234
10
11.806759
20
133.6247
11
11.806759
21
134.1941502
0
LINE
8
DEFAULT_255_1_234
10
11.4212356
20
134.2592073
11
11.4212356
21
133.6247
0
LINE
8
DEFAULT_255_1_234
10
11.4212356
20
133.6247
11
11.2726484
21
133.6247
0
LINE
8
DEFAULT_255_1_234
10
11.2726484
20
133.6247
11
11.2726484
21
134.4937341
0
ARC
8
DEFAULT_255_1_234
10
11.6568832
20
134.1956324
40
0.3132568
50
93.0261606
51
139.9132346
0
ARC
8
DEFAULT_255_1_234
10
11.6746631
20
134.0713779
40
0.4384196
50
89.950938
51
94.4894255
0
ARC
8
DEFAULT_255_1_234
10
11.6788882
20
134.1426909
40
0.3671269
50
75.8910292
51
90.6008177
0
ARC
8
DEFAULT_255_1_234
10
11.7154478
20
134.2775652
40
0.2274238
50
23.9940923
51
76.5407343
0
ARC
8
DEFAULT_255_1_234
10
12.1935332
20
134.1821399
40
0.3292083
50
118.5759668
51
145.1953792
0
ARC
8
DEFAULT_255_1_234
10
12.1807382
20
134.206634
40
0.3015782
50
99.1481145
51
118.6671042
0
ARC
8
DEFAULT_255_1_234
10
12.1987582
20
134.1059704
40
0.4038302
50
89.7792332
51
99.4015999
0
ARC
8
DEFAULT_255_1_234
10
12.2065021
20
134.1224932
40
0.3873538
50
73.26462
51
90.9153246
0
ARC
8
DEFAULT_255_1_234
10
12.2504197
20
134.2717227
40
0.2318005
50
10.756486
51
73.0388453
0
ARC
8
DEFAULT_255_1_234
10
12.0113562
20
134.2043882
40
0.479714
50
0.3120719
51
13.3292748
0
ARC
8
DEFAULT_255_1_234
10
12.0168912
20
134.2000239
40
0.3255901
50
359.6730821
51
8.7125959
0
ARC
8
DEFAULT_255_1_234
10
12.1366367
20
134.2190612
40
0.2043439
50
8.5222613
51
22.680364
0
ARC
8
DEFAULT_255_1_234
10
12.197415
20
134.2443325
40
0.1385212
50
22.7293425
51
42.2764504
0
ARC
8
DEFAULT_255_1_234
10
12.2097403
20
134.2521024
40
0.1242006
50
43.4493458
51
69.2721281
0
ARC
8
DEFAULT_255_1_234
10
12.1790076
20
134.175338
40
0.2068795
50
68.8361398
51
81.9791042
0
ARC
8
DEFAULT_255_1_234
10
12.1589548
20
134.0410775
40
0.3426265
50
81.791372
51
90.3003361
0
LINE
8
DEFAULT_255_1_234
10
12.1571589
20
134.3836992
11
12.1569428
21
134.3836993
0
ARC
8
DEFAULT_255_1_234
10
12.1548815
20
134.156088
40
0.2276206
50
89.4811163
51
106.5055281
0
ARC
8
DEFAULT_255_1_234
10
12.1434953
20
134.198026
40
0.1841786
50
106.8159866
51
132.2750884
0
ARC
8
DEFAULT_255_1_234
10
12.1478094
20
134.1934162
40
0.1904915
50
132.3025075
51
166.9931194
0
ARC
8
DEFAULT_255_1_234
10
12.2125591
20
134.1748803
40
0.2577754
50
166.2179705
51
174.0997425
0
ARC
8
DEFAULT_255_1_234
10
11.5267724
20
134.1979562
40
0.2800125
50
359.2212127
51
14.4877397
0
ARC
8
DEFAULT_255_1_234
10
11.6581691
20
134.2357475
40
0.1433881
50
13.0020023
51
76.7083226
0
ARC
8
DEFAULT_255_1_234
10
11.6246747
20
134.1174322
40
0.2662894
50
75.5473488
51
90.7420904
0
ARC
8
DEFAULT_255_1_234
10
11.617886
20
134.1205245
40
0.2631959
50
89.2729066
51
106.8379592
0
ARC
8
DEFAULT_255_1_234
10
11.5980997
20
134.1923466
40
0.1887308
50
107.4045973
51
156.6219665
0
ARC
8
DEFAULT_255_1_234
10
11.6661377
20
134.1533845
40
0.2667875
50
154.7389428
51
156.6306995
0
LINE
8
DEFAULT_255_1_234
10
12.8765866
20
134.4937341
11
12.8765866
21
133.6247
0
LINE
8
DEFAULT_255_1_234
10
12.8765866
20
133.6247
11
12.7279994
21
133.6247
0
LINE
8
DEFAULT_255_1_234
10
12.7279994
20
133.6247
11
12.7279994
21
134.4937341
0
LINE
8
DEFAULT_255_1_234
10
12.7279994
20
134.4937341
11
12.8765866
21
134.4937341
0
ARC
8
DEFAULT_255_1_234
10
12.8138143
20
134.7251889
40
0.097867
50
161.415052
51
180.5526306
0
ARC
8
DEFAULT_255_1_234
10
12.8013921
20
134.7286077
40
0.0850062
50
138.1827368
51
160.9307106
0
ARC
8
DEFAULT_255_1_234
10
12.7903867
20
134.7381588
40
0.0704362
50
104.6368899
51
138.0039868
0
ARC
8
DEFAULT_255_1_234
10
12.8011021
20
134.7014963
40
0.1086221
50
92.0600725
51
105.2189128
0
ARC
8
DEFAULT_255_1_234
10
12.803437
20
134.6672117
40
0.1429728
50
89.9756393
51
92.5012496
0
ARC
8
DEFAULT_255_1_234
10
12.8044389
20
134.6897731
40
0.1204151
50
78.0235316
51
90.4478182
0
ARC
8
DEFAULT_255_1_234
10
12.8136481
20
134.7311295
40
0.0780493
50
55.051506
51
78.3369085
0
ARC
8
DEFAULT_255_1_234
10
12.8186755
20
134.7395711
40
0.0682538
50
42.0501187
51
54.4513741
0
ARC
8
DEFAULT_255_1_234
10
12.8051623
20
134.7271798
40
0.0865878
50
1.7497075
51
42.1496013
0
ARC
8
DEFAULT_255_1_234
10
12.7796955
20
134.7242738
40
0.1121515
50
359.9852656
51
2.8364544
0
ARC
8
DEFAULT_255_1_234
10
12.7962948
20
134.7233229
40
0.0955566
50
342.1070653
51
0.552888
0
ARC
8
DEFAULT_255_1_234
10
12.8105645
20
134.7193904
40
0.0807713
50
316.7107116
51
341.6516965
0
ARC
8
DEFAULT_255_1_234
10
12.8172682
20
134.7133823
40
0.0717724
50
285.4397031
51
316.5324284
0
ARC
8
DEFAULT_255_1_234
10
12.8062599
20
134.7499554
40
0.1099597
50
272.3547054
51
285.8953117
0
ARC
8
DEFAULT_255_1_234
10
12.8035757
20
134.7865048
40
0.1465932
50
269.9695369
51
272.8160237
0
ARC
8
DEFAULT_255_1_234
10
12.8025938
20
134.7645863
40
0.1246779
50
258.8431134
51
270.4153935
0
ARC
8
DEFAULT_255_1_234
10
12.7935981
20
134.7210414
40
0.0802162
50
238.5431189
51
259.1288175
0
ARC
8
DEFAULT_255_1_234
10
12.7867866
20
134.7086856
40
0.0661247
50
222.5062634
51
237.9906969
0
ARC
8
DEFAULT_255_1_234
10
12.7995453
20
134.7202889
40
0.0833707
50
184.1069131
51
222.460413
0
ARC
8
DEFAULT_255_1_234
10
12.8264694
20
134.7241349
40
0.1105176
50
179.9429482
51
185.0960898
0
LINE
8
DEFAULT_255_1_234
10
13.114326
20
134.4937341
11
13.2548814
21
134.4937341
0
LINE
8
DEFAULT_255_1_234
10
13.2548814
20
134.4937341
11
13.2597005
21
134.3845024
0
LINE
8
DEFAULT_255_1_234
10
13.797827
20
134.1989693
11
13.797827
21
133.6247
0
LINE
8
DEFAULT_255_1_234
10
13.797827
20
133.6247
11
13.6492398
21
133.6247
0
LINE
8
DEFAULT_255_1_234
10
13.6492398
20
133.6247
11
13.6492398
21
134.1997725
0
LINE
8
DEFAULT_255_1_234
10
13.2629132
20
134.243947
11
13.2629132
21
133.6247
0
LINE
8
DEFAULT_255_1_234
10
13.2629132
20
133.6247
11
13.114326
21
133.6247
0
LINE
8
DEFAULT_255_1_234
10
13.114326
20
133.6247
11
13.114326
21
134.4937341
0
ARC
8
DEFAULT_255_1_234
10
13.5201746
20
134.1833571
40
0.3290991
50
116.4596474
51
142.3236755
0
ARC
8
DEFAULT_255_1_234
10
13.5145093
20
134.1812555
40
0.3285111
50
89.9344907
51
115.4116954
0
ARC
8
DEFAULT_255_1_234
10
13.5199213
20
134.1032796
40
0.4065181
50
89.9989425
51
90.7098643
0
ARC
8
DEFAULT_255_1_234
10
13.5261055
20
134.1616939
40
0.3481585
50
71.6502625
51
91.0165317
0
ARC
8
DEFAULT_255_1_234
10
13.5617552
20
134.2798587
40
0.224804
50
13.4486916
51
70.7930613
0
ARC
8
DEFAULT_255_1_234
10
13.3315655
20
134.2068653
40
0.465985
50
1.3249075
51
15.5954695
0
ARC
8
DEFAULT_255_1_234
10
13.1275697
20
134.1939133
40
0.6702764
50
0.4321948
51
2.0285822
0
ARC
8
DEFAULT_255_1_234
10
13.3135649
20
134.1988067
40
0.3356763
50
0.1648373
51
8.9345712
0
ARC
8
DEFAULT_255_1_234
10
13.4397085
20
134.2193034
40
0.2078811
50
8.7534737
51
22.2903072
0
ARC
8
DEFAULT_255_1_234
10
13.5065819
20
134.2468815
40
0.1355446
50
22.2259794
51
42.6535796
0
ARC
8
DEFAULT_255_1_234
10
13.512895
20
134.2492875
40
0.1292955
50
43.7650077
51
71.2772851
0
ARC
8
DEFAULT_255_1_234
10
13.4874356
20
134.1786387
40
0.2043829
50
70.8750955
51
84.3179398
0
ARC
8
DEFAULT_255_1_234
10
13.475765
20
134.080364
40
0.3033364
50
83.9622105
51
90.1537383
0
ARC
8
DEFAULT_255_1_234
10
13.4729865
20
134.1547164
40
0.2289913
50
89.508442
51
108.7920455
0
ARC
8
DEFAULT_255_1_234
10
13.4667047
20
134.1776126
40
0.2052969
50
109.1907905
51
125.3077951
0
ARC
8
DEFAULT_255_1_234
10
13.4993173
20
134.1314789
40
0.2617938
50
125.2968385
51
154.5574497
0
LINE
8
DEFAULT_255_1_234
10
14.7142483
20
133.6247
11
14.5584326
21
133.6247
0
LINE
8
DEFAULT_255_1_234
10
14.3905692
20
134.151582
11
14.5351405
21
134.151582
0
LINE
8
DEFAULT_255_1_234
10
14.5351405
20
134.151582
11
14.5351405
21
134.2198518
0
LINE
8
DEFAULT_255_1_234
10
14.1640742
20
134.2527819
11
14.0146839
21
134.2527819
0
LINE
8
DEFAULT_255_1_234
10
14.6837277
20
134.2278835
11
14.6837277
21
133.827903
0
LINE
8
DEFAULT_255_1_234
10
14.7142483
20
133.6375508
11
14.7142483
21
133.6247
0
LINE
8
DEFAULT_255_1_234
10
14.5351405
20
133.8680617
11
14.5351405
21
134.0463663
0
LINE
8
DEFAULT_255_1_234
10
14.5351405
20
134.0463663
11
14.4186803
21
134.0463663
0
ARC
8
DEFAULT_255_1_234
10
14.6623864
20
133.6751194
40
0.1155358
50
197.0791116
51
205.8741701
0
ARC
8
DEFAULT_255_1_234
10
14.7862464
20
133.7143654
40
0.2454626
50
192.2918602
51
197.3448991
0
ARC
8
DEFAULT_255_1_234
10
14.9815912
20
133.7577663
40
0.4455697
50
189.1576348
51
192.3971359
0
ARC
8
DEFAULT_255_1_234
10
15.2630193
20
133.8036549
40
0.7307142
50
186.8689952
51
189.1979448
0
ARC
8
DEFAULT_255_1_234
10
14.2801347
20
133.9583258
40
0.353352
50
294.0080019
51
316.7604136
0
ARC
8
DEFAULT_255_1_234
10
14.2930411
20
133.9401572
40
0.3315331
50
269.5042461
51
293.2479736
0
ARC
8
DEFAULT_255_1_234
10
14.2870896
20
133.9802491
40
0.3716254
50
255.403374
51
270.4753162
0
ARC
8
DEFAULT_255_1_234
10
14.2640868
20
133.8909825
40
0.2794431
50
228.6140946
51
255.354999
0
ARC
8
DEFAULT_255_1_234
10
14.2308392
20
133.8591491
40
0.2336109
50
181.8953303
51
229.5703879
0
ARC
8
DEFAULT_255_1_234
10
14.2899897
20
133.8655708
40
0.2929755
50
179.984097
51
182.7679515
0
ARC
8
DEFAULT_255_1_234
10
14.2816839
20
133.8690413
40
0.28469
50
161.0341165
51
180.6820968
0
ARC
8
DEFAULT_255_1_234
10
14.2377385
20
133.8804729
40
0.2394402
50
125.0523775
51
160.2033967
0
ARC
8
DEFAULT_255_1_234
10
14.3039394
20
133.7901431
40
0.3514152
50
106.2671988
51
125.4298572
0
ARC
8
DEFAULT_255_1_234
10
14.361185
20
133.6030842
40
0.5470269
50
95.4857064
51
106.534858
0
ARC
8
DEFAULT_255_1_234
10
14.3885004
20
133.3531758
40
0.7984089
50
89.8515322
51
95.7224983
0
ARC
8
DEFAULT_255_1_234
10
14.3245599
20
134.2216759
40
0.2105886
50
359.503704
51
14.3184734
0
ARC
8
DEFAULT_255_1_234
10
14.3819723
20
134.2366017
40
0.1512684
50
14.2187004
51
45.2025693
0
ARC
8
DEFAULT_255_1_234
10
14.3855919
20
134.2380251
40
0.1477163
50
45.8098026
51
73.0032427
0
ARC
8
DEFAULT_255_1_234
10
14.3606887
20
134.1618896
40
0.2278113
50
72.610967
51
85.7232876
0
ARC
8
DEFAULT_255_1_234
10
14.3516882
20
134.0705569
40
0.3195681
50
85.3352114
51
90.0850615
0
ARC
8
DEFAULT_255_1_234
10
14.3493284
20
134.1296391
40
0.2604924
50
89.5853149
51
103.4592217
0
ARC
8
DEFAULT_255_1_234
10
14.3340887
20
134.1931597
40
0.1951693
50
103.44851
51
126.5404292
0
ARC
8
DEFAULT_255_1_234
10
14.3101767
20
134.223743
40
0.1563639
50
126.1729825
51
141.5004088
0
ARC
8
DEFAULT_255_1_234
10
14.2723368
20
134.2534385
40
0.1082645
50
141.3333588
51
180.3474677
0
ARC
8
DEFAULT_255_1_234
10
14.2049078
20
134.2517174
40
0.1902269
50
151.6374668
51
179.6793754
0
ARC
8
DEFAULT_255_1_234
10
14.265132
20
134.2217334
40
0.2574753
50
142.4988163
51
152.1325379
0
ARC
8
DEFAULT_255_1_234
10
14.296928
20
134.1967735
40
0.2978957
50
120.8284787
51
142.4132259
0
ARC
8
DEFAULT_255_1_234
10
14.3385389
20
134.1316301
40
0.3751664
50
113.9638113
51
121.1869885
0
ARC
8
DEFAULT_255_1_234
10
14.3521541
20
134.0984544
40
0.4110136
50
93.3784663
51
113.8198047
0
ARC
8
DEFAULT_255_1_234
10
14.3598323
20
134.0219446
40
0.487853
50
89.9745882
51
93.7491274
0
ARC
8
DEFAULT_255_1_234
10
14.3633209
20
134.0255605
40
0.4842481
50
79.1325877
51
90.3871757
0
ARC
8
DEFAULT_255_1_234
10
14.3958329
20
134.1880435
40
0.3185522
50
60.1435559
51
79.3654871
0
ARC
8
DEFAULT_255_1_234
10
14.4215018
20
134.237343
40
0.2630271
50
48.6192091
51
59.646742
0
ARC
8
DEFAULT_255_1_234
10
14.4262756
20
134.2436691
40
0.2551253
50
9.0349315
51
48.4844544
0
ARC
8
DEFAULT_255_1_234
10
14.31866
20
134.2201793
40
0.3651489
50
1.2089744
51
10.0233366
0
ARC
8
DEFAULT_255_1_234
10
15.4473345
20
133.8254518
40
0.7636108
50
179.8160804
51
185.3206488
0
ARC
8
DEFAULT_255_1_234
10
15.1777827
20
133.7997155
40
0.4928344
50
185.2474014
51
192.7953707
0
ARC
8
DEFAULT_255_1_234
10
15.0016084
20
133.7592824
40
0.3120807
50
192.7197759
51
202.9585048
0
ARC
8
DEFAULT_255_1_234
10
14.3118268
20
133.9990928
40
0.2611453
50
270.0069004
51
300.5035019
0
ARC
8
DEFAULT_255_1_234
10
14.3240876
20
133.9862927
40
0.2439274
50
299.5482464
51
315.6095048
0
ARC
8
DEFAULT_255_1_234
10
14.3530973
20
133.9566155
40
0.2024389
50
315.868035
51
334.0596869
0
ARC
8
DEFAULT_255_1_234
10
14.4143333
20
133.3489943
40
0.6973855
50
89.6428514
51
97.2870891
0
ARC
8
DEFAULT_255_1_234
10
14.3702095
20
133.6793571
40
0.3640992
50
96.9938028
51
109.7781797
0
ARC
8
DEFAULT_255_1_234
10
14.303672
20
133.8574891
40
0.1739759
50
109.0087453
51
135.326626
0
ARC
8
DEFAULT_255_1_234
10
14.2763325
20
133.8913473
40
0.1308198
50
137.4539381
51
182.1082805
0
ARC
8
DEFAULT_255_1_234
10
14.3137315
20
133.8848893
40
0.1681384
50
179.4392907
51
195.7200177
0
ARC
8
DEFAULT_255_1_234
10
14.2725743
20
133.8736426
40
0.1254738
50
195.8684065
51
230.1572205
0
ARC
8
DEFAULT_255_1_234
10
14.296817
20
133.9026769
40
0.1632985
50
230.1530708
51
259.7485588
0
ARC
8
DEFAULT_255_1_234
10
14.3106874
20
133.9680386
40
0.230094
50
259.2463819
51
270.291543
0
LINE
8
DEFAULT_255_1_234
10
14.9696576
20
134.7041656
11
15.1182447
21
134.7041656
0
LINE
8
DEFAULT_255_1_234
10
15.1182447
20
134.7041656
11
15.1182447
21
134.4937341
0
LINE
8
DEFAULT_255_1_234
10
15.1182447
20
134.4937341
11
15.2804858
21
134.4937341
0
LINE
8
DEFAULT_255_1_234
10
15.2804858
20
134.4937341
11
15.2804858
21
134.3788802
0
LINE
8
DEFAULT_255_1_234
10
15.2804858
20
134.3788802
11
15.1182447
21
134.3788802
0
LINE
8
DEFAULT_255_1_234
10
15.1182447
20
134.3788802
11
15.1182447
21
133.8399506
0
LINE
8
DEFAULT_255_1_234
10
15.2845017
20
133.7451761
11
15.2845017
21
133.6247
0
LINE
8
DEFAULT_255_1_234
10
14.9696576
20
133.8399506
11
14.9696576
21
134.3788802
0
LINE
8
DEFAULT_255_1_234
10
14.9696576
20
134.3788802
11
14.8114323
21
134.3788802
0
LINE
8
DEFAULT_255_1_234
10
14.8114323
20
134.3788802
11
14.8114323
21
134.4937341
0
LINE
8
DEFAULT_255_1_234
10
14.8114323
20
134.4937341
11
14.9696576
21
134.4937341
0
LINE
8
DEFAULT_255_1_234
10
14.9696576
20
134.4937341
11
14.9696576
21
134.7041656
0
ARC
8
DEFAULT_255_1_234
10
15.318995
20
133.8389084
40
0.200753
50
179.7025659
51
187.917967
0
ARC
8
DEFAULT_255_1_234
10
15.2443976
20
133.8281724
40
0.1253883
50
187.7545981
51
200.2447476
0
ARC
8
DEFAULT_255_1_234
10
15.2023297
20
133.8124859
40
0.0804913
50
200.130383
51
219.174133
0
ARC
8
DEFAULT_255_1_234
10
15.1887474
20
133.8032515
40
0.0641445
50
220.4434483
51
249.6172
0
ARC
8
DEFAULT_255_1_234
10
15.2042324
20
133.8421968
40
0.1060489
50
249.1032952
51
262.775154
0
ARC
8
DEFAULT_255_1_234
10
15.2130496
20
133.9050715
40
0.1695354
50
262.4913187
51
270.2611758
0
ARC
8
DEFAULT_255_1_234
10
15.2127913
20
133.9266103
40
0.191075
50
270.3091804
51
275.6625139
0
ARC
8
DEFAULT_255_1_234
10
15.1985138
20
134.0767435
40
0.3418851
50
275.5610264
51
279.0879356
0
ARC
8
DEFAULT_255_1_234
10
15.1655015
20
134.2862699
40
0.5539959
50
279.0365489
51
281.5011378
0
ARC
8
DEFAULT_255_1_234
10
15.1298092
20
134.4666423
40
0.7378639
50
281.4243939
51
282.1017894
0
ARC
8
DEFAULT_255_1_234
10
15.1641339
20
134.0584858
40
0.4501761
50
275.2597045
51
285.5083879
0
ARC
8
DEFAULT_255_1_234
10
15.1702663
20
134.0028606
40
0.3942242
50
270.0268409
51
275.1132796
0
ARC
8
DEFAULT_255_1_234
10
15.1682628
20
133.8701614
40
0.261534
50
257.3573315
51
270.479383
0
ARC
8
DEFAULT_255_1_234
10
15.1469519
20
133.7803406
40
0.1692304
50
230.8037497
51
257.741658
0
ARC
8
DEFAULT_255_1_234
10
15.1401423
20
133.7693777
40
0.1564393
50
219.974146
51
230.1990686
0
ARC
8
DEFAULT_255_1_234
10
15.1733369
20
133.7947579
40
0.1981916
50
196.5084186
51
219.4318458
0
ARC
8
DEFAULT_255_1_234
10
15.2748814
20
133.8266194
40
0.3046086
50
184.6404872
51
196.8269686
0
ARC
8
DEFAULT_255_1_234
10
15.3993879
20
133.8391908
40
0.4297309
50
179.8986958
51
184.9681077
0
LINE
8
DEFAULT_255_1_234
10
15.3985524
20
134.0568075
11
15.3985524
21
134.0672488
0
LINE
8
DEFAULT_255_1_234
10
16.1896786
20
134.0600202
11
16.1896786
21
134.049579
0
ARC
8
DEFAULT_255_1_234
10
15.9571703
20
134.0704837
40
0.5586273
50
166.3003825
51
180.3317926
0
ARC
8
DEFAULT_255_1_234
10
15.8708863
20
134.0897964
40
0.4702272
50
153.8608245
51
166.0967125
0
ARC
8
DEFAULT_255_1_234
10
15.8043265
20
134.125475
40
0.3947658
50
135.1316692
51
154.253643
0
ARC
8
DEFAULT_255_1_234
10
15.7764825
20
134.1500666
40
0.3576898
50
121.7044358
51
134.776924
0
ARC
8
DEFAULT_255_1_234
10
15.7831818
20
134.1371867
40
0.3721701
50
93.4002104
51
121.5398234
0
ARC
8
DEFAULT_255_1_234
10
15.7926774
20
134.0546228
40
0.4551749
50
89.9706281
51
93.9769836
0
ARC
8
DEFAULT_255_1_234
10
15.7973866
20
134.0936362
40
0.4161854
50
71.3323442
51
90.6161982
0
ARC
8
DEFAULT_255_1_234
10
15.8136563
20
134.1538578
40
0.3539455
50
41.1815071
51
70.707185
0
ARC
8
DEFAULT_255_1_234
10
15.7658963
20
134.1104919
40
0.4184468
50
12.1971897
51
41.3445735
0
ARC
8
DEFAULT_255_1_234
10
15.573297
20
134.0646425
40
0.616399
50
359.5703439
51
12.5804035
0
ARC
8
DEFAULT_255_1_234
10
15.6206045
20
134.0464116
40
0.5690829
50
347.0197749
51
0.3188898
0
ARC
8
DEFAULT_255_1_234
10
15.7164547
20
134.0257808
40
0.4710501
50
334.3504053
51
346.846361
0
ARC
8
DEFAULT_255_1_234
10
15.8009971
20
133.9818805
40
0.3758475
50
310.422922
51
334.8045033
0
ARC
8
DEFAULT_255_1_234
10
15.8091796
20
133.9754782
40
0.3656736
50
301.8486886
51
310.097356
0
ARC
8
DEFAULT_255_1_234
10
15.8059522
20
133.9830638
40
0.3738224
50
274.307774
51
301.655379
0
ARC
8
DEFAULT_255_1_234
10
15.794883
20
134.0708361
40
0.4621997
50
269.9546461
51
274.8588071
0
ARC
8
DEFAULT_255_1_234
10
15.7899763
20
134.0207249
40
0.4121134
50
250.888809
51
270.631312
0
ARC
8
DEFAULT_255_1_234
10
15.7749683
20
133.9648277
40
0.3544073
50
221.1701932
51
250.2227191
0
ARC
8
DEFAULT_255_1_234
10
15.8233838
20
134.0089439
40
0.4198961
50
191.6263638
51
221.3526367
0
ARC
8
DEFAULT_255_1_234
10
16.0121833
20
134.0526329
40
0.6136451
50
179.610213
51
192.0693181
0
ARC
8
DEFAULT_255_1_234
10
16.0545061
20
134.0463633
40
0.5065736
50
179.636298
51
190.6162791
0
ARC
8
DEFAULT_255_1_234
10
15.8902729
20
134.014359
40
0.3392576
50
190.4136628
51
208.7170242
0
ARC
8
DEFAULT_255_1_234
10
15.8392354
20
133.9890366
40
0.2823401
50
209.1867941
51
217.4225593
0
ARC
8
DEFAULT_255_1_234
10
15.7863188
20
133.9424558
40
0.2120636
50
216.1156896
51
265.2575835
0
ARC
8
DEFAULT_255_1_234
10
15.7942336
20
133.9998109
40
0.2698952
50
264.5897417
51
270.0601757
0
ARC
8
DEFAULT_255_1_234
10
15.7975397
20
133.9618185
40
0.2319225
50
269.2532621
51
291.8792492
0
ARC
8
DEFAULT_255_1_234
10
15.8004618
20
133.9440238
40
0.2143562
50
292.9269754
51
323.1776747
0
ARC
8
DEFAULT_255_1_234
10
15.761144
20
133.9788452
40
0.2667346
50
322.2518483
51
323.0930371
0
ARC
8
DEFAULT_255_1_234
10
15.7317099
20
133.996999
40
0.3011886
50
323.6941278
51
343.8493282
0
ARC
8
DEFAULT_255_1_234
10
15.5738642
20
134.045035
40
0.4661719
50
343.5748474
51
355.0079071
0
ARC
8
DEFAULT_255_1_234
10
15.3730888
20
134.0658424
40
0.6680042
50
354.7285225
51
0.1206288
0
ARC
8
DEFAULT_255_1_234
10
15.5499354
20
134.0704751
40
0.4911667
50
359.623636
51
11.2015604
0
ARC
8
DEFAULT_255_1_234
10
15.7033582
20
134.102064
40
0.3345323
50
10.9989411
51
30.8319188
0
ARC
8
DEFAULT_255_1_234
10
15.7429454
20
134.1229297
40
0.2898553
50
31.3008956
51
37.3959224
0
ARC
8
DEFAULT_255_1_234
10
15.7926033
20
134.1648653
40
0.2249582
50
36.5915954
51
62.2442953
0
ARC
8
DEFAULT_255_1_234
10
15.7972486
20
134.1645602
40
0.2231053
50
63.3365542
51
89.7195421
0
ARC
8
DEFAULT_255_1_234
10
15.792934
20
134.1076884
40
0.2800267
50
88.8936788
51
90.0047485
0
ARC
8
DEFAULT_255_1_234
10
15.7897699
20
134.1649787
40
0.2227586
50
89.1921125
51
114.7099455
0
ARC
8
DEFAULT_255_1_234
10
15.7926463
20
134.1687628
40
0.2205633
50
115.7997161
51
142.2900762
0
ARC
8
DEFAULT_255_1_234
10
15.8365195
20
134.1297658
40
0.2791541
50
141.4658779
51
142.3795754
0
ARC
8
DEFAULT_255_1_234
10
15.84741
20
134.1254557
40
0.2904292
50
143.0175714
51
163.234115
0
ARC
8
DEFAULT_255_1_234
10
16.0052272
20
134.0755054
40
0.4559523
50
162.9447461
51
174.3732162
0
ARC
8
DEFAULT_255_1_234
10
16.2198086
20
134.0514143
40
0.6718682
50
174.1228657
51
180.1565175
0
LINE
8
DEFAULT_255_1_234
10
16.7960749
20
134.4985531
11
16.7960749
21
134.3604072
0
LINE
8
DEFAULT_255_1_234
10
16.5246021
20
134.2415375
11
16.5246021
21
133.6247
0
LINE
8
DEFAULT_255_1_234
10
16.5246021
20
133.6247
11
16.3760149
21
133.6247
0
LINE
8
DEFAULT_255_1_234
10
16.3760149
20
133.6247
11
16.3760149
21
134.4937341
0
LINE
8
DEFAULT_255_1_234
10
16.3760149
20
134.4937341
11
16.5205862
21
134.4937341
0
LINE
8
DEFAULT_255_1_234
10
16.5205862
20
134.4937341
11
16.5229958
21
134.3933374
0
ARC
8
DEFAULT_255_1_234
10
16.7294154
20
133.9544342
40
0.4114092
50
80.6754243
51
86.8932892
0
ARC
8
DEFAULT_255_1_234
10
16.7233688
20
133.85767
40
0.5083596
50
86.8038578
51
90.0431435
0
ARC
8
DEFAULT_255_1_234
10
16.7196669
20
134.1033866
40
0.2626638
50
89.2759698
51
106.6213787
0
ARC
8
DEFAULT_255_1_234
10
16.6992233
20
134.177683
40
0.1856317
50
107.1346045
51
157.6458115
0
ARC
8
DEFAULT_255_1_234
10
16.7683835
20
134.1393311
40
0.2643398
50
155.6586782
51
157.2539184
0
ARC
8
DEFAULT_255_1_234
10
16.7479037
20
134.2562157
40
0.2634121
50
127.8165941
51
148.6302098
0
ARC
8
DEFAULT_255_1_234
10
16.7225506
20
134.2822218
40
0.2273596
50
91.3329982
51
126.7875809
0
ARC
8
DEFAULT_255_1_234
10
16.7301446
20
134.2107195
40
0.299078
50
89.986594
51
92.4688449
0
ARC
8
DEFAULT_255_1_234
10
16.7309841
20
134.2382078
40
0.2715908
50
85.3589899
51
90.1623399
0
ARC
8
DEFAULT_255_1_234
10
16.7394357
20
134.3386164
40
0.1708278
50
78.401942
51
85.4594656
0
ARC
8
DEFAULT_255_1_234
10
16.7539241
20
134.4077236
40
0.1002194
50
67.7858312
51
78.5728455
0
ARC
8
DEFAULT_255_1_234
10
16.7647093
20
134.4356887
40
0.0702548
50
63.4835954
51
67.3062642
0
LINE
8
DEFAULT_255_1_234
10
17.5285694
20
134.7941211
11
17.5285694
21
133.6247
0
LINE
8
DEFAULT_255_1_234
10
17.5285694
20
133.6247
11
17.37436
21
133.6247
0
LINE
8
DEFAULT_255_1_234
10
17.37436
20
133.6247
11
17.37436
21
134.7941211
0
LINE
8
DEFAULT_255_1_234
10
17.37436
20
134.7941211
11
17.5285694
21
134.7941211
0
LINE
8
DEFAULT_255_1_234
10
18.3044353
20
134.7941211
11
17.8169088
21
133.5243033
0
LINE
8
DEFAULT_255_1_234
10
17.8169088
20
133.5243033
11
17.6892042
21
133.5243033
0
LINE
8
DEFAULT_255_1_234
10
17.6892042
20
133.5243033
11
18.1775338
21
134.7941211
0
LINE
8
DEFAULT_255_1_234
10
18.1775338
20
134.7941211
11
18.3044353
21
134.7941211
0
LINE
8
DEFAULT_255_1_234
10
19.3879168
20
134.2455534
11
19.3879168
21
134.1716614
0
LINE
8
DEFAULT_255_1_234
10
18.4474002
20
134.1612201
11
18.4474002
21
134.2455534
0
LINE
8
DEFAULT_255_1_234
10
19.2345106
20
134.1604169
11
19.2345106
21
134.2471597
0
LINE
8
DEFAULT_255_1_234
10
18.6008064
20
134.257601
11
18.6008064
21
134.1716614
0
ARC
8
DEFAULT_255_1_234
10
18.5237195
20
134.1677015
40
0.8642064
50
350.487711
51
0.2625388
0
ARC
8
DEFAULT_255_1_234
10
18.7530436
20
134.1282578
40
0.631518
50
336.0277639
51
350.5787438
0
ARC
8
DEFAULT_255_1_234
10
18.8875259
20
134.0674892
40
0.4839466
50
319.8877444
51
336.1328423
0
ARC
8
DEFAULT_255_1_234
10
18.94779
20
134.019258
40
0.4067874
50
302.4806467
51
319.6143626
0
ARC
8
DEFAULT_255_1_234
10
18.936291
20
134.0414202
40
0.4316636
50
275.8195682
51
302.1884709
0
ARC
8
DEFAULT_255_1_234
10
18.9196543
20
134.1556665
40
0.5470306
50
269.9171439
51
276.3397983
0
ARC
8
DEFAULT_255_1_234
10
18.9151753
20
134.0870681
40
0.4784458
50
252.5219675
51
270.4416499
0
ARC
8
DEFAULT_255_1_234
10
18.9008012
20
134.0331592
40
0.422716
50
237.5352116
51
252.1857531
0
ARC
8
DEFAULT_255_1_234
10
18.9097208
20
134.0445363
40
0.4371052
50
209.063312
51
237.3492538
0
ARC
8
DEFAULT_255_1_234
10
18.9967056
20
134.0991685
40
0.5397041
50
205.1183774
51
209.6470015
0
ARC
8
DEFAULT_255_1_234
10
19.0764093
20
134.132983
40
0.6262326
50
188.7215458
51
204.8240747
0
ARC
8
DEFAULT_255_1_234
10
19.2761621
20
134.1666067
40
0.8287794
50
180.3723947
51
188.9252049
0
ARC
8
DEFAULT_255_1_234
10
19.2734373
20
134.2495402
40
0.8260467
50
169.5253763
51
180.2765336
0
ARC
8
DEFAULT_255_1_234
10
19.0831822
20
134.2845309
40
0.6326007
50
155.8315255
51
169.5089989
0
ARC
8
DEFAULT_255_1_234
10
18.9551323
20
134.3439348
40
0.4914567
50
139.6258461
51
156.0379525
0
ARC
8
DEFAULT_255_1_234
10
18.8961656
20
134.3913799
40
0.4158054
50
122.6416387
51
139.3430715
0
ARC
8
DEFAULT_255_1_234
10
18.9062276
20
134.3730451
40
0.4366739
50
93.0223692
51
122.455762
0
ARC
8
DEFAULT_255_1_234
10
18.9170273
20
134.2765709
40
0.5336137
50
89.975342
51
93.6341897
0
ARC
8
DEFAULT_255_1_234
10
18.9209052
20
134.3164242
40
0.4937738
50
73.746375
51
90.4233405
0
ARC
8
DEFAULT_255_1_234
10
18.9384631
20
134.3844287
40
0.4235786
50
57.662753
51
73.4518111
0
ARC
8
DEFAULT_255_1_234
10
18.9376637
20
134.3865832
40
0.4221899
50
29.1440151
51
57.414694
0
ARC
8
DEFAULT_255_1_234
10
18.8441832
20
134.3282005
40
0.5322966
50
24.0982783
51
29.7323517
0
ARC
8
DEFAULT_255_1_234
10
18.7408107
20
134.2853399
40
0.6441673
50
8.6655297
51
23.8241346
0
ARC
8
DEFAULT_255_1_234
10
18.5173845
20
134.2488854
40
0.8705386
50
359.7806941
51
8.8218784
0
ARC
8
DEFAULT_255_1_234
10
18.4026843
20
134.2514345
40
0.8318373
50
359.7055579
51
8.036044
0
ARC
8
DEFAULT_255_1_234
10
18.7026849
20
134.2951239
40
0.5286768
50
7.8928306
51
20.2962107
0
ARC
8
DEFAULT_255_1_234
10
18.865442
20
134.3551395
40
0.3552073
50
20.3231126
51
36.4992797
0
ARC
8
DEFAULT_255_1_234
10
18.9339966
20
134.4079402
40
0.2686974
50
36.1437156
51
85.6627023
0
ARC
8
DEFAULT_255_1_234
10
18.9177512
20
134.3039221
40
0.373739
50
84.3852322
51
90.0757696
0
ARC
8
DEFAULT_255_1_234
10
18.9135184
20
134.3699839
40
0.3076997
50
89.3038458
51
109.9045693
0
ARC
8
DEFAULT_255_1_234
10
18.9042575
20
134.4082062
40
0.2686424
50
110.8228367
51
143.9179474
0
ARC
8
DEFAULT_255_1_234
10
18.9976235
20
134.3369236
40
0.3860887
50
143.5289163
51
163.2980757
0
ARC
8
DEFAULT_255_1_234
10
19.1884056
20
134.2769433
40
0.5860659
50
163.0418846
51
174.3140048
0
ARC
8
DEFAULT_255_1_234
10
19.4288168
20
134.2491854
40
0.8280531
50
174.0509143
51
179.4176892
0
ARC
8
DEFAULT_255_1_234
10
19.3783907
20
134.1674954
40
0.7775954
50
179.6930361
51
188.7906598
0
ARC
8
DEFAULT_255_1_234
10
19.1120386
20
134.1248935
40
0.5078633
50
188.6331305
51
202.5629587
0
ARC
8
DEFAULT_255_1_234
10
18.9865978
20
134.0744996
40
0.3726913
50
202.8081362
51
216.1193925
0
ARC
8
DEFAULT_255_1_234
10
18.9056548
20
134.0093676
40
0.2689577
50
215.0755913
51
264.6379694
0
ARC
8
DEFAULT_255_1_234
10
18.9183498
20
134.0924513
40
0.3528978
50
263.846392
51
270.0833719
0
ARC
8
DEFAULT_255_1_234
10
18.9224888
20
134.0666374
40
0.3271036
50
269.3649385
51
287.5152008
0
ARC
8
DEFAULT_255_1_234
10
18.9403046
20
134.0019238
40
0.2600406
50
288.0630309
51
323.8113348
0
ARC
8
DEFAULT_255_1_234
10
18.8531888
20
134.0669049
40
0.3687189
50
323.6547608
51
342.6590488
0
ARC
8
DEFAULT_255_1_234
10
18.6500503
20
134.1329952
40
0.5823286
50
342.4091907
51
353.6451149
0
ARC
8
DEFAULT_255_1_234
10
18.3669014
20
134.168219
40
0.8676442
50
353.4029884
51
359.4847795
0
LINE
8
DEFAULT_255_2_778
10
19.9765417
20
124.2218483
11
18.6536417
21
124.2218483
0
LINE
8
DEFAULT_255_2_778
10
18.6536417
20
124.2218483
11
18.6536417
21
67.3364483
0
LINE
8
DEFAULT_255_2_778
10
18.6536417
20
62.0447483
11
18.6536417
21
5.1593483
0
LINE
8
DEFAULT_255_2_778
10
18.6536417
20
5.1593483
11
19.9765417
21
5.1593483
0
LINE
8
DEFAULT_255_2_778
10
17.3307834
20
67.3364333
11
19.9765834
21
67.3364333
0
LINE
8
DEFAULT_255_2_778
10
19.9765834
20
67.3364333
11
19.9765834
21
62.0447333
0
LINE
8
DEFAULT_255_2_778
10
19.9765834
20
62.0447333
11
17.3307834
21
62.0447333
0
LINE
8
DEFAULT_255_2_778
10
17.3307834
20
62.0447333
11
17.3307834
21
67.3364333
0
LINE
8
DEFAULT_255_2_778
10
18.1245
20
62.5739666
11
18.1245
21
66.8072666
0
LINE
8
DEFAULT_255_2_778
10
17.8599167
20
66.013575
11
18.1245167
21
66.807275
0
LINE
8
DEFAULT_255_2_778
10
18.1245167
20
66.807275
11
18.3891167
21
66.013575
0
LINE
8
DEFAULT_255_2_778
10
18.3891167
20
66.013575
11
17.8599167
21
66.013575
0
LINE
8
DEFAULT_255_2_778
10
19.1828
20
66.8072666
11
19.1828
21
62.5739666
0
LINE
8
DEFAULT_255_2_778
10
18.9182167
20
63.367675
11
19.1828167
21
62.573975
0
LINE
8
DEFAULT_255_2_778
10
19.1828167
20
62.573975
11
19.4474167
21
63.367675
0
LINE
8
DEFAULT_255_2_778
10
19.4474167
20
63.367675
11
18.9182167
21
63.367675
0
LINE
8
DEFAULT_255_1_234
10
4.2550522
20
132.8098211
11
4.5875662
21
131.8452093
0
LINE
8
DEFAULT_255_1_234
10
4.5875662
20
131.8452093
11
4.9216865
21
132.8098211
0
LINE
8
DEFAULT_255_1_234
10
4.9216865
20
132.8098211
11
5.090353
21
132.8098211
0
LINE
8
DEFAULT_255_1_234
10
5.090353
20
132.8098211
11
4.6566391
21
131.6404
0
LINE
8
DEFAULT_255_1_234
10
4.6566391
20
131.6404
11
4.5200996
21
131.6404
0
LINE
8
DEFAULT_255_1_234
10
4.5200996
20
131.6404
11
4.0871889
21
132.8098211
0
LINE
8
DEFAULT_255_1_234
10
4.0871889
20
132.8098211
11
4.2550522
21
132.8098211
0
LINE
8
DEFAULT_255_1_234
10
5.6967492
20
132.8154433
11
5.6967492
21
131.6404
0
LINE
8
DEFAULT_255_1_234
10
5.6967492
20
131.6404
11
5.5473589
21
131.6404
0
LINE
8
DEFAULT_255_1_234
10
5.5473589
20
131.6404
11
5.5473589
21
132.6307133
0
LINE
8
DEFAULT_255_1_234
10
5.5473589
20
132.6307133
11
5.247775
21
132.5206785
0
LINE
8
DEFAULT_255_1_234
10
5.247775
20
132.5206785
11
5.247775
21
132.6556117
0
LINE
8
DEFAULT_255_1_234
10
5.247775
20
132.6556117
11
5.6734572
21
132.8154433
0
LINE
8
DEFAULT_255_1_234
10
5.6734572
20
132.8154433
11
5.6967492
21
132.8154433
0
LINE
8
DEFAULT_255_1_234
10
22.4550522
20
132.8098211
11
22.7875662
21
131.8452093
0
LINE
8
DEFAULT_255_1_234
10
22.7875662
20
131.8452093
11
23.1216865
21
132.8098211
0
LINE
8
DEFAULT_255_1_234
10
23.1216865
20
132.8098211
11
23.290353
21
132.8098211
0
LINE
8
DEFAULT_255_1_234
10
23.290353
20
132.8098211
11
22.8566391
21
131.6404
0
LINE
8
DEFAULT_255_1_234
10
22.8566391
20
131.6404
11
22.7200996
21
131.6404
0
LINE
8
DEFAULT_255_1_234
10
22.7200996
20
131.6404
11
22.2871889
21
132.8098211
0
LINE
8
DEFAULT_255_1_234
10
22.2871889
20
132.8098211
11
22.4550522
21
132.8098211
0
LINE
8
DEFAULT_255_1_234
10
24.1417172
20
132.3319327
11
24.1417172
21
132.1391709
0
LINE
8
DEFAULT_255_1_234
10
23.4036005
20
132.1190916
11
23.4036005
21
132.3174755
0
LINE
8
DEFAULT_255_1_234
10
23.9931301
20
132.0990123
11
23.9931301
21
132.3423739
0
LINE
8
DEFAULT_255_1_234
10
23.5521876
20
132.3536184
11
23.5521876
21
132.1158789
0
ARC
8
DEFAULT_255_1_234
10
22.9170062
20
132.1342805
40
1.2247208
50
353.8441951
51
0.2287902
0
ARC
8
DEFAULT_255_1_234
10
23.3809566
20
132.0824806
40
0.7578929
50
344.4934747
51
353.9765454
0
ARC
8
DEFAULT_255_1_234
10
23.6802156
20
131.9973981
40
0.4467846
50
329.2803592
51
344.7472793
0
ARC
8
DEFAULT_255_1_234
10
23.7794981
20
131.9429018
40
0.3336173
50
324.9352394
51
328.6160465
0
ARC
8
DEFAULT_255_1_234
10
23.8172089
20
131.9165427
40
0.2876076
50
280.580143
51
324.9173126
0
ARC
8
DEFAULT_255_1_234
10
23.7770882
20
132.0836099
40
0.4592847
50
269.5977311
51
281.6734359
0
ARC
8
DEFAULT_255_1_234
10
23.7698788
20
132.0716173
40
0.4472986
50
256.6228859
51
270.51044
0
ARC
8
DEFAULT_255_1_234
10
23.7296765
20
131.9167877
40
0.2873874
50
215.8618325
51
257.2788573
0
ARC
8
DEFAULT_255_1_234
10
23.8317797
20
131.9852977
40
0.4102928
50
197.9693508
51
215.2623606
0
ARC
8
DEFAULT_255_1_234
10
24.0802913
20
132.0691709
40
0.6725652
50
187.8816417
51
198.2346507
0
ARC
8
DEFAULT_255_1_234
10
24.4761121
20
132.1263079
40
1.0724845
50
180.8976217
51
188.0055519
0
ARC
8
DEFAULT_255_1_234
10
24.7561309
20
132.1366777
40
1.3526448
50
180.7449369
51
181.1510016
0
ARC
8
DEFAULT_255_1_234
10
24.5984038
20
132.3223042
40
1.1948131
50
173.7675579
51
180.231553
0
ARC
8
DEFAULT_255_1_234
10
24.1466185
20
132.3733666
40
0.7401564
50
164.3058563
51
173.9002247
0
ARC
8
DEFAULT_255_1_234
10
23.8554254
20
132.4572656
40
0.4371288
50
148.7922025
51
164.568378
0
ARC
8
DEFAULT_255_1_234
10
23.7602706
20
132.5103929
40
0.3282386
50
144.5883898
51
148.1176286
0
ARC
8
DEFAULT_255_1_234
10
23.7259604
20
132.5343315
40
0.2864044
50
101.6440918
51
144.514236
0
ARC
8
DEFAULT_255_1_234
10
23.768467
20
132.3654069
40
0.4604934
50
89.5284041
51
102.5819763
0
ARC
8
DEFAULT_255_1_234
10
23.7763758
20
132.3615018
40
0.464401
50
77.0437873
51
90.5081339
0
ARC
8
DEFAULT_255_1_234
10
23.816576
20
132.5257615
40
0.2953195
50
48.2778575
51
77.4994676
0
ARC
8
DEFAULT_255_1_234
10
23.8238391
20
132.5386746
40
0.2808655
50
36.3142134
51
47.6305865
0
ARC
8
DEFAULT_255_1_234
10
23.7369698
20
132.4801515
40
0.3855453
50
18.2931786
51
35.6769206
0
ARC
8
DEFAULT_255_1_234
10
23.4826457
20
132.3928593
40
0.654423
50
8.024666
51
18.5605216
0
ARC
8
DEFAULT_255_1_234
10
23.0663377
20
132.3313792
40
1.0752407
50
1.1274072
51
8.1718305
0
ARC
8
DEFAULT_255_1_234
10
22.7427568
20
132.3186885
40
1.3990231
50
0.5424119
51
1.3863029
0
ARC
8
DEFAULT_255_1_234
10
22.9248945
20
132.3459342
40
1.0682415
50
359.8090433
51
4.9407866
0
ARC
8
DEFAULT_255_1_234
10
23.3458959
20
132.3835113
40
0.6455691
50
4.8362157
51
12.2904523
0
ARC
8
DEFAULT_255_1_234
10
23.6214074
20
132.4448965
40
0.3633074
50
12.0805627
51
23.8173984
0
ARC
8
DEFAULT_255_1_234
10
23.738778
20
132.4945919
40
0.2358723
50
24.2871213
51
31.3935614
0
ARC
8
DEFAULT_255_1_234
10
23.7912477
20
132.5289233
40
0.1732111
50
30.7407893
51
82.4657128
0
ARC
8
DEFAULT_255_1_234
10
23.7732611
20
132.4405691
40
0.263235
50
81.1060089
51
90.2184952
0
ARC
8
DEFAULT_255_1_234
10
23.769691
20
132.4663924
40
0.2374236
50
89.3806855
51
105.6762551
0
ARC
8
DEFAULT_255_1_234
10
23.7513541
20
132.5330567
40
0.1682847
50
105.7981136
51
149.7388061
0
ARC
8
DEFAULT_255_1_234
10
23.8577619
20
132.469095
40
0.2924306
50
149.4208916
51
163.6286378
0
ARC
8
DEFAULT_255_1_234
10
24.0668507
20
132.405325
40
0.5110213
50
163.3763315
51
172.1410975
0
ARC
8
DEFAULT_255_1_234
10
24.3969226
20
132.3580518
40
0.8444586
50
172.0259487
51
178.0703232
0
ARC
8
DEFAULT_255_1_234
10
24.6999315
20
132.3436906
40
1.1477868
50
177.8631668
51
179.5044149
0
ARC
8
DEFAULT_255_1_234
10
24.592672
20
132.1122389
40
1.0404907
50
179.7995573
51
185.2460446
0
ARC
8
DEFAULT_255_1_234
10
24.1883759
20
132.0739513
40
0.6343885
50
185.1411642
51
193.0079639
0
ARC
8
DEFAULT_255_1_234
10
23.9240232
20
132.0114641
40
0.3627568
50
192.7897626
51
205.2507664
0
ARC
8
DEFAULT_255_1_234
10
23.8193779
20
131.9647415
40
0.2481908
50
205.8005384
51
211.2537509
0
ARC
8
DEFAULT_255_1_234
10
23.7670219
20
131.929658
40
0.1852521
50
210.3789793
51
238.4008143
0
ARC
8
DEFAULT_255_1_234
10
23.7650741
20
131.9343376
40
0.1882621
50
239.6520629
51
265.9793761
0
ARC
8
DEFAULT_255_1_234
10
23.7735941
20
132.0015427
40
0.2559272
50
265.1315437
51
270.060332
0
ARC
8
DEFAULT_255_1_234
10
23.776472
20
131.9691534
40
0.2235528
50
269.3314664
51
287.2178029
0
ARC
8
DEFAULT_255_1_234
10
23.7902572
20
131.9188279
40
0.1714108
50
287.7958004
51
329.080874
0
ARC
8
DEFAULT_255_1_234
10
23.6945029
20
131.978593
40
0.2842745
50
328.6634704
51
343.3325132
0
ARC
8
DEFAULT_255_1_234
10
23.4772049
20
132.0462863
40
0.5118644
50
343.0499468
51
351.9393422
0
ARC
8
DEFAULT_255_1_234
10
23.1305349
20
132.0973949
40
0.8622784
50
351.8069023
51
357.7959224
0
ARC
8
DEFAULT_255_1_234
10
22.8069905
20
132.1141721
40
1.1862365
50
357.5871873
51
359.2677531
0
LINE
8
DEFAULT_255_1_234
10
23.0886137
20
5.8154433
11
23.0886137
21
4.6404
0
LINE
8
DEFAULT_255_1_234
10
23.0886137
20
4.6404
11
22.9392234
21
4.6404
0
LINE
8
DEFAULT_255_1_234
10
22.9392234
20
4.6404
11
22.9392234
21
5.6307133
0
LINE
8
DEFAULT_255_1_234
10
22.9392234
20
5.6307133
11
22.6396396
21
5.5206785
0
LINE
8
DEFAULT_255_1_234
10
22.6396396
20
5.5206785
11
22.6396396
21
5.6556117
0
LINE
8
DEFAULT_255_1_234
10
22.6396396
20
5.6556117
11
23.0653217
21
5.8154433
0
LINE
8
DEFAULT_255_1_234
10
23.0653217
20
5.8154433
11
23.0886137
21
5.8154433
0
LINE
8
DEFAULT_255_1_234
10
23.7110734
20
5.1961963
11
23.5922037
21
5.2267169
0
LINE
8
DEFAULT_255_1_234
10
23.5922037
20
5.2267169
11
23.6516386
21
5.8098211
0
LINE
8
DEFAULT_255_1_234
10
23.6516386
20
5.8098211
11
24.2508063
21
5.8098211
0
LINE
8
DEFAULT_255_1_234
10
24.2508063
20
5.8098211
11
24.2508063
21
5.6724784
0
LINE
8
DEFAULT_255_1_234
10
24.2508063
20
5.6724784
11
23.7777369
21
5.6724784
0
LINE
8
DEFAULT_255_1_234
10
23.7777369
20
5.6724784
11
23.7423972
21
5.3536184
0
LINE
8
DEFAULT_255_1_234
10
23.5504387
20
4.9480156
11
23.6909941
21
4.9480156
0
LINE
8
DEFAULT_255_1_234
10
23.750429
20
5.2283232
11
23.7110734
21
5.1961963
0
ARC
8
DEFAULT_255_1_234
10
23.9278756
20
5.035623
40
0.3681349
50
93.7182161
51
120.2538958
0
ARC
8
DEFAULT_255_1_234
10
23.9373019
20
4.9548394
40
0.449379
50
89.9660152
51
94.2496022
0
ARC
8
DEFAULT_255_1_234
10
23.9413753
20
5.0137549
40
0.390482
50
73.8043271
51
90.5585896
0
ARC
8
DEFAULT_255_1_234
10
23.964865
20
5.0995602
40
0.3015334
50
41.3071453
51
73.5430202
0
ARC
8
DEFAULT_255_1_234
10
23.9232477
20
5.0637324
40
0.3564457
50
13.5075983
51
41.2174222
0
ARC
8
DEFAULT_255_1_234
10
23.7590681
20
5.0207486
40
0.5261351
50
1.1331335
51
13.8829381
0
ARC
8
DEFAULT_255_1_234
10
23.617905
20
5.0131665
40
0.6674378
50
359.9919444
51
1.544251
0
ARC
8
DEFAULT_255_1_234
10
23.7455876
20
5.009028
40
0.5397702
50
347.8572367
51
0.4293338
0
ARC
8
DEFAULT_255_1_234
10
23.9206194
20
4.9693736
40
0.3603188
50
323.673004
51
348.1672506
0
ARC
8
DEFAULT_255_1_234
10
23.9500702
20
4.9514168
40
0.3259678
50
316.8171152
51
323.1492751
0
ARC
8
DEFAULT_255_1_234
10
23.9561891
20
4.947746
40
0.3189975
50
281.8396411
51
316.5457803
0
ARC
8
DEFAULT_255_1_234
10
23.9186155
20
5.1032762
40
0.4789527
50
269.5770101
51
282.4214771
0
ARC
8
DEFAULT_255_1_234
10
23.9114966
20
5.0819125
40
0.45759
50
256.2427136
51
270.4486331
0
ARC
8
DEFAULT_255_1_234
10
23.8815869
20
4.9619229
40
0.3339303
50
228.9023911
51
256.3314342
0
ARC
8
DEFAULT_255_1_234
10
23.8742101
20
4.9502746
40
0.32031
50
193.753695
51
228.5271154
0
ARC
8
DEFAULT_255_1_234
10
23.9980055
20
4.98658
40
0.4492253
50
184.924711
51
194.497588
0
ARC
8
DEFAULT_255_1_234
10
24.0172622
20
4.9901591
40
0.3289787
50
187.3600538
51
198.6732863
0
ARC
8
DEFAULT_255_1_234
10
23.9122916
20
4.9537674
40
0.217884
50
198.4451669
51
217.794479
0
ARC
8
DEFAULT_255_1_234
10
23.8827091
20
4.9328085
40
0.1816698
50
218.2887171
51
228.5612368
0
ARC
8
DEFAULT_255_1_234
10
23.8924878
20
4.9459963
40
0.1980329
50
228.9654866
51
258.1234728
0
ARC
8
DEFAULT_255_1_234
10
23.9130588
20
5.0340833
40
0.2884748
50
257.7258293
51
270.401361
0
ARC
8
DEFAULT_255_1_234
10
23.9175474
20
4.9895821
40
0.2439788
50
269.4204404
51
286.4209037
0
ARC
8
DEFAULT_255_1_234
10
23.9323962
20
4.9356657
40
0.1880666
50
286.7251356
51
320.600362
0
ARC
8
DEFAULT_255_1_234
10
23.8940787
20
4.9667595
40
0.2374121
50
320.6712579
51
344.5441685
0
ARC
8
DEFAULT_255_1_234
10
23.7784113
20
5.0007045
40
0.3579479
50
344.2412205
51
356.7357071
0
ARC
8
DEFAULT_255_1_234
10
23.6535262
20
5.0110444
40
0.4832297
50
356.3548756
51
0.0500261
0
ARC
8
DEFAULT_255_1_234
10
23.7871771
20
5.014165
40
0.3495889
50
359.5576869
51
12.953486
0
ARC
8
DEFAULT_255_1_234
10
23.8926668
20
5.0397434
40
0.2410532
50
12.6490276
51
41.6081334
0
ARC
8
DEFAULT_255_1_234
10
23.9157039
20
5.0593321
40
0.2108218
50
41.7850273
51
85.9892764
0
ARC
8
DEFAULT_255_1_234
10
23.9033776
20
4.9780462
40
0.2928454
50
84.6957577
51
90.0676183
0
ARC
8
DEFAULT_255_1_234
10
23.901026
20
4.9111716
40
0.3597255
50
89.6804936
51
99.1614436
0
ARC
8
DEFAULT_255_1_234
10
23.8804891
20
5.0339131
40
0.235281
50
98.9830931
51
113.8908934
0
ARC
8
DEFAULT_255_1_234
10
23.8575301
20
5.0880587
40
0.176479
50
114.1950727
51
127.3641004
0
LINE
8
DEFAULT_255_1_234
10
22.9827137
20
13.7529433
11
22.9827137
21
12.5779
0
LINE
8
DEFAULT_255_1_234
10
22.9827137
20
12.5779
11
22.8333234
21
12.5779
0
LINE
8
DEFAULT_255_1_234
10
22.8333234
20
12.5779
11
22.8333234
21
13.5682133
0
LINE
8
DEFAULT_255_1_234
10
22.8333234
20
13.5682133
11
22.5337396
21
13.4581785
0
LINE
8
DEFAULT_255_1_234
10
22.5337396
20
13.4581785
11
22.5337396
21
13.5931117
0
LINE
8
DEFAULT_255_1_234
10
22.5337396
20
13.5931117
11
22.9594217
21
13.7529433
0
LINE
8
DEFAULT_255_1_234
10
22.9594217
20
13.7529433
11
22.9827137
21
13.7529433
0
LINE
8
DEFAULT_255_1_234
10
24.0453127
20
13.7473211
11
24.0453127
21
12.970652
0
LINE
8
DEFAULT_255_1_234
10
24.0453127
20
12.970652
11
24.2075538
21
12.970652
0
LINE
8
DEFAULT_255_1_234
10
24.2075538
20
12.970652
11
24.2075538
21
12.8493728
0
LINE
8
DEFAULT_255_1_234
10
24.2075538
20
12.8493728
11
24.0453127
21
12.8493728
0
LINE
8
DEFAULT_255_1_234
10
24.0453127
20
12.8493728
11
24.0453127
21
12.5779
0
LINE
8
DEFAULT_255_1_234
10
24.0453127
20
12.5779
11
23.8959224
21
12.5779
0
LINE
8
DEFAULT_255_1_234
10
23.8959224
20
12.5779
11
23.8959224
21
12.8493728
0
LINE
8
DEFAULT_255_1_234
10
23.8959224
20
12.8493728
11
23.3634181
21
12.8493728
0
LINE
8
DEFAULT_255_1_234
10
23.3634181
20
12.8493728
11
23.3634181
21
12.9369187
0
LINE
8
DEFAULT_255_1_234
10
23.3634181
20
12.9369187
11
23.8870875
21
13.7473211
0
LINE
8
DEFAULT_255_1_234
10
23.8870875
20
13.7473211
11
24.0453127
21
13.7473211
0
LINE
8
DEFAULT_255_1_234
10
23.8782525
20
13.5119912
11
23.5320846
21
12.970652
0
LINE
8
DEFAULT_255_1_234
10
23.5320846
20
12.970652
11
23.8959224
21
12.970652
0
LINE
8
DEFAULT_255_1_234
10
23.8959224
20
12.970652
11
23.8959224
21
13.5441181
0
LINE
8
DEFAULT_255_1_234
10
23.8959224
20
13.5441181
11
23.8782525
21
13.5119912
0
LINE
8
DEFAULT_255_1_234
10
23.0886137
20
21.6904433
11
23.0886137
21
20.5154
0
LINE
8
DEFAULT_255_1_234
10
23.0886137
20
20.5154
11
22.9392234
21
20.5154
0
LINE
8
DEFAULT_255_1_234
10
22.9392234
20
20.5154
11
22.9392234
21
21.5057133
0
LINE
8
DEFAULT_255_1_234
10
22.9392234
20
21.5057133
11
22.6396396
21
21.3956785
0
LINE
8
DEFAULT_255_1_234
10
22.6396396
20
21.3956785
11
22.6396396
21
21.5306117
0
LINE
8
DEFAULT_255_1_234
10
22.6396396
20
21.5306117
11
23.0653217
21
21.6904433
0
LINE
8
DEFAULT_255_1_234
10
23.0653217
20
21.6904433
11
23.0886137
21
21.6904433
0
LINE
8
DEFAULT_255_1_234
10
23.7399877
20
21.0511169
11
23.7399877
21
21.1723962
0
LINE
8
DEFAULT_255_1_234
10
23.7399877
20
21.1723962
11
23.8516289
21
21.1723962
0
LINE
8
DEFAULT_255_1_234
10
23.6612767
20
21.3780087
11
23.5126895
21
21.3780087
0
LINE
8
DEFAULT_255_1_234
10
23.5022482
20
20.8238188
11
23.6516386
21
20.8238188
0
LINE
8
DEFAULT_255_1_234
10
23.8516289
20
21.0511169
11
23.7399877
21
21.0511169
0
ARC
8
DEFAULT_255_1_234
10
23.8487155
20
21.5116713
40
0.3392876
50
270.4919872
51
281.8951556
0
ARC
8
DEFAULT_255_1_234
10
23.8728417
20
21.4014702
40
0.2264817
50
281.6691735
51
301.2943132
0
ARC
8
DEFAULT_255_1_234
10
23.8898627
20
21.3703304
40
0.1910381
50
301.7833094
51
311.7545298
0
ARC
8
DEFAULT_255_1_234
10
23.8990203
20
21.3601748
40
0.1773635
50
311.7323931
51
354.2802411
0
ARC
8
DEFAULT_255_1_234
10
23.8263828
20
21.3726722
40
0.2509385
50
353.0937916
51
0.1181479
0
ARC
8
DEFAULT_255_1_234
10
23.7802613
20
21.3774386
40
0.2970898
50
359.1805295
51
15.0453146
0
ARC
8
DEFAULT_255_1_234
10
23.914845
20
21.4166992
40
0.1569564
50
13.9577229
51
77.6713066
0
ARC
8
DEFAULT_255_1_234
10
23.8761979
20
21.2781949
40
0.3006298
50
76.1116566
51
90.7026153
0
ARC
8
DEFAULT_255_1_234
10
23.8702817
20
21.3055545
40
0.2732568
50
89.5324876
51
103.531937
0
ARC
8
DEFAULT_255_1_234
10
23.8502261
20
21.3854884
40
0.1908508
50
103.2931773
51
133.5619022
0
ARC
8
DEFAULT_255_1_234
10
23.845775
20
21.3914375
40
0.1834746
50
133.8349307
51
173.5344437
0
ARC
8
DEFAULT_255_1_234
10
23.9180793
20
21.3786213
40
0.2568033
50
172.5096846
51
180.1366907
0
ARC
8
DEFAULT_255_1_234
10
23.8229687
20
21.3820622
40
0.3103056
50
155.3484492
51
180.7484736
0
ARC
8
DEFAULT_255_1_234
10
23.8180776
20
21.3791846
40
0.3070957
50
131.5744599
51
154.4798489
0
ARC
8
DEFAULT_255_1_234
10
23.8493923
20
21.347531
40
0.3515643
50
96.9875458
51
131.9690667
0
ARC
8
DEFAULT_255_1_234
10
23.8713403
20
21.2229636
40
0.4779224
50
89.8596053
51
97.7825159
0
ARC
8
DEFAULT_255_1_234
10
23.8761466
20
21.1967616
40
0.5041361
50
78.3655447
51
90.4131539
0
ARC
8
DEFAULT_255_1_234
10
23.9119384
20
21.3626887
40
0.3344039
50
56.6229102
51
78.638727
0
ARC
8
DEFAULT_255_1_234
10
23.9334328
20
21.4002805
40
0.2912001
50
47.0253525
51
56.0854072
0
ARC
8
DEFAULT_255_1_234
10
23.9354108
20
21.4042223
40
0.2869704
50
10.9208013
51
46.7778124
0
ARC
8
DEFAULT_255_1_234
10
23.7990174
20
21.3726857
40
0.426899
50
359.6364486
51
11.6087304
0
ARC
8
DEFAULT_255_1_234
10
23.9825018
20
21.3711752
40
0.243409
50
332.3549906
51
359.7179418
0
ARC
8
DEFAULT_255_1_234
10
23.917462
20
21.4020142
40
0.3153459
50
325.2333722
51
332.8745602
0
ARC
8
DEFAULT_255_1_234
10
23.9327244
20
21.3913828
40
0.2967456
50
292.9802137
51
325.2392345
0
ARC
8
DEFAULT_255_1_234
10
23.9052617
20
21.4447863
40
0.3566604
50
292.5402179
51
293.6924929
0
ARC
8
DEFAULT_255_1_234
10
23.9445213
20
20.7993091
40
0.3307468
50
57.6435486
51
72.8625112
0
ARC
8
DEFAULT_255_1_234
10
23.9799713
20
20.8567549
40
0.2632492
50
36.7248896
51
57.4697979
0
ARC
8
DEFAULT_255_1_234
10
23.9788346
20
20.858022
40
0.2634081
50
8.0545065
51
36.356114
0
ARC
8
DEFAULT_255_1_234
10
23.8925531
20
20.8425174
40
0.3510261
50
359.8320645
51
8.5869982
0
ARC
8
DEFAULT_255_1_234
10
23.8550307
20
20.8377101
40
0.3885653
50
343.9829931
51
0.5571613
0
ARC
8
DEFAULT_255_1_234
10
23.9436504
20
20.8134438
40
0.2966924
50
311.6359546
51
343.7651759
0
ARC
8
DEFAULT_255_1_234
10
23.9058074
20
20.8561102
40
0.3537231
50
279.7829875
51
311.6255694
0
ARC
8
DEFAULT_255_1_234
10
23.875685
20
20.999828
40
0.5004971
50
269.7286406
51
280.3856417
0
ARC
8
DEFAULT_255_1_234
10
23.8694922
20
20.9956996
40
0.4963778
50
256.6828919
51
270.4412052
0
ARC
8
DEFAULT_255_1_234
10
23.8356218
20
20.8572394
40
0.3538406
50
229.4223008
51
256.8556159
0
ARC
8
DEFAULT_255_1_234
10
23.7941611
20
20.8105736
40
0.2914296
50
181.818294
51
229.6455059
0
ARC
8
DEFAULT_255_1_234
10
23.8981567
20
20.8236496
40
0.3959084
50
179.9755256
51
183.2323064
0
ARC
8
DEFAULT_255_1_234
10
23.8809313
20
20.8216037
40
0.2293034
50
179.4465117
51
196.2869258
0
ARC
8
DEFAULT_255_1_234
10
23.8321721
20
20.8082651
40
0.1787621
50
196.5661473
51
227.705904
0
ARC
8
DEFAULT_255_1_234
10
23.8485816
20
20.8266155
40
0.2033784
50
227.7652068
51
257.8762805
0
ARC
8
DEFAULT_255_1_234
10
23.8710786
20
20.9209156
40
0.3003081
50
257.4584385
51
270.426602
0
ARC
8
DEFAULT_255_1_234
10
23.8756352
20
20.9498996
40
0.329292
50
269.5962073
51
280.8789248
0
ARC
8
DEFAULT_255_1_234
10
23.8985881
20
20.8352685
40
0.2123908
50
280.6346389
51
299.8595945
0
ARC
8
DEFAULT_255_1_234
10
23.9176788
20
20.7990212
40
0.171457
50
300.3576302
51
314.5517981
0
ARC
8
DEFAULT_255_1_234
10
23.9093848
20
20.8050919
40
0.1816095
50
315.0728369
51
345.0431014
0
ARC
8
DEFAULT_255_1_234
10
23.8170662
20
20.8319841
40
0.2777492
50
344.5986631
51
357.9269593
0
ARC
8
DEFAULT_255_1_234
10
23.7274989
20
20.8381276
40
0.3674917
50
357.4748886
51
0.0231117
0
ARC
8
DEFAULT_255_1_234
10
23.8298098
20
20.8405679
40
0.2651907
50
359.5047933
51
13.4239635
0
ARC
8
DEFAULT_255_1_234
10
23.9164741
20
20.8627478
40
0.1757509
50
12.9498199
51
48.7551375
0
ARC
8
DEFAULT_255_1_234
10
23.8982475
20
20.83784
40
0.2065134
50
49.5088623
51
72.1836453
0
ARC
8
DEFAULT_255_1_234
10
23.8624628
20
20.7316291
40
0.3185836
50
71.9010081
51
84.3554254
0
ARC
8
DEFAULT_255_1_234
10
23.846326
20
20.5955326
40
0.4556151
50
84.0193428
51
89.333121
0
LINE
8
DEFAULT_255_1_234
10
23.0886137
20
29.6279433
11
23.0886137
21
28.4529
0
LINE
8
DEFAULT_255_1_234
10
23.0886137
20
28.4529
11
22.9392234
21
28.4529
0
LINE
8
DEFAULT_255_1_234
10
22.9392234
20
28.4529
11
22.9392234
21
29.4432133
0
LINE
8
DEFAULT_255_1_234
10
22.9392234
20
29.4432133
11
22.6396396
21
29.3331785
0
LINE
8
DEFAULT_255_1_234
10
22.6396396
20
29.3331785
11
22.6396396
21
29.4681117
0
LINE
8
DEFAULT_255_1_234
10
22.6396396
20
29.4681117
11
23.0653217
21
29.6279433
0
LINE
8
DEFAULT_255_1_234
10
23.0653217
20
29.6279433
11
23.0886137
21
29.6279433
0
LINE
8
DEFAULT_255_1_234
10
24.2901618
20
28.5741792
11
24.2901618
21
28.4529
0
LINE
8
DEFAULT_255_1_234
10
24.2901618
20
28.4529
11
23.5239339
21
28.4529
0
LINE
8
DEFAULT_255_1_234
10
23.5239339
20
28.4529
11
23.5239339
21
28.5597221
0
LINE
8
DEFAULT_255_1_234
10
23.5239339
20
28.5597221
11
23.9287335
21
29.0094995
0
LINE
8
DEFAULT_255_1_234
10
23.6500322
20
29.2777595
11
23.5014451
21
29.2777595
0
LINE
8
DEFAULT_255_1_234
10
24.0162795
20
28.9139218
11
23.7030417
21
28.5741792
0
LINE
8
DEFAULT_255_1_234
10
23.7030417
20
28.5741792
11
24.2901618
21
28.5741792
0
ARC
8
DEFAULT_255_1_234
10
22.5797169
20
30.2024527
40
1.8008286
50
318.5132453
51
320.7828378
0
ARC
8
DEFAULT_255_1_234
10
23.1084143
20
29.7721426
40
1.1191493
50
320.7372736
51
323.9737074
0
ARC
8
DEFAULT_255_1_234
10
23.5004
20
29.4881361
40
0.6350923
50
323.8961724
51
328.6421089
0
ARC
8
DEFAULT_255_1_234
10
23.7050595
20
29.3619031
40
0.3946393
50
328.8299013
51
331.789948
0
ARC
8
DEFAULT_255_1_234
10
23.8047774
20
29.3104509
40
0.2824501
50
331.4255242
51
352.9364833
0
ARC
8
DEFAULT_255_1_234
10
23.8184274
20
29.3073976
40
0.2685315
50
353.2248685
51
0.0169286
0
ARC
8
DEFAULT_255_1_234
10
23.8394151
20
29.309695
40
0.2475536
50
359.4866256
51
15.9339782
0
ARC
8
DEFAULT_255_1_234
10
23.8901136
20
29.3233286
40
0.1950618
50
16.1714718
51
43.5284424
0
ARC
8
DEFAULT_255_1_234
10
23.8978445
20
29.3310573
40
0.184134
50
43.4415429
51
83.1661404
0
ARC
8
DEFAULT_255_1_234
10
23.8844363
20
29.2573771
40
0.258926
50
82.160215
51
90.1505798
0
ARC
8
DEFAULT_255_1_234
10
23.881279
20
29.2036865
40
0.3126255
50
89.5460705
51
102.5418777
0
ARC
8
DEFAULT_255_1_234
10
23.8569876
20
29.3067665
40
0.2067346
50
102.1739365
51
129.2061916
0
ARC
8
DEFAULT_255_1_234
10
23.8490948
20
29.3192094
40
0.1921118
50
129.7279328
51
135.7542026
0
ARC
8
DEFAULT_255_1_234
10
23.8612476
20
29.3095045
40
0.2075944
50
136.175737
51
166.3674722
0
ARC
8
DEFAULT_255_1_234
10
23.9619395
20
29.2825182
40
0.3118201
50
165.9092917
51
178.8683903
0
ARC
8
DEFAULT_255_1_234
10
24.0484256
20
29.2778179
40
0.3983935
50
178.438168
51
180.0083905
0
ARC
8
DEFAULT_255_1_234
10
23.9082859
20
29.2817231
40
0.4068601
50
163.2878735
51
180.5581814
0
ARC
8
DEFAULT_255_1_234
10
23.828112
20
29.303784
40
0.3237344
50
133.454115
51
162.9470031
0
ARC
8
DEFAULT_255_1_234
10
23.8459661
20
29.2848
40
0.349795
50
100.7869394
51
133.4384016
0
ARC
8
DEFAULT_255_1_234
10
23.8807433
20
29.1299319
40
0.5084616
50
89.6605301
51
101.3704185
0
ARC
8
DEFAULT_255_1_234
10
23.8873772
20
29.1360496
40
0.502348
50
78.2171172
51
90.4130393
0
ARC
8
DEFAULT_255_1_234
10
23.922885
20
29.2984637
40
0.3361092
50
55.9268222
51
78.4888551
0
ARC
8
DEFAULT_255_1_234
10
23.942529
20
29.3323324
40
0.2970617
50
47.9292255
51
55.4054003
0
ARC
8
DEFAULT_255_1_234
10
23.9526851
20
29.3426502
40
0.2825983
50
4.3347696
51
48.0560701
0
ARC
8
DEFAULT_255_1_234
10
23.8431244
20
29.3256601
40
0.393225
50
359.925209
51
5.5967654
0
ARC
8
DEFAULT_255_1_234
10
23.8860136
20
29.3312816
40
0.3503892
50
337.8914096
51
358.9967724
0
ARC
8
DEFAULT_255_1_234
10
23.6146548
20
29.4359706
40
0.6412172
50
326.9135351
51
338.3505194
0
ARC
8
DEFAULT_255_1_234
10
23.2160852
20
29.6914284
40
1.1146189
50
319.6472867
51
327.095818
0
ARC
8
DEFAULT_255_1_234
10
22.8327855
20
30.0076
40
1.6114559
50
317.2586784
51
319.9046139
0
LINE
8
DEFAULT_255_1_234
10
23.0976137
20
37.5654433
11
23.0976137
21
36.3904
0
LINE
8
DEFAULT_255_1_234
10
23.0976137
20
36.3904
11
22.9482234
21
36.3904
0
LINE
8
DEFAULT_255_1_234
10
22.9482234
20
36.3904
11
22.9482234
21
37.3807133
0
LINE
8
DEFAULT_255_1_234
10
22.9482234
20
37.3807133
11
22.6486396
21
37.2706785
0
LINE
8
DEFAULT_255_1_234
10
22.6486396
20
37.2706785
11
22.6486396
21
37.4056117
0
LINE
8
DEFAULT_255_1_234
10
22.6486396
20
37.4056117
11
23.0743217
21
37.5654433
0
LINE
8
DEFAULT_255_1_234
10
23.0743217
20
37.5654433
11
23.0976137
21
37.5654433
0
LINE
8
DEFAULT_255_1_234
10
24.0212636
20
37.5654433
11
24.0212636
21
36.3904
0
LINE
8
DEFAULT_255_1_234
10
24.0212636
20
36.3904
11
23.8718733
21
36.3904
0
LINE
8
DEFAULT_255_1_234
10
23.8718733
20
36.3904
11
23.8718733
21
37.3807133
0
LINE
8
DEFAULT_255_1_234
10
23.8718733
20
37.3807133
11
23.5722895
21
37.2706785
0
LINE
8
DEFAULT_255_1_234
10
23.5722895
20
37.2706785
11
23.5722895
21
37.4056117
0
LINE
8
DEFAULT_255_1_234
10
23.5722895
20
37.4056117
11
23.9979716
21
37.5654433
0
LINE
8
DEFAULT_255_1_234
10
23.9979716
20
37.5654433
11
24.0212636
21
37.5654433
0
LINE
8
DEFAULT_255_1_234
10
23.0886137
20
45.5029433
11
23.0886137
21
44.3279
0
LINE
8
DEFAULT_255_1_234
10
23.0886137
20
44.3279
11
22.9392234
21
44.3279
0
LINE
8
DEFAULT_255_1_234
10
22.9392234
20
44.3279
11
22.9392234
21
45.3182133
0
LINE
8
DEFAULT_255_1_234
10
22.9392234
20
45.3182133
11
22.6396396
21
45.2081785
0
LINE
8
DEFAULT_255_1_234
10
22.6396396
20
45.2081785
11
22.6396396
21
45.3431117
0
LINE
8
DEFAULT_255_1_234
10
22.6396396
20
45.3431117
11
23.0653217
21
45.5029433
0
LINE
8
DEFAULT_255_1_234
10
23.0653217
20
45.5029433
11
23.0886137
21
45.5029433
0
LINE
8
DEFAULT_255_1_234
10
24.2572316
20
45.0194327
11
24.2572316
21
44.8266709
0
LINE
8
DEFAULT_255_1_234
10
23.5191149
20
44.8065916
11
23.5191149
21
45.0049755
0
LINE
8
DEFAULT_255_1_234
10
24.1086445
20
44.7865123
11
24.1086445
21
45.0298739
0
LINE
8
DEFAULT_255_1_234
10
23.6677021
20
45.0411184
11
23.6677021
21
44.8033789
0
ARC
8
DEFAULT_255_1_234
10
23.0325206
20
44.8217805
40
1.2247208
50
353.8441951
51
0.2287902
0
ARC
8
DEFAULT_255_1_234
10
23.496471
20
44.7699806
40
0.7578929
50
344.4934747
51
353.9765454
0
ARC
8
DEFAULT_255_1_234
10
23.79573
20
44.6848981
40
0.4467846
50
329.2803592
51
344.7472793
0
ARC
8
DEFAULT_255_1_234
10
23.8950125
20
44.6304018
40
0.3336173
50
324.9352394
51
328.6160465
0
ARC
8
DEFAULT_255_1_234
10
23.9327233
20
44.6040427
40
0.2876076
50
280.580143
51
324.9173126
0
ARC
8
DEFAULT_255_1_234
10
23.8926026
20
44.7711099
40
0.4592847
50
269.5977311
51
281.6734359
0
ARC
8
DEFAULT_255_1_234
10
23.8853932
20
44.7591173
40
0.4472986
50
256.6228859
51
270.51044
0
ARC
8
DEFAULT_255_1_234
10
23.8451909
20
44.6042877
40
0.2873874
50
215.8618325
51
257.2788573
0
ARC
8
DEFAULT_255_1_234
10
23.9472941
20
44.6727977
40
0.4102928
50
197.9693508
51
215.2623606
0
ARC
8
DEFAULT_255_1_234
10
24.1958057
20
44.7566709
40
0.6725652
50
187.8816417
51
198.2346507
0
ARC
8
DEFAULT_255_1_234
10
24.5916265
20
44.8138079
40
1.0724845
50
180.8976217
51
188.0055519
0
ARC
8
DEFAULT_255_1_234
10
24.8716453
20
44.8241777
40
1.3526448
50
180.7449369
51
181.1510016
0
ARC
8
DEFAULT_255_1_234
10
24.7139182
20
45.0098042
40
1.1948131
50
173.7675579
51
180.231553
0
ARC
8
DEFAULT_255_1_234
10
24.2621329
20
45.0608666
40
0.7401564
50
164.3058563
51
173.9002247
0
ARC
8
DEFAULT_255_1_234
10
23.9709398
20
45.1447656
40
0.4371288
50
148.7922025
51
164.568378
0
ARC
8
DEFAULT_255_1_234
10
23.875785
20
45.1978929
40
0.3282386
50
144.5883898
51
148.1176286
0
ARC
8
DEFAULT_255_1_234
10
23.8414748
20
45.2218315
40
0.2864044
50
101.6440918
51
144.514236
0
ARC
8
DEFAULT_255_1_234
10
23.8839814
20
45.0529069
40
0.4604934
50
89.5284041
51
102.5819763
0
ARC
8
DEFAULT_255_1_234
10
23.8918902
20
45.0490018
40
0.464401
50
77.0437873
51
90.5081339
0
ARC
8
DEFAULT_255_1_234
10
23.9320904
20
45.2132615
40
0.2953195
50
48.2778575
51
77.4994676
0
ARC
8
DEFAULT_255_1_234
10
23.9393535
20
45.2261746
40
0.2808655
50
36.3142134
51
47.6305865
0
ARC
8
DEFAULT_255_1_234
10
23.8524842
20
45.1676515
40
0.3855453
50
18.2931786
51
35.6769206
0
ARC
8
DEFAULT_255_1_234
10
23.5981601
20
45.0803593
40
0.654423
50
8.024666
51
18.5605216
0
ARC
8
DEFAULT_255_1_234
10
23.1818521
20
45.0188792
40
1.0752407
50
1.1274072
51
8.1718305
0
ARC
8
DEFAULT_255_1_234
10
22.8582712
20
45.0061885
40
1.3990231
50
0.5424119
51
1.3863029
0
ARC
8
DEFAULT_255_1_234
10
23.0404089
20
45.0334342
40
1.0682415
50
359.8090433
51
4.9407866
0
ARC
8
DEFAULT_255_1_234
10
23.4614103
20
45.0710113
40
0.6455691
50
4.8362157
51
12.2904523
0
ARC
8
DEFAULT_255_1_234
10
23.7369218
20
45.1323965
40
0.3633074
50
12.0805627
51
23.8173984
0
ARC
8
DEFAULT_255_1_234
10
23.8542924
20
45.1820919
40
0.2358723
50
24.2871213
51
31.3935614
0
ARC
8
DEFAULT_255_1_234
10
23.9067621
20
45.2164233
40
0.1732111
50
30.7407893
51
82.4657128
0
ARC
8
DEFAULT_255_1_234
10
23.8887755
20
45.1280691
40
0.263235
50
81.1060089
51
90.2184952
0
ARC
8
DEFAULT_255_1_234
10
23.8852054
20
45.1538924
40
0.2374236
50
89.3806855
51
105.6762551
0
ARC
8
DEFAULT_255_1_234
10
23.8668685
20
45.2205567
40
0.1682847
50
105.7981136
51
149.7388061
0
ARC
8
DEFAULT_255_1_234
10
23.9732763
20
45.156595
40
0.2924306
50
149.4208916
51
163.6286378
0
ARC
8
DEFAULT_255_1_234
10
24.1823651
20
45.092825
40
0.5110213
50
163.3763315
51
172.1410975
0
ARC
8
DEFAULT_255_1_234
10
24.512437
20
45.0455518
40
0.8444586
50
172.0259487
51
178.0703232
0
ARC
8
DEFAULT_255_1_234
10
24.815446
20
45.0311906
40
1.1477868
50
177.8631668
51
179.5044149
0
ARC
8
DEFAULT_255_1_234
10
24.7081864
20
44.7997389
40
1.0404907
50
179.7995573
51
185.2460446
0
ARC
8
DEFAULT_255_1_234
10
24.3038903
20
44.7614513
40
0.6343885
50
185.1411642
51
193.0079639
0
ARC
8
DEFAULT_255_1_234
10
24.0395376
20
44.6989641
40
0.3627568
50
192.7897626
51
205.2507664
0
ARC
8
DEFAULT_255_1_234
10
23.9348923
20
44.6522415
40
0.2481908
50
205.8005384
51
211.2537509
0
ARC
8
DEFAULT_255_1_234
10
23.8825363
20
44.617158
40
0.1852521
50
210.3789793
51
238.4008143
0
ARC
8
DEFAULT_255_1_234
10
23.8805885
20
44.6218376
40
0.1882621
50
239.6520629
51
265.9793761
0
ARC
8
DEFAULT_255_1_234
10
23.8891085
20
44.6890427
40
0.2559272
50
265.1315437
51
270.060332
0
ARC
8
DEFAULT_255_1_234
10
23.8919864
20
44.6566534
40
0.2235528
50
269.3314664
51
287.2178029
0
ARC
8
DEFAULT_255_1_234
10
23.9057716
20
44.6063279
40
0.1714108
50
287.7958004
51
329.080874
0
ARC
8
DEFAULT_255_1_234
10
23.8100173
20
44.666093
40
0.2842745
50
328.6634704
51
343.3325132
0
ARC
8
DEFAULT_255_1_234
10
23.5927193
20
44.7337863
40
0.5118644
50
343.0499468
51
351.9393422
0
ARC
8
DEFAULT_255_1_234
10
23.2460493
20
44.7848949
40
0.8622784
50
351.8069023
51
357.7959224
0
ARC
8
DEFAULT_255_1_234
10
22.9225049
20
44.8016721
40
1.1862365
50
357.5871873
51
359.2677531
0
LINE
8
DEFAULT_255_1_234
10
24.2994246
20
52.9673739
11
24.2994246
21
52.9240025
0
LINE
8
DEFAULT_255_1_234
10
23.7572823
20
52.2645968
11
23.728368
21
52.2645968
0
LINE
8
DEFAULT_255_1_234
10
23.728368
20
52.2645968
11
23.728368
21
52.3898919
0
LINE
8
DEFAULT_255_1_234
10
23.728368
20
52.3898919
11
23.7596918
21
52.3898919
0
LINE
8
DEFAULT_255_1_234
10
24.1508375
20
52.9384597
11
24.1508375
21
52.9978945
0
ARC
8
DEFAULT_255_1_234
10
23.8714644
20
53.0130403
40
0.3635579
50
297.4037347
51
320.016758
0
ARC
8
DEFAULT_255_1_234
10
23.9004593
20
52.957324
40
0.3007486
50
270.2633101
51
297.3851877
0
ARC
8
DEFAULT_255_1_234
10
23.8970549
20
53.0036904
40
0.3471448
50
269.9966443
51
270.7900392
0
ARC
8
DEFAULT_255_1_234
10
23.894503
20
53.0035143
40
0.3469779
50
254.5999133
51
270.4180344
0
ARC
8
DEFAULT_255_1_234
10
23.8802389
20
52.9470647
40
0.2887697
50
236.4717942
51
254.3541279
0
ARC
8
DEFAULT_255_1_234
10
23.8958607
20
52.9680711
40
0.3149125
50
208.4727207
51
236.2134933
0
ARC
8
DEFAULT_255_1_234
10
23.9597382
20
53.0071455
40
0.3897115
50
204.3447514
51
209.0453999
0
ARC
8
DEFAULT_255_1_234
10
24.0276958
20
53.0359656
40
0.4635101
50
183.9375985
51
204.1276318
0
ARC
8
DEFAULT_255_1_234
10
24.1185209
20
53.0457482
40
0.5548037
50
179.9652252
51
184.3013875
0
ARC
8
DEFAULT_255_1_234
10
24.0945255
20
53.0490507
40
0.5308164
50
166.7585989
51
180.3201225
0
ARC
8
DEFAULT_255_1_234
10
24.0098869
20
53.0674488
40
0.4442163
50
154.6955053
51
166.5679793
0
ARC
8
DEFAULT_255_1_234
10
23.9245739
20
53.110421
40
0.3487299
50
136.3324195
51
155.0871442
0
ARC
8
DEFAULT_255_1_234
10
23.8964812
20
53.1344954
40
0.3117924
50
121.236733
51
135.9680508
0
ARC
8
DEFAULT_255_1_234
10
23.910531
20
53.1084743
40
0.3413302
50
96.845628
51
120.9881519
0
ARC
8
DEFAULT_255_1_234
10
23.9250892
20
53.0149515
40
0.4359341
50
89.8870174
51
97.2802754
0
ARC
8
DEFAULT_255_1_234
10
23.930333
20
53.0787095
40
0.3722009
50
70.6505584
51
90.6749113
0
ARC
8
DEFAULT_255_1_234
10
23.9434609
20
53.1300361
40
0.3194571
50
36.7492984
51
69.8219918
0
ARC
8
DEFAULT_255_1_234
10
23.8435774
20
53.0521993
40
0.4460685
50
15.39587
51
37.0840084
0
ARC
8
DEFAULT_255_1_234
10
23.6306207
20
52.9901242
40
0.6678714
50
3.9488873
51
15.6798563
0
ARC
8
DEFAULT_255_1_234
10
23.3904835
20
52.9684964
40
0.9089418
50
359.929245
51
4.2665314
0
ARC
8
DEFAULT_255_1_234
10
22.9299272
20
52.9173513
40
1.3695135
50
352.8366322
51
0.2782669
0
ARC
8
DEFAULT_255_1_234
10
23.4586951
20
52.8486629
40
0.8363105
50
341.8359505
51
352.9884176
0
ARC
8
DEFAULT_255_1_234
10
23.780567
20
52.74017
40
0.4966642
50
322.8578092
51
342.1527901
0
ARC
8
DEFAULT_255_1_234
10
23.8669626
20
52.6812384
40
0.3922466
50
319.334325
51
322.0998941
0
ARC
8
DEFAULT_255_1_234
10
23.8359963
20
52.7123209
40
0.4360033
50
285.9541367
51
318.8878087
0
ARC
8
DEFAULT_255_1_234
10
23.7633224
20
52.94336
40
0.678149
50
272.9281676
51
286.4922826
0
ARC
8
DEFAULT_255_1_234
10
23.7443342
20
53.1684587
40
0.9039547
50
270.8207226
51
273.4012994
0
ARC
8
DEFAULT_255_1_234
10
23.7532193
20
52.9865666
40
0.5967098
50
270.6214993
51
281.4062806
0
ARC
8
DEFAULT_255_1_234
10
23.7962174
20
52.7809833
40
0.3866861
50
281.1852553
51
299.0621114
0
ARC
8
DEFAULT_255_1_234
10
23.8335745
20
52.7088798
40
0.3055236
50
299.5067782
51
313.1200873
0
ARC
8
DEFAULT_255_1_234
10
23.8357712
20
52.7009554
40
0.2982623
50
313.8526205
51
338.5989322
0
ARC
8
DEFAULT_255_1_234
10
23.6733786
20
52.7676781
40
0.4738131
50
338.2523585
51
351.2430902
0
ARC
8
DEFAULT_255_1_234
10
23.4323082
20
52.8086447
40
0.7183203
50
350.9409515
51
357.6691871
0
ARC
8
DEFAULT_255_1_234
10
23.9213512
20
53.0088764
40
0.2294452
50
269.9447023
51
306.8248917
0
ARC
8
DEFAULT_255_1_234
10
23.8976427
20
53.0511898
40
0.2775994
50
305.5072438
51
327.0773448
0
ARC
8
DEFAULT_255_1_234
10
23.9094868
20
53.0417025
40
0.2625056
50
327.4104943
51
336.840169
0
ARC
8
DEFAULT_255_1_234
10
23.6000933
20
53.0011302
40
0.5507537
50
359.6633817
51
10.117533
0
ARC
8
DEFAULT_255_1_234
10
23.7754731
20
53.0335777
40
0.372403
50
9.9430141
51
26.7700076
0
ARC
8
DEFAULT_255_1_234
10
23.8351943
20
53.0611187
40
0.3066865
50
27.2015464
51
34.6829435
0
ARC
8
DEFAULT_255_1_234
10
23.8841423
20
53.0978977
40
0.245519
50
34.1250343
51
50.3070065
0
ARC
8
DEFAULT_255_1_234
10
23.9288103
20
53.1513385
40
0.1758693
50
50.3851167
51
90.6705993
0
ARC
8
DEFAULT_255_1_234
10
23.9241336
20
53.1208799
40
0.2063326
50
89.272901
51
111.9140407
0
ARC
8
DEFAULT_255_1_234
10
23.9221864
20
53.134944
40
0.1925887
50
112.9382311
51
142.5320782
0
ARC
8
DEFAULT_255_1_234
10
23.9768044
20
53.0905969
40
0.2629232
50
142.1021256
51
166.3835592
0
ARC
8
DEFAULT_255_1_234
10
24.0949349
20
53.0600915
40
0.3849193
50
166.1100289
51
178.665427
0
ARC
8
DEFAULT_255_1_234
10
24.1996938
20
53.0542117
40
0.4897989
50
178.2632126
51
180.0111093
0
ARC
8
DEFAULT_255_1_234
10
24.1195059
20
53.0513728
40
0.40962
50
179.6161962
51
191.8787166
0
ARC
8
DEFAULT_255_1_234
10
23.9974898
20
53.0243896
40
0.2846655
50
191.6191692
51
215.2972286
0
ARC
8
DEFAULT_255_1_234
10
23.9778089
20
53.0128918
40
0.2619665
50
215.7320102
51
216.5355409
0
ARC
8
DEFAULT_255_1_234
10
23.9239175
20
52.9696647
40
0.1929497
50
215.7486685
51
239.9727502
0
ARC
8
DEFAULT_255_1_234
10
23.9169091
20
52.9645894
40
0.1850822
50
241.0650169
51
269.2810483
0
ARC
8
DEFAULT_255_1_234
10
23.9211006
20
53.0136371
40
0.2342059
50
268.4062526
51
270.0071348
0
ARC
8
DEFAULT_255_1_234
10
24.0075624
20
61.0645703
40
0.2822356
50
338.8763615
51
0.5166041
0
ARC
8
DEFAULT_255_1_234
10
24.0244278
20
61.0600208
40
0.2648703
50
325.8412414
51
338.4795939
0
ARC
8
DEFAULT_255_1_234
10
23.9853646
20
61.0871042
40
0.3124019
50
296.7586019
51
325.753654
0
ARC
8
DEFAULT_255_1_234
10
23.9565754
20
61.1355789
40
0.368668
50
296.0902311
51
297.3618122
0
ARC
8
DEFAULT_255_1_234
10
23.9823212
20
60.4801041
40
0.3518806
50
47.9009248
51
67.1946869
0
ARC
8
DEFAULT_255_1_234
10
24.0019454
20
60.5047395
40
0.320451
50
35.236241
51
47.551371
0
ARC
8
DEFAULT_255_1_234
10
24.0281072
20
60.5221993
40
0.2890103
50
359.2759738
51
35.4014081
0
ARC
8
DEFAULT_255_1_234
10
23.9536103
20
60.5148826
40
0.3635026
50
343.1294516
51
0.5776525
0
ARC
8
DEFAULT_255_1_234
10
24.0260648
20
60.494933
40
0.2883832
50
310.8497458
51
342.744803
0
ARC
8
DEFAULT_255_1_234
10
23.9842761
20
60.5426294
40
0.3517954
50
281.5473923
51
310.9169905
0
ARC
8
DEFAULT_255_1_234
10
23.948621
20
60.6979084
40
0.5110832
50
269.6192722
51
281.9789957
0
ARC
8
DEFAULT_255_1_234
10
23.9414
20
60.6979828
40
0.5111606
50
257.4584469
51
270.4287458
0
ARC
8
DEFAULT_255_1_234
10
23.9033143
20
60.5376344
40
0.3463762
50
228.7553743
51
257.8484423
0
ARC
8
DEFAULT_255_1_234
10
23.8723341
20
60.5003442
40
0.297916
50
184.0104442
51
228.5071787
0
ARC
8
DEFAULT_255_1_234
10
23.9886285
20
60.5180512
40
0.4152734
50
179.9315461
51
185.3254504
0
ARC
8
DEFAULT_255_1_234
10
23.8709931
20
60.5217992
40
0.2976554
50
145.6795913
51
180.6259649
0
ARC
8
DEFAULT_255_1_234
10
23.887328
20
60.5103929
40
0.3175776
50
115.5537925
51
145.6416199
0
ARC
8
DEFAULT_255_1_234
10
23.921421
20
60.4493028
40
0.3874232
50
113.2437915
51
116.2054627
0
ARC
8
DEFAULT_255_1_234
10
23.9061423
20
61.089158
40
0.3154751
50
222.9548379
51
244.1372485
0
ARC
8
DEFAULT_255_1_234
10
23.8939498
20
61.0754834
40
0.2972382
50
213.3439227
51
222.6271327
0
ARC
8
DEFAULT_255_1_234
10
23.8747433
20
61.0624308
40
0.274019
50
180.4316517
51
213.2713999
0
ARC
8
DEFAULT_255_1_234
10
23.9322434
20
61.067111
40
0.33158
50
179.9992944
51
181.1655061
0
ARC
8
DEFAULT_255_1_234
10
23.9731851
20
61.0705561
40
0.3725376
50
164.6186108
51
180.5292368
0
ARC
8
DEFAULT_255_1_234
10
23.8833714
20
61.0947101
40
0.2795349
50
132.2454369
51
164.5092287
0
ARC
8
DEFAULT_255_1_234
10
23.9120818
20
61.0622028
40
0.3229019
50
100.7052766
51
132.1387266
0
ARC
8
DEFAULT_255_1_234
10
23.942579
20
60.9244086
40
0.4639835
50
89.6732617
51
101.2449487
0
ARC
8
DEFAULT_255_1_234
10
23.9487988
20
60.941899
40
0.4464999
50
76.2876631
51
90.4586123
0
ARC
8
DEFAULT_255_1_234
10
23.979422
20
61.064122
40
0.3205023
50
47.8240157
51
76.4266918
0
ARC
8
DEFAULT_255_1_234
10
24.001677
20
61.090159
40
0.2862661
50
6.9168658
51
47.6261438
0
ARC
8
DEFAULT_255_1_234
10
23.8830173
20
61.068237
40
0.4067708
50
359.8419705
51
7.9694496
0
ARC
8
DEFAULT_255_1_234
10
23.917207
20
60.5241925
40
0.2513121
50
359.4454068
51
16.9256425
0
ARC
8
DEFAULT_255_1_234
10
23.9640881
20
60.5371033
40
0.2027071
50
17.292259
51
45.462717
0
ARC
8
DEFAULT_255_1_234
10
23.9586817
20
60.5324434
40
0.2098212
50
45.3028762
51
83.1921472
0
ARC
8
DEFAULT_255_1_234
10
23.9443501
20
60.4522895
40
0.2911472
50
82.2614531
51
90.143954
0
ARC
8
DEFAULT_255_1_234
10
23.9412621
20
60.475595
40
0.2678513
50
89.4959189
51
104.8579811
0
ARC
8
DEFAULT_255_1_234
10
23.923588
20
60.542589
40
0.1985654
50
104.8855873
51
135.2448349
0
ARC
8
DEFAULT_255_1_234
10
23.9285653
20
60.5381336
40
0.2052373
50
135.3398955
51
172.104394
0
ARC
8
DEFAULT_255_1_234
10
24.0092711
20
60.5226925
40
0.2873299
50
171.2651929
51
180.1859362
0
ARC
8
DEFAULT_255_1_234
10
23.9923412
20
60.5194733
40
0.2704083
50
179.515471
51
193.6466734
0
ARC
8
DEFAULT_255_1_234
10
23.9107181
20
60.4986777
40
0.1861855
50
193.3540587
51
225.8256931
0
ARC
8
DEFAULT_255_1_234
10
23.9147938
20
60.5057524
40
0.1941102
50
226.418029
51
255.8553723
0
ARC
8
DEFAULT_255_1_234
10
23.9404371
20
60.5993998
40
0.2911917
50
255.4655572
51
268.7985967
0
ARC
8
DEFAULT_255_1_234
10
23.9451563
20
60.6832491
40
0.3751331
50
268.3464808
51
270.0104874
0
ARC
8
DEFAULT_255_1_234
10
23.9474951
20
60.6148138
40
0.3067064
50
269.575914
51
282.0823146
0
ARC
8
DEFAULT_255_1_234
10
23.969986
20
60.5153803
40
0.2047712
50
281.7522535
51
306.6056425
0
ARC
8
DEFAULT_255_1_234
10
23.9798286
20
60.4992487
40
0.1859604
50
307.1350025
51
314.0277951
0
ARC
8
DEFAULT_255_1_234
10
23.976237
20
60.5018766
40
0.1903475
50
314.2553419
51
350.169324
0
ARC
8
DEFAULT_255_1_234
10
23.8910839
20
60.5203409
40
0.2774269
50
349.4145679
51
0.2930737
0
ARC
8
DEFAULT_255_1_234
10
23.9431272
20
61.0362353
40
0.2300764
50
89.477591
51
105.729794
0
ARC
8
DEFAULT_255_1_234
10
23.9295185
20
61.0867637
40
0.1777519
50
105.922966
51
135.1662921
0
ARC
8
DEFAULT_255_1_234
10
23.9315688
20
61.0853419
40
0.1802087
50
135.3053131
51
168.9882338
0
ARC
8
DEFAULT_255_1_234
10
24.014326
20
61.0663721
40
0.2650806
50
168.3802067
51
180.3602358
0
ARC
8
DEFAULT_255_1_234
10
23.991484
20
61.0626041
40
0.2422425
50
179.5029707
51
194.9126783
0
ARC
8
DEFAULT_255_1_234
10
23.9329501
20
61.047211
40
0.1817188
50
194.9722181
51
224.1943972
0
ARC
8
DEFAULT_255_1_234
10
23.9301368
20
61.0449169
40
0.1781027
50
224.2961434
51
262.0157375
0
ARC
8
DEFAULT_255_1_234
10
23.9443611
20
61.1180661
40
0.2525492
50
261.1250369
51
270.1959853
0
ARC
8
DEFAULT_255_1_234
10
23.9473366
20
61.0993339
40
0.233825
50
269.4825617
51
285.0988277
0
ARC
8
DEFAULT_255_1_234
10
23.9627525
20
61.041499
40
0.1739712
50
285.1585659
51
315.9484648
0
ARC
8
DEFAULT_255_1_234
10
23.9538537
20
61.0496886
40
0.1860616
50
316.0412958
51
351.9162715
0
ARC
8
DEFAULT_255_1_234
10
23.8805492
20
61.0638245
40
0.2606517
50
351.1056823
51
0.1936567
0
ARC
8
DEFAULT_255_1_234
10
23.9068321
20
61.0668369
40
0.234377
50
359.4789506
51
16.0679113
0
ARC
8
DEFAULT_255_1_234
10
23.954428
20
61.079681
40
0.1850875
50
16.3251951
51
44.791304
0
ARC
8
DEFAULT_255_1_234
10
23.9526561
20
61.0797339
40
0.186312
50
44.3958661
51
88.2498933
0
ARC
8
DEFAULT_255_1_234
10
23.9453115
20
61.0186154
40
0.2476868
50
86.9833827
51
90.0200148
0
LINE
8
DEFAULT_255_1_234
10
24.3355674
20
69.3098211
11
24.3355674
21
69.226291
0
LINE
8
DEFAULT_255_1_234
10
24.3355674
20
69.226291
11
23.8512536
21
68.1404
0
LINE
8
DEFAULT_255_1_234
10
23.8512536
20
68.1404
11
23.6954379
21
68.1404
0
LINE
8
DEFAULT_255_1_234
10
23.6954379
20
68.1404
11
24.1781454
21
69.1877387
0
LINE
8
DEFAULT_255_1_234
10
24.1781454
20
69.1877387
11
23.5452444
21
69.1877387
0
LINE
8
DEFAULT_255_1_234
10
23.5452444
20
69.1877387
11
23.5452444
21
69.3098211
0
LINE
8
DEFAULT_255_1_234
10
23.5452444
20
69.3098211
11
24.3355674
21
69.3098211
0
LINE
8
DEFAULT_255_1_234
10
24.1371835
20
77.2481243
11
24.1636882
21
77.2481243
0
LINE
8
DEFAULT_255_1_234
10
24.1636882
20
77.2481243
11
24.1636882
21
77.122026
0
LINE
8
DEFAULT_255_1_234
10
24.1636882
20
77.122026
11
24.1363803
21
77.122026
0
LINE
8
DEFAULT_255_1_234
10
23.5894189
20
76.5228583
11
23.5894189
21
76.5798836
0
LINE
8
DEFAULT_255_1_234
10
23.7388093
20
76.5606075
11
23.7388093
21
76.5059917
0
ARC
8
DEFAULT_255_1_234
10
24.1416151
20
76.6222455
40
0.4998079
50
90.6001036
51
104.514704
0
ARC
8
DEFAULT_255_1_234
10
24.1027667
20
76.7667131
40
0.3502176
50
104.2855254
51
133.862935
0
ARC
8
DEFAULT_255_1_234
10
24.1191424
20
76.755883
40
0.3693984
50
134.5302688
51
161.6210873
0
ARC
8
DEFAULT_255_1_234
10
24.2844613
20
76.6975895
40
0.5446739
50
161.2849839
51
174.2076652
0
ARC
8
DEFAULT_255_1_234
10
24.425155
20
76.6781787
40
0.6866274
50
173.7810589
51
174.9254635
0
ARC
8
DEFAULT_255_1_234
10
23.9701382
20
76.5398839
40
0.3033419
50
95.8330959
51
138.9954921
0
ARC
8
DEFAULT_255_1_234
10
23.9924738
20
76.4120375
40
0.4328947
50
89.8753725
51
97.0544009
0
ARC
8
DEFAULT_255_1_234
10
23.9972204
20
76.4955748
40
0.3493769
50
71.6407809
51
90.6240094
0
ARC
8
DEFAULT_255_1_234
10
24.0122777
20
76.5510082
40
0.2920396
50
39.6367836
51
71.019018
0
ARC
8
DEFAULT_255_1_234
10
23.948625
20
76.4959998
40
0.3761538
50
10.658731
51
39.9043955
0
ARC
8
DEFAULT_255_1_234
10
23.7938333
20
76.4623686
40
0.5345136
50
359.682601
51
11.132623
0
ARC
8
DEFAULT_255_1_234
10
23.7898464
20
76.455301
40
0.5385081
50
347.2486944
51
0.4369317
0
ARC
8
DEFAULT_255_1_234
10
23.9565941
20
76.4151807
40
0.3670249
50
318.1409698
51
347.6118597
0
ARC
8
DEFAULT_255_1_234
10
23.9890934
20
76.3884702
40
0.3250007
50
275.6342139
51
317.8248465
0
ARC
8
DEFAULT_255_1_234
10
23.9670045
20
76.5184219
40
0.4565864
50
269.8874292
51
276.7917694
0
ARC
8
DEFAULT_255_1_234
10
23.9615116
20
76.4158743
40
0.3540676
50
246.9140195
51
270.7437342
0
ARC
8
DEFAULT_255_1_234
10
23.9621506
20
76.4016384
40
0.3412781
50
218.1665114
51
245.878116
0
ARC
8
DEFAULT_255_1_234
10
24.0500967
20
76.4752279
40
0.455911
50
191.4115814
51
218.6077802
0
ARC
8
DEFAULT_255_1_234
10
24.2439056
20
76.5186833
40
0.6545001
50
179.6345085
51
191.7836486
0
ARC
8
DEFAULT_255_1_234
10
24.8021393
20
76.5865697
40
1.2127388
50
171.4525249
51
180.3158839
0
ARC
8
DEFAULT_255_1_234
10
24.3626269
20
76.6549608
40
0.7679464
50
157.9802646
51
171.6246686
0
ARC
8
DEFAULT_255_1_234
10
24.141229
20
76.7432421
40
0.5296008
50
141.4298019
51
157.854097
0
ARC
8
DEFAULT_255_1_234
10
24.077061
20
76.7886381
40
0.4511509
50
102.8715806
51
140.8564722
0
ARC
8
DEFAULT_255_1_234
10
24.1418226
20
76.5446552
40
0.7034845
50
90.3778349
51
103.5869322
0
ARC
8
DEFAULT_255_1_234
10
23.9680002
20
76.484173
40
0.2370698
50
89.8751008
51
126.2071704
0
ARC
8
DEFAULT_255_1_234
10
23.9725792
20
76.4687303
40
0.2522934
50
124.9745049
51
144.895901
0
ARC
8
DEFAULT_255_1_234
10
23.9549982
20
76.483056
40
0.2296779
50
145.2974905
51
160.2660252
0
ARC
8
DEFAULT_255_1_234
10
24.2622521
20
76.5028071
40
0.5234525
50
179.6514266
51
190.2855912
0
ARC
8
DEFAULT_255_1_234
10
24.0928658
20
76.4708786
40
0.3510893
50
190.0945431
51
207.5098196
0
ARC
8
DEFAULT_255_1_234
10
24.0362928
20
76.4439623
40
0.288489
50
207.9583163
51
216.3251085
0
ARC
8
DEFAULT_255_1_234
10
24.0023036
20
76.4160105
40
0.2445587
50
215.7661442
51
232.5456785
0
ARC
8
DEFAULT_255_1_234
10
23.9640019
20
76.3673482
40
0.1826382
50
232.8005391
51
270.6605633
0
ARC
8
DEFAULT_255_1_234
10
23.968572
20
76.4037612
40
0.2190529
50
269.35537
51
288.4744281
0
ARC
8
DEFAULT_255_1_234
10
23.9778617
20
76.3688118
40
0.1829749
50
289.1833337
51
322.9683818
0
ARC
8
DEFAULT_255_1_234
10
23.9167139
20
76.4170391
40
0.2608399
50
322.6007884
51
346.5182367
0
ARC
8
DEFAULT_255_1_234
10
23.8009735
20
76.4465616
40
0.3802777
50
346.2582162
51
358.7741648
0
ARC
8
DEFAULT_255_1_234
10
23.6991404
20
76.4520965
40
0.4822176
50
358.3755224
51
0.0098023
0
ARC
8
DEFAULT_255_1_234
10
23.7747591
20
76.4548657
40
0.4066078
50
359.6214041
51
11.2839074
0
ARC
8
DEFAULT_255_1_234
10
23.9024738
20
76.4815066
40
0.2761514
50
11.0482309
51
31.8146458
0
ARC
8
DEFAULT_255_1_234
10
23.9333781
20
76.4982584
40
0.2410679
50
32.3035391
51
38.082671
0
ARC
8
DEFAULT_255_1_234
10
23.9754441
20
76.5363662
40
0.1844966
50
36.825067
51
85.7415724
0
ARC
8
DEFAULT_255_1_234
10
23.9687274
20
76.4863301
40
0.2349122
50
85.0140713
51
90.0513278
0
LINE
8
DEFAULT_255_1_234
10
23.7677235
20
84.5711963
11
23.6488538
21
84.6017169
0
LINE
8
DEFAULT_255_1_234
10
23.6488538
20
84.6017169
11
23.7082887
21
85.1848211
0
LINE
8
DEFAULT_255_1_234
10
23.7082887
20
85.1848211
11
24.3074563
21
85.1848211
0
LINE
8
DEFAULT_255_1_234
10
24.3074563
20
85.1848211
11
24.3074563
21
85.0474784
0
LINE
8
DEFAULT_255_1_234
10
24.3074563
20
85.0474784
11
23.834387
21
85.0474784
0
LINE
8
DEFAULT_255_1_234
10
23.834387
20
85.0474784
11
23.7990473
21
84.7286184
0
LINE
8
DEFAULT_255_1_234
10
23.6070888
20
84.3230156
11
23.7476442
21
84.3230156
0
LINE
8
DEFAULT_255_1_234
10
23.8070791
20
84.6033232
11
23.7677235
21
84.5711963
0
ARC
8
DEFAULT_255_1_234
10
23.9845257
20
84.410623
40
0.3681349
50
93.7182161
51
120.2538958
0
ARC
8
DEFAULT_255_1_234
10
23.993952
20
84.3298394
40
0.449379
50
89.9660152
51
94.2496022
0
ARC
8
DEFAULT_255_1_234
10
23.9980254
20
84.3887549
40
0.390482
50
73.8043271
51
90.5585896
0
ARC
8
DEFAULT_255_1_234
10
24.0215151
20
84.4745602
40
0.3015334
50
41.3071453
51
73.5430202
0
ARC
8
DEFAULT_255_1_234
10
23.9798978
20
84.4387324
40
0.3564457
50
13.5075983
51
41.2174222
0
ARC
8
DEFAULT_255_1_234
10
23.8157182
20
84.3957486
40
0.5261351
50
1.1331335
51
13.8829381
0
ARC
8
DEFAULT_255_1_234
10
23.6745551
20
84.3881665
40
0.6674378
50
359.9919444
51
1.544251
0
ARC
8
DEFAULT_255_1_234
10
23.8022377
20
84.384028
40
0.5397702
50
347.8572367
51
0.4293338
0
ARC
8
DEFAULT_255_1_234
10
23.9772695
20
84.3443736
40
0.3603188
50
323.673004
51
348.1672506
0
ARC
8
DEFAULT_255_1_234
10
24.0067203
20
84.3264168
40
0.3259678
50
316.8171152
51
323.1492751
0
ARC
8
DEFAULT_255_1_234
10
24.0128392
20
84.322746
40
0.3189975
50
281.8396411
51
316.5457803
0
ARC
8
DEFAULT_255_1_234
10
23.9752656
20
84.4782762
40
0.4789527
50
269.5770101
51
282.4214771
0
ARC
8
DEFAULT_255_1_234
10
23.9681467
20
84.4569125
40
0.45759
50
256.2427136
51
270.4486331
0
ARC
8
DEFAULT_255_1_234
10
23.938237
20
84.3369229
40
0.3339303
50
228.9023911
51
256.3314342
0
ARC
8
DEFAULT_255_1_234
10
23.9308602
20
84.3252746
40
0.32031
50
193.753695
51
228.5271154
0
ARC
8
DEFAULT_255_1_234
10
24.0546556
20
84.36158
40
0.4492253
50
184.924711
51
194.497588
0
ARC
8
DEFAULT_255_1_234
10
24.0739123
20
84.3651591
40
0.3289787
50
187.3600538
51
198.6732863
0
ARC
8
DEFAULT_255_1_234
10
23.9689417
20
84.3287674
40
0.217884
50
198.4451669
51
217.794479
0
ARC
8
DEFAULT_255_1_234
10
23.9393592
20
84.3078085
40
0.1816698
50
218.2887171
51
228.5612368
0
ARC
8
DEFAULT_255_1_234
10
23.9491379
20
84.3209963
40
0.1980329
50
228.9654866
51
258.1234728
0
ARC
8
DEFAULT_255_1_234
10
23.9697089
20
84.4090833
40
0.2884748
50
257.7258293
51
270.401361
0
ARC
8
DEFAULT_255_1_234
10
23.9741975
20
84.3645821
40
0.2439788
50
269.4204404
51
286.4209037
0
ARC
8
DEFAULT_255_1_234
10
23.9890463
20
84.3106657
40
0.1880666
50
286.7251356
51
320.600362
0
ARC
8
DEFAULT_255_1_234
10
23.9507288
20
84.3417595
40
0.2374121
50
320.6712579
51
344.5441685
0
ARC
8
DEFAULT_255_1_234
10
23.8350614
20
84.3757045
40
0.3579479
50
344.2412205
51
356.7357071
0
ARC
8
DEFAULT_255_1_234
10
23.7101763
20
84.3860444
40
0.4832297
50
356.3548756
51
0.0500261
0
ARC
8
DEFAULT_255_1_234
10
23.8438272
20
84.389165
40
0.3495889
50
359.5576869
51
12.953486
0
ARC
8
DEFAULT_255_1_234
10
23.9493169
20
84.4147434
40
0.2410532
50
12.6490276
51
41.6081334
0
ARC
8
DEFAULT_255_1_234
10
23.972354
20
84.4343321
40
0.2108218
50
41.7850273
51
85.9892764
0
ARC
8
DEFAULT_255_1_234
10
23.9600277
20
84.3530462
40
0.2928454
50
84.6957577
51
90.0676183
0
ARC
8
DEFAULT_255_1_234
10
23.9576761
20
84.2861716
40
0.3597255
50
89.6804936
51
99.1614436
0
ARC
8
DEFAULT_255_1_234
10
23.9371392
20
84.4089131
40
0.235281
50
98.9830931
51
113.8908934
0
ARC
8
DEFAULT_255_1_234
10
23.9141802
20
84.4630587
40
0.176479
50
114.1950727
51
127.3641004
0
LINE
8
DEFAULT_255_1_234
10
23.9961628
20
93.1223211
11
23.9961628
21
92.345652
0
LINE
8
DEFAULT_255_1_234
10
23.9961628
20
92.345652
11
24.1584039
21
92.345652
0
LINE
8
DEFAULT_255_1_234
10
24.1584039
20
92.345652
11
24.1584039
21
92.2243728
0
LINE
8
DEFAULT_255_1_234
10
24.1584039
20
92.2243728
11
23.9961628
21
92.2243728
0
LINE
8
DEFAULT_255_1_234
10
23.9961628
20
92.2243728
11
23.9961628
21
91.9529
0
LINE
8
DEFAULT_255_1_234
10
23.9961628
20
91.9529
11
23.8467725
21
91.9529
0
LINE
8
DEFAULT_255_1_234
10
23.8467725
20
91.9529
11
23.8467725
21
92.2243728
0
LINE
8
DEFAULT_255_1_234
10
23.8467725
20
92.2243728
11
23.3142682
21
92.2243728
0
LINE
8
DEFAULT_255_1_234
10
23.3142682
20
92.2243728
11
23.3142682
21
92.3119187
0
LINE
8
DEFAULT_255_1_234
10
23.3142682
20
92.3119187
11
23.8379375
21
93.1223211
0
LINE
8
DEFAULT_255_1_234
10
23.8379375
20
93.1223211
11
23.9961628
21
93.1223211
0
LINE
8
DEFAULT_255_1_234
10
23.8291026
20
92.8869912
11
23.4829347
21
92.345652
0
LINE
8
DEFAULT_255_1_234
10
23.4829347
20
92.345652
11
23.8467725
21
92.345652
0
LINE
8
DEFAULT_255_1_234
10
23.8467725
20
92.345652
11
23.8467725
21
92.9191181
0
LINE
8
DEFAULT_255_1_234
10
23.8467725
20
92.9191181
11
23.8291026
21
92.8869912
0
LINE
8
DEFAULT_255_1_234
10
23.7966378
20
100.4261169
11
23.7966378
21
100.5473962
0
LINE
8
DEFAULT_255_1_234
10
23.7966378
20
100.5473962
11
23.908279
21
100.5473962
0
LINE
8
DEFAULT_255_1_234
10
23.7179268
20
100.7530087
11
23.5693396
21
100.7530087
0
LINE
8
DEFAULT_255_1_234
10
23.5588983
20
100.1988188
11
23.7082887
21
100.1988188
0
LINE
8
DEFAULT_255_1_234
10
23.908279
20
100.4261169
11
23.7966378
21
100.4261169
0
ARC
8
DEFAULT_255_1_234
10
23.9053656
20
100.8866713
40
0.3392876
50
270.4919872
51
281.8951556
0
ARC
8
DEFAULT_255_1_234
10
23.9294918
20
100.7764702
40
0.2264817
50
281.6691735
51
301.2943132
0
ARC
8
DEFAULT_255_1_234
10
23.9465128
20
100.7453304
40
0.1910381
50
301.7833094
51
311.7545298
0
ARC
8
DEFAULT_255_1_234
10
23.9556704
20
100.7351748
40
0.1773635
50
311.7323931
51
354.2802411
0
ARC
8
DEFAULT_255_1_234
10
23.8830329
20
100.7476722
40
0.2509385
50
353.0937916
51
0.1181479
0
ARC
8
DEFAULT_255_1_234
10
23.8369114
20
100.7524386
40
0.2970898
50
359.1805295
51
15.0453146
0
ARC
8
DEFAULT_255_1_234
10
23.9714951
20
100.7916992
40
0.1569564
50
13.9577229
51
77.6713066
0
ARC
8
DEFAULT_255_1_234
10
23.932848
20
100.6531949
40
0.3006298
50
76.1116566
51
90.7026153
0
ARC
8
DEFAULT_255_1_234
10
23.9269318
20
100.6805545
40
0.2732568
50
89.5324876
51
103.531937
0
ARC
8
DEFAULT_255_1_234
10
23.9068762
20
100.7604884
40
0.1908508
50
103.2931773
51
133.5619022
0
ARC
8
DEFAULT_255_1_234
10
23.9024251
20
100.7664375
40
0.1834746
50
133.8349307
51
173.5344437
0
ARC
8
DEFAULT_255_1_234
10
23.9747294
20
100.7536213
40
0.2568033
50
172.5096846
51
180.1366907
0
ARC
8
DEFAULT_255_1_234
10
23.8796188
20
100.7570622
40
0.3103056
50
155.3484492
51
180.7484736
0
ARC
8
DEFAULT_255_1_234
10
23.8747277
20
100.7541846
40
0.3070957
50
131.5744599
51
154.4798489
0
ARC
8
DEFAULT_255_1_234
10
23.9060424
20
100.722531
40
0.3515643
50
96.9875458
51
131.9690667
0
ARC
8
DEFAULT_255_1_234
10
23.9279904
20
100.5979636
40
0.4779224
50
89.8596053
51
97.7825159
0
ARC
8
DEFAULT_255_1_234
10
23.9327967
20
100.5717616
40
0.5041361
50
78.3655447
51
90.4131539
0
ARC
8
DEFAULT_255_1_234
10
23.9685885
20
100.7376887
40
0.3344039
50
56.6229102
51
78.638727
0
ARC
8
DEFAULT_255_1_234
10
23.9900829
20
100.7752805
40
0.2912001
50
47.0253525
51
56.0854072
0
ARC
8
DEFAULT_255_1_234
10
23.9920609
20
100.7792223
40
0.2869704
50
10.9208013
51
46.7778124
0
ARC
8
DEFAULT_255_1_234
10
23.8556675
20
100.7476857
40
0.426899
50
359.6364486
51
11.6087304
0
ARC
8
DEFAULT_255_1_234
10
24.0391519
20
100.7461752
40
0.243409
50
332.3549906
51
359.7179418
0
ARC
8
DEFAULT_255_1_234
10
23.9741121
20
100.7770142
40
0.3153459
50
325.2333722
51
332.8745602
0
ARC
8
DEFAULT_255_1_234
10
23.9893744
20
100.7663828
40
0.2967456
50
292.9802137
51
325.2392345
0
ARC
8
DEFAULT_255_1_234
10
23.9619118
20
100.8197863
40
0.3566604
50
292.5402179
51
293.6924929
0
ARC
8
DEFAULT_255_1_234
10
24.0011714
20
100.1743091
40
0.3307468
50
57.6435486
51
72.8625112
0
ARC
8
DEFAULT_255_1_234
10
24.0366214
20
100.2317549
40
0.2632492
50
36.7248896
51
57.4697979
0
ARC
8
DEFAULT_255_1_234
10
24.0354847
20
100.233022
40
0.2634081
50
8.0545065
51
36.356114
0
ARC
8
DEFAULT_255_1_234
10
23.9492032
20
100.2175174
40
0.3510261
50
359.8320645
51
8.5869982
0
ARC
8
DEFAULT_255_1_234
10
23.9116808
20
100.2127101
40
0.3885653
50
343.9829931
51
0.5571613
0
ARC
8
DEFAULT_255_1_234
10
24.0003005
20
100.1884438
40
0.2966924
50
311.6359546
51
343.7651759
0
ARC
8
DEFAULT_255_1_234
10
23.9624574
20
100.2311102
40
0.3537231
50
279.7829875
51
311.6255694
0
ARC
8
DEFAULT_255_1_234
10
23.9323351
20
100.374828
40
0.5004971
50
269.7286406
51
280.3856417
0
ARC
8
DEFAULT_255_1_234
10
23.9261423
20
100.3706996
40
0.4963778
50
256.6828919
51
270.4412052
0
ARC
8
DEFAULT_255_1_234
10
23.8922719
20
100.2322394
40
0.3538406
50
229.4223008
51
256.8556159
0
ARC
8
DEFAULT_255_1_234
10
23.8508112
20
100.1855736
40
0.2914296
50
181.818294
51
229.6455059
0
ARC
8
DEFAULT_255_1_234
10
23.9548068
20
100.1986496
40
0.3959084
50
179.9755256
51
183.2323064
0
ARC
8
DEFAULT_255_1_234
10
23.9375814
20
100.1966037
40
0.2293034
50
179.4465117
51
196.2869258
0
ARC
8
DEFAULT_255_1_234
10
23.8888222
20
100.1832651
40
0.1787621
50
196.5661473
51
227.705904
0
ARC
8
DEFAULT_255_1_234
10
23.9052317
20
100.2016155
40
0.2033784
50
227.7652068
51
257.8762805
0
ARC
8
DEFAULT_255_1_234
10
23.9277287
20
100.2959156
40
0.3003081
50
257.4584385
51
270.426602
0
ARC
8
DEFAULT_255_1_234
10
23.9322853
20
100.3248996
40
0.329292
50
269.5962073
51
280.8789248
0
ARC
8
DEFAULT_255_1_234
10
23.9552382
20
100.2102685
40
0.2123908
50
280.6346389
51
299.8595945
0
ARC
8
DEFAULT_255_1_234
10
23.9743289
20
100.1740212
40
0.171457
50
300.3576302
51
314.5517981
0
ARC
8
DEFAULT_255_1_234
10
23.9660349
20
100.1800919
40
0.1816095
50
315.0728369
51
345.0431014
0
ARC
8
DEFAULT_255_1_234
10
23.8737163
20
100.2069841
40
0.2777492
50
344.5986631
51
357.9269593
0
ARC
8
DEFAULT_255_1_234
10
23.7841489
20
100.2131276
40
0.3674917
50
357.4748886
51
0.0231117
0
ARC
8
DEFAULT_255_1_234
10
23.8864599
20
100.2155679
40
0.2651907
50
359.5047933
51
13.4239635
0
ARC
8
DEFAULT_255_1_234
10
23.9731242
20
100.2377478
40
0.1757509
50
12.9498199
51
48.7551375
0
ARC
8
DEFAULT_255_1_234
10
23.9548976
20
100.21284
40
0.2065134
50
49.5088623
51
72.1836453
0
ARC
8
DEFAULT_255_1_234
10
23.9191129
20
100.1066291
40
0.3185836
50
71.9010081
51
84.3554254
0
ARC
8
DEFAULT_255_1_234
10
23.9029761
20
99.9705326
40
0.4556151
50
84.0193428
51
89.333121
0
LINE
8
DEFAULT_255_1_234
10
24.3468119
20
107.9491792
11
24.3468119
21
107.8279
0
LINE
8
DEFAULT_255_1_234
10
24.3468119
20
107.8279
11
23.580584
21
107.8279
0
LINE
8
DEFAULT_255_1_234
10
23.580584
20
107.8279
11
23.580584
21
107.9347221
0
LINE
8
DEFAULT_255_1_234
10
23.580584
20
107.9347221
11
23.9853836
21
108.3844995
0
LINE
8
DEFAULT_255_1_234
10
23.7066823
20
108.6527595
11
23.5580952
21
108.6527595
0
LINE
8
DEFAULT_255_1_234
10
24.0729296
20
108.2889218
11
23.7596918
21
107.9491792
0
LINE
8
DEFAULT_255_1_234
10
23.7596918
20
107.9491792
11
24.3468119
21
107.9491792
0
ARC
8
DEFAULT_255_1_234
10
22.636367
20
109.5774527
40
1.8008286
50
318.5132453
51
320.7828378
0
ARC
8
DEFAULT_255_1_234
10
23.1650644
20
109.1471426
40
1.1191493
50
320.7372736
51
323.9737074
0
ARC
8
DEFAULT_255_1_234
10
23.5570501
20
108.8631361
40
0.6350923
50
323.8961724
51
328.6421089
0
ARC
8
DEFAULT_255_1_234
10
23.7617096
20
108.7369031
40
0.3946393
50
328.8299013
51
331.789948
0
ARC
8
DEFAULT_255_1_234
10
23.8614274
20
108.6854509
40
0.2824501
50
331.4255242
51
352.9364833
0
ARC
8
DEFAULT_255_1_234
10
23.8750775
20
108.6823976
40
0.2685315
50
353.2248685
51
0.0169286
0
ARC
8
DEFAULT_255_1_234
10
23.8960652
20
108.684695
40
0.2475536
50
359.4866256
51
15.9339782
0
ARC
8
DEFAULT_255_1_234
10
23.9467637
20
108.6983286
40
0.1950618
50
16.1714718
51
43.5284424
0
ARC
8
DEFAULT_255_1_234
10
23.9544946
20
108.7060573
40
0.184134
50
43.4415429
51
83.1661404
0
ARC
8
DEFAULT_255_1_234
10
23.9410864
20
108.6323771
40
0.258926
50
82.160215
51
90.1505798
0
ARC
8
DEFAULT_255_1_234
10
23.9379291
20
108.5786865
40
0.3126255
50
89.5460705
51
102.5418777
0
ARC
8
DEFAULT_255_1_234
10
23.9136377
20
108.6817665
40
0.2067346
50
102.1739365
51
129.2061916
0
ARC
8
DEFAULT_255_1_234
10
23.9057449
20
108.6942094
40
0.1921118
50
129.7279328
51
135.7542026
0
ARC
8
DEFAULT_255_1_234
10
23.9178977
20
108.6845045
40
0.2075944
50
136.175737
51
166.3674722
0
ARC
8
DEFAULT_255_1_234
10
24.0185896
20
108.6575182
40
0.3118201
50
165.9092917
51
178.8683903
0
ARC
8
DEFAULT_255_1_234
10
24.1050757
20
108.6528179
40
0.3983935
50
178.438168
51
180.0083905
0
ARC
8
DEFAULT_255_1_234
10
23.9649359
20
108.6567231
40
0.4068601
50
163.2878735
51
180.5581814
0
ARC
8
DEFAULT_255_1_234
10
23.8847621
20
108.678784
40
0.3237344
50
133.454115
51
162.9470031
0
ARC
8
DEFAULT_255_1_234
10
23.9026162
20
108.6598
40
0.349795
50
100.7869394
51
133.4384016
0
ARC
8
DEFAULT_255_1_234
10
23.9373934
20
108.5049319
40
0.5084616
50
89.6605301
51
101.3704185
0
ARC
8
DEFAULT_255_1_234
10
23.9440273
20
108.5110496
40
0.502348
50
78.2171172
51
90.4130393
0
ARC
8
DEFAULT_255_1_234
10
23.9795351
20
108.6734637
40
0.3361092
50
55.9268222
51
78.4888551
0
ARC
8
DEFAULT_255_1_234
10
23.9991791
20
108.7073324
40
0.2970617
50
47.9292255
51
55.4054003
0
ARC
8
DEFAULT_255_1_234
10
24.0093352
20
108.7176502
40
0.2825983
50
4.3347696
51
48.0560701
0
ARC
8
DEFAULT_255_1_234
10
23.8997745
20
108.7006601
40
0.393225
50
359.925209
51
5.5967654
0
ARC
8
DEFAULT_255_1_234
10
23.9426637
20
108.7062816
40
0.3503892
50
337.8914096
51
358.9967724
0
ARC
8
DEFAULT_255_1_234
10
23.6713049
20
108.8109706
40
0.6412172
50
326.9135351
51
338.3505194
0
ARC
8
DEFAULT_255_1_234
10
23.2727353
20
109.0664284
40
1.1146189
50
319.6472867
51
327.095818
0
ARC
8
DEFAULT_255_1_234
10
22.8894356
20
109.3826
40
1.6114559
50
317.2586784
51
319.9046139
0
LINE
8
DEFAULT_255_1_234
10
24.0771137
20
116.9404433
11
24.0771137
21
115.7654
0
LINE
8
DEFAULT_255_1_234
10
24.0771137
20
115.7654
11
23.9277234
21
115.7654
0
LINE
8
DEFAULT_255_1_234
10
23.9277234
20
115.7654
11
23.9277234
21
116.7557133
0
LINE
8
DEFAULT_255_1_234
10
23.9277234
20
116.7557133
11
23.6281396
21
116.6456785
0
LINE
8
DEFAULT_255_1_234
10
23.6281396
20
116.6456785
11
23.6281396
21
116.7806117
0
LINE
8
DEFAULT_255_1_234
10
23.6281396
20
116.7806117
11
24.0538217
21
116.9404433
0
LINE
8
DEFAULT_255_1_234
10
24.0538217
20
116.9404433
11
24.0771137
21
116.9404433
0
LINE
8
DEFAULT_255_1_234
10
24.3138817
20
124.3944327
11
24.3138817
21
124.2016709
0
LINE
8
DEFAULT_255_1_234
10
23.575765
20
124.1815916
11
23.575765
21
124.3799755
0
LINE
8
DEFAULT_255_1_234
10
24.1652946
20
124.1615123
11
24.1652946
21
124.4048739
0
LINE
8
DEFAULT_255_1_234
10
23.7243521
20
124.4161184
11
23.7243521
21
124.1783789
0
ARC
8
DEFAULT_255_1_234
10
23.0891707
20
124.1967805
40
1.2247208
50
353.8441951
51
0.2287902
0
ARC
8
DEFAULT_255_1_234
10
23.5531211
20
124.1449806
40
0.7578929
50
344.4934747
51
353.9765454
0
ARC
8
DEFAULT_255_1_234
10
23.8523801
20
124.0598981
40
0.4467846
50
329.2803592
51
344.7472793
0
ARC
8
DEFAULT_255_1_234
10
23.9516626
20
124.0054018
40
0.3336173
50
324.9352394
51
328.6160465
0
ARC
8
DEFAULT_255_1_234
10
23.9893734
20
123.9790427
40
0.2876076
50
280.580143
51
324.9173126
0
ARC
8
DEFAULT_255_1_234
10
23.9492527
20
124.1461099
40
0.4592847
50
269.5977311
51
281.6734359
0
ARC
8
DEFAULT_255_1_234
10
23.9420433
20
124.1341173
40
0.4472986
50
256.6228859
51
270.51044
0
ARC
8
DEFAULT_255_1_234
10
23.901841
20
123.9792877
40
0.2873874
50
215.8618325
51
257.2788573
0
ARC
8
DEFAULT_255_1_234
10
24.0039442
20
124.0477977
40
0.4102928
50
197.9693508
51
215.2623606
0
ARC
8
DEFAULT_255_1_234
10
24.2524558
20
124.1316709
40
0.6725652
50
187.8816417
51
198.2346507
0
ARC
8
DEFAULT_255_1_234
10
24.6482766
20
124.1888079
40
1.0724845
50
180.8976217
51
188.0055519
0
ARC
8
DEFAULT_255_1_234
10
24.9282954
20
124.1991777
40
1.3526448
50
180.7449369
51
181.1510016
0
ARC
8
DEFAULT_255_1_234
10
24.7705683
20
124.3848042
40
1.1948131
50
173.7675579
51
180.231553
0
ARC
8
DEFAULT_255_1_234
10
24.318783
20
124.4358666
40
0.7401564
50
164.3058563
51
173.9002247
0
ARC
8
DEFAULT_255_1_234
10
24.0275899
20
124.5197656
40
0.4371288
50
148.7922025
51
164.568378
0
ARC
8
DEFAULT_255_1_234
10
23.9324351
20
124.5728929
40
0.3282386
50
144.5883898
51
148.1176286
0
ARC
8
DEFAULT_255_1_234
10
23.8981249
20
124.5968315
40
0.2864044
50
101.6440918
51
144.514236
0
ARC
8
DEFAULT_255_1_234
10
23.9406315
20
124.4279069
40
0.4604934
50
89.5284041
51
102.5819763
0
ARC
8
DEFAULT_255_1_234
10
23.9485403
20
124.4240018
40
0.464401
50
77.0437873
51
90.5081339
0
ARC
8
DEFAULT_255_1_234
10
23.9887405
20
124.5882615
40
0.2953195
50
48.2778575
51
77.4994676
0
ARC
8
DEFAULT_255_1_234
10
23.9960036
20
124.6011746
40
0.2808655
50
36.3142134
51
47.6305865
0
ARC
8
DEFAULT_255_1_234
10
23.9091343
20
124.5426515
40
0.3855453
50
18.2931786
51
35.6769206
0
ARC
8
DEFAULT_255_1_234
10
23.6548102
20
124.4553593
40
0.654423
50
8.024666
51
18.5605216
0
ARC
8
DEFAULT_255_1_234
10
23.2385022
20
124.3938792
40
1.0752407
50
1.1274072
51
8.1718305
0
ARC
8
DEFAULT_255_1_234
10
22.9149213
20
124.3811885
40
1.3990231
50
0.5424119
51
1.3863029
0
ARC
8
DEFAULT_255_1_234
10
23.097059
20
124.4084342
40
1.0682415
50
359.8090433
51
4.9407866
0
ARC
8
DEFAULT_255_1_234
10
23.5180604
20
124.4460113
40
0.6455691
50
4.8362157
51
12.2904523
0
ARC
8
DEFAULT_255_1_234
10
23.7935719
20
124.5073965
40
0.3633074
50
12.0805627
51
23.8173984
0
ARC
8
DEFAULT_255_1_234
10
23.9109425
20
124.5570919
40
0.2358723
50
24.2871213
51
31.3935614
0
ARC
8
DEFAULT_255_1_234
10
23.9634122
20
124.5914233
40
0.1732111
50
30.7407893
51
82.4657128
0
ARC
8
DEFAULT_255_1_234
10
23.9454256
20
124.5030691
40
0.263235
50
81.1060089
51
90.2184952
0
ARC
8
DEFAULT_255_1_234
10
23.9418555
20
124.5288924
40
0.2374236
50
89.3806855
51
105.6762551
0
ARC
8
DEFAULT_255_1_234
10
23.9235186
20
124.5955567
40
0.1682847
50
105.7981136
51
149.7388061
0
ARC
8
DEFAULT_255_1_234
10
24.0299264
20
124.531595
40
0.2924306
50
149.4208916
51
163.6286378
0
ARC
8
DEFAULT_255_1_234
10
24.2390152
20
124.467825
40
0.5110213
50
163.3763315
51
172.1410975
0
ARC
8
DEFAULT_255_1_234
10
24.5690871
20
124.4205518
40
0.8444586
50
172.0259487
51
178.0703232
0
ARC
8
DEFAULT_255_1_234
10
24.872096
20
124.4061906
40
1.1477868
50
177.8631668
51
179.5044149
0
ARC
8
DEFAULT_255_1_234
10
24.7648365
20
124.1747389
40
1.0404907
50
179.7995573
51
185.2460446
0
ARC
8
DEFAULT_255_1_234
10
24.3605404
20
124.1364513
40
0.6343885
50
185.1411642
51
193.0079639
0
ARC
8
DEFAULT_255_1_234
10
24.0961877
20
124.0739641
40
0.3627568
50
192.7897626
51
205.2507664
0
ARC
8
DEFAULT_255_1_234
10
23.9915424
20
124.0272415
40
0.2481908
50
205.8005384
51
211.2537509
0
ARC
8
DEFAULT_255_1_234
10
23.9391864
20
123.992158
40
0.1852521
50
210.3789793
51
238.4008143
0
ARC
8
DEFAULT_255_1_234
10
23.9372386
20
123.9968376
40
0.1882621
50
239.6520629
51
265.9793761
0
ARC
8
DEFAULT_255_1_234
10
23.9457586
20
124.0640427
40
0.2559272
50
265.1315437
51
270.060332
0
ARC
8
DEFAULT_255_1_234
10
23.9486365
20
124.0316534
40
0.2235528
50
269.3314664
51
287.2178029
0
ARC
8
DEFAULT_255_1_234
10
23.9624217
20
123.9813279
40
0.1714108
50
287.7958004
51
329.080874
0
ARC
8
DEFAULT_255_1_234
10
23.8666674
20
124.041093
40
0.2842745
50
328.6634704
51
343.3325132
0
ARC
8
DEFAULT_255_1_234
10
23.6493694
20
124.1087863
40
0.5118644
50
343.0499468
51
351.9393422
0
ARC
8
DEFAULT_255_1_234
10
23.3026994
20
124.1598949
40
0.8622784
50
351.8069023
51
357.7959224
0
ARC
8
DEFAULT_255_1_234
10
22.979155
20
124.1766721
40
1.1862365
50
357.5871873
51
359.2677531
0
ENDSEC
0
EOF