0
SECTION
2
HEADER
9
$MEASUREMENT
70
1
0
ENDSEC
0
SECTION
2
TABLES
0
TABLE
2
LTYPE
0
LTYPE
72
65
70
64
2
CONTINUOUS
3
______
73
0
40
0
0
ENDTAB
0
TABLE
2
LAYER
0
LAYER
2
DEFAULT_255_2_778
70
0
62
255
6
CONTINUOUS
0
LAYER
2
DEFAULT_255_1_388
70
0
62
255
6
CONTINUOUS
0
LAYER
2
DEFAULT_255_2_778_1
70
0
62
255
6
CONTINUOUS
0
ENDTAB
0
ENDSEC
0
SECTION
2
ENTITIES
0
ARC
8
DEFAULT_255_2_778
10
3.5700693
20
75.805203
40
0.7914215
50
129.1312896
51
180.1450914
0
ARC
8
DEFAULT_255_2_778
10
3.5703345
20
75.8056901
40
0.7912112
50
89.854026
51
129.1684493
0
ARC
8
DEFAULT_255_2_778
10
25.7993937
20
75.8053767
40
0.7915249
50
39.4792447
51
90.147911
0
ARC
8
DEFAULT_255_2_778
10
25.7999935
20
75.8052233
40
0.7911595
50
359.8533901
51
39.5154338
0
ARC
8
DEFAULT_255_2_778
10
25.7996693
20
-1.9863492
40
0.7914836
50
309.4761667
51
0.1482649
0
ARC
8
DEFAULT_255_2_778
10
25.799398
20
-1.9867803
40
0.7913235
50
269.8517415
51
309.511178
0
ARC
8
DEFAULT_255_2_778
10
3.570342
20
-1.9867221
40
0.7913815
50
219.1282118
51
270.1454017
0
ARC
8
DEFAULT_255_2_778
10
3.5700247
20
-1.9863397
40
0.7913769
50
179.8524075
51
219.1641908
0
LINE
8
DEFAULT_255_2_778
10
3.5723503
20
76.5968989
11
25.7973503
21
76.5968989
0
LINE
8
DEFAULT_255_2_778
10
26.5911503
20
75.8031989
11
26.5911503
21
-1.9843011
0
LINE
8
DEFAULT_255_2_778
10
25.7973503
20
-2.7781011
11
3.5723503
21
-2.7781011
0
LINE
8
DEFAULT_255_2_778
10
2.7786503
20
-1.9843011
11
2.7786503
21
75.8031989
0
LINE
8
DEFAULT_255_1_388
10
10.3649882
20
0.6757898
11
10.3649882
21
0.5330267
0
LINE
8
DEFAULT_255_1_388
10
10.3649882
20
0.5330267
11
9.9421201
21
0.5330267
0
LINE
8
DEFAULT_255_1_388
10
9.9421201
20
0.5330267
11
9.9421201
21
-0.6398
0
LINE
8
DEFAULT_255_1_388
10
9.9421201
20
-0.6398
11
9.7695393
21
-0.6398
0
LINE
8
DEFAULT_255_1_388
10
9.7695393
20
-0.6398
11
9.7695393
21
0.5330267
0
LINE
8
DEFAULT_255_1_388
10
9.7695393
20
0.5330267
11
9.3475747
21
0.5330267
0
LINE
8
DEFAULT_255_1_388
10
9.3475747
20
0.5330267
11
9.3475747
21
0.6757898
0
LINE
8
DEFAULT_255_1_388
10
9.3475747
20
0.6757898
11
10.3649882
21
0.6757898
0
LINE
8
DEFAULT_255_1_388
10
11.0661542
20
0.6821148
11
11.0661542
21
-0.6398
0
LINE
8
DEFAULT_255_1_388
10
11.0661542
20
-0.6398
11
10.8980913
21
-0.6398
0
LINE
8
DEFAULT_255_1_388
10
10.8980913
20
-0.6398
11
10.8980913
21
0.474295
0
LINE
8
DEFAULT_255_1_388
10
10.8980913
20
0.474295
11
10.5610617
21
0.3505066
0
LINE
8
DEFAULT_255_1_388
10
10.5610617
20
0.3505066
11
10.5610617
21
0.5023055
0
LINE
8
DEFAULT_255_1_388
10
10.5610617
20
0.5023055
11
11.0399509
21
0.6821148
0
LINE
8
DEFAULT_255_1_388
10
11.0399509
20
0.6821148
11
11.0661542
21
0.6821148
0
LINE
8
DEFAULT_255_1_388
10
12.3248195
20
0.0830516
11
12.3248195
21
-0.0588081
0
LINE
8
DEFAULT_255_1_388
10
12.3248195
20
-0.0588081
11
11.7727417
21
-0.0588081
0
LINE
8
DEFAULT_255_1_388
10
11.7727417
20
-0.0588081
11
11.7727417
21
-0.6398
0
LINE
8
DEFAULT_255_1_388
10
11.7727417
20
-0.6398
11
11.5992573
21
-0.6398
0
LINE
8
DEFAULT_255_1_388
10
11.5992573
20
-0.6398
11
11.5992573
21
0.6757898
0
LINE
8
DEFAULT_255_1_388
10
11.5992573
20
0.6757898
11
12.4142724
21
0.6757898
0
LINE
8
DEFAULT_255_1_388
10
12.4142724
20
0.6757898
11
12.4142724
21
0.5330267
0
LINE
8
DEFAULT_255_1_388
10
12.4142724
20
0.5330267
11
11.7727417
21
0.5330267
0
LINE
8
DEFAULT_255_1_388
10
11.7727417
20
0.5330267
11
11.7727417
21
0.0830516
0
LINE
8
DEFAULT_255_1_388
10
11.7727417
20
0.0830516
11
12.3248195
21
0.0830516
0
LINE
8
DEFAULT_255_1_388
10
12.9437612
20
-0.0127263
11
12.9437612
21
-0.1491645
0
LINE
8
DEFAULT_255_1_388
10
12.9437612
20
-0.1491645
11
12.5028217
21
-0.1491645
0
LINE
8
DEFAULT_255_1_388
10
12.5028217
20
-0.1491645
11
12.5028217
21
-0.0127263
0
LINE
8
DEFAULT_255_1_388
10
12.5028217
20
-0.0127263
11
12.9437612
21
-0.0127263
0
LINE
8
DEFAULT_255_1_388
10
13.9141894
20
0.138169
11
13.9141894
21
-0.0786865
0
LINE
8
DEFAULT_255_1_388
10
13.0838137
20
-0.1012756
11
13.0838137
21
0.1219048
0
LINE
8
DEFAULT_255_1_388
10
13.74703
20
-0.1238647
11
13.74703
21
0.1499153
0
LINE
8
DEFAULT_255_1_388
10
13.2509731
20
0.1625652
11
13.2509731
21
-0.1048898
0
ARC
8
DEFAULT_255_1_388
10
12.5364228
20
-0.0841882
40
1.3777776
50
353.8440855
51
0.2287917
0
ARC
8
DEFAULT_255_1_388
10
13.0583245
20
-0.1424586
40
0.852639
50
344.4934746
51
353.9763743
0
ARC
8
DEFAULT_255_1_388
10
13.3950053
20
-0.2381809
40
0.5026273
50
329.2803599
51
344.7473406
0
ARC
8
DEFAULT_255_1_388
10
13.5065548
20
-0.2993962
40
0.3754848
50
324.9361395
51
328.6153007
0
ARC
8
DEFAULT_255_1_388
10
13.5491198
20
-0.3291414
40
0.3235566
50
280.5801797
51
324.9173226
0
ARC
8
DEFAULT_255_1_388
10
13.5039827
20
-0.1411764
40
0.5167077
50
269.5979457
51
281.6732777
0
ARC
8
DEFAULT_255_1_388
10
13.495873
20
-0.1546887
40
0.5032026
50
256.6228565
51
270.5105488
0
ARC
8
DEFAULT_255_1_388
10
13.4506473
20
-0.3288655
40
0.3233092
50
215.8618351
51
257.2787793
0
ARC
8
DEFAULT_255_1_388
10
13.565518
20
-0.2517894
40
0.4615831
50
197.9695203
51
215.2622745
0
ARC
8
DEFAULT_255_1_388
10
13.8450856
20
-0.1574359
40
0.7566307
50
187.8816486
51
198.2346584
0
ARC
8
DEFAULT_255_1_388
10
14.2904094
20
-0.0931547
40
1.2065653
50
180.8977266
51
188.0054894
0
ARC
8
DEFAULT_255_1_388
10
14.5954308
20
-0.08166
40
1.5117443
50
180.7434591
51
181.152202
0
ARC
8
DEFAULT_255_1_388
10
14.4279304
20
0.1273371
40
1.3441277
50
173.7674302
51
180.2315596
0
ARC
8
DEFAULT_255_1_388
10
13.9197172
20
0.1847779
40
0.8326847
50
164.3058537
51
173.9000553
0
ARC
8
DEFAULT_255_1_388
10
13.5921172
20
0.2791652
40
0.4917711
50
148.7922028
51
164.5682288
0
ARC
8
DEFAULT_255_1_388
10
13.485191
20
0.3388457
40
0.3694204
50
144.5883979
51
148.1161588
0
ARC
8
DEFAULT_255_1_388
10
13.4464655
20
0.3658667
40
0.322202
50
101.6440149
51
144.5142619
0
ARC
8
DEFAULT_255_1_388
10
13.4942847
20
0.1758337
40
0.5180451
50
89.528284
51
102.5820197
0
ARC
8
DEFAULT_255_1_388
10
13.5031839
20
0.1714376
40
0.5224441
50
77.0437914
51
90.508231
0
ARC
8
DEFAULT_255_1_388
10
13.5484093
20
0.3562272
40
0.3322297
50
48.2777708
51
77.4996087
0
ARC
8
DEFAULT_255_1_388
10
13.5565833
20
0.3707557
40
0.315966
50
36.3141586
51
47.6307332
0
ARC
8
DEFAULT_255_1_388
10
13.4588555
20
0.3049159
40
0.4337313
50
18.2931065
51
35.6770203
0
ARC
8
DEFAULT_255_1_388
10
13.1727396
20
0.2067107
40
0.7362203
50
8.0246996
51
18.5605636
0
ARC
8
DEFAULT_255_1_388
10
12.7043751
20
0.1375432
40
1.2096583
50
1.127539
51
8.1718423
0
ARC
8
DEFAULT_255_1_388
10
12.3394885
20
0.1232374
40
1.5747719
50
0.5432713
51
1.38669
0
ARC
8
DEFAULT_255_1_388
10
12.5452264
20
0.1539163
40
1.2018103
50
359.8092569
51
4.9408001
0
ARC
8
DEFAULT_255_1_388
10
13.0188845
20
0.19619
40
0.7262727
50
4.8364937
51
12.2906017
0
ARC
8
DEFAULT_255_1_388
10
13.328831
20
0.2652485
40
0.4087324
50
12.0806994
51
23.8171225
0
ARC
8
DEFAULT_255_1_388
10
13.4608706
20
0.3211508
40
0.2653719
50
24.2874621
51
31.3934353
0
ARC
8
DEFAULT_255_1_388
10
13.5199142
20
0.3597822
40
0.1948607
50
30.7407708
51
82.4658033
0
ARC
8
DEFAULT_255_1_388
10
13.4996802
20
0.2604017
40
0.2961198
50
81.1057101
51
90.2187368
0
ARC
8
DEFAULT_255_1_388
10
13.4956614
20
0.2894421
40
0.2670929
50
89.380395
51
105.6763916
0
ARC
8
DEFAULT_255_1_388
10
13.4750336
20
0.364432
40
0.1893189
50
105.7980655
51
149.7387869
0
ARC
8
DEFAULT_255_1_388
10
13.5947476
20
0.2924719
40
0.3289892
50
149.4208441
51
163.628295
0
ARC
8
DEFAULT_255_1_388
10
13.8299706
20
0.2207345
40
0.5749004
50
163.3764549
51
172.141138
0
ARC
8
DEFAULT_255_1_388
10
14.2012427
20
0.1675582
40
0.9499585
50
172.0258462
51
178.0705453
0
ARC
8
DEFAULT_255_1_388
10
14.543398
20
0.1513682
40
1.2924734
50
177.8639301
51
179.5036263
0
ARC
8
DEFAULT_255_1_388
10
14.4214999
20
-0.1089849
40
1.170534
50
179.7995545
51
185.246089
0
ARC
8
DEFAULT_255_1_388
10
13.9666592
20
-0.1520596
40
0.7136613
50
185.1411911
51
193.0082205
0
ARC
8
DEFAULT_255_1_388
10
13.6692853
20
-0.2223559
40
0.4080987
50
192.7897338
51
205.2507384
0
ARC
8
DEFAULT_255_1_388
10
13.5515063
20
-0.2749462
40
0.2791522
50
205.8001921
51
211.2545876
0
ARC
8
DEFAULT_255_1_388
10
13.4926602
20
-0.3143868
40
0.2084074
50
210.3789935
51
238.4007996
0
ARC
8
DEFAULT_255_1_388
10
13.4904688
20
-0.3091214
40
0.2117943
50
239.6521916
51
265.9793852
0
ARC
8
DEFAULT_255_1_388
10
13.5000537
20
-0.2334642
40
0.2879689
50
265.1324455
51
270.0603288
0
ARC
8
DEFAULT_255_1_388
10
13.5032914
20
-0.2699582
40
0.2514919
50
269.3314378
51
287.2180039
0
ARC
8
DEFAULT_255_1_388
10
13.5187996
20
-0.3265709
40
0.1928357
50
287.7957942
51
329.0808983
0
ARC
8
DEFAULT_255_1_388
10
13.4110753
20
-0.2593349
40
0.319808
50
328.6635261
51
343.3325043
0
ARC
8
DEFAULT_255_1_388
10
13.1666212
20
-0.1831805
40
0.5758408
50
343.0498092
51
351.9392499
0
ARC
8
DEFAULT_255_1_388
10
12.7765533
20
-0.1256795
40
0.9701202
50
351.8071632
51
357.7957897
0
ARC
8
DEFAULT_255_1_388
10
12.413101
20
-0.1068276
40
1.3340376
50
357.5870923
51
359.2682493
0
ARC
8
DEFAULT_255_1_388
10
14.6086847
20
0.329572
40
0.3175098
50
338.8762533
51
0.5167111
0
ARC
8
DEFAULT_255_1_388
10
14.6276441
20
0.32446
40
0.2979894
50
325.8415285
51
338.4793574
0
ARC
8
DEFAULT_255_1_388
10
14.5837075
20
0.3549242
40
0.351452
50
296.7587686
51
325.7536481
0
ARC
8
DEFAULT_255_1_388
10
14.5508702
20
0.4103363
40
0.4157374
50
296.0927901
51
297.3613472
0
ARC
8
DEFAULT_255_1_388
10
14.5802898
20
-0.3279407
40
0.395855
50
47.9007294
51
67.1948823
0
ARC
8
DEFAULT_255_1_388
10
14.602354
20
-0.3002401
40
0.360516
50
35.2363914
51
47.551141
0
ARC
8
DEFAULT_255_1_388
10
14.6317944
20
-0.2805907
40
0.3251343
50
359.2759765
51
35.4014143
0
ARC
8
DEFAULT_255_1_388
10
14.547987
20
-0.2888213
40
0.4089365
50
343.1293083
51
0.5775513
0
ARC
8
DEFAULT_255_1_388
10
14.6294983
20
-0.3112664
40
0.3244269
50
310.8496669
51
342.7449331
0
ARC
8
DEFAULT_255_1_388
10
14.5824858
20
-0.2576087
40
0.3957651
50
281.5472888
51
310.9170406
0
ARC
8
DEFAULT_255_1_388
10
14.5423733
20
-0.0829186
40
0.5749654
50
269.619248
51
281.9789564
0
ARC
8
DEFAULT_255_1_388
10
14.534251
20
-0.0828224
40
0.5750649
50
257.4585678
51
270.4285689
0
ARC
8
DEFAULT_255_1_388
10
14.4914031
20
-0.2632259
40
0.389671
50
228.7554326
51
257.8484789
0
ARC
8
DEFAULT_255_1_388
10
14.4565516
20
-0.3051772
40
0.335154
50
184.0104975
51
228.5071184
0
ARC
8
DEFAULT_255_1_388
10
14.5873908
20
-0.285257
40
0.4671891
50
179.9315832
51
185.3253753
0
ARC
8
DEFAULT_255_1_388
10
14.4550421
20
-0.2810408
40
0.33486
50
145.6796023
51
180.6259786
0
ARC
8
DEFAULT_255_1_388
10
14.4734187
20
-0.2938729
40
0.3572723
50
115.5537685
51
145.6415986
0
ARC
8
DEFAULT_255_1_388
10
14.5117231
20
-0.3624913
40
0.4357296
50
113.243307
51
116.2057839
0
ARC
8
DEFAULT_255_1_388
10
14.4945883
20
0.3572379
40
0.3549126
50
222.9549744
51
244.1370481
0
ARC
8
DEFAULT_255_1_388
10
14.4808526
20
0.3418378
40
0.3343711
50
213.3436887
51
222.6274467
0
ARC
8
DEFAULT_255_1_388
10
14.4592595
20
0.3271653
40
0.3082678
50
180.431584
51
213.271499
0
ARC
8
DEFAULT_255_1_388
10
14.5227594
20
0.3324296
40
0.3718363
50
179.9991191
51
181.1690594
0
ARC
8
DEFAULT_255_1_388
10
14.570005
20
0.3363072
40
0.4190996
50
164.6186169
51
180.529336
0
ARC
8
DEFAULT_255_1_388
10
14.4689699
20
0.363478
40
0.3144772
50
132.2455553
51
164.5090724
0
ARC
8
DEFAULT_255_1_388
10
14.5012678
20
0.326907
40
0.3632644
50
100.7053914
51
132.1386381
0
ARC
8
DEFAULT_255_1_388
10
14.5355739
20
0.1719118
40
0.5219578
50
89.6730358
51
101.2451698
0
ARC
8
DEFAULT_255_1_388
10
14.542573
20
0.1915648
40
0.5023124
50
76.287748
51
90.4586006
0
ARC
8
DEFAULT_255_1_388
10
14.5770232
20
0.3290671
40
0.3605639
50
47.8240511
51
76.4266241
0
ARC
8
DEFAULT_255_1_388
10
14.6020616
20
0.3583599
40
0.3220463
50
6.9168387
51
47.6262497
0
ARC
8
DEFAULT_255_1_388
10
14.4686069
20
0.3337004
40
0.4575765
50
359.8415968
51
7.9697453
0
ARC
8
DEFAULT_255_1_388
10
14.5070338
20
-0.2783481
40
0.2827228
50
359.445363
51
16.9256873
0
ARC
8
DEFAULT_255_1_388
10
14.5597772
20
-0.2638219
40
0.2280396
50
17.2920767
51
45.4630727
0
ARC
8
DEFAULT_255_1_388
10
14.5536908
20
-0.2690676
40
0.2360485
50
45.30305
51
83.1920945
0
ARC
8
DEFAULT_255_1_388
10
14.5375653
20
-0.3592527
40
0.3275527
50
82.2612665
51
90.1434275
0
ARC
8
DEFAULT_255_1_388
10
14.5340929
20
-0.3330131
40
0.3013237
50
89.4956434
51
104.8580688
0
ARC
8
DEFAULT_255_1_388
10
14.5142119
20
-0.2576545
40
0.2233867
50
104.8856641
51
135.244616
0
ARC
8
DEFAULT_255_1_388
10
14.5198108
20
-0.2626648
40
0.2308906
50
135.3399546
51
172.1044062
0
ARC
8
DEFAULT_255_1_388
10
14.6105632
20
-0.2800333
40
0.3232034
50
171.2645637
51
180.186429
0
ARC
8
DEFAULT_255_1_388
10
14.5915637
20
-0.2836574
40
0.304213
50
179.5154935
51
193.6464289
0
ARC
8
DEFAULT_255_1_388
10
14.4997313
20
-0.3070527
40
0.209456
50
193.3540274
51
225.8258581
0
ARC
8
DEFAULT_255_1_388
10
14.5043185
20
-0.2990924
40
0.2183738
50
226.4180634
51
255.8552336
0
ARC
8
DEFAULT_255_1_388
10
14.5331651
20
-0.1937479
40
0.3275812
50
255.4654104
51
268.7987425
0
ARC
8
DEFAULT_255_1_388
10
14.5384828
20
-0.0995455
40
0.4218877
50
268.3449238
51
270.0094605
0
ARC
8
DEFAULT_255_1_388
10
14.5411061
20
-0.1763906
40
0.3450519
50
269.5759586
51
282.0820163
0
ARC
8
DEFAULT_255_1_388
10
14.5664098
20
-0.2882637
40
0.2303642
50
281.752014
51
306.6056188
0
ARC
8
DEFAULT_255_1_388
10
14.5774906
20
-0.3064198
40
0.2091906
50
307.1346085
51
314.027845
0
ARC
8
DEFAULT_255_1_388
10
14.5734417
20
-0.3034541
40
0.2141385
50
314.2552483
51
350.1694025
0
ARC
8
DEFAULT_255_1_388
10
14.4776655
20
-0.2826825
40
0.312082
50
349.4140529
51
0.2933014
0
ARC
8
DEFAULT_255_1_388
10
14.5361932
20
0.2976924
40
0.2588377
50
89.477747
51
105.729729
0
ARC
8
DEFAULT_255_1_388
10
14.5208852
20
0.3545367
40
0.1999733
50
105.9233417
51
135.1660906
0
ARC
8
DEFAULT_255_1_388
10
14.5231882
20
0.3529412
40
0.2027322
50
135.3052302
51
168.9883645
0
ARC
8
DEFAULT_255_1_388
10
14.6162899
20
0.3315996
40
0.2982129
50
168.3801673
51
180.3602268
0
ARC
8
DEFAULT_255_1_388
10
14.5906015
20
0.3273622
40
0.2725291
50
179.5033122
51
194.9125571
0
ARC
8
DEFAULT_255_1_388
10
14.5247422
20
0.3100427
40
0.204431
50
194.9720816
51
224.194444
0
ARC
8
DEFAULT_255_1_388
10
14.5215788
20
0.3074635
40
0.2003651
50
224.2962453
51
262.015664
0
ARC
8
DEFAULT_255_1_388
10
14.5375792
20
0.3897315
40
0.2840925
50
261.1245923
51
270.1962896
0
ARC
8
DEFAULT_255_1_388
10
14.5409273
20
0.3686859
40
0.2630559
50
269.4827276
51
285.0987215
0
ARC
8
DEFAULT_255_1_388
10
14.5582709
20
0.3036175
40
0.1957162
50
285.1585357
51
315.9484501
0
ARC
8
DEFAULT_255_1_388
10
14.5482583
20
0.3128315
40
0.2093195
50
316.0413965
51
351.916092
0
ARC
8
DEFAULT_255_1_388
10
14.4657957
20
0.3287323
40
0.2932279
50
351.105835
51
0.1939062
0
ARC
8
DEFAULT_255_1_388
10
14.4953591
20
0.3321224
40
0.2636739
50
359.4789618
51
16.0678224
0
ARC
8
DEFAULT_255_1_388
10
14.5489063
20
0.3465721
40
0.2082215
50
16.3252067
51
44.7913869
0
ARC
8
DEFAULT_255_1_388
10
14.5469125
20
0.346632
40
0.2095992
50
44.3957814
51
88.2499162
0
ARC
8
DEFAULT_255_1_388
10
14.5386459
20
0.2778006
40
0.2787189
50
86.9833854
51
90.0192215
0
LINE
8
DEFAULT_255_1_388
10
15.5749409
20
-0.6398
11
15.2108044
21
-0.6398
0
LINE
8
DEFAULT_255_1_388
10
15.2108044
20
-0.6398
11
15.2108044
21
0.6757898
0
LINE
8
DEFAULT_255_1_388
10
15.2108044
20
0.6757898
11
15.5821694
21
0.6757898
0
LINE
8
DEFAULT_255_1_388
10
16.1622578
20
0.0622696
11
16.1622578
21
-0.0217619
0
LINE
8
DEFAULT_255_1_388
10
15.5866872
20
0.5330267
11
15.3842888
21
0.5330267
0
LINE
8
DEFAULT_255_1_388
10
15.3842888
20
0.5330267
11
15.3842888
21
-0.4979404
0
LINE
8
DEFAULT_255_1_388
10
15.3842888
20
-0.4979404
11
15.5668088
21
-0.4979404
0
LINE
8
DEFAULT_255_1_388
10
15.9905805
20
-0.0181477
11
15.9905805
21
0.0586553
0
ARC
8
DEFAULT_255_1_388
10
15.5865489
20
0.0159436
40
0.6598608
50
75.4100343
51
90.3802731
0
ARC
8
DEFAULT_255_1_388
10
15.6123734
20
0.1235691
40
0.5492049
50
60.1455157
51
75.1889627
0
ARC
8
DEFAULT_255_1_388
10
15.6302326
20
0.1546914
40
0.5133226
50
26.525419
51
60.1451222
0
ARC
8
DEFAULT_255_1_388
10
15.5042112
20
0.0878642
40
0.6559324
50
7.4029944
51
26.832209
0
ARC
8
DEFAULT_255_1_388
10
15.3248509
20
0.0599229
40
0.8374103
50
0.1605597
51
7.7176135
0
ARC
8
DEFAULT_255_1_388
10
15.3432909
20
-0.0260679
40
0.8189782
50
348.7289744
51
0.30125
0
ARC
8
DEFAULT_255_1_388
10
15.5296373
20
-0.0630844
40
0.628991
50
333.0706936
51
348.7181455
0
ARC
8
DEFAULT_255_1_388
10
15.6384001
20
-0.1221551
40
0.5052808
50
299.2531435
51
333.4571133
0
ARC
8
DEFAULT_255_1_388
10
15.5978032
20
-0.0450371
40
0.5924066
50
278.1072193
51
299.0340218
0
ARC
8
DEFAULT_255_1_388
10
15.5690081
20
0.1245979
40
0.7644209
50
270.4446841
51
278.4508355
0
ARC
8
DEFAULT_255_1_388
10
15.5713565
20
0.02003
40
0.5179903
50
269.4969684
51
284.0204874
0
ARC
8
DEFAULT_255_1_388
10
15.6113283
20
-0.1335585
40
0.3592968
50
283.7699076
51
318.1557121
0
ARC
8
DEFAULT_255_1_388
10
15.5733828
20
-0.1051601
40
0.4065308
50
318.7417595
51
343.687252
0
ARC
8
DEFAULT_255_1_388
10
15.3704407
20
-0.0417725
40
0.6191194
50
343.3324891
51
355.8548594
0
ARC
8
DEFAULT_255_1_388
10
15.1343444
20
-0.0193281
40
0.856237
50
355.4988754
51
0.0789913
0
ARC
8
DEFAULT_255_1_388
10
15.2224244
20
0.063408
40
0.7681709
50
359.6455047
51
9.8607559
0
ARC
8
DEFAULT_255_1_388
10
15.4879967
20
0.1113664
40
0.498312
50
9.6573037
51
26.1931522
0
ARC
8
DEFAULT_255_1_388
10
15.5924042
20
0.1598587
40
0.3832303
50
26.5777895
51
40.1533752
0
ARC
8
DEFAULT_255_1_388
10
15.6211707
20
0.182302
40
0.3467742
50
40.3839958
51
80.1430923
0
ARC
8
DEFAULT_255_1_388
10
15.5843962
20
0.0192486
40
0.5137832
50
79.2153636
51
89.7445174
0
LINE
8
DEFAULT_255_1_388
10
17.2573779
20
-0.6398
11
17.1317824
21
-0.2964455
0
LINE
8
DEFAULT_255_1_388
10
17.1317824
20
-0.2964455
11
16.5806081
21
-0.2964455
0
LINE
8
DEFAULT_255_1_388
10
16.5806081
20
-0.2964455
11
16.4568198
21
-0.6398
0
LINE
8
DEFAULT_255_1_388
10
16.4568198
20
-0.6398
11
16.277914
21
-0.6398
0
LINE
8
DEFAULT_255_1_388
10
16.277914
20
-0.6398
11
16.7802958
21
0.6757898
0
LINE
8
DEFAULT_255_1_388
10
16.7802958
20
0.6757898
11
16.9320947
21
0.6757898
0
LINE
8
DEFAULT_255_1_388
10
16.9320947
20
0.6757898
11
17.4353801
21
-0.6398
0
LINE
8
DEFAULT_255_1_388
10
17.4353801
20
-0.6398
11
17.2573779
21
-0.6398
0
LINE
8
DEFAULT_255_1_388
10
16.8561953
20
0.4616451
11
16.6330148
21
-0.1536823
0
LINE
8
DEFAULT_255_1_388
10
16.6330148
20
-0.1536823
11
17.0802792
21
-0.1536823
0
LINE
8
DEFAULT_255_1_388
10
17.0802792
20
-0.1536823
11
16.8561953
21
0.4616451
0
LINE
8
DEFAULT_255_1_388
10
17.9341477
20
-0.0127263
11
17.9341477
21
-0.1491645
0
LINE
8
DEFAULT_255_1_388
10
17.9341477
20
-0.1491645
11
17.4932082
21
-0.1491645
0
LINE
8
DEFAULT_255_1_388
10
17.4932082
20
-0.1491645
11
17.4932082
21
-0.0127263
0
LINE
8
DEFAULT_255_1_388
10
17.4932082
20
-0.0127263
11
17.9341477
21
-0.0127263
0
LINE
8
DEFAULT_255_1_388
10
18.941622
20
-0.5033618
11
18.941622
21
-0.6398
0
LINE
8
DEFAULT_255_1_388
10
18.941622
20
-0.6398
11
18.0796215
21
-0.6398
0
LINE
8
DEFAULT_255_1_388
10
18.0796215
20
-0.6398
11
18.0796215
21
-0.5196259
0
LINE
8
DEFAULT_255_1_388
10
18.0796215
20
-0.5196259
11
18.535018
21
-0.0136298
0
LINE
8
DEFAULT_255_1_388
10
18.2214812
20
0.2881607
11
18.0543217
21
0.2881607
0
LINE
8
DEFAULT_255_1_388
10
18.6335065
20
-0.121154
11
18.2811164
21
-0.5033618
0
LINE
8
DEFAULT_255_1_388
10
18.2811164
20
-0.5033618
11
18.941622
21
-0.5033618
0
ARC
8
DEFAULT_255_1_388
10
17.017424
20
1.3283983
40
2.0258655
50
318.5132526
51
320.7829045
0
ARC
8
DEFAULT_255_1_388
10
17.6122197
20
0.8442929
40
1.2589638
50
320.7372878
51
323.9739031
0
ARC
8
DEFAULT_255_1_388
10
18.0531128
20
0.5248554
40
0.7145141
50
323.8962701
51
328.64194
0
ARC
8
DEFAULT_255_1_388
10
18.2833386
20
0.3828545
40
0.4440242
50
328.8294576
51
331.7891185
0
ARC
8
DEFAULT_255_1_388
10
18.3955706
20
0.3249374
40
0.3177517
50
331.4254512
51
352.9365785
0
ARC
8
DEFAULT_255_1_388
10
18.4108706
20
0.321505
40
0.3021496
50
353.2257659
51
0.0166158
0
ARC
8
DEFAULT_255_1_388
10
18.4345467
20
0.3240894
40
0.2784847
50
359.486299
51
15.9343185
0
ARC
8
DEFAULT_255_1_388
10
18.4915733
20
0.3394269
40
0.2194403
50
16.1712913
51
43.5286088
0
ARC
8
DEFAULT_255_1_388
10
18.5002678
20
0.3481191
40
0.2071504
50
43.4417391
51
83.1661095
0
ARC
8
DEFAULT_255_1_388
10
18.4851839
20
0.2652316
40
0.2912888
50
82.160179
51
90.1505708
0
ARC
8
DEFAULT_255_1_388
10
18.4816321
20
0.2048279
40
0.3517025
50
89.5460741
51
102.5418361
0
ARC
8
DEFAULT_255_1_388
10
18.4543041
20
0.3207933
40
0.2325748
50
102.1738499
51
129.206123
0
ARC
8
DEFAULT_255_1_388
10
18.4454494
20
0.3347664
40
0.2161591
50
129.72865
51
135.753947
0
ARC
8
DEFAULT_255_1_388
10
18.4590976
20
0.3238728
40
0.2335433
50
136.1757367
51
166.3673339
0
ARC
8
DEFAULT_255_1_388
10
18.5723665
20
0.2935148
40
0.3507873
50
165.9090694
51
178.8684636
0
ARC
8
DEFAULT_255_1_388
10
18.6699436
20
0.2882263
40
0.4484624
50
178.4391136
51
180.0083808
0
ARC
8
DEFAULT_255_1_388
10
18.5120138
20
0.2926197
40
0.4577138
50
163.2878482
51
180.5581842
0
ARC
8
DEFAULT_255_1_388
10
18.4218179
20
0.3174393
40
0.3641968
50
133.4540601
51
162.947111
0
ARC
8
DEFAULT_255_1_388
10
18.4419061
20
0.2960789
40
0.3935189
50
100.7869829
51
133.4382499
0
ARC
8
DEFAULT_255_1_388
10
18.4810306
20
0.1218399
40
0.5720313
50
89.660664
51
101.3702276
0
ARC
8
DEFAULT_255_1_388
10
18.4884914
20
0.1287263
40
0.5651495
50
78.2172678
51
90.412935
0
ARC
8
DEFAULT_255_1_388
10
18.528438
20
0.3114511
40
0.378122
50
55.9269121
51
78.4888449
0
ARC
8
DEFAULT_255_1_388
10
18.5505095
20
0.3495187
40
0.3342379
50
47.929771
51
55.4049217
0
ARC
8
DEFAULT_255_1_388
10
18.5619626
20
0.3611618
40
0.3179217
50
4.334829
51
48.0560205
0
ARC
8
DEFAULT_255_1_388
10
18.4387427
20
0.3420487
40
0.442341
50
359.9251713
51
5.5971671
0
ARC
8
DEFAULT_255_1_388
10
18.4869582
20
0.3483728
40
0.3941854
50
337.8914027
51
358.9967534
0
ARC
8
DEFAULT_255_1_388
10
18.1817152
20
0.4661295
40
0.7213271
50
326.9132501
51
338.3508308
0
ARC
8
DEFAULT_255_1_388
10
17.7333264
20
0.7535105
40
1.2538973
50
319.6471833
51
327.0959558
0
ARC
8
DEFAULT_255_1_388
10
17.3019922
20
1.109305
40
1.8129975
50
317.2588228
51
319.9045804
0
LINE
8
DEFAULT_255_1_388
10
9.2263882
20
71.4518898
11
9.2263882
21
71.3091267
0
LINE
8
DEFAULT_255_1_388
10
9.2263882
20
71.3091267
11
8.8035201
21
71.3091267
0
LINE
8
DEFAULT_255_1_388
10
8.8035201
20
71.3091267
11
8.8035201
21
70.1363
0
LINE
8
DEFAULT_255_1_388
10
8.8035201
20
70.1363
11
8.6309393
21
70.1363
0
LINE
8
DEFAULT_255_1_388
10
8.6309393
20
70.1363
11
8.6309393
21
71.3091267
0
LINE
8
DEFAULT_255_1_388
10
8.6309393
20
71.3091267
11
8.2089747
21
71.3091267
0
LINE
8
DEFAULT_255_1_388
10
8.2089747
20
71.3091267
11
8.2089747
21
71.4518898
0
LINE
8
DEFAULT_255_1_388
10
8.2089747
20
71.4518898
11
9.2263882
21
71.4518898
0
LINE
8
DEFAULT_255_1_388
10
9.2634344
20
70.5980214
11
9.2634344
21
70.6287426
0
LINE
8
DEFAULT_255_1_388
10
10.0929065
20
70.6468139
11
10.0929065
21
70.5772395
0
LINE
8
DEFAULT_255_1_388
10
10.0929065
20
70.5772395
11
9.4305938
21
70.5772395
0
LINE
8
DEFAULT_255_1_388
10
9.9781539
20
70.3865874
11
10.0802566
21
70.3070737
0
LINE
8
DEFAULT_255_1_388
10
9.4360152
20
70.7145813
11
9.9257471
21
70.7145813
0
LINE
8
DEFAULT_255_1_388
10
9.9257471
20
70.7145813
11
9.9257471
21
70.7272312
0
ARC
8
DEFAULT_255_1_388
10
9.7066105
20
70.610521
40
0.4923176
50
252.326534
51
270.5809615
0
ARC
8
DEFAULT_255_1_388
10
9.6835569
20
70.527194
40
0.4059384
50
223.3000488
51
251.8562489
0
ARC
8
DEFAULT_255_1_388
10
9.7073349
20
70.5502898
40
0.4390832
50
190.9374369
51
223.3654369
0
ARC
8
DEFAULT_255_1_388
10
9.9014027
20
70.5941598
40
0.63798
50
179.6531919
51
191.4988561
0
ARC
8
DEFAULT_255_1_388
10
9.9151054
20
70.6323571
40
0.6516811
50
167.4005523
51
180.3177836
0
ARC
8
DEFAULT_255_1_388
10
9.7967725
20
70.6573853
40
0.5307402
50
154.1835149
51
167.2508278
0
ARC
8
DEFAULT_255_1_388
10
9.7257316
20
70.6947925
40
0.4505076
50
134.3150225
51
154.5315008
0
ARC
8
DEFAULT_255_1_388
10
9.7012651
20
70.716255
40
0.4180662
50
122.8617482
51
133.9707159
0
ARC
8
DEFAULT_255_1_388
10
9.6896259
20
70.7412882
40
0.3907416
50
89.8248474
51
123.4199325
0
ARC
8
DEFAULT_255_1_388
10
9.6952557
20
70.6685352
40
0.4635141
50
74.7874349
51
90.5482648
0
ARC
8
DEFAULT_255_1_388
10
9.7283021
20
70.7905987
40
0.3370565
50
39.8178888
51
74.7634383
0
ARC
8
DEFAULT_255_1_388
10
9.6706263
20
70.7456356
40
0.4101553
50
16.8990848
51
39.4830125
0
ARC
8
DEFAULT_255_1_388
10
9.4574877
20
70.6773711
40
0.6339427
50
4.9634768
51
17.2027767
0
ARC
8
DEFAULT_255_1_388
10
9.1854282
20
70.64866
40
0.9074803
50
359.8834402
51
5.2832409
0
ARC
8
DEFAULT_255_1_388
10
9.864664
20
70.5846981
40
0.4341343
50
180.9844233
51
194.9402766
0
ARC
8
DEFAULT_255_1_388
10
9.7465805
20
70.552417
40
0.3117211
50
194.8030557
51
222.0412897
0
ARC
8
DEFAULT_255_1_388
10
9.7123678
20
70.5184715
40
0.2635903
50
221.541578
51
268.8616004
0
ARC
8
DEFAULT_255_1_388
10
9.7205798
20
70.594528
40
0.3398611
50
267.7321071
51
270.009808
0
ARC
8
DEFAULT_255_1_388
10
9.7225862
20
70.6172178
40
0.3625561
50
269.6921218
51
280.4122297
0
ARC
8
DEFAULT_255_1_388
10
9.7424273
20
70.5138767
40
0.2573323
50
280.2257165
51
298.633539
0
ARC
8
DEFAULT_255_1_388
10
9.7549687
20
70.4874578
40
0.2281403
50
299.0485543
51
300.4624141
0
ARC
8
DEFAULT_255_1_388
10
9.6790667
20
70.6139796
40
0.3756797
50
300.6578578
51
322.037749
0
ARC
8
DEFAULT_255_1_388
10
9.6420189
20
70.6463266
40
0.4247956
50
321.671786
51
322.3059078
0
ARC
8
DEFAULT_255_1_388
10
9.7443752
20
70.5169267
40
0.3960488
50
276.9729088
51
328.0035579
0
ARC
8
DEFAULT_255_1_388
10
9.7132222
20
70.6834609
40
0.5652345
50
269.8358003
51
278.0581296
0
ARC
8
DEFAULT_255_1_388
10
9.6876521
20
70.767282
40
0.2274263
50
89.2017936
51
117.2852353
0
ARC
8
DEFAULT_255_1_388
10
9.6936272
20
70.7625637
40
0.2343798
50
118.0546404
51
137.4544511
0
ARC
8
DEFAULT_255_1_388
10
9.7357915
20
70.7242556
40
0.2913471
50
137.5109688
51
158.8516701
0
ARC
8
DEFAULT_255_1_388
10
9.8638016
20
70.6725902
40
0.4293804
50
158.5845496
51
170.1719753
0
ARC
8
DEFAULT_255_1_388
10
9.9954352
20
70.6464519
40
0.5635533
50
169.8378964
51
173.0563877
0
ARC
8
DEFAULT_255_1_388
10
9.4669635
20
70.7039187
40
0.4593755
50
2.9089079
51
12.88469
0
ARC
8
DEFAULT_255_1_388
10
9.6211555
20
70.7402082
40
0.3009753
50
12.6957404
51
28.6405841
0
ARC
8
DEFAULT_255_1_388
10
9.6821052
20
70.7717577
40
0.232366
50
29.016559
51
41.1492981
0
ARC
8
DEFAULT_255_1_388
10
9.7049031
20
70.791608
40
0.2021373
50
41.1646967
51
85.001362
0
ARC
8
DEFAULT_255_1_388
10
9.6913035
20
70.7089775
40
0.2857091
50
83.728216
51
90.0968824
0
LINE
8
DEFAULT_255_1_388
10
10.7588335
20
71.1193781
11
10.7588335
21
70.963965
0
LINE
8
DEFAULT_255_1_388
10
10.4534288
20
70.8302375
11
10.4534288
21
70.1363
0
LINE
8
DEFAULT_255_1_388
10
10.4534288
20
70.1363
11
10.2862693
21
70.1363
0
LINE
8
DEFAULT_255_1_388
10
10.2862693
20
70.1363
11
10.2862693
21
71.1139567
0
LINE
8
DEFAULT_255_1_388
10
10.2862693
20
71.1139567
11
10.4489109
21
71.1139567
0
LINE
8
DEFAULT_255_1_388
10
10.4489109
20
71.1139567
11
10.4516216
21
71.0010112
0
ARC
8
DEFAULT_255_1_388
10
10.6838495
20
70.5073068
40
0.4627735
50
80.6751522
51
86.893806
0
ARC
8
DEFAULT_255_1_388
10
10.6770325
20
70.3981103
40
0.5721798
50
86.8046851
51
90.0423898
0
ARC
8
DEFAULT_255_1_388
10
10.6728745
20
70.6748197
40
0.2954939
50
89.2758283
51
106.6212906
0
ARC
8
DEFAULT_255_1_388
10
10.6498769
20
70.7584009
40
0.2088351
50
107.1347109
51
157.6456887
0
ARC
8
DEFAULT_255_1_388
10
10.7266832
20
70.7156908
40
0.296292
50
155.6557383
51
157.256838
0
ARC
8
DEFAULT_255_1_388
10
10.7046446
20
70.8467472
40
0.296341
50
127.8167201
51
148.6300223
0
ARC
8
DEFAULT_255_1_388
10
10.6761193
20
70.8760066
40
0.2557782
50
91.3329934
51
126.7875218
0
ARC
8
DEFAULT_255_1_388
10
10.684658
20
70.7956718
40
0.3363561
50
89.9858247
51
92.4688453
0
ARC
8
DEFAULT_255_1_388
10
10.6856074
20
70.8265114
40
0.3055179
50
85.3587643
51
90.1624243
0
ARC
8
DEFAULT_255_1_388
10
10.6951139
20
70.9394458
40
0.1921848
50
78.4019195
51
85.4592653
0
ARC
8
DEFAULT_255_1_388
10
10.7114199
20
71.0172142
40
0.1127267
50
67.7849217
51
78.573798
0
ARC
8
DEFAULT_255_1_388
10
10.7235834
20
71.0487374
40
0.0789473
50
63.4805074
51
67.3074739
0
LINE
8
DEFAULT_255_1_388
10
10.9115359
20
71.1139567
11
11.0696597
21
71.1139567
0
LINE
8
DEFAULT_255_1_388
10
11.0696597
20
71.1139567
11
11.0741775
21
71.005529
0
LINE
8
DEFAULT_255_1_388
10
12.2822432
20
70.7913842
11
12.2822432
21
70.1363
0
LINE
8
DEFAULT_255_1_388
10
12.2822432
20
70.1363
11
12.1150838
21
70.1363
0
LINE
8
DEFAULT_255_1_388
10
12.1150838
20
70.1363
11
12.1150838
21
70.781445
0
LINE
8
DEFAULT_255_1_388
10
11.6804693
20
70.7850593
11
11.6804693
21
70.1363
0
LINE
8
DEFAULT_255_1_388
10
11.6804693
20
70.1363
11
11.5124063
21
70.1363
0
LINE
8
DEFAULT_255_1_388
10
11.5124063
20
70.1363
11
11.5124063
21
70.7769272
0
LINE
8
DEFAULT_255_1_388
10
11.0786954
20
70.8501159
11
11.0786954
21
70.1363
0
LINE
8
DEFAULT_255_1_388
10
11.0786954
20
70.1363
11
10.9115359
21
70.1363
0
LINE
8
DEFAULT_255_1_388
10
10.9115359
20
70.1363
11
10.9115359
21
71.1139567
0
ARC
8
DEFAULT_255_1_388
10
11.3437972
20
70.7785947
40
0.3524116
50
93.0261693
51
139.913241
0
ARC
8
DEFAULT_255_1_388
10
11.3638047
20
70.6387673
40
0.493261
50
89.9515559
51
94.4896559
0
ARC
8
DEFAULT_255_1_388
10
11.3685525
20
70.7190293
40
0.4130214
50
75.8912256
51
90.6007843
0
ARC
8
DEFAULT_255_1_388
10
11.4096821
20
70.8707686
40
0.2558497
50
23.9940553
51
76.5407673
0
ARC
8
DEFAULT_255_1_388
10
11.9475256
20
70.7634138
40
0.3703589
50
118.5760068
51
145.1952627
0
ARC
8
DEFAULT_255_1_388
10
11.9331309
20
70.7909672
40
0.3392772
50
99.1481537
51
118.6669021
0
ARC
8
DEFAULT_255_1_388
10
11.9534022
20
70.6777244
40
0.454307
50
89.7792127
51
99.4015557
0
ARC
8
DEFAULT_255_1_388
10
11.9621135
20
70.6963109
40
0.4357727
50
73.2646335
51
90.9152299
0
ARC
8
DEFAULT_255_1_388
10
12.0115212
20
70.8641955
40
0.2607739
50
10.756495
51
73.0388383
0
ARC
8
DEFAULT_255_1_388
10
11.7425779
20
70.7884448
40
0.5396733
50
0.3120729
51
13.3293082
0
ARC
8
DEFAULT_255_1_388
10
11.7488258
20
70.7835363
40
0.366264
50
359.6728567
51
8.7129231
0
ARC
8
DEFAULT_255_1_388
10
11.8835172
20
70.8049524
40
0.2298841
50
8.5221448
51
22.6803231
0
ARC
8
DEFAULT_255_1_388
10
11.9518871
20
70.8333786
40
0.1558403
50
22.7298708
51
42.2763259
0
ARC
8
DEFAULT_255_1_388
10
11.9657573
20
70.8421235
40
0.1397242
50
43.4492352
51
69.272112
0
ARC
8
DEFAULT_255_1_388
10
11.9311803
20
70.7557568
40
0.2327451
50
68.836098
51
81.9786568
0
ARC
8
DEFAULT_255_1_388
10
11.9086239
20
70.6047247
40
0.385449
50
81.7913044
51
90.3003404
0
LINE
8
DEFAULT_255_1_388
10
11.9066034
20
70.9901683
11
11.9063604
21
70.9901684
0
ARC
8
DEFAULT_255_1_388
10
11.9040413
20
70.7341083
40
0.2560706
50
89.4810922
51
106.5055613
0
ARC
8
DEFAULT_255_1_388
10
11.8912322
20
70.7812872
40
0.2071998
50
106.8160071
51
132.2750747
0
ARC
8
DEFAULT_255_1_388
10
11.8960845
20
70.7761017
40
0.2143007
50
132.3023562
51
166.9931148
0
ARC
8
DEFAULT_255_1_388
10
11.9689083
20
70.7552518
40
0.2899752
50
166.2176327
51
174.0999541
0
ARC
8
DEFAULT_255_1_388
10
11.1974212
20
70.781209
40
0.3150142
50
359.2211859
51
14.4876062
0
ARC
8
DEFAULT_255_1_388
10
11.3452435
20
70.8237235
40
0.1613108
50
13.0021013
51
76.7082612
0
ARC
8
DEFAULT_255_1_388
10
11.3075635
20
70.6906286
40
0.299565
50
75.5470628
51
90.7422407
0
ARC
8
DEFAULT_255_1_388
10
11.2999261
20
70.6940964
40
0.2960958
50
89.2730201
51
106.8379289
0
ARC
8
DEFAULT_255_1_388
10
11.2776666
20
70.7748973
40
0.2123216
50
107.4046439
51
156.621812
0
ARC
8
DEFAULT_255_1_388
10
11.354148
20
70.7310952
40
0.3000669
50
154.7390611
51
156.6312403
0
LINE
8
DEFAULT_255_1_388
10
12.7159542
20
71.1139567
11
12.7159542
21
70.1363
0
LINE
8
DEFAULT_255_1_388
10
12.7159542
20
70.1363
11
12.5487947
21
70.1363
0
LINE
8
DEFAULT_255_1_388
10
12.5487947
20
70.1363
11
12.5487947
21
71.1139567
0
LINE
8
DEFAULT_255_1_388
10
12.5487947
20
71.1139567
11
12.7159542
21
71.1139567
0
ARC
8
DEFAULT_255_1_388
10
12.645331
20
71.3743428
40
0.1100948
50
161.4148232
51
180.5532607
0
ARC
8
DEFAULT_255_1_388
10
12.6313619
20
71.3781875
40
0.0956324
50
138.1830164
51
160.9307633
0
ARC
8
DEFAULT_255_1_388
10
12.6189807
20
71.3889313
40
0.0792417
50
104.6371663
51
138.0036136
0
ARC
8
DEFAULT_255_1_388
10
12.6310345
20
71.3476963
40
0.1221906
50
92.0601206
51
105.2198859
0
ARC
8
DEFAULT_255_1_388
10
12.6336709
20
71.3088583
40
0.161103
50
89.9790681
51
92.5006086
0
ARC
8
DEFAULT_255_1_388
10
12.6347885
20
71.3344998
40
0.1354654
50
78.0234649
51
90.4478111
0
ARC
8
DEFAULT_255_1_388
10
12.645147
20
71.3810203
40
0.0878096
50
55.0521508
51
78.336297
0
ARC
8
DEFAULT_255_1_388
10
12.6508004
20
71.3905168
40
0.0767913
50
42.0506198
51
54.4508489
0
ARC
8
DEFAULT_255_1_388
10
12.6356037
20
71.3765821
40
0.0974091
50
1.7493657
51
42.1498724
0
ARC
8
DEFAULT_255_1_388
10
12.6069943
20
71.3733166
40
0.1261276
50
359.9832635
51
2.8353994
0
ARC
8
DEFAULT_255_1_388
10
12.6256353
20
71.3722412
40
0.1074916
50
342.1062453
51
0.5535864
0
ARC
8
DEFAULT_255_1_388
10
12.6416777
20
71.3678197
40
0.0908695
50
316.7110111
51
341.6513114
0
ARC
8
DEFAULT_255_1_388
10
12.6492209
20
71.3610607
40
0.0807447
50
285.4398289
51
316.5320129
0
ARC
8
DEFAULT_255_1_388
10
12.6368379
20
71.4022023
40
0.1237022
50
272.3543902
51
285.8951677
0
ARC
8
DEFAULT_255_1_388
10
12.6338089
20
71.4437742
40
0.1653687
50
269.9725761
51
272.8112722
0
ARC
8
DEFAULT_255_1_388
10
12.6327141
20
71.4186727
40
0.1402709
50
258.8433431
51
270.4148607
0
ARC
8
DEFAULT_255_1_388
10
12.6225921
20
71.3696739
40
0.0902407
50
238.54281
51
259.1289544
0
ARC
8
DEFAULT_255_1_388
10
12.6149243
20
71.3557694
40
0.0743817
50
222.5056676
51
237.9918132
0
ARC
8
DEFAULT_255_1_388
10
12.6292836
20
71.3688295
40
0.0937918
50
184.1070774
51
222.4604165
0
ARC
8
DEFAULT_255_1_388
10
12.659525
20
71.3731538
40
0.1242838
50
179.9419581
51
185.0970785
0
LINE
8
DEFAULT_255_1_388
10
12.9834092
20
71.1139567
11
13.141533
21
71.1139567
0
LINE
8
DEFAULT_255_1_388
10
13.141533
20
71.1139567
11
13.1469544
21
70.991072
0
LINE
8
DEFAULT_255_1_388
10
13.7523426
20
70.7823486
11
13.7523426
21
70.1363
0
LINE
8
DEFAULT_255_1_388
10
13.7523426
20
70.1363
11
13.5851832
21
70.1363
0
LINE
8
DEFAULT_255_1_388
10
13.5851832
20
70.1363
11
13.5851832
21
70.7832521
0
LINE
8
DEFAULT_255_1_388
10
13.1505687
20
70.8329482
11
13.1505687
21
70.1363
0
LINE
8
DEFAULT_255_1_388
10
13.1505687
20
70.1363
11
12.9834092
21
70.1363
0
LINE
8
DEFAULT_255_1_388
10
12.9834092
20
70.1363
11
12.9834092
21
71.1139567
0
ARC
8
DEFAULT_255_1_388
10
13.4399843
20
70.7647868
40
0.3702317
50
116.459579
51
142.3237674
0
ARC
8
DEFAULT_255_1_388
10
13.4336123
20
70.7624216
40
0.3695717
50
89.9344799
51
115.4117431
0
ARC
8
DEFAULT_255_1_388
10
13.4397172
20
70.6707477
40
0.4612803
50
90.0009789
51
90.7058119
0
ARC
8
DEFAULT_255_1_388
10
13.4466568
20
70.7404095
40
0.3916802
50
71.6503198
51
91.0163578
0
ARC
8
DEFAULT_255_1_388
10
13.4867633
20
70.8733483
40
0.2529032
50
13.4487463
51
70.7930078
0
ARC
8
DEFAULT_255_1_388
10
13.2278005
20
70.7912303
40
0.5242314
50
1.3250409
51
15.5955556
0
ARC
8
DEFAULT_255_1_388
10
12.9979246
20
70.7766495
40
0.7544396
50
0.4328171
51
2.0283925
0
ARC
8
DEFAULT_255_1_388
10
13.2075449
20
70.782166
40
0.3776398
50
0.1647891
51
8.9343738
0
ARC
8
DEFAULT_255_1_388
10
13.3494489
20
70.8052206
40
0.2338783
50
8.7538928
51
22.2899346
0
ARC
8
DEFAULT_255_1_388
10
13.4246919
20
70.8362479
40
0.1524893
50
22.2261896
51
42.6534349
0
ARC
8
DEFAULT_255_1_388
10
13.4317961
20
70.8389551
40
0.1454574
50
43.7652806
51
71.277358
0
ARC
8
DEFAULT_255_1_388
10
13.4031524
20
70.7594698
40
0.2299367
50
70.8751244
51
84.317538
0
ARC
8
DEFAULT_255_1_388
10
13.3900236
20
70.648887
40
0.3412827
50
83.9624774
51
90.1534326
0
ARC
8
DEFAULT_255_1_388
10
13.3868995
20
70.7325668
40
0.2576111
50
89.5084243
51
108.792202
0
ARC
8
DEFAULT_255_1_388
10
13.3798363
20
70.7583171
40
0.2309638
50
109.1912151
51
125.3077659
0
ARC
8
DEFAULT_255_1_388
10
13.416522
20
70.7064216
40
0.2945169
50
125.2968281
51
154.5573532
0
LINE
8
DEFAULT_255_1_388
10
14.7833096
20
70.1363
11
14.6080181
21
70.1363
0
LINE
8
DEFAULT_255_1_388
10
14.4191731
20
70.7290383
11
14.5818147
21
70.7290383
0
LINE
8
DEFAULT_255_1_388
10
14.5818147
20
70.7290383
11
14.5818147
21
70.8058413
0
LINE
8
DEFAULT_255_1_388
10
14.164368
20
70.8428874
11
13.996305
21
70.8428874
0
LINE
8
DEFAULT_255_1_388
10
14.7489742
20
70.8148769
11
14.7489742
21
70.3649018
0
LINE
8
DEFAULT_255_1_388
10
14.7833096
20
70.150757
11
14.7833096
21
70.1363
0
LINE
8
DEFAULT_255_1_388
10
14.5818147
20
70.41008
11
14.5818147
21
70.6106713
0
LINE
8
DEFAULT_255_1_388
10
14.5818147
20
70.6106713
11
14.4507979
21
70.6106713
0
ARC
8
DEFAULT_255_1_388
10
14.7249331
20
70.19301
40
0.1299428
50
197.0784902
51
205.8758668
0
ARC
8
DEFAULT_255_1_388
10
14.8643917
20
70.2371959
40
0.2762313
50
192.2927663
51
197.3441989
0
ARC
8
DEFAULT_255_1_388
10
15.0839422
20
70.285976
40
0.5011345
50
189.1573793
51
192.3977084
0
ARC
8
DEFAULT_255_1_388
10
15.4004269
20
70.3375878
40
0.8217995
50
186.8686098
51
189.1982636
0
ARC
8
DEFAULT_255_1_388
10
14.2949359
20
70.511626
40
0.3975173
50
294.0079259
51
316.7603918
0
ARC
8
DEFAULT_255_1_388
10
14.3094542
20
70.4911902
40
0.3729755
50
269.5043226
51
293.2478373
0
ARC
8
DEFAULT_255_1_388
10
14.3027594
20
70.5362915
40
0.4180772
50
255.4034155
51
270.4753052
0
ARC
8
DEFAULT_255_1_388
10
14.2768807
20
70.4358652
40
0.3143705
50
228.6141063
51
255.3550831
0
ARC
8
DEFAULT_255_1_388
10
14.2394789
20
70.400054
40
0.2628114
50
181.8954381
51
229.5703134
0
ARC
8
DEFAULT_255_1_388
10
14.3059725
20
70.4072824
40
0.329546
50
179.9848815
51
182.7691528
0
ARC
8
DEFAULT_255_1_388
10
14.2966792
20
70.4111827
40
0.3202753
50
161.0342928
51
180.6822077
0
ARC
8
DEFAULT_255_1_388
10
14.2472406
20
70.4240422
40
0.2693695
50
125.0525065
51
160.2034058
0
ARC
8
DEFAULT_255_1_388
10
14.3217128
20
70.3224275
40
0.3953338
50
106.2670809
51
125.4300189
0
ARC
8
DEFAULT_255_1_388
10
14.3861169
20
70.1119795
40
0.6154041
50
95.4857579
51
106.5348562
0
ARC
8
DEFAULT_255_1_388
10
14.4168457
20
69.8307993
40
0.8982419
50
89.8515405
51
95.7222579
0
ARC
8
DEFAULT_255_1_388
10
14.3449038
20
70.8078925
40
0.2369198
50
359.5039339
51
14.3181205
0
ARC
8
DEFAULT_255_1_388
10
14.4095043
20
70.8246862
40
0.170173
50
14.2184556
51
45.2028524
0
ARC
8
DEFAULT_255_1_388
10
14.4135739
20
70.8262862
40
0.1661795
50
45.8098216
51
73.0032926
0
ARC
8
DEFAULT_255_1_388
10
14.3855565
20
70.740626
40
0.2562942
50
72.6112517
51
85.7231489
0
ARC
8
DEFAULT_255_1_388
10
14.3754349
20
70.6379339
40
0.3594635
50
85.335019
51
90.0855069
0
ARC
8
DEFAULT_255_1_388
10
14.3727783
20
70.7043472
40
0.2930574
50
89.5854741
51
103.459124
0
ARC
8
DEFAULT_255_1_388
10
14.3556322
20
70.7758134
40
0.2195632
50
103.448332
51
126.5403399
0
ARC
8
DEFAULT_255_1_388
10
14.3287298
20
70.8102224
40
0.1759039
50
126.1730306
51
141.5008224
0
ARC
8
DEFAULT_255_1_388
10
14.2861613
20
70.8436266
40
0.1217955
50
141.3332087
51
180.3477313
0
ARC
8
DEFAULT_255_1_388
10
14.2103036
20
70.8416904
40
0.214002
50
151.6373605
51
179.6795088
0
ARC
8
DEFAULT_255_1_388
10
14.2780272
20
70.8079768
40
0.2896224
50
142.4981529
51
152.1330509
0
ARC
8
DEFAULT_255_1_388
10
14.3138277
20
70.7798781
40
0.3351307
50
120.8284906
51
142.4132156
0
ARC
8
DEFAULT_255_1_388
10
14.3606252
20
70.7066185
40
0.4220297
50
113.9634885
51
121.1871733
0
ARC
8
DEFAULT_255_1_388
10
14.3759561
20
70.6692705
40
0.4623867
50
93.3784336
51
113.8197902
0
ARC
8
DEFAULT_255_1_388
10
14.3845944
20
70.5831549
40
0.5488732
50
89.9745993
51
93.7488475
0
ARC
8
DEFAULT_255_1_388
10
14.388519
20
70.5872587
40
0.5447818
50
79.1327128
51
90.3871707
0
ARC
8
DEFAULT_255_1_388
10
14.4250954
20
70.7700597
40
0.3583662
50
60.1434453
51
79.365517
0
ARC
8
DEFAULT_255_1_388
10
14.453972
20
70.8255195
40
0.2959028
50
48.6191018
51
59.6466565
0
ARC
8
DEFAULT_255_1_388
10
14.4593432
20
70.8326356
40
0.2870136
50
9.0349502
51
48.4845487
0
ARC
8
DEFAULT_255_1_388
10
14.338273
20
70.8062084
40
0.4107927
50
1.2091359
51
10.0234369
0
ARC
8
DEFAULT_255_1_388
10
15.6080178
20
70.3621422
40
0.8590481
50
179.8159449
51
185.3205667
0
ARC
8
DEFAULT_255_1_388
10
15.3048024
20
70.3331945
40
0.5544553
50
185.2475628
51
192.7952551
0
ARC
8
DEFAULT_255_1_388
10
15.1065848
20
70.2877024
40
0.3510853
50
192.7195981
51
202.9584216
0
ARC
8
DEFAULT_255_1_388
10
14.3305884
20
70.5574895
40
0.2937869
50
270.006916
51
300.503478
0
ARC
8
DEFAULT_255_1_388
10
14.3443818
20
70.5430888
40
0.2744162
50
299.5482616
51
315.609538
0
ARC
8
DEFAULT_255_1_388
10
14.3770115
20
70.5097072
40
0.2277499
50
315.8682065
51
334.0592465
0
ARC
8
DEFAULT_255_1_388
10
14.4459088
20
69.82609
40
0.7845965
50
89.64297
51
97.2867877
0
ARC
8
DEFAULT_255_1_388
10
14.3962685
20
70.1977936
40
0.4096042
50
96.9938706
51
109.7783917
0
ARC
8
DEFAULT_255_1_388
10
14.3214148
20
70.3981851
40
0.1957225
50
109.0087985
51
135.3265591
0
ARC
8
DEFAULT_255_1_388
10
14.2906567
20
70.4362764
40
0.1471704
50
137.4537784
51
182.1083946
0
ARC
8
DEFAULT_255_1_388
10
14.3327267
20
70.4290101
40
0.1891498
50
179.4390335
51
195.7201623
0
ARC
8
DEFAULT_255_1_388
10
14.2864302
20
70.4163585
40
0.1411576
50
195.8683556
51
230.157074
0
ARC
8
DEFAULT_255_1_388
10
14.3137025
20
70.4490228
40
0.1837102
50
230.1532486
51
259.7486257
0
ARC
8
DEFAULT_255_1_388
10
14.3293068
20
70.5225472
40
0.258848
50
259.2461118
51
270.2915316
0
LINE
8
DEFAULT_255_1_388
10
15.0706431
20
71.3506906
11
15.2378025
21
71.3506906
0
LINE
8
DEFAULT_255_1_388
10
15.2378025
20
71.3506906
11
15.2378025
21
71.1139567
0
LINE
8
DEFAULT_255_1_388
10
15.2378025
20
71.1139567
11
15.4203226
21
71.1139567
0
LINE
8
DEFAULT_255_1_388
10
15.4203226
20
71.1139567
11
15.4203226
21
70.984747
0
LINE
8
DEFAULT_255_1_388
10
15.4203226
20
70.984747
11
15.2378025
21
70.984747
0
LINE
8
DEFAULT_255_1_388
10
15.2378025
20
70.984747
11
15.2378025
21
70.3784553
0
LINE
8
DEFAULT_255_1_388
10
15.4248404
20
70.2718347
11
15.4248404
21
70.1363
0
LINE
8
DEFAULT_255_1_388
10
15.0706431
20
70.3784553
11
15.0706431
21
70.984747
0
LINE
8
DEFAULT_255_1_388
10
15.0706431
20
70.984747
11
14.8926409
21
70.984747
0
LINE
8
DEFAULT_255_1_388
10
14.8926409
20
70.984747
11
14.8926409
21
71.1139567
0
LINE
8
DEFAULT_255_1_388
10
14.8926409
20
71.1139567
11
15.0706431
21
71.1139567
0
LINE
8
DEFAULT_255_1_388
10
15.0706431
20
71.1139567
11
15.0706431
21
71.3506906
0
ARC
8
DEFAULT_255_1_388
10
15.4636533
20
70.3772842
40
0.2258538
50
179.7029045
51
187.9180047
0
ARC
8
DEFAULT_255_1_388
10
15.3797107
20
70.3652019
40
0.1410477
50
187.7540838
51
200.2454047
0
ARC
8
DEFAULT_255_1_388
10
15.3324013
20
70.3475591
40
0.0905561
50
200.1304287
51
219.1733455
0
ARC
8
DEFAULT_255_1_388
10
15.3171179
20
70.3371695
40
0.0721626
50
220.4434631
51
249.6169985
0
ARC
8
DEFAULT_255_1_388
10
15.3345406
20
70.3809919
40
0.1193141
50
249.1038184
51
262.7745376
0
ARC
8
DEFAULT_255_1_388
10
15.3444587
20
70.4517481
40
0.1907583
50
262.4921618
51
270.2607019
0
ARC
8
DEFAULT_255_1_388
10
15.3441669
20
70.4759817
40
0.2149929
50
270.309081
51
275.6615459
0
ARC
8
DEFAULT_255_1_388
10
15.3281077
20
70.6448342
40
0.3846066
50
275.5607354
51
279.087751
0
ARC
8
DEFAULT_255_1_388
10
15.2909009
20
70.8809428
40
0.6236283
50
279.0369545
51
281.5000133
0
ARC
8
DEFAULT_255_1_388
10
15.2518277
20
71.0786499
40
0.825157
50
281.4217093
51
282.1031556
0
ARC
8
DEFAULT_255_1_388
10
15.2894252
20
70.6243229
40
0.5064619
50
275.2597791
51
285.5081125
0
ARC
8
DEFAULT_255_1_388
10
15.2963266
20
70.5617452
40
0.4435166
50
270.0268175
51
275.1130565
0
ARC
8
DEFAULT_255_1_388
10
15.2940718
20
70.4124367
40
0.2942182
50
257.3572424
51
270.4795428
0
ARC
8
DEFAULT_255_1_388
10
15.2700988
20
70.3113952
40
0.1903838
50
230.8036715
51
257.7414447
0
ARC
8
DEFAULT_255_1_388
10
15.2624484
20
70.2990723
40
0.1760087
50
219.9745381
51
230.1985446
0
ARC
8
DEFAULT_255_1_388
10
15.2997771
20
70.3276116
40
0.2229598
50
196.5081334
51
219.4319996
0
ARC
8
DEFAULT_255_1_388
10
15.4140383
20
70.3634617
40
0.3427033
50
184.6408645
51
196.8266009
0
ARC
8
DEFAULT_255_1_388
10
15.5541288
20
70.377601
40
0.4834863
50
179.8987586
51
184.9677262
0
LINE
8
DEFAULT_255_1_388
10
15.5531465
20
70.6224177
11
15.5531465
21
70.634164
0
LINE
8
DEFAULT_255_1_388
10
16.4431575
20
70.6260319
11
16.4431575
21
70.6142856
0
ARC
8
DEFAULT_255_1_388
10
16.181591
20
70.637804
40
0.628455
50
166.3005265
51
180.3318609
0
ARC
8
DEFAULT_255_1_388
10
16.084526
20
70.6595267
40
0.52901
50
153.8608648
51
166.0965672
0
ARC
8
DEFAULT_255_1_388
10
16.0096426
20
70.6996652
40
0.4441126
50
135.1317053
51
154.2534962
0
ARC
8
DEFAULT_255_1_388
10
15.9783076
20
70.7273431
40
0.4023863
50
121.7042632
51
134.7771455
0
ARC
8
DEFAULT_255_1_388
10
15.9858508
20
70.7128469
40
0.4186852
50
93.4001111
51
121.5399523
0
ARC
8
DEFAULT_255_1_388
10
15.9965342
20
70.6198759
40
0.5121521
50
89.9706387
51
93.9763381
0
ARC
8
DEFAULT_255_1_388
10
16.0018327
20
70.6638563
40
0.4681988
50
71.3321659
51
90.6162917
0
ARC
8
DEFAULT_255_1_388
10
16.0201361
20
70.7316003
40
0.3981841
50
41.1813875
51
70.7072086
0
ARC
8
DEFAULT_255_1_388
10
15.9664077
20
70.682813
40
0.4707474
50
12.1971434
51
41.3446641
0
ARC
8
DEFAULT_255_1_388
10
15.7497341
20
70.6312328
40
0.6934429
50
359.5702713
51
12.5803533
0
ARC
8
DEFAULT_255_1_388
10
15.8029657
20
70.6107207
40
0.6402018
50
347.0196754
51
0.3190452
0
ARC
8
DEFAULT_255_1_388
10
15.910771
20
70.5875189
40
0.5299421
50
334.350439
51
346.8460534
0
ARC
8
DEFAULT_255_1_388
10
16.0058956
20
70.5381244
40
0.4228234
50
310.4228125
51
334.8045131
0
ARC
8
DEFAULT_255_1_388
10
16.0150934
20
70.5309301
40
0.4113892
50
301.8488154
51
310.0972985
0
ARC
8
DEFAULT_255_1_388
10
16.0114675
20
70.5394573
40
0.4205483
50
274.3078723
51
301.6554173
0
ARC
8
DEFAULT_255_1_388
10
15.9990131
20
70.6381943
40
0.5199658
50
269.954904
51
274.859116
0
ARC
8
DEFAULT_255_1_388
10
15.9934955
20
70.5818239
40
0.4636233
50
250.8887647
51
270.6313164
0
ARC
8
DEFAULT_255_1_388
10
15.9766115
20
70.5189405
40
0.398705
50
221.1701369
51
250.2227012
0
ARC
8
DEFAULT_255_1_388
10
16.0310781
20
70.5685716
40
0.4723796
50
191.6263861
51
221.3526879
0
ARC
8
DEFAULT_255_1_388
10
16.2434626
20
70.6177203
40
0.6903321
50
179.6101251
51
192.0694841
0
ARC
8
DEFAULT_255_1_388
10
16.2910973
20
70.6106681
40
0.5698993
50
179.636304
51
190.6161344
0
ARC
8
DEFAULT_255_1_388
10
16.1063305
20
70.5746635
40
0.3816643
50
190.4136062
51
208.7168709
0
ARC
8
DEFAULT_255_1_388
10
16.048934
20
70.5461905
40
0.3176572
50
209.187109
51
217.4221816
0
ARC
8
DEFAULT_255_1_388
10
15.989381
20
70.4937729
40
0.2385702
50
216.1156863
51
265.2575395
0
ARC
8
DEFAULT_255_1_388
10
15.9982846
20
70.5582608
40
0.3035941
50
264.5891546
51
270.0602378
0
ARC
8
DEFAULT_255_1_388
10
16.0020043
20
70.5155539
40
0.2609091
50
269.2532353
51
291.8793864
0
ARC
8
DEFAULT_255_1_388
10
16.0052922
20
70.4955359
40
0.241148
50
292.9269367
51
323.1777736
0
ARC
8
DEFAULT_255_1_388
10
15.9582207
20
70.5368762
40
0.3036446
50
322.25666
51
323.087958
0
ARC
8
DEFAULT_255_1_388
10
15.9279465
20
70.5551332
40
0.3388345
50
323.6941379
51
343.8493587
0
ARC
8
DEFAULT_255_1_388
10
15.7503901
20
70.6091698
40
0.5244204
50
343.5746655
51
355.008149
0
ARC
8
DEFAULT_255_1_388
10
15.5245593
20
70.6325797
40
0.7514406
50
354.728272
51
0.1208026
0
ARC
8
DEFAULT_255_1_388
10
15.7234618
20
70.6377947
40
0.5525482
50
359.6235211
51
11.2016685
0
ARC
8
DEFAULT_255_1_388
10
15.8960446
20
70.6733284
40
0.3763527
50
10.9991302
51
30.8317616
0
ARC
8
DEFAULT_255_1_388
10
15.9405749
20
70.6967988
40
0.3260975
50
31.3007463
51
37.395541
0
ARC
8
DEFAULT_255_1_388
10
15.9964469
20
70.7439773
40
0.253082
50
36.5918894
51
62.2439906
0
ARC
8
DEFAULT_255_1_388
10
16.001676
20
70.7436378
40
0.2509927
50
63.3364883
51
89.7193846
0
ARC
8
DEFAULT_255_1_388
10
15.9968213
20
70.6788375
40
0.3158485
50
88.8962924
51
90.004475
0
ARC
8
DEFAULT_255_1_388
10
15.9932641
20
70.7441071
40
0.250604
50
89.1923115
51
114.7099029
0
ARC
8
DEFAULT_255_1_388
10
15.9964983
20
70.7483675
40
0.2481307
50
115.7996284
51
142.2901353
0
ARC
8
DEFAULT_255_1_388
10
16.0433254
20
70.7064752
40
0.310833
50
141.4607507
51
142.383894
0
ARC
8
DEFAULT_255_1_388
10
16.0581105
20
70.6996449
40
0.3267335
50
143.0176473
51
163.2340089
0
ARC
8
DEFAULT_255_1_388
10
16.2356394
20
70.6434553
40
0.5129308
50
162.9446504
51
174.3733893
0
ARC
8
DEFAULT_255_1_388
10
16.4770366
20
70.6163483
40
0.75583
50
174.1225809
51
180.1563667
0
LINE
8
DEFAULT_255_1_388
10
17.1253487
20
71.1193781
11
17.1253487
21
70.963965
0
LINE
8
DEFAULT_255_1_388
10
16.8199439
20
70.8302375
11
16.8199439
21
70.1363
0
LINE
8
DEFAULT_255_1_388
10
16.8199439
20
70.1363
11
16.6527845
21
70.1363
0
LINE
8
DEFAULT_255_1_388
10
16.6527845
20
70.1363
11
16.6527845
21
71.1139567
0
LINE
8
DEFAULT_255_1_388
10
16.6527845
20
71.1139567
11
16.8154261
21
71.1139567
0
LINE
8
DEFAULT_255_1_388
10
16.8154261
20
71.1139567
11
16.8181368
21
71.0010112
0
ARC
8
DEFAULT_255_1_388
10
17.0503647
20
70.5073068
40
0.4627735
50
80.6751522
51
86.893806
0
ARC
8
DEFAULT_255_1_388
10
17.0435476
20
70.3981103
40
0.5721798
50
86.8046851
51
90.0423898
0
ARC
8
DEFAULT_255_1_388
10
17.0393896
20
70.6748197
40
0.2954939
50
89.2758283
51
106.6212906
0
ARC
8
DEFAULT_255_1_388
10
17.0163921
20
70.7584009
40
0.2088351
50
107.1347109
51
157.6456887
0
ARC
8
DEFAULT_255_1_388
10
17.0931983
20
70.7156908
40
0.296292
50
155.6557383
51
157.256838
0
ARC
8
DEFAULT_255_1_388
10
17.0711597
20
70.8467472
40
0.296341
50
127.8167201
51
148.6300223
0
ARC
8
DEFAULT_255_1_388
10
17.0426344
20
70.8760066
40
0.2557782
50
91.3329934
51
126.7875218
0
ARC
8
DEFAULT_255_1_388
10
17.0511732
20
70.7956718
40
0.3363561
50
89.9858247
51
92.4688453
0
ARC
8
DEFAULT_255_1_388
10
17.0521225
20
70.8265114
40
0.3055179
50
85.3587643
51
90.1624243
0
ARC
8
DEFAULT_255_1_388
10
17.061629
20
70.9394458
40
0.1921848
50
78.4019195
51
85.4592653
0
ARC
8
DEFAULT_255_1_388
10
17.0779351
20
71.0172142
40
0.1127267
50
67.7849217
51
78.573798
0
ARC
8
DEFAULT_255_1_388
10
17.0900985
20
71.0487374
40
0.0789473
50
63.4805074
51
67.3074739
0
LINE
8
DEFAULT_255_1_388
10
17.9493995
20
71.4518898
11
17.9493995
21
70.1363
0
LINE
8
DEFAULT_255_1_388
10
17.9493995
20
70.1363
11
17.7759151
21
70.1363
0
LINE
8
DEFAULT_255_1_388
10
17.7759151
20
70.1363
11
17.7759151
21
71.4518898
0
LINE
8
DEFAULT_255_1_388
10
17.7759151
20
71.4518898
11
17.9493995
21
71.4518898
0
LINE
8
DEFAULT_255_1_388
10
18.8222427
20
71.4518898
11
18.2737791
21
70.0233544
0
LINE
8
DEFAULT_255_1_388
10
18.2737791
20
70.0233544
11
18.1301124
21
70.0233544
0
LINE
8
DEFAULT_255_1_388
10
18.1301124
20
70.0233544
11
18.6794795
21
71.4518898
0
LINE
8
DEFAULT_255_1_388
10
18.6794795
20
71.4518898
11
18.8222427
21
71.4518898
0
LINE
8
DEFAULT_255_1_388
10
20.0411512
20
70.8347553
11
20.0411512
21
70.7516274
0
LINE
8
DEFAULT_255_1_388
10
18.9830772
20
70.7398811
11
18.9830772
21
70.8347553
0
LINE
8
DEFAULT_255_1_388
10
19.8685704
20
70.7389775
11
19.8685704
21
70.8365625
0
LINE
8
DEFAULT_255_1_388
10
19.155658
20
70.8483088
11
19.155658
21
70.7516274
0
ARC
8
DEFAULT_255_1_388
10
19.068925
20
70.7471726
40
0.9722364
50
350.4878118
51
0.2625322
0
ARC
8
DEFAULT_255_1_388
10
19.326921
20
70.7027994
40
0.7104556
50
336.0277991
51
350.5787241
0
ARC
8
DEFAULT_255_1_388
10
19.4782317
20
70.6344243
40
0.544417
50
319.887443
51
336.1331163
0
ARC
8
DEFAULT_255_1_388
10
19.5460129
20
70.5801733
40
0.4576311
50
302.4806296
51
319.6144102
0
ARC
8
DEFAULT_255_1_388
10
19.533075
20
70.6051067
40
0.4856183
50
275.8196423
51
302.1885521
0
ARC
8
DEFAULT_255_1_388
10
19.5143612
20
70.7336466
40
0.6154183
50
269.9169897
51
276.339506
0
ARC
8
DEFAULT_255_1_388
10
19.5093212
20
70.656468
40
0.5382553
50
252.5221437
51
270.441579
0
ARC
8
DEFAULT_255_1_388
10
19.4931463
20
70.5958046
40
0.4755426
50
237.5349961
51
252.1858334
0
ARC
8
DEFAULT_255_1_388
10
19.5031839
20
70.608612
40
0.4917393
50
209.0632754
51
237.3492577
0
ARC
8
DEFAULT_255_1_388
10
19.6011165
20
70.6701104
40
0.6072464
50
205.118533
51
209.6465345
0
ARC
8
DEFAULT_255_1_388
10
19.6907167
20
70.7081174
40
0.7045164
50
188.7216633
51
204.8239753
0
ARC
8
DEFAULT_255_1_388
10
19.9153942
20
70.7459387
40
0.9323368
50
180.3722704
51
188.9253909
0
ARC
8
DEFAULT_255_1_388
10
19.9123503
20
70.8392416
40
0.929284
50
169.5253055
51
180.2766048
0
ARC
8
DEFAULT_255_1_388
10
19.6983303
20
70.8786024
40
0.7116745
50
155.8314601
51
169.5088611
0
ARC
8
DEFAULT_255_1_388
10
19.5542766
20
70.9454312
40
0.5528904
50
139.6259579
51
156.0379072
0
ARC
8
DEFAULT_255_1_388
10
19.4879299
20
70.9988143
40
0.4677708
50
122.6414784
51
139.3431662
0
ARC
8
DEFAULT_255_1_388
10
19.4992554
20
70.9781787
40
0.4912586
50
93.0224537
51
122.4556091
0
ARC
8
DEFAULT_255_1_388
10
19.5114075
20
70.8695776
40
0.6003837
50
89.9756766
51
93.6340839
0
ARC
8
DEFAULT_255_1_388
10
19.5157673
20
70.9144879
40
0.5554884
50
73.7463329
51
90.4234008
0
ARC
8
DEFAULT_255_1_388
10
19.5355146
20
70.9909772
40
0.4765353
50
57.663051
51
73.4516911
0
ARC
8
DEFAULT_255_1_388
10
19.5346183
20
70.9934108
40
0.4749629
50
29.1441355
51
57.4146687
0
ARC
8
DEFAULT_255_1_388
10
19.4293995
20
70.9277046
40
0.5988917
50
24.0985653
51
29.732054
0
ARC
8
DEFAULT_255_1_388
10
19.3131627
20
70.8795154
40
0.7246823
50
8.6654943
51
23.8241215
0
ARC
8
DEFAULT_255_1_388
10
19.0618045
20
70.8385037
40
0.9793537
50
359.7807044
51
8.8218476
0
ARC
8
DEFAULT_255_1_388
10
18.9327749
20
70.8413731
40
0.9358078
50
359.7054632
51
8.0359751
0
ARC
8
DEFAULT_255_1_388
10
19.2702801
20
70.8905252
40
0.5947474
50
7.8926278
51
20.2962188
0
ARC
8
DEFAULT_255_1_388
10
19.4533651
20
70.9580367
40
0.3996117
50
20.3231056
51
36.4990255
0
ARC
8
DEFAULT_255_1_388
10
19.5304949
20
71.0174399
40
0.3022818
50
36.1436715
51
85.6627846
0
ARC
8
DEFAULT_255_1_388
10
19.5122204
20
70.9004881
40
0.4203853
50
84.3845912
51
90.076054
0
ARC
8
DEFAULT_255_1_388
10
19.5074559
20
70.9747416
40
0.346157
50
89.3037228
51
109.9046209
0
ARC
8
DEFAULT_255_1_388
10
19.4970392
20
71.0177379
40
0.3022217
50
110.8229774
51
143.917961
0
ARC
8
DEFAULT_255_1_388
10
19.6020751
20
70.9375455
40
0.434348
50
143.5289166
51
163.2980252
0
ARC
8
DEFAULT_255_1_388
10
19.8167038
20
70.8700685
40
0.659321
50
163.0418884
51
174.3139873
0
ARC
8
DEFAULT_255_1_388
10
20.0872003
20
70.8388378
40
0.9315905
50
174.050934
51
179.4174954
0
ARC
8
DEFAULT_255_1_388
10
20.0303947
20
70.7469382
40
0.8747493
50
179.6928582
51
188.7908948
0
ARC
8
DEFAULT_255_1_388
10
19.7307747
20
70.6990086
40
0.5713262
50
188.6328449
51
202.5630732
0
ARC
8
DEFAULT_255_1_388
10
19.5896583
20
70.6423142
40
0.4192612
50
202.8078931
51
216.1195888
0
ARC
8
DEFAULT_255_1_388
10
19.4986101
20
70.5690479
40
0.3025752
50
215.0755613
51
264.6379773
0
ARC
8
DEFAULT_255_1_388
10
19.5128938
20
70.6625376
40
0.3970284
50
263.8464302
51
270.0830805
0
ARC
8
DEFAULT_255_1_388
10
19.5175483
20
70.6334808
40
0.3679937
50
269.3649295
51
287.5149684
0
ARC
8
DEFAULT_255_1_388
10
19.5375924
20
70.5606714
40
0.2925408
50
288.0629019
51
323.8115617
0
ARC
8
DEFAULT_255_1_388
10
19.43959
20
70.6337754
40
0.4148018
50
323.6546541
51
342.6591359
0
ARC
8
DEFAULT_255_1_388
10
19.2110558
20
70.708128
40
0.6551163
50
342.4092446
51
353.6451501
0
ARC
8
DEFAULT_255_1_388
10
18.8925351
20
70.7477565
40
0.9760748
50
353.4027553
51
359.4846611
0
ARC
8
DEFAULT_255_2_778
10
13.4953021
20
73.8860533
40
2.3035416
50
339.8907409
51
346.994376
0
ARC
8
DEFAULT_255_2_778
10
14.4646357
20
73.5259276
40
1.2694939
50
328.7691853
51
340.1120733
0
ARC
8
DEFAULT_255_2_778
10
14.9922733
20
73.1992249
40
0.6489533
50
308.240385
51
329.2799976
0
ARC
8
DEFAULT_255_2_778
10
15.1335254
20
73.0303956
40
0.42897
50
290.2149747
51
307.3797345
0
ARC
8
DEFAULT_255_2_778
10
14.8550836
20
73.2930832
40
0.5085768
50
279.0582472
51
335.0254579
0
ARC
8
DEFAULT_255_2_778
10
14.4035606
20
73.5413036
40
1.0232605
50
333.100566
51
347.4967948
0
ARC
8
DEFAULT_255_2_778
10
13.9267879
20
73.6652273
40
1.515659
50
346.8251736
51
349.6433145
0
ARC
8
DEFAULT_255_2_778
10
16.7325297
20
73.9377541
40
0.6340004
50
90.2418805
51
180.4975197
0
ARC
8
DEFAULT_255_2_778
10
16.7271765
20
73.937754
40
0.6340006
50
359.5024881
51
89.7581009
0
ARC
8
DEFAULT_255_2_778
10
16.7271768
20
73.9267436
40
0.6340003
50
270.2418684
51
0.4975336
0
ARC
8
DEFAULT_255_2_778
10
16.7325299
20
73.9267437
40
0.6340005
50
179.5024805
51
269.758104
0
ARC
8
DEFAULT_255_2_778
10
17.1189581
20
73.9521235
40
0.5748535
50
158.6224664
51
180.7450103
0
ARC
8
DEFAULT_255_2_778
10
16.8143054
20
74.0791995
40
0.2449488
50
125.6968143
51
160.3264119
0
ARC
8
DEFAULT_255_2_778
10
16.7310393
20
74.1859868
40
0.1097683
50
90.6191325
51
122.9231799
0
ARC
8
DEFAULT_255_2_778
10
16.7161984
20
74.1478461
40
0.1485318
50
26.6299238
51
84.7252528
0
ARC
8
DEFAULT_255_2_778
10
16.4561415
20
73.982402
40
0.4562354
50
6.9672199
51
30.5675002
0
ARC
8
DEFAULT_255_2_778
10
16.261361
20
73.9454325
40
0.6541928
50
359.9313724
51
8.1119436
0
ARC
8
DEFAULT_255_2_778
10
16.3407903
20
73.9372075
40
0.5748111
50
338.6217917
51
0.7417631
0
ARC
8
DEFAULT_255_2_778
10
16.6452775
20
73.8101776
40
0.2450776
50
305.7107467
51
340.3279893
0
ARC
8
DEFAULT_255_2_778
10
16.7286626
20
73.7032757
40
0.1097331
50
270.6216799
51
302.9378787
0
ARC
8
DEFAULT_255_2_778
10
16.7435343
20
73.7414636
40
0.148546
50
206.6181959
51
264.7155805
0
ARC
8
DEFAULT_255_2_778
10
17.0037331
20
73.9069852
40
0.456409
50
186.9714802
51
210.5628916
0
ARC
8
DEFAULT_255_2_778
10
17.1979553
20
73.9438721
40
0.6538026
50
179.9319269
51
188.1143536
0
ARC
8
DEFAULT_255_2_778
10
14.2076298
20
73.9377541
40
0.6340005
50
90.2418914
51
180.4975151
0
ARC
8
DEFAULT_255_2_778
10
14.2022765
20
73.937754
40
0.6340006
50
359.5024881
51
89.7581009
0
ARC
8
DEFAULT_255_2_778
10
14.2022768
20
73.9267436
40
0.6340003
50
270.2418684
51
0.4975336
0
ARC
8
DEFAULT_255_2_778
10
14.2076299
20
73.9267437
40
0.6340005
50
179.5024805
51
269.758104
0
ARC
8
DEFAULT_255_2_778
10
14.5935296
20
73.9521068
40
0.5744248
50
158.6039448
51
180.7439081
0
ARC
8
DEFAULT_255_2_778
10
14.2894145
20
74.079083
40
0.2450547
50
125.6846154
51
160.3063409
0
ARC
8
DEFAULT_255_2_778
10
14.2061439
20
74.185937
40
0.1098183
50
90.6212609
51
122.9155624
0
ARC
8
DEFAULT_255_2_778
10
14.1912984
20
74.1478461
40
0.1485318
50
26.6299238
51
84.7252528
0
ARC
8
DEFAULT_255_2_778
10
13.9312415
20
73.982402
40
0.4562354
50
6.9672199
51
30.5675002
0
ARC
8
DEFAULT_255_2_778
10
13.736461
20
73.9454325
40
0.6541928
50
359.9313724
51
8.1119436
0
ARC
8
DEFAULT_255_2_778
10
13.8158903
20
73.9372075
40
0.5748111
50
338.6217917
51
0.7417631
0
ARC
8
DEFAULT_255_2_778
10
14.1203775
20
73.8101776
40
0.2450776
50
305.7107467
51
340.3279893
0
ARC
8
DEFAULT_255_2_778
10
14.2037626
20
73.7032757
40
0.1097331
50
270.6216799
51
302.9378787
0
ARC
8
DEFAULT_255_2_778
10
14.2183015
20
73.7407507
40
0.1478058
50
207.0367178
51
264.8185874
0
ARC
8
DEFAULT_255_2_778
10
14.4731143
20
73.9049943
40
0.4504617
50
187.4901111
51
210.9147812
0
ARC
8
DEFAULT_255_2_778
10
14.6699142
20
73.9437625
40
0.6507616
50
179.9219565
51
188.6157011
0
LINE
8
DEFAULT_255_2_778
10
14.8857532
20
74.5466489
11
15.3807532
21
74.5466489
0
LINE
8
DEFAULT_255_2_778
10
15.3807532
20
74.5466489
11
15.5540532
21
73.8819489
0
LINE
8
DEFAULT_255_2_778
10
15.5540532
20
73.8819489
11
15.7397532
21
74.5590489
0
LINE
8
DEFAULT_255_2_778
10
15.7397532
20
74.5590489
11
16.0369532
21
74.4712489
0
LINE
8
DEFAULT_255_2_778
10
16.0369532
20
74.4712489
11
15.7397532
21
73.3676489
0
LINE
8
DEFAULT_255_2_778
10
15.2817532
20
72.6278489
11
14.9351532
21
72.7908489
0
LINE
8
DEFAULT_255_2_778
10
15.4177532
20
73.3927489
11
15.2074532
21
73.3927489
0
LINE
8
DEFAULT_255_2_778
10
15.2074532
20
73.3927489
11
14.8857532
21
74.5466489
0
LINE
8
DEFAULT_255_2_778
10
16.0985532
20
73.9322489
11
16.0985532
21
73.9322489
0
LINE
8
DEFAULT_255_2_778
10
16.5441532
20
73.9446489
11
16.5441532
21
73.9446489
0
LINE
8
DEFAULT_255_2_778
10
13.5736532
20
73.9322489
11
13.5736532
21
73.9322489
0
LINE
8
DEFAULT_255_2_778
10
14.0191532
20
73.9446489
11
14.0191532
21
73.9446489
0
LINE
8
DEFAULT_255_2_778
10
12.0390532
20
75.2739489
11
12.5835532
21
75.2739489
0
LINE
8
DEFAULT_255_2_778
10
12.5835532
20
75.2739489
11
12.5835532
21
74.5466489
0
LINE
8
DEFAULT_255_2_778
10
12.5835532
20
74.5466489
11
13.0291532
21
75.2739489
0
LINE
8
DEFAULT_255_2_778
10
13.0291532
20
75.2739489
11
13.4995532
21
75.2739489
0
LINE
8
DEFAULT_255_2_778
10
13.4995532
20
75.2739489
11
12.9796532
21
74.4211489
0
LINE
8
DEFAULT_255_2_778
10
12.9796532
20
74.4211489
11
13.5985532
21
73.3678489
0
LINE
8
DEFAULT_255_2_778
10
13.5985532
20
73.3678489
11
13.0291532
21
73.3678489
0
LINE
8
DEFAULT_255_2_778
10
13.0291532
20
73.3678489
11
12.5586532
21
74.1703489
0
LINE
8
DEFAULT_255_2_778
10
12.5586532
20
74.1703489
11
12.5586532
21
73.3678489
0
LINE
8
DEFAULT_255_2_778
10
12.5586532
20
73.3678489
11
12.0390532
21
73.3678489
0
LINE
8
DEFAULT_255_2_778
10
12.0390532
20
73.3678489
11
12.0390532
21
75.2739489
0
LINE
8
DEFAULT_255_2_778
10
19.9765417
20
60.721908
11
18.6536417
21
60.721908
0
LINE
8
DEFAULT_255_2_778
10
18.6536417
20
60.721908
11
18.6536417
21
35.586508
0
LINE
8
DEFAULT_255_2_778
10
17.3307834
20
35.5864333
11
19.9765834
21
35.5864333
0
LINE
8
DEFAULT_255_2_778
10
19.9765834
20
35.5864333
11
19.9765834
21
30.2947333
0
LINE
8
DEFAULT_255_2_778
10
19.9765834
20
30.2947333
11
17.3307834
21
30.2947333
0
LINE
8
DEFAULT_255_2_778
10
17.3307834
20
30.2947333
11
17.3307834
21
35.5864333
0
ARC
8
DEFAULT_255_2_778_1
10
21.1303591
20
30.397177
40
4.816461
50
120.9442904
51
122.351755
0
ARC
8
DEFAULT_255_2_778_1
10
20.6837523
20
31.1008039
40
3.9830657
50
122.3407904
51
124.1946752
0
ARC
8
DEFAULT_255_2_778_1
10
20.2438464
20
31.7473306
40
3.2010724
50
124.1855758
51
126.4338849
0
ARC
8
DEFAULT_255_2_778_1
10
19.8579129
20
32.2700611
40
2.5513094
50
126.4326926
51
128.8877368
0
ARC
8
DEFAULT_255_2_778_1
10
19.5230968
20
32.6844658
40
2.0185498
50
128.8749205
51
131.8726567
0
ARC
8
DEFAULT_255_2_778_1
10
19.2259677
20
33.0154854
40
1.5737356
50
131.8616166
51
135.4168838
0
ARC
8
DEFAULT_255_2_778_1
10
18.963168
20
33.2736765
40
1.2053256
50
135.3893975
51
139.9687014
0
ARC
8
DEFAULT_255_2_778_1
10
18.7302889
20
33.4685102
40
0.9016937
50
139.9301659
51
145.9260426
0
ARC
8
DEFAULT_255_2_778_1
10
18.534154
20
33.6005104
40
0.6652776
50
145.8787362
51
153.8146208
0
ARC
8
DEFAULT_255_2_778_1
10
18.3820553
20
33.6748797
40
0.4959714
50
153.770634
51
164.3484794
0
ARC
8
DEFAULT_255_2_778_1
10
18.2807387
20
33.7030786
40
0.3908039
50
164.3220276
51
179.8083066
0
ARC
8
DEFAULT_255_2_778_1
10
18.3017789
20
33.711215
40
0.4118985
50
180.9499449
51
213.8111542
0
ARC
8
DEFAULT_255_2_778_1
10
18.5776828
20
33.8807896
40
0.73561
50
212.8271214
51
224.258472
0
ARC
8
DEFAULT_255_2_778_1
10
18.9605335
20
34.2501236
40
1.267567
50
224.1376218
51
231.4508261
0
ARC
8
DEFAULT_255_2_778_1
10
19.6032195
20
35.0531168
40
2.2960809
50
231.3955893
51
236.1256478
0
ARC
8
DEFAULT_255_2_778_1
10
21.4355223
20
37.7996293
40
5.5976905
50
236.2233172
51
239.1314682
0
ARC
8
DEFAULT_255_2_778_1
10
33.385427
20
57.5273568
40
28.6623793
50
238.8606853
51
239.0711101
0
ARC
8
DEFAULT_255_2_778_1
10
14.2132281
20
25.4302653
40
8.7248518
50
57.2420924
51
59.4062964
0
ARC
8
DEFAULT_255_2_778_1
10
17.4409241
20
30.4612102
40
2.747542
50
52.8289294
51
57.079028
0
ARC
8
DEFAULT_255_2_778_1
10
18.2155783
20
31.4815488
40
1.466457
50
46.3041868
51
52.8596521
0
ARC
8
DEFAULT_255_2_778_1
10
18.6478073
20
31.9316842
40
0.8424061
50
36.2174211
51
46.4090895
0
ARC
8
DEFAULT_255_2_778_1
10
18.9323088
20
32.1365128
40
0.4918609
50
17.400375
51
36.5489745
0
ARC
8
DEFAULT_255_2_778_1
10
19.0463994
20
32.1763754
40
0.3710912
50
0.0676858
51
16.7951297
0
ARC
8
DEFAULT_255_2_778_1
10
19.0253613
20
32.1782428
40
0.3921317
50
343.8035191
51
359.7912046
0
ARC
8
DEFAULT_255_2_778_1
10
18.9190912
20
32.2087167
40
0.5026844
50
333.2506233
51
343.8465691
0
ARC
8
DEFAULT_255_2_778_1
10
18.7652757
20
32.2854313
40
0.6745679
50
325.6600948
51
333.3122657
0
ARC
8
DEFAULT_255_2_778_1
10
18.5698344
20
32.4182296
40
0.9108568
50
319.7560915
51
325.6976089
0
ARC
8
DEFAULT_255_2_778_1
10
18.341699
20
32.6100002
40
1.2088854
50
315.4577584
51
319.8037947
0
ARC
8
DEFAULT_255_2_778_1
10
18.0783127
20
32.8688507
40
1.5781764
50
311.7298824
51
315.4670864
0
ARC
8
DEFAULT_255_2_778_1
10
17.7692879
20
33.2144074
40
2.0417554
50
308.723055
51
311.7470879
0
ARC
8
DEFAULT_255_2_778_1
10
17.415089
20
33.6556492
40
2.6075745
50
306.1165163
51
308.7300151
0
ARC
8
DEFAULT_255_2_778_1
10
17.0121091
20
34.2069523
40
3.2904564
50
303.9559446
51
306.1266333
0
ARC
8
DEFAULT_255_2_778_1
10
16.6005432
20
34.816215
40
4.0257023
50
302.3733397
51
303.9712246
0
ARC
8
DEFAULT_255_2_778_1
10
16.1809347
20
35.4777058
40
4.8090549
50
300.9434827
51
302.3758078
0
LINE
8
DEFAULT_255_2_778
10
18.6536417
20
30.294808
11
18.6536417
21
5.159408
0
LINE
8
DEFAULT_255_2_778
10
18.6536417
20
5.159408
11
19.9765417
21
5.159408
0
LINE
8
DEFAULT_255_1_388
10
4.1913448
20
69.4674898
11
4.5654205
21
68.3823089
0
LINE
8
DEFAULT_255_1_388
10
4.5654205
20
68.3823089
11
4.9413033
21
69.4674898
0
LINE
8
DEFAULT_255_1_388
10
4.9413033
20
69.4674898
11
5.1310518
21
69.4674898
0
LINE
8
DEFAULT_255_1_388
10
5.1310518
20
69.4674898
11
4.643127
21
68.1519
0
LINE
8
DEFAULT_255_1_388
10
4.643127
20
68.1519
11
4.489521
21
68.1519
0
LINE
8
DEFAULT_255_1_388
10
4.489521
20
68.1519
11
4.0024998
21
69.4674898
0
LINE
8
DEFAULT_255_1_388
10
4.0024998
20
69.4674898
11
4.1913448
21
69.4674898
0
LINE
8
DEFAULT_255_1_388
10
6.0888301
20
68.929869
11
6.0888301
21
68.7130135
0
LINE
8
DEFAULT_255_1_388
10
5.2584544
20
68.6904244
11
5.2584544
21
68.9136048
0
LINE
8
DEFAULT_255_1_388
10
5.9216707
20
68.6678353
11
5.9216707
21
68.9416153
0
LINE
8
DEFAULT_255_1_388
10
5.4256138
20
68.9542652
11
5.4256138
21
68.6868102
0
ARC
8
DEFAULT_255_1_388
10
4.7110635
20
68.7075118
40
1.3777776
50
353.8440855
51
0.2287917
0
ARC
8
DEFAULT_255_1_388
10
5.2329653
20
68.6492414
40
0.852639
50
344.4934746
51
353.9763743
0
ARC
8
DEFAULT_255_1_388
10
5.569646
20
68.5535191
40
0.5026273
50
329.2803599
51
344.7473406
0
ARC
8
DEFAULT_255_1_388
10
5.6811956
20
68.4923038
40
0.3754848
50
324.9361395
51
328.6153007
0
ARC
8
DEFAULT_255_1_388
10
5.7237605
20
68.4625586
40
0.3235566
50
280.5801797
51
324.9173226
0
ARC
8
DEFAULT_255_1_388
10
5.6786234
20
68.6505236
40
0.5167077
50
269.5979457
51
281.6732777
0
ARC
8
DEFAULT_255_1_388
10
5.6705138
20
68.6370113
40
0.5032026
50
256.6228565
51
270.5105488
0
ARC
8
DEFAULT_255_1_388
10
5.625288
20
68.4628345
40
0.3233092
50
215.8618351
51
257.2787793
0
ARC
8
DEFAULT_255_1_388
10
5.7401587
20
68.5399106
40
0.4615831
50
197.9695203
51
215.2622745
0
ARC
8
DEFAULT_255_1_388
10
6.0197263
20
68.6342641
40
0.7566307
50
187.8816486
51
198.2346584
0
ARC
8
DEFAULT_255_1_388
10
6.4650501
20
68.6985453
40
1.2065653
50
180.8977266
51
188.0054894
0
ARC
8
DEFAULT_255_1_388
10
6.7700715
20
68.71004
40
1.5117443
50
180.7434591
51
181.152202
0
ARC
8
DEFAULT_255_1_388
10
6.6025711
20
68.9190371
40
1.3441277
50
173.7674302
51
180.2315596
0
ARC
8
DEFAULT_255_1_388
10
6.094358
20
68.9764779
40
0.8326847
50
164.3058537
51
173.9000553
0
ARC
8
DEFAULT_255_1_388
10
5.766758
20
69.0708652
40
0.4917711
50
148.7922028
51
164.5682288
0
ARC
8
DEFAULT_255_1_388
10
5.6598317
20
69.1305457
40
0.3694204
50
144.5883979
51
148.1161588
0
ARC
8
DEFAULT_255_1_388
10
5.6211062
20
69.1575667
40
0.322202
50
101.6440149
51
144.5142619
0
ARC
8
DEFAULT_255_1_388
10
5.6689255
20
68.9675337
40
0.5180451
50
89.528284
51
102.5820197
0
ARC
8
DEFAULT_255_1_388
10
5.6778247
20
68.9631376
40
0.5224441
50
77.0437914
51
90.508231
0
ARC
8
DEFAULT_255_1_388
10
5.72305
20
69.1479272
40
0.3322297
50
48.2777708
51
77.4996087
0
ARC
8
DEFAULT_255_1_388
10
5.731224
20
69.1624557
40
0.315966
50
36.3141586
51
47.6307332
0
ARC
8
DEFAULT_255_1_388
10
5.6334962
20
69.0966159
40
0.4337313
50
18.2931065
51
35.6770203
0
ARC
8
DEFAULT_255_1_388
10
5.3473803
20
68.9984107
40
0.7362203
50
8.0246996
51
18.5605636
0
ARC
8
DEFAULT_255_1_388
10
4.8790159
20
68.9292432
40
1.2096583
50
1.127539
51
8.1718423
0
ARC
8
DEFAULT_255_1_388
10
4.5141292
20
68.9149374
40
1.5747719
50
0.5432713
51
1.38669
0
ARC
8
DEFAULT_255_1_388
10
4.7198671
20
68.9456163
40
1.2018103
50
359.8092569
51
4.9408001
0
ARC
8
DEFAULT_255_1_388
10
5.1935252
20
68.98789
40
0.7262727
50
4.8364937
51
12.2906017
0
ARC
8
DEFAULT_255_1_388
10
5.5034717
20
69.0569485
40
0.4087324
50
12.0806994
51
23.8171225
0
ARC
8
DEFAULT_255_1_388
10
5.6355113
20
69.1128508
40
0.2653719
50
24.2874621
51
31.3934353
0
ARC
8
DEFAULT_255_1_388
10
5.6945549
20
69.1514822
40
0.1948607
50
30.7407708
51
82.4658033
0
ARC
8
DEFAULT_255_1_388
10
5.674321
20
69.0521017
40
0.2961198
50
81.1057101
51
90.2187368
0
ARC
8
DEFAULT_255_1_388
10
5.6703022
20
69.0811421
40
0.2670929
50
89.380395
51
105.6763916
0
ARC
8
DEFAULT_255_1_388
10
5.6496743
20
69.156132
40
0.1893189
50
105.7980655
51
149.7387869
0
ARC
8
DEFAULT_255_1_388
10
5.7693884
20
69.0841719
40
0.3289892
50
149.4208441
51
163.628295
0
ARC
8
DEFAULT_255_1_388
10
6.0046113
20
69.0124345
40
0.5749004
50
163.3764549
51
172.141138
0
ARC
8
DEFAULT_255_1_388
10
6.3758835
20
68.9592582
40
0.9499585
50
172.0258462
51
178.0705453
0
ARC
8
DEFAULT_255_1_388
10
6.7180387
20
68.9430682
40
1.2924734
50
177.8639301
51
179.5036263
0
ARC
8
DEFAULT_255_1_388
10
6.5961406
20
68.6827151
40
1.170534
50
179.7995545
51
185.246089
0
ARC
8
DEFAULT_255_1_388
10
6.1412999
20
68.6396404
40
0.7136613
50
185.1411911
51
193.0082205
0
ARC
8
DEFAULT_255_1_388
10
5.843926
20
68.5693441
40
0.4080987
50
192.7897338
51
205.2507384
0
ARC
8
DEFAULT_255_1_388
10
5.726147
20
68.5167538
40
0.2791522
50
205.8001921
51
211.2545876
0
ARC
8
DEFAULT_255_1_388
10
5.6673009
20
68.4773132
40
0.2084074
50
210.3789935
51
238.4007996
0
ARC
8
DEFAULT_255_1_388
10
5.6651095
20
68.4825786
40
0.2117943
50
239.6521916
51
265.9793852
0
ARC
8
DEFAULT_255_1_388
10
5.6746944
20
68.5582358
40
0.2879689
50
265.1324455
51
270.0603288
0
ARC
8
DEFAULT_255_1_388
10
5.6779321
20
68.5217418
40
0.2514919
50
269.3314378
51
287.2180039
0
ARC
8
DEFAULT_255_1_388
10
5.6934403
20
68.4651291
40
0.1928357
50
287.7957942
51
329.0808983
0
ARC
8
DEFAULT_255_1_388
10
5.585716
20
68.5323651
40
0.319808
50
328.6635261
51
343.3325043
0
ARC
8
DEFAULT_255_1_388
10
5.3412619
20
68.6085195
40
0.5758408
50
343.0498092
51
351.9392499
0
ARC
8
DEFAULT_255_1_388
10
4.951194
20
68.6660205
40
0.9701202
50
351.8071632
51
357.7957897
0
ARC
8
DEFAULT_255_1_388
10
4.5877417
20
68.6848724
40
1.3340376
50
357.5870923
51
359.2682493
0
LINE
8
DEFAULT_255_1_388
10
22.3380448
20
69.4674898
11
22.7121205
21
68.3823089
0
LINE
8
DEFAULT_255_1_388
10
22.7121205
20
68.3823089
11
23.0880033
21
69.4674898
0
LINE
8
DEFAULT_255_1_388
10
23.0880033
20
69.4674898
11
23.2777518
21
69.4674898
0
LINE
8
DEFAULT_255_1_388
10
23.2777518
20
69.4674898
11
22.789827
21
68.1519
0
LINE
8
DEFAULT_255_1_388
10
22.789827
20
68.1519
11
22.636221
21
68.1519
0
LINE
8
DEFAULT_255_1_388
10
22.636221
20
68.1519
11
22.1491998
21
69.4674898
0
LINE
8
DEFAULT_255_1_388
10
22.1491998
20
69.4674898
11
22.3380448
21
69.4674898
0
LINE
8
DEFAULT_255_1_388
10
23.959943
20
69.4738148
11
23.959943
21
68.1519
0
LINE
8
DEFAULT_255_1_388
10
23.959943
20
68.1519
11
23.79188
21
68.1519
0
LINE
8
DEFAULT_255_1_388
10
23.79188
20
68.1519
11
23.79188
21
69.265995
0
LINE
8
DEFAULT_255_1_388
10
23.79188
20
69.265995
11
23.4548504
21
69.1422066
0
LINE
8
DEFAULT_255_1_388
10
23.4548504
20
69.1422066
11
23.4548504
21
69.2940055
0
LINE
8
DEFAULT_255_1_388
10
23.4548504
20
69.2940055
11
23.9337396
21
69.4738148
0
LINE
8
DEFAULT_255_1_388
10
23.9337396
20
69.4738148
11
23.959943
21
69.4738148
0
LINE
8
DEFAULT_255_1_388
10
24.3848819
20
5.9674898
11
24.3848819
21
5.8735191
0
LINE
8
DEFAULT_255_1_388
10
24.3848819
20
5.8735191
11
23.8400325
21
4.6519
0
LINE
8
DEFAULT_255_1_388
10
23.8400325
20
4.6519
11
23.664741
21
4.6519
0
LINE
8
DEFAULT_255_1_388
10
23.664741
20
4.6519
11
24.2077833
21
5.830148
0
LINE
8
DEFAULT_255_1_388
10
24.2077833
20
5.830148
11
23.4957745
21
5.830148
0
LINE
8
DEFAULT_255_1_388
10
23.4957745
20
5.830148
11
23.4957745
21
5.9674898
0
LINE
8
DEFAULT_255_1_388
10
23.4957745
20
5.9674898
11
24.3848819
21
5.9674898
0
LINE
8
DEFAULT_255_1_388
10
24.1617015
20
13.9058934
11
24.1915191
21
13.9058934
0
LINE
8
DEFAULT_255_1_388
10
24.1915191
20
13.9058934
11
24.1915191
21
13.7640338
0
LINE
8
DEFAULT_255_1_388
10
24.1915191
20
13.7640338
11
24.1607979
21
13.7640338
0
LINE
8
DEFAULT_255_1_388
10
23.5454705
20
13.0899747
11
23.5454705
21
13.1541278
0
LINE
8
DEFAULT_255_1_388
10
23.7135335
20
13.1324422
11
23.7135335
21
13.0709999
0
ARC
8
DEFAULT_255_1_388
10
24.1666871
20
13.2017826
40
0.562282
50
90.6001079
51
104.5146616
0
ARC
8
DEFAULT_255_1_388
10
24.122983
20
13.36431
40
0.3939917
50
104.2855758
51
133.8630124
0
ARC
8
DEFAULT_255_1_388
10
24.1414083
20
13.3521243
40
0.4155734
50
134.5304124
51
161.6210222
0
ARC
8
DEFAULT_255_1_388
10
24.3274015
20
13.2865421
40
0.6127682
50
161.2850533
51
174.2074364
0
ARC
8
DEFAULT_255_1_388
10
24.4863582
20
13.2646437
40
0.7731446
50
173.7817938
51
174.9251711
0
ARC
8
DEFAULT_255_1_388
10
23.9737775
20
13.109127
40
0.3412588
50
95.8332067
51
138.995412
0
ARC
8
DEFAULT_255_1_388
10
23.9989056
20
12.9652695
40
0.4870358
50
89.8755506
51
97.0540979
0
ARC
8
DEFAULT_255_1_388
10
24.0042445
20
13.0592841
40
0.3930432
50
71.6407016
51
90.6240821
0
ARC
8
DEFAULT_255_1_388
10
24.0211838
20
13.1216433
40
0.3285421
50
39.6368051
51
71.0190743
0
ARC
8
DEFAULT_255_1_388
10
23.9495746
20
13.0597586
40
0.4231706
50
10.6588054
51
39.9044509
0
ARC
8
DEFAULT_255_1_388
10
23.7754291
20
13.0219223
40
0.60133
50
359.6827842
51
11.1326896
0
ARC
8
DEFAULT_255_1_388
10
23.7709627
20
13.0139715
40
0.6058047
50
347.2485908
51
0.4371098
0
ARC
8
DEFAULT_255_1_388
10
23.9585413
20
12.9688379
40
0.4128987
50
318.1408565
51
347.6118497
0
ARC
8
DEFAULT_255_1_388
10
23.9951009
20
12.9387903
40
0.3656244
50
275.6342406
51
317.824739
0
ARC
8
DEFAULT_255_1_388
10
23.970253
20
13.0849827
40
0.513655
50
269.8872513
51
276.7916069
0
ARC
8
DEFAULT_255_1_388
10
23.9640723
20
12.9696181
40
0.398323
50
246.9139443
51
270.7436787
0
ARC
8
DEFAULT_255_1_388
10
23.9647919
20
12.9536044
40
0.3839368
50
218.1665534
51
245.8780431
0
ARC
8
DEFAULT_255_1_388
10
24.0637291
20
13.0363903
40
0.5128958
50
191.4115343
51
218.6077624
0
ARC
8
DEFAULT_255_1_388
10
24.2817607
20
13.0852777
40
0.7363054
50
179.6344971
51
191.7836758
0
ARC
8
DEFAULT_255_1_388
10
24.9097482
20
13.1616495
40
1.3642984
50
171.4523743
51
180.3158856
0
ARC
8
DEFAULT_255_1_388
10
24.4153209
20
13.2385895
40
0.8639311
50
157.9802296
51
171.6246761
0
ARC
8
DEFAULT_255_1_388
10
24.1662559
20
13.3379038
40
0.5958004
50
141.4299236
51
157.8541251
0
ARC
8
DEFAULT_255_1_388
10
24.0940643
20
13.3889746
40
0.5075416
50
102.871586
51
140.8564533
0
ARC
8
DEFAULT_255_1_388
10
24.1669195
20
13.1144943
40
0.7914163
50
90.377773
51
103.5868422
0
ARC
8
DEFAULT_255_1_388
10
23.9713717
20
13.0464543
40
0.2667015
50
89.8751238
51
126.2072139
0
ARC
8
DEFAULT_255_1_388
10
23.9765188
20
13.0290847
40
0.2838229
50
124.9742447
51
144.8960197
0
ARC
8
DEFAULT_255_1_388
10
23.9567433
20
13.0451981
40
0.2583845
50
145.2974778
51
160.2660922
0
ARC
8
DEFAULT_255_1_388
10
24.3023921
20
13.0674151
40
0.5888695
50
179.6512124
51
190.285571
0
ARC
8
DEFAULT_255_1_388
10
24.1118401
20
13.0314968
40
0.3949683
50
190.0944895
51
207.5099647
0
ARC
8
DEFAULT_255_1_388
10
24.0481982
20
13.0012177
40
0.3245464
50
207.9585471
51
216.325377
0
ARC
8
DEFAULT_255_1_388
10
24.0099619
20
12.9697712
40
0.2751259
50
215.7661336
51
232.5457193
0
ARC
8
DEFAULT_255_1_388
10
23.9668735
20
12.9150273
40
0.2054668
50
232.8005815
51
270.6605497
0
ARC
8
DEFAULT_255_1_388
10
23.972016
20
12.9559853
40
0.2464268
50
269.3550767
51
288.474612
0
ARC
8
DEFAULT_255_1_388
10
23.9824667
20
12.9166721
40
0.2058436
50
289.1831976
51
322.9685307
0
ARC
8
DEFAULT_255_1_388
10
23.9136768
20
12.9709279
40
0.2934408
50
322.6007085
51
346.5183319
0
ARC
8
DEFAULT_255_1_388
10
23.7834524
20
13.0041434
40
0.4278249
50
346.2584622
51
358.7739592
0
ARC
8
DEFAULT_255_1_388
10
23.66831
20
13.0103829
40
0.5430876
50
358.3757628
51
0.0082477
0
ARC
8
DEFAULT_255_1_388
10
23.7539918
20
13.0134856
40
0.4574157
50
359.6211417
51
11.28403
0
ARC
8
DEFAULT_255_1_388
10
23.8976524
20
13.0434535
40
0.3106708
50
11.0483152
51
31.8145585
0
ARC
8
DEFAULT_255_1_388
10
23.9324229
20
13.0623045
40
0.2711963
50
32.3028554
51
38.0820598
0
ARC
8
DEFAULT_255_1_388
10
23.9797462
20
13.1051717
40
0.2075566
50
36.8249851
51
85.741667
0
ARC
8
DEFAULT_255_1_388
10
23.9721875
20
13.0488065
40
0.2643487
50
85.0150021
51
90.050843
0
LINE
8
DEFAULT_255_1_388
10
23.7460618
20
21.1521666
11
23.6123343
21
21.1865021
0
LINE
8
DEFAULT_255_1_388
10
23.6123343
20
21.1865021
11
23.679198
21
21.8424898
0
LINE
8
DEFAULT_255_1_388
10
23.679198
20
21.8424898
11
24.3532571
21
21.8424898
0
LINE
8
DEFAULT_255_1_388
10
24.3532571
20
21.8424898
11
24.3532571
21
21.6879803
0
LINE
8
DEFAULT_255_1_388
10
24.3532571
20
21.6879803
11
23.8210577
21
21.6879803
0
LINE
8
DEFAULT_255_1_388
10
23.8210577
20
21.6879803
11
23.7813008
21
21.3292652
0
LINE
8
DEFAULT_255_1_388
10
23.5653489
20
20.8729652
11
23.7234727
21
20.8729652
0
LINE
8
DEFAULT_255_1_388
10
23.7903365
20
21.1883092
11
23.7460618
21
21.1521666
0
ARC
8
DEFAULT_255_1_388
10
23.9899622
20
20.9715241
40
0.4141476
50
93.7181681
51
120.253934
0
ARC
8
DEFAULT_255_1_388
10
24.0005674
20
20.8806284
40
0.5055616
50
89.9660471
51
94.2495185
0
ARC
8
DEFAULT_255_1_388
10
24.0051496
20
20.9469154
40
0.4392953
50
73.8045384
51
90.5585736
0
ARC
8
DEFAULT_255_1_388
10
24.0315754
20
21.043452
40
0.3392225
50
41.3071072
51
73.543002
0
ARC
8
DEFAULT_255_1_388
10
23.9847574
20
21.0031461
40
0.4009977
50
13.5075837
51
41.2174839
0
ARC
8
DEFAULT_255_1_388
10
23.8000671
20
20.9547907
40
0.5918864
50
1.1330171
51
13.8830737
0
ARC
8
DEFAULT_255_1_388
10
23.6404317
20
20.9462522
40
0.7516787
50
359.9925091
51
1.5431298
0
ARC
8
DEFAULT_255_1_388
10
23.7848932
20
20.9416027
40
0.6072343
50
347.8572712
51
0.4294349
0
ARC
8
DEFAULT_255_1_388
10
23.9818066
20
20.8969898
40
0.4053482
50
323.6727442
51
348.1674594
0
ARC
8
DEFAULT_255_1_388
10
24.0149031
20
20.8768175
40
0.3667495
50
316.8171818
51
323.1486802
0
ARC
8
DEFAULT_255_1_388
10
24.0218155
20
20.8726612
40
0.358869
50
281.839603
51
316.5458142
0
ARC
8
DEFAULT_255_1_388
10
23.9795442
20
21.0476363
40
0.5388223
50
269.5770964
51
282.4214641
0
ARC
8
DEFAULT_255_1_388
10
23.9715363
20
21.023593
40
0.5147801
50
256.2425863
51
270.4486481
0
ARC
8
DEFAULT_255_1_388
10
23.9378891
20
20.8886124
40
0.3756708
50
228.9024379
51
256.33135
0
ARC
8
DEFAULT_255_1_388
10
23.9295871
20
20.8755054
40
0.360344
50
193.7536029
51
228.5272638
0
ARC
8
DEFAULT_255_1_388
10
24.0688436
20
20.9163463
40
0.5053599
50
184.9244437
51
194.4976052
0
ARC
8
DEFAULT_255_1_388
10
24.0905077
20
20.9203722
40
0.3700839
50
187.3596909
51
198.6733728
0
ARC
8
DEFAULT_255_1_388
10
23.9724321
20
20.8794373
40
0.2451195
50
198.4453795
51
217.7945479
0
ARC
8
DEFAULT_255_1_388
10
23.9391493
20
20.8558563
40
0.2043754
50
218.2887146
51
228.5613203
0
ARC
8
DEFAULT_255_1_388
10
23.95015
20
20.8706902
40
0.2227819
50
228.9652423
51
258.1237049
0
ARC
8
DEFAULT_255_1_388
10
23.9732937
20
20.9697964
40
0.3245374
50
257.7260585
51
270.4013717
0
ARC
8
DEFAULT_255_1_388
10
23.9783435
20
20.9197255
40
0.2744726
50
269.4204315
51
286.420998
0
ARC
8
DEFAULT_255_1_388
10
23.9950491
20
20.8590705
40
0.2115721
50
286.7250065
51
320.6004665
0
ARC
8
DEFAULT_255_1_388
10
23.9519407
20
20.8940527
40
0.2670878
50
320.6712228
51
344.5440474
0
ARC
8
DEFAULT_255_1_388
10
23.821812
20
20.9322394
40
0.4026927
50
344.241448
51
356.735803
0
ARC
8
DEFAULT_255_1_388
10
23.6814428
20
20.9438656
40
0.5435085
50
356.3547471
51
0.0507222
0
ARC
8
DEFAULT_255_1_388
10
23.8316693
20
20.9473812
40
0.3932934
50
359.5579289
51
12.9534322
0
ARC
8
DEFAULT_255_1_388
10
23.9503533
20
20.9761586
40
0.2711827
50
12.6489751
51
41.608121
0
ARC
8
DEFAULT_255_1_388
10
23.9762693
20
20.9981946
40
0.2371737
50
41.7851122
51
85.9892156
0
ARC
8
DEFAULT_255_1_388
10
23.9624003
20
20.9066738
40
0.3295244
50
84.6965848
51
90.0672125
0
ARC
8
DEFAULT_255_1_388
10
23.959757
20
20.8315118
40
0.4046926
50
89.6804991
51
99.161352
0
ARC
8
DEFAULT_255_1_388
10
23.9366579
20
20.9695848
40
0.2647044
50
98.9836248
51
113.8905702
0
ARC
8
DEFAULT_255_1_388
10
23.9108254
20
21.0305118
40
0.1985386
50
114.195234
51
127.3641866
0
LINE
8
DEFAULT_255_1_388
10
23.9766151
20
29.7799898
11
23.9766151
21
28.906243
0
LINE
8
DEFAULT_255_1_388
10
23.9766151
20
28.906243
11
24.1591352
21
28.906243
0
LINE
8
DEFAULT_255_1_388
10
24.1591352
20
28.906243
11
24.1591352
21
28.7698048
0
LINE
8
DEFAULT_255_1_388
10
24.1591352
20
28.7698048
11
23.9766151
21
28.7698048
0
LINE
8
DEFAULT_255_1_388
10
23.9766151
20
28.7698048
11
23.9766151
21
28.4644
0
LINE
8
DEFAULT_255_1_388
10
23.9766151
20
28.4644
11
23.8085521
21
28.4644
0
LINE
8
DEFAULT_255_1_388
10
23.8085521
20
28.4644
11
23.8085521
21
28.7698048
0
LINE
8
DEFAULT_255_1_388
10
23.8085521
20
28.7698048
11
23.2094889
21
28.7698048
0
LINE
8
DEFAULT_255_1_388
10
23.2094889
20
28.7698048
11
23.2094889
21
28.8682933
0
LINE
8
DEFAULT_255_1_388
10
23.2094889
20
28.8682933
11
23.7986129
21
29.7799898
0
LINE
8
DEFAULT_255_1_388
10
23.7986129
20
29.7799898
11
23.9766151
21
29.7799898
0
LINE
8
DEFAULT_255_1_388
10
23.7886737
20
29.5152455
11
23.3992375
21
28.906243
0
LINE
8
DEFAULT_255_1_388
10
23.3992375
20
28.906243
11
23.8085521
21
28.906243
0
LINE
8
DEFAULT_255_1_388
10
23.8085521
20
28.906243
11
23.8085521
21
29.551388
0
LINE
8
DEFAULT_255_1_388
10
23.8085521
20
29.551388
11
23.7886737
21
29.5152455
0
LINE
8
DEFAULT_255_1_388
10
23.7785901
20
37.0045775
11
23.7785901
21
37.1410157
0
LINE
8
DEFAULT_255_1_388
10
23.7785901
20
37.1410157
11
23.9041856
21
37.1410157
0
LINE
8
DEFAULT_255_1_388
10
23.6900408
20
37.3723282
11
23.5228814
21
37.3723282
0
LINE
8
DEFAULT_255_1_388
10
23.5111351
20
36.7488688
11
23.679198
21
36.7488688
0
LINE
8
DEFAULT_255_1_388
10
23.9041856
20
37.0045775
11
23.7785901
21
37.0045775
0
ARC
8
DEFAULT_255_1_388
10
23.9009082
20
37.5226922
40
0.3816905
50
270.491971
51
281.8953028
0
ARC
8
DEFAULT_255_1_388
10
23.9280509
20
37.3987199
40
0.2547877
50
281.6690378
51
301.2943765
0
ARC
8
DEFAULT_255_1_388
10
23.9471961
20
37.3636926
40
0.2149197
50
301.7834992
51
311.754567
0
ARC
8
DEFAULT_255_1_388
10
23.9575002
20
37.352265
40
0.1995326
50
311.7325027
51
354.2803031
0
ARC
8
DEFAULT_255_1_388
10
23.8757418
20
37.366328
40
0.2823461
50
353.0941646
51
0.1174696
0
ARC
8
DEFAULT_255_1_388
10
23.8238976
20
37.3716874
40
0.3342238
50
359.1804452
51
15.0452323
0
ARC
8
DEFAULT_255_1_388
10
23.9753034
20
37.4158546
40
0.1765747
50
13.957816
51
77.6713812
0
ARC
8
DEFAULT_255_1_388
10
23.931827
20
37.2600464
40
0.3381982
50
76.111571
51
90.7028736
0
ARC
8
DEFAULT_255_1_388
10
23.9251682
20
37.290825
40
0.3074046
50
89.5321574
51
103.5319393
0
ARC
8
DEFAULT_255_1_388
10
23.9026066
20
37.3807443
40
0.2147041
50
103.2930114
51
133.5619756
0
ARC
8
DEFAULT_255_1_388
10
23.8976007
20
37.3874351
40
0.2064084
50
133.8349761
51
173.5343225
0
ARC
8
DEFAULT_255_1_388
10
23.9789665
20
37.3730144
40
0.2889266
50
172.5097183
51
180.1360699
0
ARC
8
DEFAULT_255_1_388
10
23.8719429
20
37.376888
40
0.3490913
50
155.3483706
51
180.7484035
0
ARC
8
DEFAULT_255_1_388
10
23.8664404
20
37.3736519
40
0.3454798
50
131.5745177
51
154.4799474
0
ARC
8
DEFAULT_255_1_388
10
23.9016687
20
37.3380422
40
0.3955058
50
96.9874487
51
131.9690874
0
ARC
8
DEFAULT_255_1_388
10
23.926358
20
37.1979407
40
0.537622
50
89.8592909
51
97.7827481
0
ARC
8
DEFAULT_255_1_388
10
23.9317689
20
37.168436
40
0.5671399
50
78.3654493
51
90.4132586
0
ARC
8
DEFAULT_255_1_388
10
23.972033
20
37.3550918
40
0.3762034
50
56.6229818
51
78.6387103
0
ARC
8
DEFAULT_255_1_388
10
23.9962159
20
37.3973846
40
0.3275964
50
47.0254604
51
56.085558
0
ARC
8
DEFAULT_255_1_388
10
23.998441
20
37.4018189
40
0.3228382
50
10.9207523
51
46.777927
0
ARC
8
DEFAULT_255_1_388
10
23.8450004
20
37.3663401
40
0.4802559
50
359.6364235
51
11.6087615
0
ARC
8
DEFAULT_255_1_388
10
24.051417
20
37.3646404
40
0.273833
50
332.3549969
51
359.7179765
0
ARC
8
DEFAULT_255_1_388
10
23.978257
20
37.3993285
40
0.3547505
50
325.2332381
51
332.8746682
0
ARC
8
DEFAULT_255_1_388
10
23.9954153
20
37.3873763
40
0.3338396
50
292.9803892
51
325.2391113
0
ARC
8
DEFAULT_255_1_388
10
23.9643349
20
37.4478679
40
0.4016959
50
292.542178
51
293.6931461
0
ARC
8
DEFAULT_255_1_388
10
24.0086921
20
36.7213036
40
0.372079
50
57.643292
51
72.8626085
0
ARC
8
DEFAULT_255_1_388
10
24.0485755
20
36.7859273
40
0.2961455
50
36.7246661
51
57.4701329
0
ARC
8
DEFAULT_255_1_388
10
24.0472912
20
36.787347
40
0.2963321
50
8.054535
51
36.3561529
0
ARC
8
DEFAULT_255_1_388
10
23.9502585
20
36.7699073
40
0.3948682
50
359.8316595
51
8.5873361
0
ARC
8
DEFAULT_255_1_388
10
23.9080059
20
36.764497
40
0.4371398
50
343.9831631
51
0.557075
0
ARC
8
DEFAULT_255_1_388
10
24.0077108
20
36.7371963
40
0.3337749
50
311.6358204
51
343.7652116
0
ARC
8
DEFAULT_255_1_388
10
23.9651362
20
36.7851955
40
0.3979351
50
279.7829743
51
311.625622
0
ARC
8
DEFAULT_255_1_388
10
23.9312497
20
36.9468642
40
0.5630417
50
269.7285092
51
280.3857694
0
ARC
8
DEFAULT_255_1_388
10
23.924281
20
36.9422241
40
0.5584119
50
256.6827433
51
270.4412869
0
ARC
8
DEFAULT_255_1_388
10
23.8861797
20
36.7864698
40
0.3980715
50
229.4223821
51
256.8554507
0
ARC
8
DEFAULT_255_1_388
10
23.839535
20
36.7339683
40
0.3278564
50
181.8183354
51
229.6455015
0
ARC
8
DEFAULT_255_1_388
10
23.956496
20
36.7486825
40
0.4453611
50
179.9760419
51
183.2330638
0
ARC
8
DEFAULT_255_1_388
10
23.9371512
20
36.7463781
40
0.2579652
50
179.4467996
51
196.2871626
0
ARC
8
DEFAULT_255_1_388
10
23.8822966
20
36.7313709
40
0.2011057
50
196.5661293
51
227.7059371
0
ARC
8
DEFAULT_255_1_388
10
23.9007573
20
36.7520155
40
0.2287994
50
227.7653015
51
257.8763321
0
ARC
8
DEFAULT_255_1_388
10
23.9260656
20
36.8580961
40
0.3378385
50
257.4583525
51
270.4267406
0
ARC
8
DEFAULT_255_1_388
10
23.9311906
20
36.890723
40
0.3704652
50
269.5965319
51
280.8788143
0
ARC
8
DEFAULT_255_1_388
10
23.9570134
20
36.7617529
40
0.2389415
50
280.6347277
51
299.8594068
0
ARC
8
DEFAULT_255_1_388
10
23.9784903
20
36.7209736
40
0.19289
50
300.3575552
51
314.5515667
0
ARC
8
DEFAULT_255_1_388
10
23.9691579
20
36.7278025
40
0.204312
50
315.0730962
51
345.0429362
0
ARC
8
DEFAULT_255_1_388
10
23.8653087
20
36.7580539
40
0.31246
50
344.598526
51
357.9270698
0
ARC
8
DEFAULT_255_1_388
10
23.7643391
20
36.7649705
40
0.4136265
50
357.4755098
51
0.0224936
0
ARC
8
DEFAULT_255_1_388
10
23.8796269
20
36.7677099
40
0.2983498
50
359.5051035
51
13.4236939
0
ARC
8
DEFAULT_255_1_388
10
23.9771359
20
36.7926637
40
0.1977186
50
12.9497905
51
48.7550905
0
ARC
8
DEFAULT_255_1_388
10
23.9566281
20
36.7646373
40
0.2323321
50
49.509109
51
72.1832965
0
ARC
8
DEFAULT_255_1_388
10
23.9163749
20
36.6451632
40
0.358397
50
71.9008458
51
84.3555134
0
ARC
8
DEFAULT_255_1_388
10
23.8982144
20
36.4919712
40
0.512641
50
84.019632
51
89.3326067
0
LINE
8
DEFAULT_255_1_388
10
24.3975318
20
44.4758382
11
24.3975318
21
44.3394
0
LINE
8
DEFAULT_255_1_388
10
24.3975318
20
44.3394
11
23.5355313
21
44.3394
0
LINE
8
DEFAULT_255_1_388
10
23.5355313
20
44.3394
11
23.5355313
21
44.4595741
0
LINE
8
DEFAULT_255_1_388
10
23.5355313
20
44.4595741
11
23.9909278
21
44.9655702
0
LINE
8
DEFAULT_255_1_388
10
23.6773909
20
45.2673607
11
23.5102315
21
45.2673607
0
LINE
8
DEFAULT_255_1_388
10
24.0894163
20
44.858046
11
23.7370262
21
44.4758382
0
LINE
8
DEFAULT_255_1_388
10
23.7370262
20
44.4758382
11
24.3975318
21
44.4758382
0
ARC
8
DEFAULT_255_1_388
10
22.4733337
20
46.3075983
40
2.0258655
50
318.5132526
51
320.7829045
0
ARC
8
DEFAULT_255_1_388
10
23.0681294
20
45.8234929
40
1.2589638
50
320.7372878
51
323.9739031
0
ARC
8
DEFAULT_255_1_388
10
23.5090226
20
45.5040554
40
0.7145141
50
323.8962701
51
328.64194
0
ARC
8
DEFAULT_255_1_388
10
23.7392484
20
45.3620545
40
0.4440242
50
328.8294576
51
331.7891185
0
ARC
8
DEFAULT_255_1_388
10
23.8514804
20
45.3041374
40
0.3177517
50
331.4254512
51
352.9365785
0
ARC
8
DEFAULT_255_1_388
10
23.8667804
20
45.300705
40
0.3021496
50
353.2257659
51
0.0166158
0
ARC
8
DEFAULT_255_1_388
10
23.8904564
20
45.3032894
40
0.2784847
50
359.486299
51
15.9343185
0
ARC
8
DEFAULT_255_1_388
10
23.9474831
20
45.3186269
40
0.2194403
50
16.1712913
51
43.5286088
0
ARC
8
DEFAULT_255_1_388
10
23.9561776
20
45.3273191
40
0.2071504
50
43.4417391
51
83.1661095
0
ARC
8
DEFAULT_255_1_388
10
23.9410937
20
45.2444316
40
0.2912888
50
82.160179
51
90.1505708
0
ARC
8
DEFAULT_255_1_388
10
23.9375418
20
45.1840279
40
0.3517025
50
89.5460741
51
102.5418361
0
ARC
8
DEFAULT_255_1_388
10
23.9102138
20
45.2999933
40
0.2325748
50
102.1738499
51
129.206123
0
ARC
8
DEFAULT_255_1_388
10
23.9013592
20
45.3139664
40
0.2161591
50
129.72865
51
135.753947
0
ARC
8
DEFAULT_255_1_388
10
23.9150074
20
45.3030728
40
0.2335433
50
136.1757367
51
166.3673339
0
ARC
8
DEFAULT_255_1_388
10
24.0282762
20
45.2727148
40
0.3507873
50
165.9090694
51
178.8684636
0
ARC
8
DEFAULT_255_1_388
10
24.1258534
20
45.2674263
40
0.4484624
50
178.4391136
51
180.0083808
0
ARC
8
DEFAULT_255_1_388
10
23.9679235
20
45.2718197
40
0.4577138
50
163.2878482
51
180.5581842
0
ARC
8
DEFAULT_255_1_388
10
23.8777276
20
45.2966393
40
0.3641968
50
133.4540601
51
162.947111
0
ARC
8
DEFAULT_255_1_388
10
23.8978158
20
45.2752789
40
0.3935189
50
100.7869829
51
133.4382499
0
ARC
8
DEFAULT_255_1_388
10
23.9369403
20
45.1010399
40
0.5720313
50
89.660664
51
101.3702276
0
ARC
8
DEFAULT_255_1_388
10
23.9444012
20
45.1079263
40
0.5651495
50
78.2172678
51
90.412935
0
ARC
8
DEFAULT_255_1_388
10
23.9843478
20
45.2906511
40
0.378122
50
55.9269121
51
78.4888449
0
ARC
8
DEFAULT_255_1_388
10
24.0064193
20
45.3287187
40
0.3342379
50
47.929771
51
55.4049217
0
ARC
8
DEFAULT_255_1_388
10
24.0178723
20
45.3403618
40
0.3179217
50
4.334829
51
48.0560205
0
ARC
8
DEFAULT_255_1_388
10
23.8946525
20
45.3212487
40
0.442341
50
359.9251713
51
5.5971671
0
ARC
8
DEFAULT_255_1_388
10
23.942868
20
45.3275728
40
0.3941854
50
337.8914027
51
358.9967534
0
ARC
8
DEFAULT_255_1_388
10
23.637625
20
45.4453295
40
0.7213271
50
326.9132501
51
338.3508308
0
ARC
8
DEFAULT_255_1_388
10
23.1892362
20
45.7327105
40
1.2538973
50
319.6471833
51
327.0959558
0
ARC
8
DEFAULT_255_1_388
10
22.757902
20
46.088505
40
1.8129975
50
317.2588228
51
319.9045804
0
LINE
8
DEFAULT_255_1_388
10
24.0931985
20
53.5988148
11
24.0931985
21
52.2769
0
LINE
8
DEFAULT_255_1_388
10
24.0931985
20
52.2769
11
23.9251355
21
52.2769
0
LINE
8
DEFAULT_255_1_388
10
23.9251355
20
52.2769
11
23.9251355
21
53.390995
0
LINE
8
DEFAULT_255_1_388
10
23.9251355
20
53.390995
11
23.588106
21
53.2672066
0
LINE
8
DEFAULT_255_1_388
10
23.588106
20
53.2672066
11
23.588106
21
53.4190055
0
LINE
8
DEFAULT_255_1_388
10
23.588106
20
53.4190055
11
24.0669951
21
53.5988148
0
LINE
8
DEFAULT_255_1_388
10
24.0669951
20
53.5988148
11
24.0931985
21
53.5988148
0
LINE
8
DEFAULT_255_1_388
10
24.3604856
20
60.992369
11
24.3604856
21
60.7755135
0
LINE
8
DEFAULT_255_1_388
10
23.5301099
20
60.7529244
11
23.5301099
21
60.9761048
0
LINE
8
DEFAULT_255_1_388
10
24.1933262
20
60.7303353
11
24.1933262
21
61.0041153
0
LINE
8
DEFAULT_255_1_388
10
23.6972693
20
61.0167652
11
23.6972693
21
60.7493102
0
ARC
8
DEFAULT_255_1_388
10
22.982719
20
60.7700118
40
1.3777776
50
353.8440855
51
0.2287917
0
ARC
8
DEFAULT_255_1_388
10
23.5046208
20
60.7117414
40
0.852639
50
344.4934746
51
353.9763743
0
ARC
8
DEFAULT_255_1_388
10
23.8413015
20
60.6160191
40
0.5026273
50
329.2803599
51
344.7473406
0
ARC
8
DEFAULT_255_1_388
10
23.9528511
20
60.5548038
40
0.3754848
50
324.9361395
51
328.6153007
0
ARC
8
DEFAULT_255_1_388
10
23.9954161
20
60.5250586
40
0.3235566
50
280.5801797
51
324.9173226
0
ARC
8
DEFAULT_255_1_388
10
23.9502789
20
60.7130236
40
0.5167077
50
269.5979457
51
281.6732777
0
ARC
8
DEFAULT_255_1_388
10
23.9421693
20
60.6995113
40
0.5032026
50
256.6228565
51
270.5105488
0
ARC
8
DEFAULT_255_1_388
10
23.8969435
20
60.5253345
40
0.3233092
50
215.8618351
51
257.2787793
0
ARC
8
DEFAULT_255_1_388
10
24.0118142
20
60.6024106
40
0.4615831
50
197.9695203
51
215.2622745
0
ARC
8
DEFAULT_255_1_388
10
24.2913818
20
60.6967641
40
0.7566307
50
187.8816486
51
198.2346584
0
ARC
8
DEFAULT_255_1_388
10
24.7367056
20
60.7610453
40
1.2065653
50
180.8977266
51
188.0054894
0
ARC
8
DEFAULT_255_1_388
10
25.041727
20
60.77254
40
1.5117443
50
180.7434591
51
181.152202
0
ARC
8
DEFAULT_255_1_388
10
24.8742266
20
60.9815371
40
1.3441277
50
173.7674302
51
180.2315596
0
ARC
8
DEFAULT_255_1_388
10
24.3660135
20
61.0389779
40
0.8326847
50
164.3058537
51
173.9000553
0
ARC
8
DEFAULT_255_1_388
10
24.0384135
20
61.1333652
40
0.4917711
50
148.7922028
51
164.5682288
0
ARC
8
DEFAULT_255_1_388
10
23.9314872
20
61.1930457
40
0.3694204
50
144.5883979
51
148.1161588
0
ARC
8
DEFAULT_255_1_388
10
23.8927618
20
61.2200667
40
0.322202
50
101.6440149
51
144.5142619
0
ARC
8
DEFAULT_255_1_388
10
23.940581
20
61.0300337
40
0.5180451
50
89.528284
51
102.5820197
0
ARC
8
DEFAULT_255_1_388
10
23.9494802
20
61.0256376
40
0.5224441
50
77.0437914
51
90.508231
0
ARC
8
DEFAULT_255_1_388
10
23.9947055
20
61.2104272
40
0.3322297
50
48.2777708
51
77.4996087
0
ARC
8
DEFAULT_255_1_388
10
24.0028795
20
61.2249557
40
0.315966
50
36.3141586
51
47.6307332
0
ARC
8
DEFAULT_255_1_388
10
23.9051518
20
61.1591159
40
0.4337313
50
18.2931065
51
35.6770203
0
ARC
8
DEFAULT_255_1_388
10
23.6190358
20
61.0609107
40
0.7362203
50
8.0246996
51
18.5605636
0
ARC
8
DEFAULT_255_1_388
10
23.1506714
20
60.9917432
40
1.2096583
50
1.127539
51
8.1718423
0
ARC
8
DEFAULT_255_1_388
10
22.7857847
20
60.9774374
40
1.5747719
50
0.5432713
51
1.38669
0
ARC
8
DEFAULT_255_1_388
10
22.9915226
20
61.0081163
40
1.2018103
50
359.8092569
51
4.9408001
0
ARC
8
DEFAULT_255_1_388
10
23.4651807
20
61.05039
40
0.7262727
50
4.8364937
51
12.2906017
0
ARC
8
DEFAULT_255_1_388
10
23.7751272
20
61.1194485
40
0.4087324
50
12.0806994
51
23.8171225
0
ARC
8
DEFAULT_255_1_388
10
23.9071668
20
61.1753508
40
0.2653719
50
24.2874621
51
31.3934353
0
ARC
8
DEFAULT_255_1_388
10
23.9662104
20
61.2139822
40
0.1948607
50
30.7407708
51
82.4658033
0
ARC
8
DEFAULT_255_1_388
10
23.9459765
20
61.1146017
40
0.2961198
50
81.1057101
51
90.2187368
0
ARC
8
DEFAULT_255_1_388
10
23.9419577
20
61.1436421
40
0.2670929
50
89.380395
51
105.6763916
0
ARC
8
DEFAULT_255_1_388
10
23.9213299
20
61.218632
40
0.1893189
50
105.7980655
51
149.7387869
0
ARC
8
DEFAULT_255_1_388
10
24.0410439
20
61.1466719
40
0.3289892
50
149.4208441
51
163.628295
0
ARC
8
DEFAULT_255_1_388
10
24.2762668
20
61.0749345
40
0.5749004
50
163.3764549
51
172.141138
0
ARC
8
DEFAULT_255_1_388
10
24.647539
20
61.0217582
40
0.9499585
50
172.0258462
51
178.0705453
0
ARC
8
DEFAULT_255_1_388
10
24.9896943
20
61.0055682
40
1.2924734
50
177.8639301
51
179.5036263
0
ARC
8
DEFAULT_255_1_388
10
24.8677961
20
60.7452151
40
1.170534
50
179.7995545
51
185.246089
0
ARC
8
DEFAULT_255_1_388
10
24.4129554
20
60.7021404
40
0.7136613
50
185.1411911
51
193.0082205
0
ARC
8
DEFAULT_255_1_388
10
24.1155815
20
60.6318441
40
0.4080987
50
192.7897338
51
205.2507384
0
ARC
8
DEFAULT_255_1_388
10
23.9978025
20
60.5792538
40
0.2791522
50
205.8001921
51
211.2545876
0
ARC
8
DEFAULT_255_1_388
10
23.9389564
20
60.5398132
40
0.2084074
50
210.3789935
51
238.4007996
0
ARC
8
DEFAULT_255_1_388
10
23.936765
20
60.5450786
40
0.2117943
50
239.6521916
51
265.9793852
0
ARC
8
DEFAULT_255_1_388
10
23.9463499
20
60.6207358
40
0.2879689
50
265.1324455
51
270.0603288
0
ARC
8
DEFAULT_255_1_388
10
23.9495876
20
60.5842418
40
0.2514919
50
269.3314378
51
287.2180039
0
ARC
8
DEFAULT_255_1_388
10
23.9650958
20
60.5276291
40
0.1928357
50
287.7957942
51
329.0808983
0
ARC
8
DEFAULT_255_1_388
10
23.8573715
20
60.5948651
40
0.319808
50
328.6635261
51
343.3325043
0
ARC
8
DEFAULT_255_1_388
10
23.6129174
20
60.6710195
40
0.5758408
50
343.0498092
51
351.9392499
0
ARC
8
DEFAULT_255_1_388
10
23.2228496
20
60.7285205
40
0.9701202
50
351.8071632
51
357.7957897
0
ARC
8
DEFAULT_255_1_388
10
22.8593973
20
60.7473724
40
1.3340376
50
357.5870923
51
359.2682493
0
ENDSEC
0
EOF