0
SECTION
2
HEADER
9
$MEASUREMENT
70
1
0
ENDSEC
0
SECTION
2
TABLES
0
TABLE
2
LTYPE
0
LTYPE
72
65
70
64
2
CONTINUOUS
3
______
73
0
40
0
0
ENDTAB
0
TABLE
2
LAYER
0
LAYER
2
DEFAULT_255_2_778
70
0
62
255
6
CONTINUOUS
0
LAYER
2
DEFAULT_255_1_234
70
0
62
255
6
CONTINUOUS
0
LAYER
2
DEFAULT_255_2_778_1
70
0
62
255
6
CONTINUOUS
0
ENDTAB
0
ENDSEC
0
SECTION
2
ENTITIES
0
ARC
8
DEFAULT_255_2_778
10
3.5700693
20
75.805203
40
0.7914215
50
129.1312896
51
180.1450914
0
ARC
8
DEFAULT_255_2_778
10
3.5703345
20
75.8056901
40
0.7912112
50
89.854026
51
129.1684493
0
ARC
8
DEFAULT_255_2_778
10
25.7993937
20
75.8053767
40
0.7915249
50
39.4792447
51
90.147911
0
ARC
8
DEFAULT_255_2_778
10
25.7999935
20
75.8052233
40
0.7911595
50
359.8533901
51
39.5154338
0
ARC
8
DEFAULT_255_2_778
10
25.7996693
20
-1.9863492
40
0.7914836
50
309.4761667
51
0.1482649
0
ARC
8
DEFAULT_255_2_778
10
25.799398
20
-1.9867803
40
0.7913235
50
269.8517415
51
309.511178
0
ARC
8
DEFAULT_255_2_778
10
3.570342
20
-1.9867221
40
0.7913815
50
219.1282118
51
270.1454017
0
ARC
8
DEFAULT_255_2_778
10
3.5700247
20
-1.9863397
40
0.7913769
50
179.8524075
51
219.1641908
0
LINE
8
DEFAULT_255_2_778
10
3.5723503
20
76.5968989
11
25.7973503
21
76.5968989
0
LINE
8
DEFAULT_255_2_778
10
26.5911503
20
75.8031989
11
26.5911503
21
-1.9843011
0
LINE
8
DEFAULT_255_2_778
10
25.7973503
20
-2.7781011
11
3.5723503
21
-2.7781011
0
LINE
8
DEFAULT_255_2_778
10
2.7786503
20
-1.9843011
11
2.7786503
21
75.8031989
0
LINE
8
DEFAULT_255_1_234
10
10.7793292
20
0.5181211
11
10.7793292
21
0.3912196
0
LINE
8
DEFAULT_255_1_234
10
10.7793292
20
0.3912196
11
10.4034439
21
0.3912196
0
LINE
8
DEFAULT_255_1_234
10
10.4034439
20
0.3912196
11
10.4034439
21
-0.6513
0
LINE
8
DEFAULT_255_1_234
10
10.4034439
20
-0.6513
11
10.2500377
21
-0.6513
0
LINE
8
DEFAULT_255_1_234
10
10.2500377
20
-0.6513
11
10.2500377
21
0.3912196
0
LINE
8
DEFAULT_255_1_234
10
10.2500377
20
0.3912196
11
9.8749555
21
0.3912196
0
LINE
8
DEFAULT_255_1_234
10
9.8749555
20
0.3912196
11
9.8749555
21
0.5181211
0
LINE
8
DEFAULT_255_1_234
10
9.8749555
20
0.5181211
11
10.7793292
21
0.5181211
0
LINE
8
DEFAULT_255_1_234
10
11.4025921
20
0.5237433
11
11.4025921
21
-0.6513
0
LINE
8
DEFAULT_255_1_234
10
11.4025921
20
-0.6513
11
11.2532018
21
-0.6513
0
LINE
8
DEFAULT_255_1_234
10
11.2532018
20
-0.6513
11
11.2532018
21
0.3390133
0
LINE
8
DEFAULT_255_1_234
10
11.2532018
20
0.3390133
11
10.953618
21
0.2289785
0
LINE
8
DEFAULT_255_1_234
10
10.953618
20
0.2289785
11
10.953618
21
0.3639117
0
LINE
8
DEFAULT_255_1_234
10
10.953618
20
0.3639117
11
11.3793001
21
0.5237433
0
LINE
8
DEFAULT_255_1_234
10
11.3793001
20
0.5237433
11
11.4025921
21
0.5237433
0
LINE
8
DEFAULT_255_1_234
10
12.5214133
20
-0.0087609
11
12.5214133
21
-0.1348592
0
LINE
8
DEFAULT_255_1_234
10
12.5214133
20
-0.1348592
11
12.0306741
21
-0.1348592
0
LINE
8
DEFAULT_255_1_234
10
12.0306741
20
-0.1348592
11
12.0306741
21
-0.6513
0
LINE
8
DEFAULT_255_1_234
10
12.0306741
20
-0.6513
11
11.8764647
21
-0.6513
0
LINE
8
DEFAULT_255_1_234
10
11.8764647
20
-0.6513
11
11.8764647
21
0.5181211
0
LINE
8
DEFAULT_255_1_234
10
11.8764647
20
0.5181211
11
12.6009275
21
0.5181211
0
LINE
8
DEFAULT_255_1_234
10
12.6009275
20
0.5181211
11
12.6009275
21
0.3912196
0
LINE
8
DEFAULT_255_1_234
10
12.6009275
20
0.3912196
11
12.0306741
21
0.3912196
0
LINE
8
DEFAULT_255_1_234
10
12.0306741
20
0.3912196
11
12.0306741
21
-0.0087609
0
LINE
8
DEFAULT_255_1_234
10
12.0306741
20
-0.0087609
11
12.5214133
21
-0.0087609
0
LINE
8
DEFAULT_255_1_234
10
13.0715874
20
-0.0938974
11
13.0715874
21
-0.2151766
0
LINE
8
DEFAULT_255_1_234
10
13.0715874
20
-0.2151766
11
12.6796385
21
-0.2151766
0
LINE
8
DEFAULT_255_1_234
10
12.6796385
20
-0.2151766
11
12.6796385
21
-0.0938974
0
LINE
8
DEFAULT_255_1_234
10
12.6796385
20
-0.0938974
11
13.0715874
21
-0.0938974
0
LINE
8
DEFAULT_255_1_234
10
13.934196
20
0.0402327
11
13.934196
21
-0.1525291
0
LINE
8
DEFAULT_255_1_234
10
13.1960793
20
-0.1726084
11
13.1960793
21
0.0257755
0
LINE
8
DEFAULT_255_1_234
10
13.7856089
20
-0.1926877
11
13.7856089
21
0.0506739
0
LINE
8
DEFAULT_255_1_234
10
13.3446665
20
0.0619184
11
13.3446665
21
-0.1758211
0
ARC
8
DEFAULT_255_1_234
10
12.709485
20
-0.1574195
40
1.2247208
50
353.8441951
51
0.2287902
0
ARC
8
DEFAULT_255_1_234
10
13.1734354
20
-0.2092194
40
0.7578929
50
344.4934747
51
353.9765454
0
ARC
8
DEFAULT_255_1_234
10
13.4726944
20
-0.2943019
40
0.4467846
50
329.2803592
51
344.7472793
0
ARC
8
DEFAULT_255_1_234
10
13.5719769
20
-0.3487982
40
0.3336173
50
324.9352394
51
328.6160465
0
ARC
8
DEFAULT_255_1_234
10
13.6096877
20
-0.3751573
40
0.2876076
50
280.580143
51
324.9173126
0
ARC
8
DEFAULT_255_1_234
10
13.569567
20
-0.2080901
40
0.4592847
50
269.5977311
51
281.6734359
0
ARC
8
DEFAULT_255_1_234
10
13.5623576
20
-0.2200827
40
0.4472986
50
256.6228859
51
270.51044
0
ARC
8
DEFAULT_255_1_234
10
13.5221554
20
-0.3749123
40
0.2873874
50
215.8618325
51
257.2788573
0
ARC
8
DEFAULT_255_1_234
10
13.6242585
20
-0.3064023
40
0.4102928
50
197.9693508
51
215.2623606
0
ARC
8
DEFAULT_255_1_234
10
13.8727701
20
-0.2225291
40
0.6725652
50
187.8816417
51
198.2346507
0
ARC
8
DEFAULT_255_1_234
10
14.2685909
20
-0.1653921
40
1.0724845
50
180.8976217
51
188.0055519
0
ARC
8
DEFAULT_255_1_234
10
14.5486097
20
-0.1550223
40
1.3526448
50
180.7449369
51
181.1510016
0
ARC
8
DEFAULT_255_1_234
10
14.3908826
20
0.0306042
40
1.1948131
50
173.7675579
51
180.231553
0
ARC
8
DEFAULT_255_1_234
10
13.9390973
20
0.0816666
40
0.7401564
50
164.3058563
51
173.9002247
0
ARC
8
DEFAULT_255_1_234
10
13.6479042
20
0.1655656
40
0.4371288
50
148.7922025
51
164.568378
0
ARC
8
DEFAULT_255_1_234
10
13.5527494
20
0.2186929
40
0.3282386
50
144.5883898
51
148.1176286
0
ARC
8
DEFAULT_255_1_234
10
13.5184392
20
0.2426315
40
0.2864044
50
101.6440918
51
144.514236
0
ARC
8
DEFAULT_255_1_234
10
13.5609459
20
0.0737069
40
0.4604934
50
89.5284041
51
102.5819763
0
ARC
8
DEFAULT_255_1_234
10
13.5688546
20
0.0698018
40
0.464401
50
77.0437873
51
90.5081339
0
ARC
8
DEFAULT_255_1_234
10
13.6090548
20
0.2340615
40
0.2953195
50
48.2778575
51
77.4994676
0
ARC
8
DEFAULT_255_1_234
10
13.6163179
20
0.2469746
40
0.2808655
50
36.3142134
51
47.6305865
0
ARC
8
DEFAULT_255_1_234
10
13.5294486
20
0.1884515
40
0.3855453
50
18.2931786
51
35.6769206
0
ARC
8
DEFAULT_255_1_234
10
13.2751245
20
0.1011593
40
0.654423
50
8.024666
51
18.5605216
0
ARC
8
DEFAULT_255_1_234
10
12.8588165
20
0.0396792
40
1.0752407
50
1.1274072
51
8.1718305
0
ARC
8
DEFAULT_255_1_234
10
12.5352356
20
0.0269885
40
1.3990231
50
0.5424119
51
1.3863029
0
ARC
8
DEFAULT_255_1_234
10
12.7173734
20
0.0542342
40
1.0682415
50
359.8090433
51
4.9407866
0
ARC
8
DEFAULT_255_1_234
10
13.1383748
20
0.0918113
40
0.6455691
50
4.8362157
51
12.2904523
0
ARC
8
DEFAULT_255_1_234
10
13.4138862
20
0.1531965
40
0.3633074
50
12.0805627
51
23.8173984
0
ARC
8
DEFAULT_255_1_234
10
13.5312568
20
0.2028919
40
0.2358723
50
24.2871213
51
31.3935614
0
ARC
8
DEFAULT_255_1_234
10
13.5837265
20
0.2372233
40
0.1732111
50
30.7407893
51
82.4657128
0
ARC
8
DEFAULT_255_1_234
10
13.5657399
20
0.1488691
40
0.263235
50
81.1060089
51
90.2184952
0
ARC
8
DEFAULT_255_1_234
10
13.5621698
20
0.1746924
40
0.2374236
50
89.3806855
51
105.6762551
0
ARC
8
DEFAULT_255_1_234
10
13.5438329
20
0.2413567
40
0.1682847
50
105.7981136
51
149.7388061
0
ARC
8
DEFAULT_255_1_234
10
13.6502407
20
0.177395
40
0.2924306
50
149.4208916
51
163.6286378
0
ARC
8
DEFAULT_255_1_234
10
13.8593295
20
0.113625
40
0.5110213
50
163.3763315
51
172.1410975
0
ARC
8
DEFAULT_255_1_234
10
14.1894014
20
0.0663518
40
0.8444586
50
172.0259487
51
178.0703232
0
ARC
8
DEFAULT_255_1_234
10
14.4924104
20
0.0519906
40
1.1477868
50
177.8631668
51
179.5044149
0
ARC
8
DEFAULT_255_1_234
10
14.3851508
20
-0.1794611
40
1.0404907
50
179.7995573
51
185.2460446
0
ARC
8
DEFAULT_255_1_234
10
13.9808547
20
-0.2177487
40
0.6343885
50
185.1411642
51
193.0079639
0
ARC
8
DEFAULT_255_1_234
10
13.716502
20
-0.2802359
40
0.3627568
50
192.7897626
51
205.2507664
0
ARC
8
DEFAULT_255_1_234
10
13.6118567
20
-0.3269585
40
0.2481908
50
205.8005384
51
211.2537509
0
ARC
8
DEFAULT_255_1_234
10
13.5595007
20
-0.362042
40
0.1852521
50
210.3789793
51
238.4008143
0
ARC
8
DEFAULT_255_1_234
10
13.5575529
20
-0.3573624
40
0.1882621
50
239.6520629
51
265.9793761
0
ARC
8
DEFAULT_255_1_234
10
13.5660729
20
-0.2901573
40
0.2559272
50
265.1315437
51
270.060332
0
ARC
8
DEFAULT_255_1_234
10
13.5689508
20
-0.3225466
40
0.2235528
50
269.3314664
51
287.2178029
0
ARC
8
DEFAULT_255_1_234
10
13.582736
20
-0.3728721
40
0.1714108
50
287.7958004
51
329.080874
0
ARC
8
DEFAULT_255_1_234
10
13.4869817
20
-0.313107
40
0.2842745
50
328.6634704
51
343.3325132
0
ARC
8
DEFAULT_255_1_234
10
13.2696837
20
-0.2454137
40
0.5118644
50
343.0499468
51
351.9393422
0
ARC
8
DEFAULT_255_1_234
10
12.9230137
20
-0.1943051
40
0.8622784
50
351.8069023
51
357.7959224
0
ARC
8
DEFAULT_255_1_234
10
12.5994693
20
-0.1775279
40
1.1862365
50
357.5871873
51
359.2677531
0
ARC
8
DEFAULT_255_1_234
10
14.5515266
20
0.2103703
40
0.2822356
50
338.8763615
51
0.5166041
0
ARC
8
DEFAULT_255_1_234
10
14.568392
20
0.2058208
40
0.2648703
50
325.8412414
51
338.4795939
0
ARC
8
DEFAULT_255_1_234
10
14.5293288
20
0.2329042
40
0.3124019
50
296.7586019
51
325.753654
0
ARC
8
DEFAULT_255_1_234
10
14.5005396
20
0.2813789
40
0.368668
50
296.0902311
51
297.3618122
0
ARC
8
DEFAULT_255_1_234
10
14.5262854
20
-0.3740959
40
0.3518806
50
47.9009248
51
67.1946869
0
ARC
8
DEFAULT_255_1_234
10
14.5459096
20
-0.3494605
40
0.320451
50
35.236241
51
47.551371
0
ARC
8
DEFAULT_255_1_234
10
14.5720714
20
-0.3320007
40
0.2890103
50
359.2759738
51
35.4014081
0
ARC
8
DEFAULT_255_1_234
10
14.4975745
20
-0.3393174
40
0.3635026
50
343.1294516
51
0.5776525
0
ARC
8
DEFAULT_255_1_234
10
14.570029
20
-0.359267
40
0.2883832
50
310.8497458
51
342.744803
0
ARC
8
DEFAULT_255_1_234
10
14.5282403
20
-0.3115706
40
0.3517954
50
281.5473923
51
310.9169905
0
ARC
8
DEFAULT_255_1_234
10
14.4925853
20
-0.1562916
40
0.5110832
50
269.6192722
51
281.9789957
0
ARC
8
DEFAULT_255_1_234
10
14.4853642
20
-0.1562172
40
0.5111606
50
257.4584469
51
270.4287458
0
ARC
8
DEFAULT_255_1_234
10
14.4472785
20
-0.3165656
40
0.3463762
50
228.7553743
51
257.8484423
0
ARC
8
DEFAULT_255_1_234
10
14.4162983
20
-0.3538558
40
0.297916
50
184.0104442
51
228.5071787
0
ARC
8
DEFAULT_255_1_234
10
14.5325927
20
-0.3361488
40
0.4152734
50
179.9315461
51
185.3254504
0
ARC
8
DEFAULT_255_1_234
10
14.4149573
20
-0.3324008
40
0.2976554
50
145.6795913
51
180.6259649
0
ARC
8
DEFAULT_255_1_234
10
14.4312922
20
-0.3438071
40
0.3175776
50
115.5537925
51
145.6416199
0
ARC
8
DEFAULT_255_1_234
10
14.4653853
20
-0.4048972
40
0.3874232
50
113.2437915
51
116.2054627
0
ARC
8
DEFAULT_255_1_234
10
14.4501065
20
0.234958
40
0.3154751
50
222.9548379
51
244.1372485
0
ARC
8
DEFAULT_255_1_234
10
14.437914
20
0.2212834
40
0.2972382
50
213.3439227
51
222.6271327
0
ARC
8
DEFAULT_255_1_234
10
14.4187075
20
0.2082308
40
0.274019
50
180.4316517
51
213.2713999
0
ARC
8
DEFAULT_255_1_234
10
14.4762076
20
0.212911
40
0.33158
50
179.9992944
51
181.1655061
0
ARC
8
DEFAULT_255_1_234
10
14.5171493
20
0.2163561
40
0.3725376
50
164.6186108
51
180.5292368
0
ARC
8
DEFAULT_255_1_234
10
14.4273356
20
0.2405101
40
0.2795349
50
132.2454369
51
164.5092287
0
ARC
8
DEFAULT_255_1_234
10
14.456046
20
0.2080028
40
0.3229019
50
100.7052766
51
132.1387266
0
ARC
8
DEFAULT_255_1_234
10
14.4865432
20
0.0702086
40
0.4639835
50
89.6732617
51
101.2449487
0
ARC
8
DEFAULT_255_1_234
10
14.492763
20
0.087699
40
0.4464999
50
76.2876631
51
90.4586123
0
ARC
8
DEFAULT_255_1_234
10
14.5233862
20
0.209922
40
0.3205023
50
47.8240157
51
76.4266918
0
ARC
8
DEFAULT_255_1_234
10
14.5456412
20
0.235959
40
0.2862661
50
6.9168658
51
47.6261438
0
ARC
8
DEFAULT_255_1_234
10
14.4269815
20
0.214037
40
0.4067708
50
359.8419705
51
7.9694496
0
ARC
8
DEFAULT_255_1_234
10
14.4611712
20
-0.3300075
40
0.2513121
50
359.4454068
51
16.9256425
0
ARC
8
DEFAULT_255_1_234
10
14.5080523
20
-0.3170967
40
0.2027071
50
17.292259
51
45.462717
0
ARC
8
DEFAULT_255_1_234
10
14.5026459
20
-0.3217566
40
0.2098212
50
45.3028762
51
83.1921472
0
ARC
8
DEFAULT_255_1_234
10
14.4883143
20
-0.4019105
40
0.2911472
50
82.2614531
51
90.143954
0
ARC
8
DEFAULT_255_1_234
10
14.4852263
20
-0.378605
40
0.2678513
50
89.4959189
51
104.8579811
0
ARC
8
DEFAULT_255_1_234
10
14.4675522
20
-0.311611
40
0.1985654
50
104.8855873
51
135.2448349
0
ARC
8
DEFAULT_255_1_234
10
14.4725295
20
-0.3160664
40
0.2052373
50
135.3398955
51
172.104394
0
ARC
8
DEFAULT_255_1_234
10
14.5532353
20
-0.3315075
40
0.2873299
50
171.2651929
51
180.1859362
0
ARC
8
DEFAULT_255_1_234
10
14.5363054
20
-0.3347267
40
0.2704083
50
179.515471
51
193.6466734
0
ARC
8
DEFAULT_255_1_234
10
14.4546823
20
-0.3555223
40
0.1861855
50
193.3540587
51
225.8256931
0
ARC
8
DEFAULT_255_1_234
10
14.458758
20
-0.3484476
40
0.1941102
50
226.418029
51
255.8553723
0
ARC
8
DEFAULT_255_1_234
10
14.4844013
20
-0.2548002
40
0.2911917
50
255.4655572
51
268.7985967
0
ARC
8
DEFAULT_255_1_234
10
14.4891205
20
-0.1709509
40
0.3751331
50
268.3464808
51
270.0104874
0
ARC
8
DEFAULT_255_1_234
10
14.4914593
20
-0.2393862
40
0.3067064
50
269.575914
51
282.0823146
0
ARC
8
DEFAULT_255_1_234
10
14.5139502
20
-0.3388197
40
0.2047712
50
281.7522535
51
306.6056425
0
ARC
8
DEFAULT_255_1_234
10
14.5237928
20
-0.3549513
40
0.1859604
50
307.1350025
51
314.0277951
0
ARC
8
DEFAULT_255_1_234
10
14.5202012
20
-0.3523234
40
0.1903475
50
314.2553419
51
350.169324
0
ARC
8
DEFAULT_255_1_234
10
14.4350481
20
-0.3338591
40
0.2774269
50
349.4145679
51
0.2930737
0
ARC
8
DEFAULT_255_1_234
10
14.4870914
20
0.1820353
40
0.2300764
50
89.477591
51
105.729794
0
ARC
8
DEFAULT_255_1_234
10
14.4734828
20
0.2325637
40
0.1777519
50
105.922966
51
135.1662921
0
ARC
8
DEFAULT_255_1_234
10
14.475533
20
0.2311419
40
0.1802087
50
135.3053131
51
168.9882338
0
ARC
8
DEFAULT_255_1_234
10
14.5582903
20
0.2121721
40
0.2650806
50
168.3802067
51
180.3602358
0
ARC
8
DEFAULT_255_1_234
10
14.5354482
20
0.2084041
40
0.2422425
50
179.5029707
51
194.9126783
0
ARC
8
DEFAULT_255_1_234
10
14.4769143
20
0.193011
40
0.1817188
50
194.9722181
51
224.1943972
0
ARC
8
DEFAULT_255_1_234
10
14.474101
20
0.1907169
40
0.1781027
50
224.2961434
51
262.0157375
0
ARC
8
DEFAULT_255_1_234
10
14.4883253
20
0.2638661
40
0.2525492
50
261.1250369
51
270.1959853
0
ARC
8
DEFAULT_255_1_234
10
14.4913008
20
0.2451339
40
0.233825
50
269.4825617
51
285.0988277
0
ARC
8
DEFAULT_255_1_234
10
14.5067167
20
0.187299
40
0.1739712
50
285.1585659
51
315.9484648
0
ARC
8
DEFAULT_255_1_234
10
14.4978179
20
0.1954886
40
0.1860616
50
316.0412958
51
351.9162715
0
ARC
8
DEFAULT_255_1_234
10
14.4245134
20
0.2096245
40
0.2606517
50
351.1056823
51
0.1936567
0
ARC
8
DEFAULT_255_1_234
10
14.4507963
20
0.2126369
40
0.234377
50
359.4789506
51
16.0679113
0
ARC
8
DEFAULT_255_1_234
10
14.4983922
20
0.225481
40
0.1850875
50
16.3251951
51
44.791304
0
ARC
8
DEFAULT_255_1_234
10
14.4966203
20
0.2255339
40
0.186312
50
44.3958661
51
88.2498933
0
ARC
8
DEFAULT_255_1_234
10
14.4892757
20
0.1644154
40
0.2476868
50
86.9833827
51
90.0200148
0
LINE
8
DEFAULT_255_1_234
10
15.8441434
20
-0.6513
11
15.7325022
21
-0.3460939
0
LINE
8
DEFAULT_255_1_234
10
15.7325022
20
-0.3460939
11
15.2425662
21
-0.3460939
0
LINE
8
DEFAULT_255_1_234
10
15.2425662
20
-0.3460939
11
15.1325314
21
-0.6513
0
LINE
8
DEFAULT_255_1_234
10
15.1325314
20
-0.6513
11
14.973503
21
-0.6513
0
LINE
8
DEFAULT_255_1_234
10
14.973503
20
-0.6513
11
15.4200676
21
0.5181211
0
LINE
8
DEFAULT_255_1_234
10
15.4200676
20
0.5181211
11
15.5550008
21
0.5181211
0
LINE
8
DEFAULT_255_1_234
10
15.5550008
20
0.5181211
11
16.0023687
21
-0.6513
0
LINE
8
DEFAULT_255_1_234
10
16.0023687
20
-0.6513
11
15.8441434
21
-0.6513
0
LINE
8
DEFAULT_255_1_234
10
15.4875342
20
0.3277689
11
15.2891503
21
-0.2191925
0
LINE
8
DEFAULT_255_1_234
10
15.2891503
20
-0.2191925
11
15.6867213
21
-0.2191925
0
LINE
8
DEFAULT_255_1_234
10
15.6867213
20
-0.2191925
11
15.4875342
21
0.3277689
0
LINE
8
DEFAULT_255_1_234
10
16.4834698
20
-0.6513
11
16.1597907
21
-0.6513
0
LINE
8
DEFAULT_255_1_234
10
16.1597907
20
-0.6513
11
16.1597907
21
0.5181211
0
LINE
8
DEFAULT_255_1_234
10
16.1597907
20
0.5181211
11
16.4898952
21
0.5181211
0
LINE
8
DEFAULT_255_1_234
10
17.0055328
20
-0.0272339
11
17.0055328
21
-0.1019291
0
LINE
8
DEFAULT_255_1_234
10
16.493911
20
0.3912196
11
16.3140001
21
0.3912196
0
LINE
8
DEFAULT_255_1_234
10
16.3140001
20
0.3912196
11
16.3140001
21
-0.5252017
0
LINE
8
DEFAULT_255_1_234
10
16.3140001
20
-0.5252017
11
16.4762412
21
-0.5252017
0
LINE
8
DEFAULT_255_1_234
10
16.8529297
20
-0.0987164
11
16.8529297
21
-0.0304466
0
ARC
8
DEFAULT_255_1_234
10
16.4937894
20
-0.0684106
40
0.5865446
50
75.4101064
51
90.3804066
0
ARC
8
DEFAULT_255_1_234
10
16.5167408
20
0.0272492
40
0.4881916
50
60.145586
51
75.1888407
0
ARC
8
DEFAULT_255_1_234
10
16.5326183
20
0.0549199
40
0.4562893
50
26.5253612
51
60.1450928
0
ARC
8
DEFAULT_255_1_234
10
16.4205932
20
-0.0044842
40
0.5830602
50
7.4030428
51
26.8320788
0
ARC
8
DEFAULT_255_1_234
10
16.2611689
20
-0.0293196
40
0.7443669
50
0.1605367
51
7.7176192
0
ARC
8
DEFAULT_255_1_234
10
16.2775594
20
-0.1057566
40
0.7279835
50
348.7289388
51
0.3012466
0
ARC
8
DEFAULT_255_1_234
10
16.4432024
20
-0.1386614
40
0.559104
50
333.0706509
51
348.7181832
0
ARC
8
DEFAULT_255_1_234
10
16.5398782
20
-0.1911681
40
0.4491417
50
299.2531685
51
333.4571258
0
ARC
8
DEFAULT_255_1_234
10
16.5037921
20
-0.1226172
40
0.5265881
50
278.107187
51
299.0339503
0
ARC
8
DEFAULT_255_1_234
10
16.4782
20
0.0281216
40
0.679442
50
270.4443897
51
278.4511052
0
ARC
8
DEFAULT_255_1_234
10
16.480283
20
-0.0647787
40
0.4604407
50
269.4970433
51
284.0205042
0
ARC
8
DEFAULT_255_1_234
10
16.5158131
20
-0.2013022
40
0.3193797
50
283.7700273
51
318.1555492
0
ARC
8
DEFAULT_255_1_234
10
16.4820889
20
-0.1760633
40
0.3613588
50
318.7415601
51
343.6873628
0
ARC
8
DEFAULT_255_1_234
10
16.3016913
20
-0.1197168
40
0.5503313
50
343.3325091
51
355.8548958
0
ARC
8
DEFAULT_255_1_234
10
16.0918597
20
-0.0997681
40
0.7610708
50
355.4988528
51
0.0791727
0
ARC
8
DEFAULT_255_1_234
10
16.170122
20
-0.026222
40
0.6828208
50
359.6455037
51
9.8607896
0
ARC
8
DEFAULT_255_1_234
10
16.4061917
20
0.0164099
40
0.4429406
50
9.6571907
51
26.1932807
0
ARC
8
DEFAULT_255_1_234
10
16.4989906
20
0.0595118
40
0.3406537
50
26.5777228
51
40.1532208
0
ARC
8
DEFAULT_255_1_234
10
16.5245633
20
0.0794619
40
0.308246
50
40.3840491
51
80.1431104
0
ARC
8
DEFAULT_255_1_234
10
16.491875
20
-0.0654667
40
0.4566909
50
79.2152159
51
89.7445637
0
LINE
8
DEFAULT_255_1_234
10
17.5243831
20
-0.0938974
11
17.5243831
21
-0.2151766
0
LINE
8
DEFAULT_255_1_234
10
17.5243831
20
-0.2151766
11
17.1324342
21
-0.2151766
0
LINE
8
DEFAULT_255_1_234
10
17.1324342
20
-0.2151766
11
17.1324342
21
-0.0938974
0
LINE
8
DEFAULT_255_1_234
10
17.1324342
20
-0.0938974
11
17.5243831
21
-0.0938974
0
LINE
8
DEFAULT_255_1_234
10
18.1420237
20
0.5237433
11
18.1420237
21
-0.6513
0
LINE
8
DEFAULT_255_1_234
10
18.1420237
20
-0.6513
11
17.9926334
21
-0.6513
0
LINE
8
DEFAULT_255_1_234
10
17.9926334
20
-0.6513
11
17.9926334
21
0.3390133
0
LINE
8
DEFAULT_255_1_234
10
17.9926334
20
0.3390133
11
17.6930496
21
0.2289785
0
LINE
8
DEFAULT_255_1_234
10
17.6930496
20
0.2289785
11
17.6930496
21
0.3639117
0
LINE
8
DEFAULT_255_1_234
10
17.6930496
20
0.3639117
11
18.1187317
21
0.5237433
0
LINE
8
DEFAULT_255_1_234
10
18.1187317
20
0.5237433
11
18.1420237
21
0.5237433
0
LINE
8
DEFAULT_255_1_234
10
9.7761292
20
71.2941211
11
9.7761292
21
71.1672196
0
LINE
8
DEFAULT_255_1_234
10
9.7761292
20
71.1672196
11
9.4002439
21
71.1672196
0
LINE
8
DEFAULT_255_1_234
10
9.4002439
20
71.1672196
11
9.4002439
21
70.1247
0
LINE
8
DEFAULT_255_1_234
10
9.4002439
20
70.1247
11
9.2468377
21
70.1247
0
LINE
8
DEFAULT_255_1_234
10
9.2468377
20
70.1247
11
9.2468377
21
71.1672196
0
LINE
8
DEFAULT_255_1_234
10
9.2468377
20
71.1672196
11
8.8717555
21
71.1672196
0
LINE
8
DEFAULT_255_1_234
10
8.8717555
20
71.1672196
11
8.8717555
21
71.2941211
0
LINE
8
DEFAULT_255_1_234
10
8.8717555
20
71.2941211
11
9.7761292
21
71.2941211
0
LINE
8
DEFAULT_255_1_234
10
9.8090594
20
70.5351218
11
9.8090594
21
70.5624297
0
LINE
8
DEFAULT_255_1_234
10
10.5463729
20
70.5784932
11
10.5463729
21
70.5166488
0
LINE
8
DEFAULT_255_1_234
10
10.5463729
20
70.5166488
11
9.9576465
21
70.5166488
0
LINE
8
DEFAULT_255_1_234
10
10.4443699
20
70.3471792
11
10.5351285
21
70.2764999
0
LINE
8
DEFAULT_255_1_234
10
9.9624656
20
70.6387313
11
10.3977858
21
70.6387313
0
LINE
8
DEFAULT_255_1_234
10
10.3977858
20
70.6387313
11
10.3977858
21
70.6499757
0
ARC
8
DEFAULT_255_1_234
10
10.2029959
20
70.5462332
40
0.4376191
50
252.3266134
51
270.5810217
0
ARC
8
DEFAULT_255_1_234
10
10.1825048
20
70.4721644
40
0.3608374
50
223.3000567
51
251.8561855
0
ARC
8
DEFAULT_255_1_234
10
10.2036409
20
70.4926937
40
0.3902993
50
190.9374509
51
223.3654032
0
ARC
8
DEFAULT_255_1_234
10
10.3761381
20
70.5316885
40
0.5670891
50
179.6531105
51
191.4989439
0
ARC
8
DEFAULT_255_1_234
10
10.3883393
20
70.5656417
40
0.5792888
50
167.4007466
51
180.3176909
0
ARC
8
DEFAULT_255_1_234
10
10.2831455
20
70.5878885
40
0.471777
50
154.1835823
51
167.250763
0
ARC
8
DEFAULT_255_1_234
10
10.2199922
20
70.6211417
40
0.4004528
50
134.3149965
51
154.5315275
0
ARC
8
DEFAULT_255_1_234
10
10.1982417
20
70.6402228
40
0.371612
50
122.8616532
51
133.9707695
0
ARC
8
DEFAULT_255_1_234
10
10.1878991
20
70.6624703
40
0.3473289
50
89.8249009
51
123.4199222
0
ARC
8
DEFAULT_255_1_234
10
10.1929032
20
70.5977967
40
0.4120197
50
74.7876118
51
90.5482747
0
ARC
8
DEFAULT_255_1_234
10
10.2222776
20
70.706303
40
0.2996077
50
39.8178249
51
74.7633718
0
ARC
8
DEFAULT_255_1_234
10
10.1710096
20
70.6663351
40
0.3645855
50
16.8990863
51
39.4829761
0
ARC
8
DEFAULT_255_1_234
10
9.9815392
20
70.6056526
40
0.5635218
50
4.9636328
51
17.2026414
0
ARC
8
DEFAULT_255_1_234
10
9.7397462
20
70.580134
40
0.8066286
50
359.8834553
51
5.2834307
0
ARC
8
DEFAULT_255_1_234
10
10.3434987
20
70.5232803
40
0.3859091
50
180.9846213
51
194.9401313
0
ARC
8
DEFAULT_255_1_234
10
10.2385265
20
70.4945849
40
0.2770883
50
194.80314
51
222.0412631
0
ARC
8
DEFAULT_255_1_234
10
10.2081147
20
70.4644116
40
0.2343055
50
221.5417084
51
268.8614402
0
ARC
8
DEFAULT_255_1_234
10
10.2154141
20
70.5320686
40
0.3021528
50
267.732405
51
270.0097136
0
ARC
8
DEFAULT_255_1_234
10
10.2171951
20
70.5522105
40
0.3222994
50
269.6924892
51
280.4117579
0
ARC
8
DEFAULT_255_1_234
10
10.2348358
20
70.4603193
40
0.2287344
50
280.2255091
51
298.6338936
0
ARC
8
DEFAULT_255_1_234
10
10.246515
20
70.4359223
40
0.2017294
50
299.0430333
51
300.4643464
0
ARC
8
DEFAULT_255_1_234
10
10.1785155
20
70.5493038
40
0.3339357
50
300.6577328
51
322.0378878
0
ARC
8
DEFAULT_255_1_234
10
10.1434695
20
70.5797021
40
0.3802736
50
321.6750233
51
322.3046845
0
ARC
8
DEFAULT_255_1_234
10
10.2365656
20
70.463037
40
0.3520454
50
276.9728461
51
328.0035423
0
ARC
8
DEFAULT_255_1_234
10
10.2088709
20
70.6110841
40
0.5024498
50
269.8361028
51
278.0581756
0
ARC
8
DEFAULT_255_1_234
10
10.1861446
20
70.6855757
40
0.202159
50
89.2018686
51
117.2851756
0
ARC
8
DEFAULT_255_1_234
10
10.1914615
20
70.6813752
40
0.2083484
50
118.0551165
51
137.4540413
0
ARC
8
DEFAULT_255_1_234
10
10.2289355
20
70.6473304
40
0.2589774
50
137.5109581
51
158.8516286
0
ARC
8
DEFAULT_255_1_234
10
10.3427191
20
70.6014074
40
0.38167
50
158.5845963
51
170.1721436
0
ARC
8
DEFAULT_255_1_234
10
10.459658
20
70.5781823
40
0.5008657
50
169.8376422
51
173.0566086
0
ARC
8
DEFAULT_255_1_234
10
9.9899654
20
70.6292509
40
0.4083467
50
2.9091802
51
12.8847116
0
ARC
8
DEFAULT_255_1_234
10
10.127033
20
70.6615101
40
0.2675383
50
12.6957781
51
28.6404489
0
ARC
8
DEFAULT_255_1_234
10
10.1812001
20
70.6895458
40
0.2065654
50
29.0169854
51
41.1487595
0
ARC
8
DEFAULT_255_1_234
10
10.2014786
20
70.7072003
40
0.1796786
50
41.1646065
51
85.0013516
0
ARC
8
DEFAULT_255_1_234
10
10.1893883
20
70.6337431
40
0.2539726
50
83.7280015
51
90.0964893
0
LINE
8
DEFAULT_255_1_234
10
11.1383121
20
70.9985531
11
11.1383121
21
70.8604072
0
LINE
8
DEFAULT_255_1_234
10
10.8668393
20
70.7415375
11
10.8668393
21
70.1247
0
LINE
8
DEFAULT_255_1_234
10
10.8668393
20
70.1247
11
10.7182521
21
70.1247
0
LINE
8
DEFAULT_255_1_234
10
10.7182521
20
70.1247
11
10.7182521
21
70.9937341
0
LINE
8
DEFAULT_255_1_234
10
10.7182521
20
70.9937341
11
10.8628234
21
70.9937341
0
LINE
8
DEFAULT_255_1_234
10
10.8628234
20
70.9937341
11
10.865233
21
70.8933374
0
ARC
8
DEFAULT_255_1_234
10
11.0716526
20
70.4544342
40
0.4114092
50
80.6754243
51
86.8932892
0
ARC
8
DEFAULT_255_1_234
10
11.065606
20
70.35767
40
0.5083596
50
86.8038578
51
90.0431435
0
ARC
8
DEFAULT_255_1_234
10
11.0619041
20
70.6033866
40
0.2626638
50
89.2759698
51
106.6213787
0
ARC
8
DEFAULT_255_1_234
10
11.0414605
20
70.677683
40
0.1856317
50
107.1346045
51
157.6458115
0
ARC
8
DEFAULT_255_1_234
10
11.1106207
20
70.6393311
40
0.2643398
50
155.6586782
51
157.2539184
0
ARC
8
DEFAULT_255_1_234
10
11.0901409
20
70.7562157
40
0.2634121
50
127.8165941
51
148.6302098
0
ARC
8
DEFAULT_255_1_234
10
11.0647878
20
70.7822218
40
0.2273596
50
91.3329982
51
126.7875809
0
ARC
8
DEFAULT_255_1_234
10
11.0723818
20
70.7107195
40
0.299078
50
89.986594
51
92.4688449
0
ARC
8
DEFAULT_255_1_234
10
11.0732213
20
70.7382078
40
0.2715908
50
85.3589899
51
90.1623399
0
ARC
8
DEFAULT_255_1_234
10
11.0816729
20
70.8386164
40
0.1708278
50
78.401942
51
85.4594656
0
ARC
8
DEFAULT_255_1_234
10
11.0961613
20
70.9077236
40
0.1002194
50
67.7858312
51
78.5728455
0
ARC
8
DEFAULT_255_1_234
10
11.1069466
20
70.9356887
40
0.0702548
50
63.4835954
51
67.3062642
0
LINE
8
DEFAULT_255_1_234
10
11.2740484
20
70.9937341
11
11.4146039
21
70.9937341
0
LINE
8
DEFAULT_255_1_234
10
11.4146039
20
70.9937341
11
11.4186197
21
70.8973532
0
LINE
8
DEFAULT_255_1_234
10
12.4924631
20
70.707001
11
12.4924631
21
70.1247
0
LINE
8
DEFAULT_255_1_234
10
12.4924631
20
70.1247
11
12.343876
21
70.1247
0
LINE
8
DEFAULT_255_1_234
10
12.343876
20
70.1247
11
12.343876
21
70.6981661
0
LINE
8
DEFAULT_255_1_234
10
11.9575494
20
70.7013788
11
11.9575494
21
70.1247
0
LINE
8
DEFAULT_255_1_234
10
11.9575494
20
70.1247
11
11.808159
21
70.1247
0
LINE
8
DEFAULT_255_1_234
10
11.808159
20
70.1247
11
11.808159
21
70.6941502
0
LINE
8
DEFAULT_255_1_234
10
11.4226356
20
70.7592073
11
11.4226356
21
70.1247
0
LINE
8
DEFAULT_255_1_234
10
11.4226356
20
70.1247
11
11.2740484
21
70.1247
0
LINE
8
DEFAULT_255_1_234
10
11.2740484
20
70.1247
11
11.2740484
21
70.9937341
0
ARC
8
DEFAULT_255_1_234
10
11.6582832
20
70.6956324
40
0.3132568
50
93.0261606
51
139.9132346
0
ARC
8
DEFAULT_255_1_234
10
11.6760631
20
70.5713779
40
0.4384196
50
89.950938
51
94.4894255
0
ARC
8
DEFAULT_255_1_234
10
11.6802882
20
70.6426909
40
0.3671269
50
75.8910292
51
90.6008177
0
ARC
8
DEFAULT_255_1_234
10
11.7168478
20
70.7775652
40
0.2274238
50
23.9940923
51
76.5407343
0
ARC
8
DEFAULT_255_1_234
10
12.1949332
20
70.6821399
40
0.3292083
50
118.5759668
51
145.1953792
0
ARC
8
DEFAULT_255_1_234
10
12.1821382
20
70.706634
40
0.3015782
50
99.1481145
51
118.6671042
0
ARC
8
DEFAULT_255_1_234
10
12.2001582
20
70.6059704
40
0.4038302
50
89.7792332
51
99.4015999
0
ARC
8
DEFAULT_255_1_234
10
12.2079021
20
70.6224932
40
0.3873538
50
73.26462
51
90.9153246
0
ARC
8
DEFAULT_255_1_234
10
12.2518197
20
70.7717227
40
0.2318005
50
10.756486
51
73.0388453
0
ARC
8
DEFAULT_255_1_234
10
12.0127562
20
70.7043882
40
0.479714
50
0.3120719
51
13.3292748
0
ARC
8
DEFAULT_255_1_234
10
12.0182912
20
70.7000239
40
0.3255901
50
359.6730821
51
8.7125959
0
ARC
8
DEFAULT_255_1_234
10
12.1380367
20
70.7190612
40
0.2043439
50
8.5222613
51
22.680364
0
ARC
8
DEFAULT_255_1_234
10
12.198815
20
70.7443325
40
0.1385212
50
22.7293425
51
42.2764504
0
ARC
8
DEFAULT_255_1_234
10
12.2111403
20
70.7521024
40
0.1242006
50
43.4493458
51
69.2721281
0
ARC
8
DEFAULT_255_1_234
10
12.1804076
20
70.675338
40
0.2068795
50
68.8361398
51
81.9791042
0
ARC
8
DEFAULT_255_1_234
10
12.1603548
20
70.5410775
40
0.3426265
50
81.791372
51
90.3003361
0
LINE
8
DEFAULT_255_1_234
10
12.1585589
20
70.8836992
11
12.1583428
21
70.8836993
0
ARC
8
DEFAULT_255_1_234
10
12.1562815
20
70.656088
40
0.2276206
50
89.4811163
51
106.5055281
0
ARC
8
DEFAULT_255_1_234
10
12.1448953
20
70.698026
40
0.1841786
50
106.8159866
51
132.2750884
0
ARC
8
DEFAULT_255_1_234
10
12.1492094
20
70.6934162
40
0.1904915
50
132.3025075
51
166.9931194
0
ARC
8
DEFAULT_255_1_234
10
12.2139591
20
70.6748803
40
0.2577754
50
166.2179705
51
174.0997425
0
ARC
8
DEFAULT_255_1_234
10
11.5281724
20
70.6979562
40
0.2800125
50
359.2212127
51
14.4877397
0
ARC
8
DEFAULT_255_1_234
10
11.6595691
20
70.7357475
40
0.1433881
50
13.0020023
51
76.7083226
0
ARC
8
DEFAULT_255_1_234
10
11.6260747
20
70.6174322
40
0.2662894
50
75.5473488
51
90.7420904
0
ARC
8
DEFAULT_255_1_234
10
11.619286
20
70.6205245
40
0.2631959
50
89.2729066
51
106.8379592
0
ARC
8
DEFAULT_255_1_234
10
11.5994997
20
70.6923466
40
0.1887308
50
107.4045973
51
156.6219665
0
ARC
8
DEFAULT_255_1_234
10
11.6675377
20
70.6533845
40
0.2667875
50
154.7389428
51
156.6306995
0
LINE
8
DEFAULT_255_1_234
10
12.8779866
20
70.9937341
11
12.8779866
21
70.1247
0
LINE
8
DEFAULT_255_1_234
10
12.8779866
20
70.1247
11
12.7293994
21
70.1247
0
LINE
8
DEFAULT_255_1_234
10
12.7293994
20
70.1247
11
12.7293994
21
70.9937341
0
LINE
8
DEFAULT_255_1_234
10
12.7293994
20
70.9937341
11
12.8779866
21
70.9937341
0
ARC
8
DEFAULT_255_1_234
10
12.8152143
20
71.2251889
40
0.097867
50
161.415052
51
180.5526306
0
ARC
8
DEFAULT_255_1_234
10
12.8027921
20
71.2286077
40
0.0850062
50
138.1827368
51
160.9307106
0
ARC
8
DEFAULT_255_1_234
10
12.7917867
20
71.2381588
40
0.0704362
50
104.6368899
51
138.0039868
0
ARC
8
DEFAULT_255_1_234
10
12.8025021
20
71.2014963
40
0.1086221
50
92.0600725
51
105.2189128
0
ARC
8
DEFAULT_255_1_234
10
12.804837
20
71.1672117
40
0.1429728
50
89.9756393
51
92.5012496
0
ARC
8
DEFAULT_255_1_234
10
12.8058389
20
71.1897731
40
0.1204151
50
78.0235316
51
90.4478182
0
ARC
8
DEFAULT_255_1_234
10
12.8150481
20
71.2311295
40
0.0780493
50
55.051506
51
78.3369085
0
ARC
8
DEFAULT_255_1_234
10
12.8200755
20
71.2395711
40
0.0682538
50
42.0501187
51
54.4513741
0
ARC
8
DEFAULT_255_1_234
10
12.8065623
20
71.2271798
40
0.0865878
50
1.7497075
51
42.1496013
0
ARC
8
DEFAULT_255_1_234
10
12.7810955
20
71.2242738
40
0.1121515
50
359.9852656
51
2.8364544
0
ARC
8
DEFAULT_255_1_234
10
12.7976948
20
71.2233229
40
0.0955566
50
342.1070653
51
0.552888
0
ARC
8
DEFAULT_255_1_234
10
12.8119645
20
71.2193904
40
0.0807713
50
316.7107116
51
341.6516965
0
ARC
8
DEFAULT_255_1_234
10
12.8186682
20
71.2133823
40
0.0717724
50
285.4397031
51
316.5324284
0
ARC
8
DEFAULT_255_1_234
10
12.8076599
20
71.2499554
40
0.1099597
50
272.3547054
51
285.8953117
0
ARC
8
DEFAULT_255_1_234
10
12.8049757
20
71.2865048
40
0.1465932
50
269.9695369
51
272.8160237
0
ARC
8
DEFAULT_255_1_234
10
12.8039938
20
71.2645863
40
0.1246779
50
258.8431134
51
270.4153935
0
ARC
8
DEFAULT_255_1_234
10
12.7949981
20
71.2210414
40
0.0802162
50
238.5431189
51
259.1288175
0
ARC
8
DEFAULT_255_1_234
10
12.7881866
20
71.2086856
40
0.0661247
50
222.5062634
51
237.9906969
0
ARC
8
DEFAULT_255_1_234
10
12.8009453
20
71.2202889
40
0.0833707
50
184.1069131
51
222.460413
0
ARC
8
DEFAULT_255_1_234
10
12.8278694
20
71.2241349
40
0.1105176
50
179.9429482
51
185.0960898
0
LINE
8
DEFAULT_255_1_234
10
13.115726
20
70.9937341
11
13.2562814
21
70.9937341
0
LINE
8
DEFAULT_255_1_234
10
13.2562814
20
70.9937341
11
13.2611005
21
70.8845024
0
LINE
8
DEFAULT_255_1_234
10
13.799227
20
70.6989693
11
13.799227
21
70.1247
0
LINE
8
DEFAULT_255_1_234
10
13.799227
20
70.1247
11
13.6506398
21
70.1247
0
LINE
8
DEFAULT_255_1_234
10
13.6506398
20
70.1247
11
13.6506398
21
70.6997725
0
LINE
8
DEFAULT_255_1_234
10
13.2643132
20
70.743947
11
13.2643132
21
70.1247
0
LINE
8
DEFAULT_255_1_234
10
13.2643132
20
70.1247
11
13.115726
21
70.1247
0
LINE
8
DEFAULT_255_1_234
10
13.115726
20
70.1247
11
13.115726
21
70.9937341
0
ARC
8
DEFAULT_255_1_234
10
13.5215746
20
70.6833571
40
0.3290991
50
116.4596474
51
142.3236755
0
ARC
8
DEFAULT_255_1_234
10
13.5159093
20
70.6812555
40
0.3285111
50
89.9344907
51
115.4116954
0
ARC
8
DEFAULT_255_1_234
10
13.5213213
20
70.6032796
40
0.4065181
50
89.9989425
51
90.7098643
0
ARC
8
DEFAULT_255_1_234
10
13.5275055
20
70.6616939
40
0.3481585
50
71.6502625
51
91.0165317
0
ARC
8
DEFAULT_255_1_234
10
13.5631552
20
70.7798587
40
0.224804
50
13.4486916
51
70.7930613
0
ARC
8
DEFAULT_255_1_234
10
13.3329655
20
70.7068653
40
0.465985
50
1.3249075
51
15.5954695
0
ARC
8
DEFAULT_255_1_234
10
13.1289697
20
70.6939133
40
0.6702764
50
0.4321948
51
2.0285822
0
ARC
8
DEFAULT_255_1_234
10
13.3149649
20
70.6988067
40
0.3356763
50
0.1648373
51
8.9345712
0
ARC
8
DEFAULT_255_1_234
10
13.4411085
20
70.7193034
40
0.2078811
50
8.7534737
51
22.2903072
0
ARC
8
DEFAULT_255_1_234
10
13.5079819
20
70.7468815
40
0.1355446
50
22.2259794
51
42.6535796
0
ARC
8
DEFAULT_255_1_234
10
13.514295
20
70.7492875
40
0.1292955
50
43.7650077
51
71.2772851
0
ARC
8
DEFAULT_255_1_234
10
13.4888356
20
70.6786387
40
0.2043829
50
70.8750955
51
84.3179398
0
ARC
8
DEFAULT_255_1_234
10
13.477165
20
70.580364
40
0.3033364
50
83.9622105
51
90.1537383
0
ARC
8
DEFAULT_255_1_234
10
13.4743865
20
70.6547164
40
0.2289913
50
89.508442
51
108.7920455
0
ARC
8
DEFAULT_255_1_234
10
13.4681047
20
70.6776126
40
0.2052969
50
109.1907905
51
125.3077951
0
ARC
8
DEFAULT_255_1_234
10
13.5007173
20
70.6314789
40
0.2617938
50
125.2968385
51
154.5574497
0
LINE
8
DEFAULT_255_1_234
10
14.7156483
20
70.1247
11
14.5598326
21
70.1247
0
LINE
8
DEFAULT_255_1_234
10
14.3919692
20
70.651582
11
14.5365405
21
70.651582
0
LINE
8
DEFAULT_255_1_234
10
14.5365405
20
70.651582
11
14.5365405
21
70.7198518
0
LINE
8
DEFAULT_255_1_234
10
14.1654742
20
70.7527819
11
14.0160839
21
70.7527819
0
LINE
8
DEFAULT_255_1_234
10
14.6851277
20
70.7278835
11
14.6851277
21
70.327903
0
LINE
8
DEFAULT_255_1_234
10
14.7156483
20
70.1375508
11
14.7156483
21
70.1247
0
LINE
8
DEFAULT_255_1_234
10
14.5365405
20
70.3680617
11
14.5365405
21
70.5463663
0
LINE
8
DEFAULT_255_1_234
10
14.5365405
20
70.5463663
11
14.4200803
21
70.5463663
0
ARC
8
DEFAULT_255_1_234
10
14.6637864
20
70.1751194
40
0.1155358
50
197.0791116
51
205.8741701
0
ARC
8
DEFAULT_255_1_234
10
14.7876464
20
70.2143654
40
0.2454626
50
192.2918602
51
197.3448991
0
ARC
8
DEFAULT_255_1_234
10
14.9829912
20
70.2577663
40
0.4455697
50
189.1576348
51
192.3971359
0
ARC
8
DEFAULT_255_1_234
10
15.2644193
20
70.3036549
40
0.7307142
50
186.8689952
51
189.1979448
0
ARC
8
DEFAULT_255_1_234
10
14.2815347
20
70.4583258
40
0.353352
50
294.0080019
51
316.7604136
0
ARC
8
DEFAULT_255_1_234
10
14.2944411
20
70.4401572
40
0.3315331
50
269.5042461
51
293.2479736
0
ARC
8
DEFAULT_255_1_234
10
14.2884896
20
70.4802491
40
0.3716254
50
255.403374
51
270.4753162
0
ARC
8
DEFAULT_255_1_234
10
14.2654868
20
70.3909825
40
0.2794431
50
228.6140946
51
255.354999
0
ARC
8
DEFAULT_255_1_234
10
14.2322392
20
70.3591491
40
0.2336109
50
181.8953303
51
229.5703879
0
ARC
8
DEFAULT_255_1_234
10
14.2913897
20
70.3655708
40
0.2929755
50
179.984097
51
182.7679515
0
ARC
8
DEFAULT_255_1_234
10
14.2830839
20
70.3690413
40
0.28469
50
161.0341165
51
180.6820968
0
ARC
8
DEFAULT_255_1_234
10
14.2391385
20
70.3804729
40
0.2394402
50
125.0523775
51
160.2033967
0
ARC
8
DEFAULT_255_1_234
10
14.3053394
20
70.2901431
40
0.3514152
50
106.2671988
51
125.4298572
0
ARC
8
DEFAULT_255_1_234
10
14.362585
20
70.1030842
40
0.5470269
50
95.4857064
51
106.534858
0
ARC
8
DEFAULT_255_1_234
10
14.3899004
20
69.8531758
40
0.7984089
50
89.8515322
51
95.7224983
0
ARC
8
DEFAULT_255_1_234
10
14.3259599
20
70.7216759
40
0.2105886
50
359.503704
51
14.3184734
0
ARC
8
DEFAULT_255_1_234
10
14.3833723
20
70.7366017
40
0.1512684
50
14.2187004
51
45.2025693
0
ARC
8
DEFAULT_255_1_234
10
14.3869919
20
70.7380251
40
0.1477163
50
45.8098026
51
73.0032427
0
ARC
8
DEFAULT_255_1_234
10
14.3620887
20
70.6618896
40
0.2278113
50
72.610967
51
85.7232876
0
ARC
8
DEFAULT_255_1_234
10
14.3530882
20
70.5705569
40
0.3195681
50
85.3352114
51
90.0850615
0
ARC
8
DEFAULT_255_1_234
10
14.3507284
20
70.6296391
40
0.2604924
50
89.5853149
51
103.4592217
0
ARC
8
DEFAULT_255_1_234
10
14.3354887
20
70.6931597
40
0.1951693
50
103.44851
51
126.5404292
0
ARC
8
DEFAULT_255_1_234
10
14.3115767
20
70.723743
40
0.1563639
50
126.1729825
51
141.5004088
0
ARC
8
DEFAULT_255_1_234
10
14.2737368
20
70.7534385
40
0.1082645
50
141.3333588
51
180.3474677
0
ARC
8
DEFAULT_255_1_234
10
14.2063078
20
70.7517174
40
0.1902269
50
151.6374668
51
179.6793754
0
ARC
8
DEFAULT_255_1_234
10
14.266532
20
70.7217334
40
0.2574753
50
142.4988163
51
152.1325379
0
ARC
8
DEFAULT_255_1_234
10
14.298328
20
70.6967735
40
0.2978957
50
120.8284787
51
142.4132259
0
ARC
8
DEFAULT_255_1_234
10
14.3399389
20
70.6316301
40
0.3751664
50
113.9638113
51
121.1869885
0
ARC
8
DEFAULT_255_1_234
10
14.3535541
20
70.5984544
40
0.4110136
50
93.3784663
51
113.8198047
0
ARC
8
DEFAULT_255_1_234
10
14.3612323
20
70.5219446
40
0.487853
50
89.9745882
51
93.7491274
0
ARC
8
DEFAULT_255_1_234
10
14.3647209
20
70.5255605
40
0.4842481
50
79.1325877
51
90.3871757
0
ARC
8
DEFAULT_255_1_234
10
14.3972329
20
70.6880435
40
0.3185522
50
60.1435559
51
79.3654871
0
ARC
8
DEFAULT_255_1_234
10
14.4229018
20
70.737343
40
0.2630271
50
48.6192091
51
59.646742
0
ARC
8
DEFAULT_255_1_234
10
14.4276756
20
70.7436691
40
0.2551253
50
9.0349315
51
48.4844544
0
ARC
8
DEFAULT_255_1_234
10
14.32006
20
70.7201793
40
0.3651489
50
1.2089744
51
10.0233366
0
ARC
8
DEFAULT_255_1_234
10
15.4487345
20
70.3254518
40
0.7636108
50
179.8160804
51
185.3206488
0
ARC
8
DEFAULT_255_1_234
10
15.1791827
20
70.2997155
40
0.4928344
50
185.2474014
51
192.7953707
0
ARC
8
DEFAULT_255_1_234
10
15.0030084
20
70.2592824
40
0.3120807
50
192.7197759
51
202.9585048
0
ARC
8
DEFAULT_255_1_234
10
14.3132268
20
70.4990928
40
0.2611453
50
270.0069004
51
300.5035019
0
ARC
8
DEFAULT_255_1_234
10
14.3254876
20
70.4862927
40
0.2439274
50
299.5482464
51
315.6095048
0
ARC
8
DEFAULT_255_1_234
10
14.3544973
20
70.4566155
40
0.2024389
50
315.868035
51
334.0596869
0
ARC
8
DEFAULT_255_1_234
10
14.4157333
20
69.8489943
40
0.6973855
50
89.6428514
51
97.2870891
0
ARC
8
DEFAULT_255_1_234
10
14.3716095
20
70.1793571
40
0.3640992
50
96.9938028
51
109.7781797
0
ARC
8
DEFAULT_255_1_234
10
14.305072
20
70.3574891
40
0.1739759
50
109.0087453
51
135.326626
0
ARC
8
DEFAULT_255_1_234
10
14.2777325
20
70.3913473
40
0.1308198
50
137.4539381
51
182.1082805
0
ARC
8
DEFAULT_255_1_234
10
14.3151315
20
70.3848893
40
0.1681384
50
179.4392907
51
195.7200177
0
ARC
8
DEFAULT_255_1_234
10
14.2739743
20
70.3736426
40
0.1254738
50
195.8684065
51
230.1572205
0
ARC
8
DEFAULT_255_1_234
10
14.298217
20
70.4026769
40
0.1632985
50
230.1530708
51
259.7485588
0
ARC
8
DEFAULT_255_1_234
10
14.3120874
20
70.4680386
40
0.230094
50
259.2463819
51
270.291543
0
LINE
8
DEFAULT_255_1_234
10
14.9710576
20
71.2041656
11
15.1196447
21
71.2041656
0
LINE
8
DEFAULT_255_1_234
10
15.1196447
20
71.2041656
11
15.1196447
21
70.9937341
0
LINE
8
DEFAULT_255_1_234
10
15.1196447
20
70.9937341
11
15.2818858
21
70.9937341
0
LINE
8
DEFAULT_255_1_234
10
15.2818858
20
70.9937341
11
15.2818858
21
70.8788802
0
LINE
8
DEFAULT_255_1_234
10
15.2818858
20
70.8788802
11
15.1196447
21
70.8788802
0
LINE
8
DEFAULT_255_1_234
10
15.1196447
20
70.8788802
11
15.1196447
21
70.3399506
0
LINE
8
DEFAULT_255_1_234
10
15.2859017
20
70.2451761
11
15.2859017
21
70.1247
0
LINE
8
DEFAULT_255_1_234
10
14.9710576
20
70.3399506
11
14.9710576
21
70.8788802
0
LINE
8
DEFAULT_255_1_234
10
14.9710576
20
70.8788802
11
14.8128323
21
70.8788802
0
LINE
8
DEFAULT_255_1_234
10
14.8128323
20
70.8788802
11
14.8128323
21
70.9937341
0
LINE
8
DEFAULT_255_1_234
10
14.8128323
20
70.9937341
11
14.9710576
21
70.9937341
0
LINE
8
DEFAULT_255_1_234
10
14.9710576
20
70.9937341
11
14.9710576
21
71.2041656
0
ARC
8
DEFAULT_255_1_234
10
15.320395
20
70.3389084
40
0.200753
50
179.7025659
51
187.917967
0
ARC
8
DEFAULT_255_1_234
10
15.2457976
20
70.3281724
40
0.1253883
50
187.7545981
51
200.2447476
0
ARC
8
DEFAULT_255_1_234
10
15.2037297
20
70.3124859
40
0.0804913
50
200.130383
51
219.174133
0
ARC
8
DEFAULT_255_1_234
10
15.1901474
20
70.3032515
40
0.0641445
50
220.4434483
51
249.6172
0
ARC
8
DEFAULT_255_1_234
10
15.2056324
20
70.3421968
40
0.1060489
50
249.1032952
51
262.775154
0
ARC
8
DEFAULT_255_1_234
10
15.2144496
20
70.4050715
40
0.1695354
50
262.4913187
51
270.2611758
0
ARC
8
DEFAULT_255_1_234
10
15.2141913
20
70.4266103
40
0.191075
50
270.3091804
51
275.6625139
0
ARC
8
DEFAULT_255_1_234
10
15.1999138
20
70.5767435
40
0.3418851
50
275.5610264
51
279.0879356
0
ARC
8
DEFAULT_255_1_234
10
15.1669015
20
70.7862699
40
0.5539959
50
279.0365489
51
281.5011378
0
ARC
8
DEFAULT_255_1_234
10
15.1312092
20
70.9666423
40
0.7378639
50
281.4243939
51
282.1017894
0
ARC
8
DEFAULT_255_1_234
10
15.1655339
20
70.5584858
40
0.4501761
50
275.2597045
51
285.5083879
0
ARC
8
DEFAULT_255_1_234
10
15.1716663
20
70.5028606
40
0.3942242
50
270.0268409
51
275.1132796
0
ARC
8
DEFAULT_255_1_234
10
15.1696628
20
70.3701614
40
0.261534
50
257.3573315
51
270.479383
0
ARC
8
DEFAULT_255_1_234
10
15.1483519
20
70.2803406
40
0.1692304
50
230.8037497
51
257.741658
0
ARC
8
DEFAULT_255_1_234
10
15.1415423
20
70.2693777
40
0.1564393
50
219.974146
51
230.1990686
0
ARC
8
DEFAULT_255_1_234
10
15.1747369
20
70.2947579
40
0.1981916
50
196.5084186
51
219.4318458
0
ARC
8
DEFAULT_255_1_234
10
15.2762814
20
70.3266194
40
0.3046086
50
184.6404872
51
196.8269686
0
ARC
8
DEFAULT_255_1_234
10
15.4007879
20
70.3391908
40
0.4297309
50
179.8986958
51
184.9681077
0
LINE
8
DEFAULT_255_1_234
10
15.3999524
20
70.5568075
11
15.3999524
21
70.5672488
0
LINE
8
DEFAULT_255_1_234
10
16.1910786
20
70.5600202
11
16.1910786
21
70.549579
0
ARC
8
DEFAULT_255_1_234
10
15.9585703
20
70.5704837
40
0.5586273
50
166.3003825
51
180.3317926
0
ARC
8
DEFAULT_255_1_234
10
15.8722863
20
70.5897964
40
0.4702272
50
153.8608245
51
166.0967125
0
ARC
8
DEFAULT_255_1_234
10
15.8057265
20
70.625475
40
0.3947658
50
135.1316692
51
154.253643
0
ARC
8
DEFAULT_255_1_234
10
15.7778825
20
70.6500666
40
0.3576898
50
121.7044358
51
134.776924
0
ARC
8
DEFAULT_255_1_234
10
15.7845818
20
70.6371867
40
0.3721701
50
93.4002104
51
121.5398234
0
ARC
8
DEFAULT_255_1_234
10
15.7940774
20
70.5546228
40
0.4551749
50
89.9706281
51
93.9769836
0
ARC
8
DEFAULT_255_1_234
10
15.7987866
20
70.5936362
40
0.4161854
50
71.3323442
51
90.6161982
0
ARC
8
DEFAULT_255_1_234
10
15.8150563
20
70.6538578
40
0.3539455
50
41.1815071
51
70.707185
0
ARC
8
DEFAULT_255_1_234
10
15.7672963
20
70.6104919
40
0.4184468
50
12.1971897
51
41.3445735
0
ARC
8
DEFAULT_255_1_234
10
15.574697
20
70.5646425
40
0.616399
50
359.5703439
51
12.5804035
0
ARC
8
DEFAULT_255_1_234
10
15.6220045
20
70.5464116
40
0.5690829
50
347.0197749
51
0.3188898
0
ARC
8
DEFAULT_255_1_234
10
15.7178547
20
70.5257808
40
0.4710501
50
334.3504053
51
346.846361
0
ARC
8
DEFAULT_255_1_234
10
15.8023971
20
70.4818805
40
0.3758475
50
310.422922
51
334.8045033
0
ARC
8
DEFAULT_255_1_234
10
15.8105796
20
70.4754782
40
0.3656736
50
301.8486886
51
310.097356
0
ARC
8
DEFAULT_255_1_234
10
15.8073522
20
70.4830638
40
0.3738224
50
274.307774
51
301.655379
0
ARC
8
DEFAULT_255_1_234
10
15.796283
20
70.5708361
40
0.4621997
50
269.9546461
51
274.8588071
0
ARC
8
DEFAULT_255_1_234
10
15.7913763
20
70.5207249
40
0.4121134
50
250.888809
51
270.631312
0
ARC
8
DEFAULT_255_1_234
10
15.7763683
20
70.4648277
40
0.3544073
50
221.1701932
51
250.2227191
0
ARC
8
DEFAULT_255_1_234
10
15.8247838
20
70.5089439
40
0.4198961
50
191.6263638
51
221.3526367
0
ARC
8
DEFAULT_255_1_234
10
16.0135833
20
70.5526329
40
0.6136451
50
179.610213
51
192.0693181
0
ARC
8
DEFAULT_255_1_234
10
16.0559061
20
70.5463633
40
0.5065736
50
179.636298
51
190.6162791
0
ARC
8
DEFAULT_255_1_234
10
15.8916729
20
70.514359
40
0.3392576
50
190.4136628
51
208.7170242
0
ARC
8
DEFAULT_255_1_234
10
15.8406354
20
70.4890366
40
0.2823401
50
209.1867941
51
217.4225593
0
ARC
8
DEFAULT_255_1_234
10
15.7877188
20
70.4424558
40
0.2120636
50
216.1156896
51
265.2575835
0
ARC
8
DEFAULT_255_1_234
10
15.7956336
20
70.4998109
40
0.2698952
50
264.5897417
51
270.0601757
0
ARC
8
DEFAULT_255_1_234
10
15.7989397
20
70.4618185
40
0.2319225
50
269.2532621
51
291.8792492
0
ARC
8
DEFAULT_255_1_234
10
15.8018618
20
70.4440238
40
0.2143562
50
292.9269754
51
323.1776747
0
ARC
8
DEFAULT_255_1_234
10
15.762544
20
70.4788452
40
0.2667346
50
322.2518483
51
323.0930371
0
ARC
8
DEFAULT_255_1_234
10
15.7331099
20
70.496999
40
0.3011886
50
323.6941278
51
343.8493282
0
ARC
8
DEFAULT_255_1_234
10
15.5752642
20
70.545035
40
0.4661719
50
343.5748474
51
355.0079071
0
ARC
8
DEFAULT_255_1_234
10
15.3744888
20
70.5658424
40
0.6680042
50
354.7285225
51
0.1206288
0
ARC
8
DEFAULT_255_1_234
10
15.5513354
20
70.5704751
40
0.4911667
50
359.623636
51
11.2015604
0
ARC
8
DEFAULT_255_1_234
10
15.7047582
20
70.602064
40
0.3345323
50
10.9989411
51
30.8319188
0
ARC
8
DEFAULT_255_1_234
10
15.7443454
20
70.6229297
40
0.2898553
50
31.3008956
51
37.3959224
0
ARC
8
DEFAULT_255_1_234
10
15.7940033
20
70.6648653
40
0.2249582
50
36.5915954
51
62.2442953
0
ARC
8
DEFAULT_255_1_234
10
15.7986486
20
70.6645602
40
0.2231053
50
63.3365542
51
89.7195421
0
ARC
8
DEFAULT_255_1_234
10
15.794334
20
70.6076884
40
0.2800267
50
88.8936788
51
90.0047485
0
ARC
8
DEFAULT_255_1_234
10
15.7911699
20
70.6649787
40
0.2227586
50
89.1921125
51
114.7099455
0
ARC
8
DEFAULT_255_1_234
10
15.7940463
20
70.6687628
40
0.2205633
50
115.7997161
51
142.2900762
0
ARC
8
DEFAULT_255_1_234
10
15.8379195
20
70.6297658
40
0.2791541
50
141.4658779
51
142.3795754
0
ARC
8
DEFAULT_255_1_234
10
15.84881
20
70.6254557
40
0.2904292
50
143.0175714
51
163.234115
0
ARC
8
DEFAULT_255_1_234
10
16.0066272
20
70.5755054
40
0.4559523
50
162.9447461
51
174.3732162
0
ARC
8
DEFAULT_255_1_234
10
16.2212086
20
70.5514143
40
0.6718682
50
174.1228657
51
180.1565175
0
LINE
8
DEFAULT_255_1_234
10
16.7974749
20
70.9985531
11
16.7974749
21
70.8604072
0
LINE
8
DEFAULT_255_1_234
10
16.5260021
20
70.7415375
11
16.5260021
21
70.1247
0
LINE
8
DEFAULT_255_1_234
10
16.5260021
20
70.1247
11
16.3774149
21
70.1247
0
LINE
8
DEFAULT_255_1_234
10
16.3774149
20
70.1247
11
16.3774149
21
70.9937341
0
LINE
8
DEFAULT_255_1_234
10
16.3774149
20
70.9937341
11
16.5219862
21
70.9937341
0
LINE
8
DEFAULT_255_1_234
10
16.5219862
20
70.9937341
11
16.5243958
21
70.8933374
0
ARC
8
DEFAULT_255_1_234
10
16.7308154
20
70.4544342
40
0.4114092
50
80.6754243
51
86.8932892
0
ARC
8
DEFAULT_255_1_234
10
16.7247688
20
70.35767
40
0.5083596
50
86.8038578
51
90.0431435
0
ARC
8
DEFAULT_255_1_234
10
16.7210669
20
70.6033866
40
0.2626638
50
89.2759698
51
106.6213787
0
ARC
8
DEFAULT_255_1_234
10
16.7006233
20
70.677683
40
0.1856317
50
107.1346045
51
157.6458115
0
ARC
8
DEFAULT_255_1_234
10
16.7697835
20
70.6393311
40
0.2643398
50
155.6586782
51
157.2539184
0
ARC
8
DEFAULT_255_1_234
10
16.7493037
20
70.7562157
40
0.2634121
50
127.8165941
51
148.6302098
0
ARC
8
DEFAULT_255_1_234
10
16.7239506
20
70.7822218
40
0.2273596
50
91.3329982
51
126.7875809
0
ARC
8
DEFAULT_255_1_234
10
16.7315446
20
70.7107195
40
0.299078
50
89.986594
51
92.4688449
0
ARC
8
DEFAULT_255_1_234
10
16.7323841
20
70.7382078
40
0.2715908
50
85.3589899
51
90.1623399
0
ARC
8
DEFAULT_255_1_234
10
16.7408357
20
70.8386164
40
0.1708278
50
78.401942
51
85.4594656
0
ARC
8
DEFAULT_255_1_234
10
16.7553241
20
70.9077236
40
0.1002194
50
67.7858312
51
78.5728455
0
ARC
8
DEFAULT_255_1_234
10
16.7661093
20
70.9356887
40
0.0702548
50
63.4835954
51
67.3062642
0
LINE
8
DEFAULT_255_1_234
10
17.5299694
20
71.2941211
11
17.5299694
21
70.1247
0
LINE
8
DEFAULT_255_1_234
10
17.5299694
20
70.1247
11
17.37576
21
70.1247
0
LINE
8
DEFAULT_255_1_234
10
17.37576
20
70.1247
11
17.37576
21
71.2941211
0
LINE
8
DEFAULT_255_1_234
10
17.37576
20
71.2941211
11
17.5299694
21
71.2941211
0
LINE
8
DEFAULT_255_1_234
10
18.3058353
20
71.2941211
11
17.8183088
21
70.0243033
0
LINE
8
DEFAULT_255_1_234
10
17.8183088
20
70.0243033
11
17.6906042
21
70.0243033
0
LINE
8
DEFAULT_255_1_234
10
17.6906042
20
70.0243033
11
18.1789338
21
71.2941211
0
LINE
8
DEFAULT_255_1_234
10
18.1789338
20
71.2941211
11
18.3058353
21
71.2941211
0
LINE
8
DEFAULT_255_1_234
10
19.3893168
20
70.7455534
11
19.3893168
21
70.6716614
0
LINE
8
DEFAULT_255_1_234
10
18.4488002
20
70.6612201
11
18.4488002
21
70.7455534
0
LINE
8
DEFAULT_255_1_234
10
19.2359106
20
70.6604169
11
19.2359106
21
70.7471597
0
LINE
8
DEFAULT_255_1_234
10
18.6022064
20
70.757601
11
18.6022064
21
70.6716614
0
ARC
8
DEFAULT_255_1_234
10
18.5251195
20
70.6677015
40
0.8642064
50
350.487711
51
0.2625388
0
ARC
8
DEFAULT_255_1_234
10
18.7544436
20
70.6282578
40
0.631518
50
336.0277639
51
350.5787438
0
ARC
8
DEFAULT_255_1_234
10
18.8889259
20
70.5674892
40
0.4839466
50
319.8877444
51
336.1328423
0
ARC
8
DEFAULT_255_1_234
10
18.94919
20
70.519258
40
0.4067874
50
302.4806467
51
319.6143626
0
ARC
8
DEFAULT_255_1_234
10
18.937691
20
70.5414202
40
0.4316636
50
275.8195682
51
302.1884709
0
ARC
8
DEFAULT_255_1_234
10
18.9210543
20
70.6556665
40
0.5470306
50
269.9171439
51
276.3397983
0
ARC
8
DEFAULT_255_1_234
10
18.9165753
20
70.5870681
40
0.4784458
50
252.5219675
51
270.4416499
0
ARC
8
DEFAULT_255_1_234
10
18.9022012
20
70.5331592
40
0.422716
50
237.5352116
51
252.1857531
0
ARC
8
DEFAULT_255_1_234
10
18.9111208
20
70.5445363
40
0.4371052
50
209.063312
51
237.3492538
0
ARC
8
DEFAULT_255_1_234
10
18.9981056
20
70.5991685
40
0.5397041
50
205.1183774
51
209.6470015
0
ARC
8
DEFAULT_255_1_234
10
19.0778093
20
70.632983
40
0.6262326
50
188.7215458
51
204.8240747
0
ARC
8
DEFAULT_255_1_234
10
19.2775621
20
70.6666067
40
0.8287794
50
180.3723947
51
188.9252049
0
ARC
8
DEFAULT_255_1_234
10
19.2748373
20
70.7495402
40
0.8260467
50
169.5253763
51
180.2765336
0
ARC
8
DEFAULT_255_1_234
10
19.0845822
20
70.7845309
40
0.6326007
50
155.8315255
51
169.5089989
0
ARC
8
DEFAULT_255_1_234
10
18.9565323
20
70.8439348
40
0.4914567
50
139.6258461
51
156.0379525
0
ARC
8
DEFAULT_255_1_234
10
18.8975656
20
70.8913799
40
0.4158054
50
122.6416387
51
139.3430715
0
ARC
8
DEFAULT_255_1_234
10
18.9076276
20
70.8730451
40
0.4366739
50
93.0223692
51
122.455762
0
ARC
8
DEFAULT_255_1_234
10
18.9184273
20
70.7765709
40
0.5336137
50
89.975342
51
93.6341897
0
ARC
8
DEFAULT_255_1_234
10
18.9223052
20
70.8164242
40
0.4937738
50
73.746375
51
90.4233405
0
ARC
8
DEFAULT_255_1_234
10
18.9398631
20
70.8844287
40
0.4235786
50
57.662753
51
73.4518111
0
ARC
8
DEFAULT_255_1_234
10
18.9390637
20
70.8865832
40
0.4221899
50
29.1440151
51
57.414694
0
ARC
8
DEFAULT_255_1_234
10
18.8455832
20
70.8282005
40
0.5322966
50
24.0982783
51
29.7323517
0
ARC
8
DEFAULT_255_1_234
10
18.7422107
20
70.7853399
40
0.6441673
50
8.6655297
51
23.8241346
0
ARC
8
DEFAULT_255_1_234
10
18.5187845
20
70.7488854
40
0.8705386
50
359.7806941
51
8.8218784
0
ARC
8
DEFAULT_255_1_234
10
18.4040843
20
70.7514345
40
0.8318373
50
359.7055579
51
8.036044
0
ARC
8
DEFAULT_255_1_234
10
18.7040849
20
70.7951239
40
0.5286768
50
7.8928306
51
20.2962107
0
ARC
8
DEFAULT_255_1_234
10
18.866842
20
70.8551395
40
0.3552073
50
20.3231126
51
36.4992797
0
ARC
8
DEFAULT_255_1_234
10
18.9353966
20
70.9079402
40
0.2686974
50
36.1437156
51
85.6627023
0
ARC
8
DEFAULT_255_1_234
10
18.9191512
20
70.8039221
40
0.373739
50
84.3852322
51
90.0757696
0
ARC
8
DEFAULT_255_1_234
10
18.9149184
20
70.8699839
40
0.3076997
50
89.3038458
51
109.9045693
0
ARC
8
DEFAULT_255_1_234
10
18.9056575
20
70.9082062
40
0.2686424
50
110.8228367
51
143.9179474
0
ARC
8
DEFAULT_255_1_234
10
18.9990235
20
70.8369236
40
0.3860887
50
143.5289163
51
163.2980757
0
ARC
8
DEFAULT_255_1_234
10
19.1898056
20
70.7769433
40
0.5860659
50
163.0418846
51
174.3140048
0
ARC
8
DEFAULT_255_1_234
10
19.4302168
20
70.7491854
40
0.8280531
50
174.0509143
51
179.4176892
0
ARC
8
DEFAULT_255_1_234
10
19.3797907
20
70.6674954
40
0.7775954
50
179.6930361
51
188.7906598
0
ARC
8
DEFAULT_255_1_234
10
19.1134386
20
70.6248935
40
0.5078633
50
188.6331305
51
202.5629587
0
ARC
8
DEFAULT_255_1_234
10
18.9879978
20
70.5744996
40
0.3726913
50
202.8081362
51
216.1193925
0
ARC
8
DEFAULT_255_1_234
10
18.9070548
20
70.5093676
40
0.2689577
50
215.0755913
51
264.6379694
0
ARC
8
DEFAULT_255_1_234
10
18.9197498
20
70.5924513
40
0.3528978
50
263.846392
51
270.0833719
0
ARC
8
DEFAULT_255_1_234
10
18.9238888
20
70.5666374
40
0.3271036
50
269.3649385
51
287.5152008
0
ARC
8
DEFAULT_255_1_234
10
18.9417046
20
70.5019238
40
0.2600406
50
288.0630309
51
323.8113348
0
ARC
8
DEFAULT_255_1_234
10
18.8545888
20
70.5669049
40
0.3687189
50
323.6547608
51
342.6590488
0
ARC
8
DEFAULT_255_1_234
10
18.6514503
20
70.6329952
40
0.5823286
50
342.4091907
51
353.6451149
0
ARC
8
DEFAULT_255_1_234
10
18.3683014
20
70.668219
40
0.8676442
50
353.4029884
51
359.4847795
0
ARC
8
DEFAULT_255_2_778
10
13.4953021
20
73.8860533
40
2.3035416
50
339.8907409
51
346.994376
0
ARC
8
DEFAULT_255_2_778
10
14.4646357
20
73.5259276
40
1.2694939
50
328.7691853
51
340.1120733
0
ARC
8
DEFAULT_255_2_778
10
14.9922733
20
73.1992249
40
0.6489533
50
308.240385
51
329.2799976
0
ARC
8
DEFAULT_255_2_778
10
15.1335254
20
73.0303956
40
0.42897
50
290.2149747
51
307.3797345
0
ARC
8
DEFAULT_255_2_778
10
14.8550836
20
73.2930832
40
0.5085768
50
279.0582472
51
335.0254579
0
ARC
8
DEFAULT_255_2_778
10
14.4035606
20
73.5413036
40
1.0232605
50
333.100566
51
347.4967948
0
ARC
8
DEFAULT_255_2_778
10
13.9267879
20
73.6652273
40
1.515659
50
346.8251736
51
349.6433145
0
ARC
8
DEFAULT_255_2_778
10
16.7325297
20
73.9377541
40
0.6340004
50
90.2418805
51
180.4975197
0
ARC
8
DEFAULT_255_2_778
10
16.7271765
20
73.937754
40
0.6340006
50
359.5024881
51
89.7581009
0
ARC
8
DEFAULT_255_2_778
10
16.7271768
20
73.9267436
40
0.6340003
50
270.2418684
51
0.4975336
0
ARC
8
DEFAULT_255_2_778
10
16.7325299
20
73.9267437
40
0.6340005
50
179.5024805
51
269.758104
0
ARC
8
DEFAULT_255_2_778
10
17.1189581
20
73.9521235
40
0.5748535
50
158.6224664
51
180.7450103
0
ARC
8
DEFAULT_255_2_778
10
16.8143054
20
74.0791995
40
0.2449488
50
125.6968143
51
160.3264119
0
ARC
8
DEFAULT_255_2_778
10
16.7310393
20
74.1859868
40
0.1097683
50
90.6191325
51
122.9231799
0
ARC
8
DEFAULT_255_2_778
10
16.7161984
20
74.1478461
40
0.1485318
50
26.6299238
51
84.7252528
0
ARC
8
DEFAULT_255_2_778
10
16.4561415
20
73.982402
40
0.4562354
50
6.9672199
51
30.5675002
0
ARC
8
DEFAULT_255_2_778
10
16.261361
20
73.9454325
40
0.6541928
50
359.9313724
51
8.1119436
0
ARC
8
DEFAULT_255_2_778
10
16.3407903
20
73.9372075
40
0.5748111
50
338.6217917
51
0.7417631
0
ARC
8
DEFAULT_255_2_778
10
16.6452775
20
73.8101776
40
0.2450776
50
305.7107467
51
340.3279893
0
ARC
8
DEFAULT_255_2_778
10
16.7286626
20
73.7032757
40
0.1097331
50
270.6216799
51
302.9378787
0
ARC
8
DEFAULT_255_2_778
10
16.7435343
20
73.7414636
40
0.148546
50
206.6181959
51
264.7155805
0
ARC
8
DEFAULT_255_2_778
10
17.0037331
20
73.9069852
40
0.456409
50
186.9714802
51
210.5628916
0
ARC
8
DEFAULT_255_2_778
10
17.1979553
20
73.9438721
40
0.6538026
50
179.9319269
51
188.1143536
0
ARC
8
DEFAULT_255_2_778
10
14.2076298
20
73.9377541
40
0.6340005
50
90.2418914
51
180.4975151
0
ARC
8
DEFAULT_255_2_778
10
14.2022765
20
73.937754
40
0.6340006
50
359.5024881
51
89.7581009
0
ARC
8
DEFAULT_255_2_778
10
14.2022768
20
73.9267436
40
0.6340003
50
270.2418684
51
0.4975336
0
ARC
8
DEFAULT_255_2_778
10
14.2076299
20
73.9267437
40
0.6340005
50
179.5024805
51
269.758104
0
ARC
8
DEFAULT_255_2_778
10
14.5935296
20
73.9521068
40
0.5744248
50
158.6039448
51
180.7439081
0
ARC
8
DEFAULT_255_2_778
10
14.2894145
20
74.079083
40
0.2450547
50
125.6846154
51
160.3063409
0
ARC
8
DEFAULT_255_2_778
10
14.2061439
20
74.185937
40
0.1098183
50
90.6212609
51
122.9155624
0
ARC
8
DEFAULT_255_2_778
10
14.1912984
20
74.1478461
40
0.1485318
50
26.6299238
51
84.7252528
0
ARC
8
DEFAULT_255_2_778
10
13.9312415
20
73.982402
40
0.4562354
50
6.9672199
51
30.5675002
0
ARC
8
DEFAULT_255_2_778
10
13.736461
20
73.9454325
40
0.6541928
50
359.9313724
51
8.1119436
0
ARC
8
DEFAULT_255_2_778
10
13.8158903
20
73.9372075
40
0.5748111
50
338.6217917
51
0.7417631
0
ARC
8
DEFAULT_255_2_778
10
14.1203775
20
73.8101776
40
0.2450776
50
305.7107467
51
340.3279893
0
ARC
8
DEFAULT_255_2_778
10
14.2037626
20
73.7032757
40
0.1097331
50
270.6216799
51
302.9378787
0
ARC
8
DEFAULT_255_2_778
10
14.2183015
20
73.7407507
40
0.1478058
50
207.0367178
51
264.8185874
0
ARC
8
DEFAULT_255_2_778
10
14.4731143
20
73.9049943
40
0.4504617
50
187.4901111
51
210.9147812
0
ARC
8
DEFAULT_255_2_778
10
14.6699142
20
73.9437625
40
0.6507616
50
179.9219565
51
188.6157011
0
LINE
8
DEFAULT_255_2_778
10
14.8857532
20
74.5466489
11
15.3807532
21
74.5466489
0
LINE
8
DEFAULT_255_2_778
10
15.3807532
20
74.5466489
11
15.5540532
21
73.8819489
0
LINE
8
DEFAULT_255_2_778
10
15.5540532
20
73.8819489
11
15.7397532
21
74.5590489
0
LINE
8
DEFAULT_255_2_778
10
15.7397532
20
74.5590489
11
16.0369532
21
74.4712489
0
LINE
8
DEFAULT_255_2_778
10
16.0369532
20
74.4712489
11
15.7397532
21
73.3676489
0
LINE
8
DEFAULT_255_2_778
10
15.2817532
20
72.6278489
11
14.9351532
21
72.7908489
0
LINE
8
DEFAULT_255_2_778
10
15.4177532
20
73.3927489
11
15.2074532
21
73.3927489
0
LINE
8
DEFAULT_255_2_778
10
15.2074532
20
73.3927489
11
14.8857532
21
74.5466489
0
LINE
8
DEFAULT_255_2_778
10
16.0985532
20
73.9322489
11
16.0985532
21
73.9322489
0
LINE
8
DEFAULT_255_2_778
10
16.5441532
20
73.9446489
11
16.5441532
21
73.9446489
0
LINE
8
DEFAULT_255_2_778
10
13.5736532
20
73.9322489
11
13.5736532
21
73.9322489
0
LINE
8
DEFAULT_255_2_778
10
14.0191532
20
73.9446489
11
14.0191532
21
73.9446489
0
LINE
8
DEFAULT_255_2_778
10
12.0390532
20
75.2739489
11
12.5835532
21
75.2739489
0
LINE
8
DEFAULT_255_2_778
10
12.5835532
20
75.2739489
11
12.5835532
21
74.5466489
0
LINE
8
DEFAULT_255_2_778
10
12.5835532
20
74.5466489
11
13.0291532
21
75.2739489
0
LINE
8
DEFAULT_255_2_778
10
13.0291532
20
75.2739489
11
13.4995532
21
75.2739489
0
LINE
8
DEFAULT_255_2_778
10
13.4995532
20
75.2739489
11
12.9796532
21
74.4211489
0
LINE
8
DEFAULT_255_2_778
10
12.9796532
20
74.4211489
11
13.5985532
21
73.3678489
0
LINE
8
DEFAULT_255_2_778
10
13.5985532
20
73.3678489
11
13.0291532
21
73.3678489
0
LINE
8
DEFAULT_255_2_778
10
13.0291532
20
73.3678489
11
12.5586532
21
74.1703489
0
LINE
8
DEFAULT_255_2_778
10
12.5586532
20
74.1703489
11
12.5586532
21
73.3678489
0
LINE
8
DEFAULT_255_2_778
10
12.5586532
20
73.3678489
11
12.0390532
21
73.3678489
0
LINE
8
DEFAULT_255_2_778
10
12.0390532
20
73.3678489
11
12.0390532
21
75.2739489
0
LINE
8
DEFAULT_255_2_778
10
9.3932417
20
60.721908
11
10.7161417
21
60.721908
0
LINE
8
DEFAULT_255_2_778
10
10.7161417
20
60.721908
11
10.7161417
21
35.586508
0
LINE
8
DEFAULT_255_2_778
10
9.3932834
20
35.5864333
11
12.0390834
21
35.5864333
0
LINE
8
DEFAULT_255_2_778
10
12.0390834
20
35.5864333
11
12.0390834
21
30.2947333
0
LINE
8
DEFAULT_255_2_778
10
12.0390834
20
30.2947333
11
9.3932834
21
30.2947333
0
LINE
8
DEFAULT_255_2_778
10
9.3932834
20
30.2947333
11
9.3932834
21
35.5864333
0
ARC
8
DEFAULT_255_2_778_1
10
13.1928591
20
30.397177
40
4.816461
50
120.9442904
51
122.351755
0
ARC
8
DEFAULT_255_2_778_1
10
12.7462523
20
31.1008039
40
3.9830657
50
122.3407904
51
124.1946752
0
ARC
8
DEFAULT_255_2_778_1
10
12.3063464
20
31.7473306
40
3.2010724
50
124.1855758
51
126.4338849
0
ARC
8
DEFAULT_255_2_778_1
10
11.9204129
20
32.2700611
40
2.5513094
50
126.4326926
51
128.8877368
0
ARC
8
DEFAULT_255_2_778_1
10
11.5855968
20
32.6844658
40
2.0185498
50
128.8749205
51
131.8726567
0
ARC
8
DEFAULT_255_2_778_1
10
11.2884677
20
33.0154854
40
1.5737356
50
131.8616166
51
135.4168838
0
ARC
8
DEFAULT_255_2_778_1
10
11.025668
20
33.2736765
40
1.2053256
50
135.3893975
51
139.9687014
0
ARC
8
DEFAULT_255_2_778_1
10
10.7927889
20
33.4685102
40
0.9016937
50
139.9301659
51
145.9260426
0
ARC
8
DEFAULT_255_2_778_1
10
10.596654
20
33.6005104
40
0.6652776
50
145.8787362
51
153.8146208
0
ARC
8
DEFAULT_255_2_778_1
10
10.4445553
20
33.6748797
40
0.4959714
50
153.770634
51
164.3484794
0
ARC
8
DEFAULT_255_2_778_1
10
10.3432387
20
33.7030786
40
0.3908039
50
164.3220276
51
179.8083066
0
ARC
8
DEFAULT_255_2_778_1
10
10.3642789
20
33.711215
40
0.4118985
50
180.9499449
51
213.8111542
0
ARC
8
DEFAULT_255_2_778_1
10
10.6401828
20
33.8807896
40
0.73561
50
212.8271214
51
224.258472
0
ARC
8
DEFAULT_255_2_778_1
10
11.0230335
20
34.2501236
40
1.267567
50
224.1376218
51
231.4508261
0
ARC
8
DEFAULT_255_2_778_1
10
11.6657195
20
35.0531168
40
2.2960809
50
231.3955893
51
236.1256478
0
ARC
8
DEFAULT_255_2_778_1
10
13.4980223
20
37.7996293
40
5.5976905
50
236.2233172
51
239.1314682
0
ARC
8
DEFAULT_255_2_778_1
10
25.447927
20
57.5273568
40
28.6623793
50
238.8606853
51
239.0711101
0
ARC
8
DEFAULT_255_2_778_1
10
6.2757281
20
25.4302653
40
8.7248518
50
57.2420924
51
59.4062964
0
ARC
8
DEFAULT_255_2_778_1
10
9.5034241
20
30.4612102
40
2.747542
50
52.8289294
51
57.079028
0
ARC
8
DEFAULT_255_2_778_1
10
10.2780783
20
31.4815488
40
1.466457
50
46.3041868
51
52.8596521
0
ARC
8
DEFAULT_255_2_778_1
10
10.7103073
20
31.9316842
40
0.8424061
50
36.2174211
51
46.4090895
0
ARC
8
DEFAULT_255_2_778_1
10
10.9948088
20
32.1365128
40
0.4918609
50
17.400375
51
36.5489745
0
ARC
8
DEFAULT_255_2_778_1
10
11.1088994
20
32.1763754
40
0.3710912
50
0.0676858
51
16.7951297
0
ARC
8
DEFAULT_255_2_778_1
10
11.0878613
20
32.1782428
40
0.3921317
50
343.8035191
51
359.7912046
0
ARC
8
DEFAULT_255_2_778_1
10
10.9815912
20
32.2087167
40
0.5026844
50
333.2506233
51
343.8465691
0
ARC
8
DEFAULT_255_2_778_1
10
10.8277757
20
32.2854313
40
0.6745679
50
325.6600948
51
333.3122657
0
ARC
8
DEFAULT_255_2_778_1
10
10.6323344
20
32.4182296
40
0.9108568
50
319.7560915
51
325.6976089
0
ARC
8
DEFAULT_255_2_778_1
10
10.404199
20
32.6100002
40
1.2088854
50
315.4577584
51
319.8037947
0
ARC
8
DEFAULT_255_2_778_1
10
10.1408127
20
32.8688507
40
1.5781764
50
311.7298824
51
315.4670864
0
ARC
8
DEFAULT_255_2_778_1
10
9.8317879
20
33.2144074
40
2.0417554
50
308.723055
51
311.7470879
0
ARC
8
DEFAULT_255_2_778_1
10
9.477589
20
33.6556492
40
2.6075745
50
306.1165163
51
308.7300151
0
ARC
8
DEFAULT_255_2_778_1
10
9.0746091
20
34.2069523
40
3.2904564
50
303.9559446
51
306.1266333
0
ARC
8
DEFAULT_255_2_778_1
10
8.6630432
20
34.816215
40
4.0257023
50
302.3733397
51
303.9712246
0
ARC
8
DEFAULT_255_2_778_1
10
8.2434347
20
35.4777058
40
4.8090549
50
300.9434827
51
302.3758078
0
LINE
8
DEFAULT_255_2_778
10
10.7161417
20
30.294808
11
10.7161417
21
5.159408
0
LINE
8
DEFAULT_255_2_778
10
10.7161417
20
5.159408
11
9.3932417
21
5.159408
0
LINE
8
DEFAULT_255_1_234
10
4.2651522
20
69.3098211
11
4.5976662
21
68.3452093
0
LINE
8
DEFAULT_255_1_234
10
4.5976662
20
68.3452093
11
4.9317865
21
69.3098211
0
LINE
8
DEFAULT_255_1_234
10
4.9317865
20
69.3098211
11
5.100453
21
69.3098211
0
LINE
8
DEFAULT_255_1_234
10
5.100453
20
69.3098211
11
4.6667391
21
68.1404
0
LINE
8
DEFAULT_255_1_234
10
4.6667391
20
68.1404
11
4.5301996
21
68.1404
0
LINE
8
DEFAULT_255_1_234
10
4.5301996
20
68.1404
11
4.0972889
21
69.3098211
0
LINE
8
DEFAULT_255_1_234
10
4.0972889
20
69.3098211
11
4.2651522
21
69.3098211
0
LINE
8
DEFAULT_255_1_234
10
5.9518172
20
68.8319327
11
5.9518172
21
68.6391709
0
LINE
8
DEFAULT_255_1_234
10
5.2137005
20
68.6190916
11
5.2137005
21
68.8174755
0
LINE
8
DEFAULT_255_1_234
10
5.8032301
20
68.5990123
11
5.8032301
21
68.8423739
0
LINE
8
DEFAULT_255_1_234
10
5.3622876
20
68.8536184
11
5.3622876
21
68.6158789
0
ARC
8
DEFAULT_255_1_234
10
4.7271062
20
68.6342805
40
1.2247208
50
353.8441951
51
0.2287902
0
ARC
8
DEFAULT_255_1_234
10
5.1910566
20
68.5824806
40
0.7578929
50
344.4934747
51
353.9765454
0
ARC
8
DEFAULT_255_1_234
10
5.4903156
20
68.4973981
40
0.4467846
50
329.2803592
51
344.7472793
0
ARC
8
DEFAULT_255_1_234
10
5.5895981
20
68.4429018
40
0.3336173
50
324.9352394
51
328.6160465
0
ARC
8
DEFAULT_255_1_234
10
5.6273089
20
68.4165427
40
0.2876076
50
280.580143
51
324.9173126
0
ARC
8
DEFAULT_255_1_234
10
5.5871882
20
68.5836099
40
0.4592847
50
269.5977311
51
281.6734359
0
ARC
8
DEFAULT_255_1_234
10
5.5799788
20
68.5716173
40
0.4472986
50
256.6228859
51
270.51044
0
ARC
8
DEFAULT_255_1_234
10
5.5397765
20
68.4167877
40
0.2873874
50
215.8618325
51
257.2788573
0
ARC
8
DEFAULT_255_1_234
10
5.6418797
20
68.4852977
40
0.4102928
50
197.9693508
51
215.2623606
0
ARC
8
DEFAULT_255_1_234
10
5.8903913
20
68.5691709
40
0.6725652
50
187.8816417
51
198.2346507
0
ARC
8
DEFAULT_255_1_234
10
6.2862121
20
68.6263079
40
1.0724845
50
180.8976217
51
188.0055519
0
ARC
8
DEFAULT_255_1_234
10
6.5662309
20
68.6366777
40
1.3526448
50
180.7449369
51
181.1510016
0
ARC
8
DEFAULT_255_1_234
10
6.4085038
20
68.8223042
40
1.1948131
50
173.7675579
51
180.231553
0
ARC
8
DEFAULT_255_1_234
10
5.9567185
20
68.8733666
40
0.7401564
50
164.3058563
51
173.9002247
0
ARC
8
DEFAULT_255_1_234
10
5.6655254
20
68.9572656
40
0.4371288
50
148.7922025
51
164.568378
0
ARC
8
DEFAULT_255_1_234
10
5.5703706
20
69.0103929
40
0.3282386
50
144.5883898
51
148.1176286
0
ARC
8
DEFAULT_255_1_234
10
5.5360604
20
69.0343315
40
0.2864044
50
101.6440918
51
144.514236
0
ARC
8
DEFAULT_255_1_234
10
5.578567
20
68.8654069
40
0.4604934
50
89.5284041
51
102.5819763
0
ARC
8
DEFAULT_255_1_234
10
5.5864758
20
68.8615018
40
0.464401
50
77.0437873
51
90.5081339
0
ARC
8
DEFAULT_255_1_234
10
5.626676
20
69.0257615
40
0.2953195
50
48.2778575
51
77.4994676
0
ARC
8
DEFAULT_255_1_234
10
5.6339391
20
69.0386746
40
0.2808655
50
36.3142134
51
47.6305865
0
ARC
8
DEFAULT_255_1_234
10
5.5470698
20
68.9801515
40
0.3855453
50
18.2931786
51
35.6769206
0
ARC
8
DEFAULT_255_1_234
10
5.2927457
20
68.8928593
40
0.654423
50
8.024666
51
18.5605216
0
ARC
8
DEFAULT_255_1_234
10
4.8764377
20
68.8313792
40
1.0752407
50
1.1274072
51
8.1718305
0
ARC
8
DEFAULT_255_1_234
10
4.5528568
20
68.8186885
40
1.3990231
50
0.5424119
51
1.3863029
0
ARC
8
DEFAULT_255_1_234
10
4.7349945
20
68.8459342
40
1.0682415
50
359.8090433
51
4.9407866
0
ARC
8
DEFAULT_255_1_234
10
5.1559959
20
68.8835113
40
0.6455691
50
4.8362157
51
12.2904523
0
ARC
8
DEFAULT_255_1_234
10
5.4315074
20
68.9448965
40
0.3633074
50
12.0805627
51
23.8173984
0
ARC
8
DEFAULT_255_1_234
10
5.548878
20
68.9945919
40
0.2358723
50
24.2871213
51
31.3935614
0
ARC
8
DEFAULT_255_1_234
10
5.6013477
20
69.0289233
40
0.1732111
50
30.7407893
51
82.4657128
0
ARC
8
DEFAULT_255_1_234
10
5.5833611
20
68.9405691
40
0.263235
50
81.1060089
51
90.2184952
0
ARC
8
DEFAULT_255_1_234
10
5.579791
20
68.9663924
40
0.2374236
50
89.3806855
51
105.6762551
0
ARC
8
DEFAULT_255_1_234
10
5.5614541
20
69.0330567
40
0.1682847
50
105.7981136
51
149.7388061
0
ARC
8
DEFAULT_255_1_234
10
5.6678619
20
68.969095
40
0.2924306
50
149.4208916
51
163.6286378
0
ARC
8
DEFAULT_255_1_234
10
5.8769507
20
68.905325
40
0.5110213
50
163.3763315
51
172.1410975
0
ARC
8
DEFAULT_255_1_234
10
6.2070226
20
68.8580518
40
0.8444586
50
172.0259487
51
178.0703232
0
ARC
8
DEFAULT_255_1_234
10
6.5100315
20
68.8436906
40
1.1477868
50
177.8631668
51
179.5044149
0
ARC
8
DEFAULT_255_1_234
10
6.402772
20
68.6122389
40
1.0404907
50
179.7995573
51
185.2460446
0
ARC
8
DEFAULT_255_1_234
10
5.9984759
20
68.5739513
40
0.6343885
50
185.1411642
51
193.0079639
0
ARC
8
DEFAULT_255_1_234
10
5.7341232
20
68.5114641
40
0.3627568
50
192.7897626
51
205.2507664
0
ARC
8
DEFAULT_255_1_234
10
5.6294779
20
68.4647415
40
0.2481908
50
205.8005384
51
211.2537509
0
ARC
8
DEFAULT_255_1_234
10
5.5771219
20
68.429658
40
0.1852521
50
210.3789793
51
238.4008143
0
ARC
8
DEFAULT_255_1_234
10
5.5751741
20
68.4343376
40
0.1882621
50
239.6520629
51
265.9793761
0
ARC
8
DEFAULT_255_1_234
10
5.5836941
20
68.5015427
40
0.2559272
50
265.1315437
51
270.060332
0
ARC
8
DEFAULT_255_1_234
10
5.586572
20
68.4691534
40
0.2235528
50
269.3314664
51
287.2178029
0
ARC
8
DEFAULT_255_1_234
10
5.6003572
20
68.4188279
40
0.1714108
50
287.7958004
51
329.080874
0
ARC
8
DEFAULT_255_1_234
10
5.5046029
20
68.478593
40
0.2842745
50
328.6634704
51
343.3325132
0
ARC
8
DEFAULT_255_1_234
10
5.2873049
20
68.5462863
40
0.5118644
50
343.0499468
51
351.9393422
0
ARC
8
DEFAULT_255_1_234
10
4.9406349
20
68.5973949
40
0.8622784
50
351.8069023
51
357.7959224
0
ARC
8
DEFAULT_255_1_234
10
4.6170905
20
68.6141721
40
1.1862365
50
357.5871873
51
359.2677531
0
LINE
8
DEFAULT_255_1_234
10
4.7556674
20
5.8098211
11
4.7556674
21
5.726291
0
LINE
8
DEFAULT_255_1_234
10
4.7556674
20
5.726291
11
4.2713536
21
4.6404
0
LINE
8
DEFAULT_255_1_234
10
4.2713536
20
4.6404
11
4.1155379
21
4.6404
0
LINE
8
DEFAULT_255_1_234
10
4.1155379
20
4.6404
11
4.5982454
21
5.6877387
0
LINE
8
DEFAULT_255_1_234
10
4.5982454
20
5.6877387
11
3.9653444
21
5.6877387
0
LINE
8
DEFAULT_255_1_234
10
3.9653444
20
5.6877387
11
3.9653444
21
5.8098211
0
LINE
8
DEFAULT_255_1_234
10
3.9653444
20
5.8098211
11
4.7556674
21
5.8098211
0
LINE
8
DEFAULT_255_1_234
10
4.5572835
20
13.7481243
11
4.5837882
21
13.7481243
0
LINE
8
DEFAULT_255_1_234
10
4.5837882
20
13.7481243
11
4.5837882
21
13.622026
0
LINE
8
DEFAULT_255_1_234
10
4.5837882
20
13.622026
11
4.5564803
21
13.622026
0
LINE
8
DEFAULT_255_1_234
10
4.0095189
20
13.0228583
11
4.0095189
21
13.0798836
0
LINE
8
DEFAULT_255_1_234
10
4.1589093
20
13.0606075
11
4.1589093
21
13.0059917
0
ARC
8
DEFAULT_255_1_234
10
4.5617151
20
13.1222455
40
0.4998079
50
90.6001036
51
104.514704
0
ARC
8
DEFAULT_255_1_234
10
4.5228667
20
13.2667131
40
0.3502176
50
104.2855254
51
133.862935
0
ARC
8
DEFAULT_255_1_234
10
4.5392424
20
13.255883
40
0.3693984
50
134.5302688
51
161.6210873
0
ARC
8
DEFAULT_255_1_234
10
4.7045613
20
13.1975895
40
0.5446739
50
161.2849839
51
174.2076652
0
ARC
8
DEFAULT_255_1_234
10
4.845255
20
13.1781787
40
0.6866274
50
173.7810589
51
174.9254635
0
ARC
8
DEFAULT_255_1_234
10
4.3902382
20
13.0398839
40
0.3033419
50
95.8330959
51
138.9954921
0
ARC
8
DEFAULT_255_1_234
10
4.4125738
20
12.9120375
40
0.4328947
50
89.8753725
51
97.0544009
0
ARC
8
DEFAULT_255_1_234
10
4.4173204
20
12.9955748
40
0.3493769
50
71.6407809
51
90.6240094
0
ARC
8
DEFAULT_255_1_234
10
4.4323777
20
13.0510082
40
0.2920396
50
39.6367836
51
71.019018
0
ARC
8
DEFAULT_255_1_234
10
4.368725
20
12.9959998
40
0.3761538
50
10.658731
51
39.9043955
0
ARC
8
DEFAULT_255_1_234
10
4.2139333
20
12.9623686
40
0.5345136
50
359.682601
51
11.132623
0
ARC
8
DEFAULT_255_1_234
10
4.2099464
20
12.955301
40
0.5385081
50
347.2486944
51
0.4369317
0
ARC
8
DEFAULT_255_1_234
10
4.3766941
20
12.9151807
40
0.3670249
50
318.1409698
51
347.6118597
0
ARC
8
DEFAULT_255_1_234
10
4.4091934
20
12.8884702
40
0.3250007
50
275.6342139
51
317.8248465
0
ARC
8
DEFAULT_255_1_234
10
4.3871045
20
13.0184219
40
0.4565864
50
269.8874292
51
276.7917694
0
ARC
8
DEFAULT_255_1_234
10
4.3816116
20
12.9158743
40
0.3540676
50
246.9140195
51
270.7437342
0
ARC
8
DEFAULT_255_1_234
10
4.3822506
20
12.9016384
40
0.3412781
50
218.1665114
51
245.878116
0
ARC
8
DEFAULT_255_1_234
10
4.4701967
20
12.9752279
40
0.455911
50
191.4115814
51
218.6077802
0
ARC
8
DEFAULT_255_1_234
10
4.6640056
20
13.0186833
40
0.6545001
50
179.6345085
51
191.7836486
0
ARC
8
DEFAULT_255_1_234
10
5.2222393
20
13.0865697
40
1.2127388
50
171.4525249
51
180.3158839
0
ARC
8
DEFAULT_255_1_234
10
4.7827269
20
13.1549608
40
0.7679464
50
157.9802646
51
171.6246686
0
ARC
8
DEFAULT_255_1_234
10
4.561329
20
13.2432421
40
0.5296008
50
141.4298019
51
157.854097
0
ARC
8
DEFAULT_255_1_234
10
4.497161
20
13.2886381
40
0.4511509
50
102.8715806
51
140.8564722
0
ARC
8
DEFAULT_255_1_234
10
4.5619226
20
13.0446552
40
0.7034845
50
90.3778349
51
103.5869322
0
ARC
8
DEFAULT_255_1_234
10
4.3881002
20
12.984173
40
0.2370698
50
89.8751008
51
126.2071704
0
ARC
8
DEFAULT_255_1_234
10
4.3926792
20
12.9687303
40
0.2522934
50
124.9745049
51
144.895901
0
ARC
8
DEFAULT_255_1_234
10
4.3750982
20
12.983056
40
0.2296779
50
145.2974905
51
160.2660252
0
ARC
8
DEFAULT_255_1_234
10
4.6823521
20
13.0028071
40
0.5234525
50
179.6514266
51
190.2855912
0
ARC
8
DEFAULT_255_1_234
10
4.5129658
20
12.9708786
40
0.3510893
50
190.0945431
51
207.5098196
0
ARC
8
DEFAULT_255_1_234
10
4.4563928
20
12.9439623
40
0.288489
50
207.9583163
51
216.3251085
0
ARC
8
DEFAULT_255_1_234
10
4.4224036
20
12.9160105
40
0.2445587
50
215.7661442
51
232.5456785
0
ARC
8
DEFAULT_255_1_234
10
4.3841019
20
12.8673482
40
0.1826382
50
232.8005391
51
270.6605633
0
ARC
8
DEFAULT_255_1_234
10
4.388672
20
12.9037612
40
0.2190529
50
269.35537
51
288.4744281
0
ARC
8
DEFAULT_255_1_234
10
4.3979617
20
12.8688118
40
0.1829749
50
289.1833337
51
322.9683818
0
ARC
8
DEFAULT_255_1_234
10
4.3368139
20
12.9170391
40
0.2608399
50
322.6007884
51
346.5182367
0
ARC
8
DEFAULT_255_1_234
10
4.2210735
20
12.9465616
40
0.3802777
50
346.2582162
51
358.7741648
0
ARC
8
DEFAULT_255_1_234
10
4.1192404
20
12.9520965
40
0.4822176
50
358.3755224
51
0.0098023
0
ARC
8
DEFAULT_255_1_234
10
4.1948591
20
12.9548657
40
0.4066078
50
359.6214041
51
11.2839074
0
ARC
8
DEFAULT_255_1_234
10
4.3225738
20
12.9815066
40
0.2761514
50
11.0482309
51
31.8146458
0
ARC
8
DEFAULT_255_1_234
10
4.3534781
20
12.9982584
40
0.2410679
50
32.3035391
51
38.082671
0
ARC
8
DEFAULT_255_1_234
10
4.3955441
20
13.0363662
40
0.1844966
50
36.825067
51
85.7415724
0
ARC
8
DEFAULT_255_1_234
10
4.3888274
20
12.9863301
40
0.2349122
50
85.0140713
51
90.0513278
0
LINE
8
DEFAULT_255_1_234
10
4.1878235
20
21.0711963
11
4.0689538
21
21.1017169
0
LINE
8
DEFAULT_255_1_234
10
4.0689538
20
21.1017169
11
4.1283887
21
21.6848211
0
LINE
8
DEFAULT_255_1_234
10
4.1283887
20
21.6848211
11
4.7275563
21
21.6848211
0
LINE
8
DEFAULT_255_1_234
10
4.7275563
20
21.6848211
11
4.7275563
21
21.5474784
0
LINE
8
DEFAULT_255_1_234
10
4.7275563
20
21.5474784
11
4.254487
21
21.5474784
0
LINE
8
DEFAULT_255_1_234
10
4.254487
20
21.5474784
11
4.2191473
21
21.2286184
0
LINE
8
DEFAULT_255_1_234
10
4.0271888
20
20.8230156
11
4.1677442
21
20.8230156
0
LINE
8
DEFAULT_255_1_234
10
4.2271791
20
21.1033232
11
4.1878235
21
21.0711963
0
ARC
8
DEFAULT_255_1_234
10
4.4046257
20
20.910623
40
0.3681349
50
93.7182161
51
120.2538958
0
ARC
8
DEFAULT_255_1_234
10
4.414052
20
20.8298394
40
0.449379
50
89.9660152
51
94.2496022
0
ARC
8
DEFAULT_255_1_234
10
4.4181254
20
20.8887549
40
0.390482
50
73.8043271
51
90.5585896
0
ARC
8
DEFAULT_255_1_234
10
4.4416151
20
20.9745602
40
0.3015334
50
41.3071453
51
73.5430202
0
ARC
8
DEFAULT_255_1_234
10
4.3999978
20
20.9387324
40
0.3564457
50
13.5075983
51
41.2174222
0
ARC
8
DEFAULT_255_1_234
10
4.2358182
20
20.8957486
40
0.5261351
50
1.1331335
51
13.8829381
0
ARC
8
DEFAULT_255_1_234
10
4.0946551
20
20.8881665
40
0.6674378
50
359.9919444
51
1.544251
0
ARC
8
DEFAULT_255_1_234
10
4.2223377
20
20.884028
40
0.5397702
50
347.8572367
51
0.4293338
0
ARC
8
DEFAULT_255_1_234
10
4.3973695
20
20.8443736
40
0.3603188
50
323.673004
51
348.1672506
0
ARC
8
DEFAULT_255_1_234
10
4.4268203
20
20.8264168
40
0.3259678
50
316.8171152
51
323.1492751
0
ARC
8
DEFAULT_255_1_234
10
4.4329392
20
20.822746
40
0.3189975
50
281.8396411
51
316.5457803
0
ARC
8
DEFAULT_255_1_234
10
4.3953656
20
20.9782762
40
0.4789527
50
269.5770101
51
282.4214771
0
ARC
8
DEFAULT_255_1_234
10
4.3882467
20
20.9569125
40
0.45759
50
256.2427136
51
270.4486331
0
ARC
8
DEFAULT_255_1_234
10
4.358337
20
20.8369229
40
0.3339303
50
228.9023911
51
256.3314342
0
ARC
8
DEFAULT_255_1_234
10
4.3509602
20
20.8252746
40
0.32031
50
193.753695
51
228.5271154
0
ARC
8
DEFAULT_255_1_234
10
4.4747556
20
20.86158
40
0.4492253
50
184.924711
51
194.497588
0
ARC
8
DEFAULT_255_1_234
10
4.4940123
20
20.8651591
40
0.3289787
50
187.3600538
51
198.6732863
0
ARC
8
DEFAULT_255_1_234
10
4.3890417
20
20.8287674
40
0.217884
50
198.4451669
51
217.794479
0
ARC
8
DEFAULT_255_1_234
10
4.3594592
20
20.8078085
40
0.1816698
50
218.2887171
51
228.5612368
0
ARC
8
DEFAULT_255_1_234
10
4.3692379
20
20.8209963
40
0.1980329
50
228.9654866
51
258.1234728
0
ARC
8
DEFAULT_255_1_234
10
4.3898089
20
20.9090833
40
0.2884748
50
257.7258293
51
270.401361
0
ARC
8
DEFAULT_255_1_234
10
4.3942975
20
20.8645821
40
0.2439788
50
269.4204404
51
286.4209037
0
ARC
8
DEFAULT_255_1_234
10
4.4091463
20
20.8106657
40
0.1880666
50
286.7251356
51
320.600362
0
ARC
8
DEFAULT_255_1_234
10
4.3708288
20
20.8417595
40
0.2374121
50
320.6712579
51
344.5441685
0
ARC
8
DEFAULT_255_1_234
10
4.2551614
20
20.8757045
40
0.3579479
50
344.2412205
51
356.7357071
0
ARC
8
DEFAULT_255_1_234
10
4.1302763
20
20.8860444
40
0.4832297
50
356.3548756
51
0.0500261
0
ARC
8
DEFAULT_255_1_234
10
4.2639272
20
20.889165
40
0.3495889
50
359.5576869
51
12.953486
0
ARC
8
DEFAULT_255_1_234
10
4.3694169
20
20.9147434
40
0.2410532
50
12.6490276
51
41.6081334
0
ARC
8
DEFAULT_255_1_234
10
4.392454
20
20.9343321
40
0.2108218
50
41.7850273
51
85.9892764
0
ARC
8
DEFAULT_255_1_234
10
4.3801277
20
20.8530462
40
0.2928454
50
84.6957577
51
90.0676183
0
ARC
8
DEFAULT_255_1_234
10
4.3777761
20
20.7861716
40
0.3597255
50
89.6804936
51
99.1614436
0
ARC
8
DEFAULT_255_1_234
10
4.3572392
20
20.9089131
40
0.235281
50
98.9830931
51
113.8908934
0
ARC
8
DEFAULT_255_1_234
10
4.3342802
20
20.9630587
40
0.176479
50
114.1950727
51
127.3641004
0
LINE
8
DEFAULT_255_1_234
10
4.8395628
20
29.6223211
11
4.8395628
21
28.845652
0
LINE
8
DEFAULT_255_1_234
10
4.8395628
20
28.845652
11
5.0018039
21
28.845652
0
LINE
8
DEFAULT_255_1_234
10
5.0018039
20
28.845652
11
5.0018039
21
28.7243728
0
LINE
8
DEFAULT_255_1_234
10
5.0018039
20
28.7243728
11
4.8395628
21
28.7243728
0
LINE
8
DEFAULT_255_1_234
10
4.8395628
20
28.7243728
11
4.8395628
21
28.4529
0
LINE
8
DEFAULT_255_1_234
10
4.8395628
20
28.4529
11
4.6901725
21
28.4529
0
LINE
8
DEFAULT_255_1_234
10
4.6901725
20
28.4529
11
4.6901725
21
28.7243728
0
LINE
8
DEFAULT_255_1_234
10
4.6901725
20
28.7243728
11
4.1576682
21
28.7243728
0
LINE
8
DEFAULT_255_1_234
10
4.1576682
20
28.7243728
11
4.1576682
21
28.8119187
0
LINE
8
DEFAULT_255_1_234
10
4.1576682
20
28.8119187
11
4.6813375
21
29.6223211
0
LINE
8
DEFAULT_255_1_234
10
4.6813375
20
29.6223211
11
4.8395628
21
29.6223211
0
LINE
8
DEFAULT_255_1_234
10
4.6725026
20
29.3869912
11
4.3263347
21
28.845652
0
LINE
8
DEFAULT_255_1_234
10
4.3263347
20
28.845652
11
4.6901725
21
28.845652
0
LINE
8
DEFAULT_255_1_234
10
4.6901725
20
28.845652
11
4.6901725
21
29.4191181
0
LINE
8
DEFAULT_255_1_234
10
4.6901725
20
29.4191181
11
4.6725026
21
29.3869912
0
LINE
8
DEFAULT_255_1_234
10
4.2167378
20
36.9261169
11
4.2167378
21
37.0473962
0
LINE
8
DEFAULT_255_1_234
10
4.2167378
20
37.0473962
11
4.328379
21
37.0473962
0
LINE
8
DEFAULT_255_1_234
10
4.1380268
20
37.2530087
11
3.9894396
21
37.2530087
0
LINE
8
DEFAULT_255_1_234
10
3.9789983
20
36.6988188
11
4.1283887
21
36.6988188
0
LINE
8
DEFAULT_255_1_234
10
4.328379
20
36.9261169
11
4.2167378
21
36.9261169
0
ARC
8
DEFAULT_255_1_234
10
4.3254656
20
37.3866713
40
0.3392876
50
270.4919872
51
281.8951556
0
ARC
8
DEFAULT_255_1_234
10
4.3495918
20
37.2764702
40
0.2264817
50
281.6691735
51
301.2943132
0
ARC
8
DEFAULT_255_1_234
10
4.3666128
20
37.2453304
40
0.1910381
50
301.7833094
51
311.7545298
0
ARC
8
DEFAULT_255_1_234
10
4.3757704
20
37.2351748
40
0.1773635
50
311.7323931
51
354.2802411
0
ARC
8
DEFAULT_255_1_234
10
4.3031329
20
37.2476722
40
0.2509385
50
353.0937916
51
0.1181479
0
ARC
8
DEFAULT_255_1_234
10
4.2570114
20
37.2524386
40
0.2970898
50
359.1805295
51
15.0453146
0
ARC
8
DEFAULT_255_1_234
10
4.3915951
20
37.2916992
40
0.1569564
50
13.9577229
51
77.6713066
0
ARC
8
DEFAULT_255_1_234
10
4.352948
20
37.1531949
40
0.3006298
50
76.1116566
51
90.7026153
0
ARC
8
DEFAULT_255_1_234
10
4.3470318
20
37.1805545
40
0.2732568
50
89.5324876
51
103.531937
0
ARC
8
DEFAULT_255_1_234
10
4.3269762
20
37.2604884
40
0.1908508
50
103.2931773
51
133.5619022
0
ARC
8
DEFAULT_255_1_234
10
4.3225251
20
37.2664375
40
0.1834746
50
133.8349307
51
173.5344437
0
ARC
8
DEFAULT_255_1_234
10
4.3948294
20
37.2536213
40
0.2568033
50
172.5096846
51
180.1366907
0
ARC
8
DEFAULT_255_1_234
10
4.2997188
20
37.2570622
40
0.3103056
50
155.3484492
51
180.7484736
0
ARC
8
DEFAULT_255_1_234
10
4.2948277
20
37.2541846
40
0.3070957
50
131.5744599
51
154.4798489
0
ARC
8
DEFAULT_255_1_234
10
4.3261424
20
37.222531
40
0.3515643
50
96.9875458
51
131.9690667
0
ARC
8
DEFAULT_255_1_234
10
4.3480904
20
37.0979636
40
0.4779224
50
89.8596053
51
97.7825159
0
ARC
8
DEFAULT_255_1_234
10
4.3528967
20
37.0717616
40
0.5041361
50
78.3655447
51
90.4131539
0
ARC
8
DEFAULT_255_1_234
10
4.3886885
20
37.2376887
40
0.3344039
50
56.6229102
51
78.638727
0
ARC
8
DEFAULT_255_1_234
10
4.4101829
20
37.2752805
40
0.2912001
50
47.0253525
51
56.0854072
0
ARC
8
DEFAULT_255_1_234
10
4.4121609
20
37.2792223
40
0.2869704
50
10.9208013
51
46.7778124
0
ARC
8
DEFAULT_255_1_234
10
4.2757675
20
37.2476857
40
0.426899
50
359.6364486
51
11.6087304
0
ARC
8
DEFAULT_255_1_234
10
4.4592519
20
37.2461752
40
0.243409
50
332.3549906
51
359.7179418
0
ARC
8
DEFAULT_255_1_234
10
4.3942121
20
37.2770142
40
0.3153459
50
325.2333722
51
332.8745602
0
ARC
8
DEFAULT_255_1_234
10
4.4094744
20
37.2663828
40
0.2967456
50
292.9802137
51
325.2392345
0
ARC
8
DEFAULT_255_1_234
10
4.3820118
20
37.3197863
40
0.3566604
50
292.5402179
51
293.6924929
0
ARC
8
DEFAULT_255_1_234
10
4.4212714
20
36.6743091
40
0.3307468
50
57.6435486
51
72.8625112
0
ARC
8
DEFAULT_255_1_234
10
4.4567214
20
36.7317549
40
0.2632492
50
36.7248896
51
57.4697979
0
ARC
8
DEFAULT_255_1_234
10
4.4555847
20
36.733022
40
0.2634081
50
8.0545065
51
36.356114
0
ARC
8
DEFAULT_255_1_234
10
4.3693032
20
36.7175174
40
0.3510261
50
359.8320645
51
8.5869982
0
ARC
8
DEFAULT_255_1_234
10
4.3317808
20
36.7127101
40
0.3885653
50
343.9829931
51
0.5571613
0
ARC
8
DEFAULT_255_1_234
10
4.4204005
20
36.6884438
40
0.2966924
50
311.6359546
51
343.7651759
0
ARC
8
DEFAULT_255_1_234
10
4.3825574
20
36.7311102
40
0.3537231
50
279.7829875
51
311.6255694
0
ARC
8
DEFAULT_255_1_234
10
4.3524351
20
36.874828
40
0.5004971
50
269.7286406
51
280.3856417
0
ARC
8
DEFAULT_255_1_234
10
4.3462423
20
36.8706996
40
0.4963778
50
256.6828919
51
270.4412052
0
ARC
8
DEFAULT_255_1_234
10
4.3123719
20
36.7322394
40
0.3538406
50
229.4223008
51
256.8556159
0
ARC
8
DEFAULT_255_1_234
10
4.2709112
20
36.6855736
40
0.2914296
50
181.818294
51
229.6455059
0
ARC
8
DEFAULT_255_1_234
10
4.3749068
20
36.6986496
40
0.3959084
50
179.9755256
51
183.2323064
0
ARC
8
DEFAULT_255_1_234
10
4.3576814
20
36.6966037
40
0.2293034
50
179.4465117
51
196.2869258
0
ARC
8
DEFAULT_255_1_234
10
4.3089222
20
36.6832651
40
0.1787621
50
196.5661473
51
227.705904
0
ARC
8
DEFAULT_255_1_234
10
4.3253317
20
36.7016155
40
0.2033784
50
227.7652068
51
257.8762805
0
ARC
8
DEFAULT_255_1_234
10
4.3478287
20
36.7959156
40
0.3003081
50
257.4584385
51
270.426602
0
ARC
8
DEFAULT_255_1_234
10
4.3523853
20
36.8248996
40
0.329292
50
269.5962073
51
280.8789248
0
ARC
8
DEFAULT_255_1_234
10
4.3753382
20
36.7102685
40
0.2123908
50
280.6346389
51
299.8595945
0
ARC
8
DEFAULT_255_1_234
10
4.3944289
20
36.6740212
40
0.171457
50
300.3576302
51
314.5517981
0
ARC
8
DEFAULT_255_1_234
10
4.3861349
20
36.6800919
40
0.1816095
50
315.0728369
51
345.0431014
0
ARC
8
DEFAULT_255_1_234
10
4.2938163
20
36.7069841
40
0.2777492
50
344.5986631
51
357.9269593
0
ARC
8
DEFAULT_255_1_234
10
4.2042489
20
36.7131276
40
0.3674917
50
357.4748886
51
0.0231117
0
ARC
8
DEFAULT_255_1_234
10
4.3065599
20
36.7155679
40
0.2651907
50
359.5047933
51
13.4239635
0
ARC
8
DEFAULT_255_1_234
10
4.3932242
20
36.7377478
40
0.1757509
50
12.9498199
51
48.7551375
0
ARC
8
DEFAULT_255_1_234
10
4.3749976
20
36.71284
40
0.2065134
50
49.5088623
51
72.1836453
0
ARC
8
DEFAULT_255_1_234
10
4.3392129
20
36.6066291
40
0.3185836
50
71.9010081
51
84.3554254
0
ARC
8
DEFAULT_255_1_234
10
4.3230761
20
36.4705326
40
0.4556151
50
84.0193428
51
89.333121
0
LINE
8
DEFAULT_255_1_234
10
4.7669119
20
44.4491792
11
4.7669119
21
44.3279
0
LINE
8
DEFAULT_255_1_234
10
4.7669119
20
44.3279
11
4.000684
21
44.3279
0
LINE
8
DEFAULT_255_1_234
10
4.000684
20
44.3279
11
4.000684
21
44.4347221
0
LINE
8
DEFAULT_255_1_234
10
4.000684
20
44.4347221
11
4.4054836
21
44.8844995
0
LINE
8
DEFAULT_255_1_234
10
4.1267823
20
45.1527595
11
3.9781952
21
45.1527595
0
LINE
8
DEFAULT_255_1_234
10
4.4930296
20
44.7889218
11
4.1797918
21
44.4491792
0
LINE
8
DEFAULT_255_1_234
10
4.1797918
20
44.4491792
11
4.7669119
21
44.4491792
0
ARC
8
DEFAULT_255_1_234
10
3.056467
20
46.0774527
40
1.8008286
50
318.5132453
51
320.7828378
0
ARC
8
DEFAULT_255_1_234
10
3.5851644
20
45.6471426
40
1.1191493
50
320.7372736
51
323.9737074
0
ARC
8
DEFAULT_255_1_234
10
3.9771501
20
45.3631361
40
0.6350923
50
323.8961724
51
328.6421089
0
ARC
8
DEFAULT_255_1_234
10
4.1818096
20
45.2369031
40
0.3946393
50
328.8299013
51
331.789948
0
ARC
8
DEFAULT_255_1_234
10
4.2815274
20
45.1854509
40
0.2824501
50
331.4255242
51
352.9364833
0
ARC
8
DEFAULT_255_1_234
10
4.2951775
20
45.1823976
40
0.2685315
50
353.2248685
51
0.0169286
0
ARC
8
DEFAULT_255_1_234
10
4.3161652
20
45.184695
40
0.2475536
50
359.4866256
51
15.9339782
0
ARC
8
DEFAULT_255_1_234
10
4.3668637
20
45.1983286
40
0.1950618
50
16.1714718
51
43.5284424
0
ARC
8
DEFAULT_255_1_234
10
4.3745946
20
45.2060573
40
0.184134
50
43.4415429
51
83.1661404
0
ARC
8
DEFAULT_255_1_234
10
4.3611864
20
45.1323771
40
0.258926
50
82.160215
51
90.1505798
0
ARC
8
DEFAULT_255_1_234
10
4.3580291
20
45.0786865
40
0.3126255
50
89.5460705
51
102.5418777
0
ARC
8
DEFAULT_255_1_234
10
4.3337377
20
45.1817665
40
0.2067346
50
102.1739365
51
129.2061916
0
ARC
8
DEFAULT_255_1_234
10
4.3258449
20
45.1942094
40
0.1921118
50
129.7279328
51
135.7542026
0
ARC
8
DEFAULT_255_1_234
10
4.3379977
20
45.1845045
40
0.2075944
50
136.175737
51
166.3674722
0
ARC
8
DEFAULT_255_1_234
10
4.4386896
20
45.1575182
40
0.3118201
50
165.9092917
51
178.8683903
0
ARC
8
DEFAULT_255_1_234
10
4.5251757
20
45.1528179
40
0.3983935
50
178.438168
51
180.0083905
0
ARC
8
DEFAULT_255_1_234
10
4.3850359
20
45.1567231
40
0.4068601
50
163.2878735
51
180.5581814
0
ARC
8
DEFAULT_255_1_234
10
4.3048621
20
45.178784
40
0.3237344
50
133.454115
51
162.9470031
0
ARC
8
DEFAULT_255_1_234
10
4.3227162
20
45.1598
40
0.349795
50
100.7869394
51
133.4384016
0
ARC
8
DEFAULT_255_1_234
10
4.3574934
20
45.0049319
40
0.5084616
50
89.6605301
51
101.3704185
0
ARC
8
DEFAULT_255_1_234
10
4.3641273
20
45.0110496
40
0.502348
50
78.2171172
51
90.4130393
0
ARC
8
DEFAULT_255_1_234
10
4.3996351
20
45.1734637
40
0.3361092
50
55.9268222
51
78.4888551
0
ARC
8
DEFAULT_255_1_234
10
4.4192791
20
45.2073324
40
0.2970617
50
47.9292255
51
55.4054003
0
ARC
8
DEFAULT_255_1_234
10
4.4294352
20
45.2176502
40
0.2825983
50
4.3347696
51
48.0560701
0
ARC
8
DEFAULT_255_1_234
10
4.3198745
20
45.2006601
40
0.393225
50
359.925209
51
5.5967654
0
ARC
8
DEFAULT_255_1_234
10
4.3627637
20
45.2062816
40
0.3503892
50
337.8914096
51
358.9967724
0
ARC
8
DEFAULT_255_1_234
10
4.0914049
20
45.3109706
40
0.6412172
50
326.9135351
51
338.3505194
0
ARC
8
DEFAULT_255_1_234
10
3.6928353
20
45.5664284
40
1.1146189
50
319.6472867
51
327.095818
0
ARC
8
DEFAULT_255_1_234
10
3.3095356
20
45.8826
40
1.6114559
50
317.2586784
51
319.9046139
0
LINE
8
DEFAULT_255_1_234
10
4.4807137
20
53.4404433
11
4.4807137
21
52.2654
0
LINE
8
DEFAULT_255_1_234
10
4.4807137
20
52.2654
11
4.3313234
21
52.2654
0
LINE
8
DEFAULT_255_1_234
10
4.3313234
20
52.2654
11
4.3313234
21
53.2557133
0
LINE
8
DEFAULT_255_1_234
10
4.3313234
20
53.2557133
11
4.0317396
21
53.1456785
0
LINE
8
DEFAULT_255_1_234
10
4.0317396
20
53.1456785
11
4.0317396
21
53.2806117
0
LINE
8
DEFAULT_255_1_234
10
4.0317396
20
53.2806117
11
4.4574217
21
53.4404433
0
LINE
8
DEFAULT_255_1_234
10
4.4574217
20
53.4404433
11
4.4807137
21
53.4404433
0
LINE
8
DEFAULT_255_1_234
10
4.7339817
20
60.8944327
11
4.7339817
21
60.7016709
0
LINE
8
DEFAULT_255_1_234
10
3.995865
20
60.6815916
11
3.995865
21
60.8799755
0
LINE
8
DEFAULT_255_1_234
10
4.5853946
20
60.6615123
11
4.5853946
21
60.9048739
0
LINE
8
DEFAULT_255_1_234
10
4.1444521
20
60.9161184
11
4.1444521
21
60.6783789
0
ARC
8
DEFAULT_255_1_234
10
3.5092707
20
60.6967805
40
1.2247208
50
353.8441951
51
0.2287902
0
ARC
8
DEFAULT_255_1_234
10
3.9732211
20
60.6449806
40
0.7578929
50
344.4934747
51
353.9765454
0
ARC
8
DEFAULT_255_1_234
10
4.2724801
20
60.5598981
40
0.4467846
50
329.2803592
51
344.7472793
0
ARC
8
DEFAULT_255_1_234
10
4.3717626
20
60.5054018
40
0.3336173
50
324.9352394
51
328.6160465
0
ARC
8
DEFAULT_255_1_234
10
4.4094734
20
60.4790427
40
0.2876076
50
280.580143
51
324.9173126
0
ARC
8
DEFAULT_255_1_234
10
4.3693527
20
60.6461099
40
0.4592847
50
269.5977311
51
281.6734359
0
ARC
8
DEFAULT_255_1_234
10
4.3621433
20
60.6341173
40
0.4472986
50
256.6228859
51
270.51044
0
ARC
8
DEFAULT_255_1_234
10
4.321941
20
60.4792877
40
0.2873874
50
215.8618325
51
257.2788573
0
ARC
8
DEFAULT_255_1_234
10
4.4240442
20
60.5477977
40
0.4102928
50
197.9693508
51
215.2623606
0
ARC
8
DEFAULT_255_1_234
10
4.6725558
20
60.6316709
40
0.6725652
50
187.8816417
51
198.2346507
0
ARC
8
DEFAULT_255_1_234
10
5.0683766
20
60.6888079
40
1.0724845
50
180.8976217
51
188.0055519
0
ARC
8
DEFAULT_255_1_234
10
5.3483954
20
60.6991777
40
1.3526448
50
180.7449369
51
181.1510016
0
ARC
8
DEFAULT_255_1_234
10
5.1906683
20
60.8848042
40
1.1948131
50
173.7675579
51
180.231553
0
ARC
8
DEFAULT_255_1_234
10
4.738883
20
60.9358666
40
0.7401564
50
164.3058563
51
173.9002247
0
ARC
8
DEFAULT_255_1_234
10
4.4476899
20
61.0197656
40
0.4371288
50
148.7922025
51
164.568378
0
ARC
8
DEFAULT_255_1_234
10
4.3525351
20
61.0728929
40
0.3282386
50
144.5883898
51
148.1176286
0
ARC
8
DEFAULT_255_1_234
10
4.3182249
20
61.0968315
40
0.2864044
50
101.6440918
51
144.514236
0
ARC
8
DEFAULT_255_1_234
10
4.3607315
20
60.9279069
40
0.4604934
50
89.5284041
51
102.5819763
0
ARC
8
DEFAULT_255_1_234
10
4.3686403
20
60.9240018
40
0.464401
50
77.0437873
51
90.5081339
0
ARC
8
DEFAULT_255_1_234
10
4.4088405
20
61.0882615
40
0.2953195
50
48.2778575
51
77.4994676
0
ARC
8
DEFAULT_255_1_234
10
4.4161036
20
61.1011746
40
0.2808655
50
36.3142134
51
47.6305865
0
ARC
8
DEFAULT_255_1_234
10
4.3292343
20
61.0426515
40
0.3855453
50
18.2931786
51
35.6769206
0
ARC
8
DEFAULT_255_1_234
10
4.0749102
20
60.9553593
40
0.654423
50
8.024666
51
18.5605216
0
ARC
8
DEFAULT_255_1_234
10
3.6586022
20
60.8938792
40
1.0752407
50
1.1274072
51
8.1718305
0
ARC
8
DEFAULT_255_1_234
10
3.3350213
20
60.8811885
40
1.3990231
50
0.5424119
51
1.3863029
0
ARC
8
DEFAULT_255_1_234
10
3.517159
20
60.9084342
40
1.0682415
50
359.8090433
51
4.9407866
0
ARC
8
DEFAULT_255_1_234
10
3.9381604
20
60.9460113
40
0.6455691
50
4.8362157
51
12.2904523
0
ARC
8
DEFAULT_255_1_234
10
4.2136719
20
61.0073965
40
0.3633074
50
12.0805627
51
23.8173984
0
ARC
8
DEFAULT_255_1_234
10
4.3310425
20
61.0570919
40
0.2358723
50
24.2871213
51
31.3935614
0
ARC
8
DEFAULT_255_1_234
10
4.3835122
20
61.0914233
40
0.1732111
50
30.7407893
51
82.4657128
0
ARC
8
DEFAULT_255_1_234
10
4.3655256
20
61.0030691
40
0.263235
50
81.1060089
51
90.2184952
0
ARC
8
DEFAULT_255_1_234
10
4.3619555
20
61.0288924
40
0.2374236
50
89.3806855
51
105.6762551
0
ARC
8
DEFAULT_255_1_234
10
4.3436186
20
61.0955567
40
0.1682847
50
105.7981136
51
149.7388061
0
ARC
8
DEFAULT_255_1_234
10
4.4500264
20
61.031595
40
0.2924306
50
149.4208916
51
163.6286378
0
ARC
8
DEFAULT_255_1_234
10
4.6591152
20
60.967825
40
0.5110213
50
163.3763315
51
172.1410975
0
ARC
8
DEFAULT_255_1_234
10
4.9891871
20
60.9205518
40
0.8444586
50
172.0259487
51
178.0703232
0
ARC
8
DEFAULT_255_1_234
10
5.292196
20
60.9061906
40
1.1477868
50
177.8631668
51
179.5044149
0
ARC
8
DEFAULT_255_1_234
10
5.1849365
20
60.6747389
40
1.0404907
50
179.7995573
51
185.2460446
0
ARC
8
DEFAULT_255_1_234
10
4.7806404
20
60.6364513
40
0.6343885
50
185.1411642
51
193.0079639
0
ARC
8
DEFAULT_255_1_234
10
4.5162877
20
60.5739641
40
0.3627568
50
192.7897626
51
205.2507664
0
ARC
8
DEFAULT_255_1_234
10
4.4116424
20
60.5272415
40
0.2481908
50
205.8005384
51
211.2537509
0
ARC
8
DEFAULT_255_1_234
10
4.3592864
20
60.492158
40
0.1852521
50
210.3789793
51
238.4008143
0
ARC
8
DEFAULT_255_1_234
10
4.3573386
20
60.4968376
40
0.1882621
50
239.6520629
51
265.9793761
0
ARC
8
DEFAULT_255_1_234
10
4.3658586
20
60.5640427
40
0.2559272
50
265.1315437
51
270.060332
0
ARC
8
DEFAULT_255_1_234
10
4.3687365
20
60.5316534
40
0.2235528
50
269.3314664
51
287.2178029
0
ARC
8
DEFAULT_255_1_234
10
4.3825217
20
60.4813279
40
0.1714108
50
287.7958004
51
329.080874
0
ARC
8
DEFAULT_255_1_234
10
4.2867674
20
60.541093
40
0.2842745
50
328.6634704
51
343.3325132
0
ARC
8
DEFAULT_255_1_234
10
4.0694694
20
60.6087863
40
0.5118644
50
343.0499468
51
351.9393422
0
ARC
8
DEFAULT_255_1_234
10
3.7227994
20
60.6598949
40
0.8622784
50
351.8069023
51
357.7959224
0
ARC
8
DEFAULT_255_1_234
10
3.399255
20
60.6766721
40
1.1862365
50
357.5871873
51
359.2677531
0
LINE
8
DEFAULT_255_1_234
10
22.4651522
20
69.3098211
11
22.7976662
21
68.3452093
0
LINE
8
DEFAULT_255_1_234
10
22.7976662
20
68.3452093
11
23.1317865
21
69.3098211
0
LINE
8
DEFAULT_255_1_234
10
23.1317865
20
69.3098211
11
23.300453
21
69.3098211
0
LINE
8
DEFAULT_255_1_234
10
23.300453
20
69.3098211
11
22.8667391
21
68.1404
0
LINE
8
DEFAULT_255_1_234
10
22.8667391
20
68.1404
11
22.7301996
21
68.1404
0
LINE
8
DEFAULT_255_1_234
10
22.7301996
20
68.1404
11
22.2972889
21
69.3098211
0
LINE
8
DEFAULT_255_1_234
10
22.2972889
20
69.3098211
11
22.4651522
21
69.3098211
0
LINE
8
DEFAULT_255_1_234
10
23.9068492
20
69.3154433
11
23.9068492
21
68.1404
0
LINE
8
DEFAULT_255_1_234
10
23.9068492
20
68.1404
11
23.7574589
21
68.1404
0
LINE
8
DEFAULT_255_1_234
10
23.7574589
20
68.1404
11
23.7574589
21
69.1307133
0
LINE
8
DEFAULT_255_1_234
10
23.7574589
20
69.1307133
11
23.457875
21
69.0206785
0
LINE
8
DEFAULT_255_1_234
10
23.457875
20
69.0206785
11
23.457875
21
69.1556117
0
LINE
8
DEFAULT_255_1_234
10
23.457875
20
69.1556117
11
23.8835572
21
69.3154433
0
LINE
8
DEFAULT_255_1_234
10
23.8835572
20
69.3154433
11
23.9068492
21
69.3154433
0
ENDSEC
0
EOF