0
SECTION
2
HEADER
9
$MEASUREMENT
70
1
0
ENDSEC
0
SECTION
2
TABLES
0
TABLE
2
LTYPE
0
LTYPE
72
65
70
64
2
CONTINUOUS
3
______
73
0
40
0
0
ENDTAB
0
TABLE
2
LAYER
0
LAYER
2
DEFAULT_255_2_778
70
0
62
255
6
CONTINUOUS
0
ENDTAB
0
ENDSEC
0
SECTION
2
ENTITIES
0
LINE
8
DEFAULT_255_2_778
10
3.2092005
20
108.4423339
11
33.2179005
21
108.4423339
0
LINE
8
DEFAULT_255_2_778
10
33.2179005
20
108.4423339
11
33.2179005
21
8.4147339
0
LINE
8
DEFAULT_255_2_778
10
33.2179005
20
8.4147339
11
3.2092005
21
8.4147339
0
LINE
8
DEFAULT_255_2_778
10
3.2092005
20
8.4147339
11
3.2092005
21
108.4423339
0
LINE
8
DEFAULT_255_2_778
10
36.0310005
20
117.4564339
11
0.2170005
21
117.4564339
0
LINE
8
DEFAULT_255_2_778
10
36.0310005
20
116.2028339
11
0.2170005
21
116.2028339
0
ARC
8
DEFAULT_255_2_778
10
32.8587796
20
146.4764403
40
3.1722224
50
359.9432436
51
17.9597177
0
ARC
8
DEFAULT_255_2_778
10
32.8511546
20
146.4681103
40
3.1820494
50
18.0600639
51
74.8189334
0
ARC
8
DEFAULT_255_2_778
10
32.8584899
20
146.4696331
40
3.1786659
50
74.9393507
51
90.0448713
0
ARC
8
DEFAULT_255_2_778
10
3.3888581
20
146.476077
40
3.1722224
50
89.9432436
51
107.9597177
0
ARC
8
DEFAULT_255_2_778
10
3.3971881
20
146.468452
40
3.1820494
50
108.0600639
51
164.8189334
0
ARC
8
DEFAULT_255_2_778
10
3.3956653
20
146.4757873
40
3.1786659
50
164.9393507
51
180.0448713
0
ARC
8
DEFAULT_255_2_778
10
3.3892214
20
2.9601556
40
3.1722224
50
179.9432436
51
197.9597177
0
ARC
8
DEFAULT_255_2_778
10
3.3968464
20
2.9684856
40
3.1820494
50
198.0600639
51
254.8189334
0
ARC
8
DEFAULT_255_2_778
10
3.3895111
20
2.9669628
40
3.1786659
50
254.9393507
51
270.0448713
0
ARC
8
DEFAULT_255_2_778
10
32.8591429
20
2.9605188
40
3.1722224
50
269.9432436
51
287.9597177
0
ARC
8
DEFAULT_255_2_778
10
32.8508128
20
2.9681438
40
3.1820494
50
288.0600639
51
344.8189334
0
ARC
8
DEFAULT_255_2_778
10
32.8523357
20
2.9608085
40
3.1786659
50
344.9393507
51
0.0448713
0
LINE
8
DEFAULT_255_2_778
10
32.8560005
20
149.6482979
11
3.3920005
21
149.6482979
0
LINE
8
DEFAULT_255_2_778
10
0.2170005
20
146.4732979
11
0.2170005
21
2.9632979
0
LINE
8
DEFAULT_255_2_778
10
3.3920005
20
-0.2117021
11
32.8560005
21
-0.2117021
0
LINE
8
DEFAULT_255_2_778
10
36.0310005
20
2.9632979
11
36.0310005
21
146.4732979
0
LINE
8
DEFAULT_255_2_778
10
28.2902938
20
131.0671957
11
22.9324938
21
131.0671957
0
LINE
8
DEFAULT_255_2_778
10
27.3972938
20
131.5135957
11
23.8254938
21
131.5135957
0
LINE
8
DEFAULT_255_2_778
10
28.2902938
20
133.7460957
11
22.9324938
21
133.7460957
0
LINE
8
DEFAULT_255_2_778
10
22.9324938
20
133.7460957
11
23.8254938
21
133.2997957
0
LINE
8
DEFAULT_255_2_778
10
23.8254938
20
133.2997957
11
23.8254938
21
131.5137957
0
LINE
8
DEFAULT_255_2_778
10
23.8254938
20
131.5137957
11
22.9324938
21
131.0671957
0
LINE
8
DEFAULT_255_2_778
10
22.9324938
20
131.0671957
11
22.9324938
21
133.7460957
0
LINE
8
DEFAULT_255_2_778
10
23.8254938
20
133.2997957
11
27.3972938
21
133.2997957
0
LINE
8
DEFAULT_255_2_778
10
27.3972938
20
133.2997957
11
28.2902938
21
133.7460957
0
LINE
8
DEFAULT_255_2_778
10
28.2902938
20
133.7460957
11
28.2902938
21
131.0671957
0
LINE
8
DEFAULT_255_2_778
10
28.2902938
20
131.0671957
11
27.3972938
21
131.5135957
0
LINE
8
DEFAULT_255_2_778
10
27.3972938
20
131.5135957
11
27.3972938
21
133.2994957
0
LINE
8
DEFAULT_255_2_778
10
28.2902938
20
126.6398957
11
22.9324938
21
126.6398957
0
LINE
8
DEFAULT_255_2_778
10
27.3972938
20
127.0862957
11
23.8254938
21
127.0862957
0
LINE
8
DEFAULT_255_2_778
10
28.2902938
20
129.3185957
11
22.9324938
21
129.3185957
0
LINE
8
DEFAULT_255_2_778
10
22.9324938
20
129.3185957
11
23.8254938
21
128.8719957
0
LINE
8
DEFAULT_255_2_778
10
23.8254938
20
128.8719957
11
23.8254938
21
127.0859957
0
LINE
8
DEFAULT_255_2_778
10
23.8254938
20
127.0859957
11
22.9324938
21
126.6393957
0
LINE
8
DEFAULT_255_2_778
10
22.9324938
20
126.6393957
11
22.9324938
21
129.3187957
0
LINE
8
DEFAULT_255_2_778
10
23.8254938
20
128.8721957
11
27.3972938
21
128.8721957
0
LINE
8
DEFAULT_255_2_778
10
27.3972938
20
128.8721957
11
28.2902938
21
129.3185957
0
LINE
8
DEFAULT_255_2_778
10
28.2902938
20
129.3185957
11
28.2902938
21
126.6396957
0
LINE
8
DEFAULT_255_2_778
10
28.2902938
20
126.6396957
11
27.3972938
21
127.0859957
0
LINE
8
DEFAULT_255_2_778
10
27.3972938
20
127.0859957
11
27.3972938
21
128.8719957
0
LINE
8
DEFAULT_255_2_778
10
23.8254938
20
135.9309957
11
23.8254938
21
137.7169957
0
LINE
8
DEFAULT_255_2_778
10
27.3972938
20
137.7169957
11
27.3972938
21
135.9309957
0
LINE
8
DEFAULT_255_2_778
10
22.9324938
20
138.1632957
11
22.9324938
21
135.4843957
0
LINE
8
DEFAULT_255_2_778
10
22.9324938
20
135.4843957
11
28.2902938
21
135.4843957
0
LINE
8
DEFAULT_255_2_778
10
28.2902938
20
135.4843957
11
27.3972938
21
135.9307957
0
LINE
8
DEFAULT_255_2_778
10
27.3972938
20
135.9307957
11
23.8254938
21
135.9307957
0
LINE
8
DEFAULT_255_2_778
10
23.8254938
20
135.9307957
11
22.9324938
21
135.4841957
0
LINE
8
DEFAULT_255_2_778
10
28.2902938
20
135.4841957
11
28.2902938
21
138.1635957
0
LINE
8
DEFAULT_255_2_778
10
28.2902938
20
138.1635957
11
22.9324938
21
138.1635957
0
LINE
8
DEFAULT_255_2_778
10
22.9324938
20
138.1635957
11
23.8254938
21
137.7171957
0
LINE
8
DEFAULT_255_2_778
10
23.8254938
20
137.7171957
11
27.3972938
21
137.7171957
0
LINE
8
DEFAULT_255_2_778
10
27.3972938
20
137.7171957
11
28.2902938
21
138.1635957
0
ARC
8
DEFAULT_255_2_778
10
16.385344
20
77.4025816
40
0.417922
50
67.181058
51
91.7279925
0
ARC
8
DEFAULT_255_2_778
10
16.4442437
20
77.5600406
40
0.2500357
50
49.9766179
51
65.6281637
0
ARC
8
DEFAULT_255_2_778
10
16.440006
20
77.5681919
40
0.246665
50
356.5992265
51
48.0048144
0
ARC
8
DEFAULT_255_2_778
10
16.2843295
20
77.5515546
40
0.4019122
50
359.9941503
51
0.2858523
0
ARC
8
DEFAULT_255_2_778
10
16.4465989
20
77.5463221
40
0.2396991
50
324.1720601
51
1.241009
0
ARC
8
DEFAULT_255_2_778
10
16.4257736
20
77.5661877
40
0.2682407
50
289.5515715
51
323.3354924
0
ARC
8
DEFAULT_255_2_778
10
16.3872183
20
77.5886383
40
0.2044091
50
266.9779197
51
309.1027244
0
ARC
8
DEFAULT_255_2_778
10
16.4144084
20
77.5451784
40
0.153664
50
311.4564495
51
2.3628161
0
ARC
8
DEFAULT_255_2_778
10
16.4068974
20
77.561891
40
0.1613783
50
356.3130538
51
46.2750163
0
ARC
8
DEFAULT_255_2_778
10
16.3904918
20
77.5182812
40
0.2050502
50
51.3916788
51
92.4786656
0
ARC
8
DEFAULT_255_2_778
10
16.3738099
20
77.3374625
40
0.3857563
50
88.8393039
51
89.6982071
0
LINE
8
DEFAULT_255_2_778
10
13.4948417
20
77.4359135
11
13.4948417
21
77.3396135
0
LINE
8
DEFAULT_255_2_778
10
13.4948417
20
77.3396135
11
13.1074417
21
77.3396135
0
LINE
8
DEFAULT_255_2_778
10
13.1074417
20
77.3396135
11
13.1074417
21
77.0228135
0
LINE
8
DEFAULT_255_2_778
10
13.1074417
20
77.0228135
11
13.5575417
21
77.0228135
0
LINE
8
DEFAULT_255_2_778
10
13.5575417
20
77.0228135
11
13.5575417
21
76.9265135
0
LINE
8
DEFAULT_255_2_778
10
13.5575417
20
76.9265135
11
12.9897417
21
76.9265135
0
LINE
8
DEFAULT_255_2_778
10
12.9897417
20
76.9265135
11
12.9897417
21
77.8203135
0
LINE
8
DEFAULT_255_2_778
10
12.9897417
20
77.8203135
11
13.5514417
21
77.8203135
0
LINE
8
DEFAULT_255_2_778
10
13.5514417
20
77.8203135
11
13.5514417
21
77.7232135
0
LINE
8
DEFAULT_255_2_778
10
13.5514417
20
77.7232135
11
13.1074417
21
77.7232135
0
LINE
8
DEFAULT_255_2_778
10
13.1074417
20
77.7232135
11
13.1074417
21
77.4359135
0
LINE
8
DEFAULT_255_2_778
10
13.1074417
20
77.4359135
11
13.4948417
21
77.4359135
0
LINE
8
DEFAULT_255_2_778
10
13.4948417
20
77.4359135
11
13.4948417
21
77.4359135
0
LINE
8
DEFAULT_255_2_778
10
14.3340417
20
77.8203135
11
14.3340417
21
77.7232135
0
LINE
8
DEFAULT_255_2_778
10
14.3340417
20
77.7232135
11
14.0467417
21
77.7232135
0
LINE
8
DEFAULT_255_2_778
10
14.0467417
20
77.7232135
11
14.0467417
21
76.9263135
0
LINE
8
DEFAULT_255_2_778
10
14.0467417
20
76.9263135
11
13.9295417
21
76.9263135
0
LINE
8
DEFAULT_255_2_778
10
13.9295417
20
76.9263135
11
13.9295417
21
77.7232135
0
LINE
8
DEFAULT_255_2_778
10
13.9295417
20
77.7232135
11
13.6427417
21
77.7232135
0
LINE
8
DEFAULT_255_2_778
10
13.6427417
20
77.7232135
11
13.6427417
21
77.8203135
0
LINE
8
DEFAULT_255_2_778
10
13.6427417
20
77.8203135
11
14.3340417
21
77.8203135
0
LINE
8
DEFAULT_255_2_778
10
14.3340417
20
77.8203135
11
14.3340417
21
77.8203135
0
LINE
8
DEFAULT_255_2_778
10
15.1535417
20
77.8203135
11
15.1535417
21
76.9265135
0
LINE
8
DEFAULT_255_2_778
10
15.1535417
20
76.9265135
11
15.0349417
21
76.9265135
0
LINE
8
DEFAULT_255_2_778
10
15.0349417
20
76.9265135
11
15.0349417
21
77.3398135
0
LINE
8
DEFAULT_255_2_778
10
15.0349417
20
77.3398135
11
14.5843417
21
77.3398135
0
LINE
8
DEFAULT_255_2_778
10
14.5843417
20
77.3398135
11
14.5843417
21
76.9265135
0
LINE
8
DEFAULT_255_2_778
10
14.5843417
20
76.9265135
11
14.4663417
21
76.9265135
0
LINE
8
DEFAULT_255_2_778
10
14.4663417
20
76.9265135
11
14.4663417
21
77.8203135
0
LINE
8
DEFAULT_255_2_778
10
14.4663417
20
77.8203135
11
14.5843417
21
77.8203135
0
LINE
8
DEFAULT_255_2_778
10
14.5843417
20
77.8203135
11
14.5843417
21
77.4361135
0
LINE
8
DEFAULT_255_2_778
10
14.5843417
20
77.4361135
11
15.0349417
21
77.4361135
0
LINE
8
DEFAULT_255_2_778
10
15.0349417
20
77.4361135
11
15.0349417
21
77.8203135
0
LINE
8
DEFAULT_255_2_778
10
15.0349417
20
77.8203135
11
15.1535417
21
77.8203135
0
LINE
8
DEFAULT_255_2_778
10
15.1535417
20
77.8203135
11
15.1535417
21
77.8203135
0
LINE
8
DEFAULT_255_2_778
10
15.8681417
20
77.4359135
11
15.8681417
21
77.3396135
0
LINE
8
DEFAULT_255_2_778
10
15.8681417
20
77.3396135
11
15.4808417
21
77.3396135
0
LINE
8
DEFAULT_255_2_778
10
15.4808417
20
77.3396135
11
15.4808417
21
77.0228135
0
LINE
8
DEFAULT_255_2_778
10
15.4808417
20
77.0228135
11
15.9308417
21
77.0228135
0
LINE
8
DEFAULT_255_2_778
10
15.9308417
20
77.0228135
11
15.9308417
21
76.9265135
0
LINE
8
DEFAULT_255_2_778
10
15.9308417
20
76.9265135
11
15.3630417
21
76.9265135
0
LINE
8
DEFAULT_255_2_778
10
15.3630417
20
76.9265135
11
15.3630417
21
77.8203135
0
LINE
8
DEFAULT_255_2_778
10
15.3630417
20
77.8203135
11
15.9247417
21
77.8203135
0
LINE
8
DEFAULT_255_2_778
10
15.9247417
20
77.8203135
11
15.9247417
21
77.7232135
0
LINE
8
DEFAULT_255_2_778
10
15.9247417
20
77.7232135
11
15.4808417
21
77.7232135
0
LINE
8
DEFAULT_255_2_778
10
15.4808417
20
77.7232135
11
15.4808417
21
77.4359135
0
LINE
8
DEFAULT_255_2_778
10
15.4808417
20
77.4359135
11
15.8681417
21
77.4359135
0
LINE
8
DEFAULT_255_2_778
10
15.8681417
20
77.4359135
11
15.8681417
21
77.4359135
0
LINE
8
DEFAULT_255_2_778
10
16.5994417
20
76.9265135
11
16.4055417
21
77.2882135
0
LINE
8
DEFAULT_255_2_778
10
16.4055417
20
77.2882135
11
16.1954417
21
77.2882135
0
LINE
8
DEFAULT_255_2_778
10
16.1954417
20
77.2882135
11
16.1954417
21
76.9265135
0
LINE
8
DEFAULT_255_2_778
10
16.1954417
20
76.9265135
11
16.0769417
21
76.9265135
0
LINE
8
DEFAULT_255_2_778
10
16.0769417
20
76.9265135
11
16.0769417
21
77.8203135
0
LINE
8
DEFAULT_255_2_778
10
16.0769417
20
77.8203135
11
16.3727417
21
77.8203135
0
LINE
8
DEFAULT_255_2_778
10
16.5155417
20
77.3134135
11
16.7256417
21
76.9339135
0
LINE
8
DEFAULT_255_2_778
10
16.7256417
20
76.9339135
11
16.7256417
21
76.9265135
0
LINE
8
DEFAULT_255_2_778
10
16.7256417
20
76.9265135
11
16.5991417
21
76.9265135
0
LINE
8
DEFAULT_255_2_778
10
16.5991417
20
76.9265135
11
16.5994417
21
76.9265135
0
LINE
8
DEFAULT_255_2_778
10
16.1954417
20
77.7235135
11
16.1954417
21
77.3845135
0
LINE
8
DEFAULT_255_2_778
10
16.1954417
20
77.3845135
11
16.3764417
21
77.3845135
0
LINE
8
DEFAULT_255_2_778
10
16.3758417
20
77.7232135
11
16.1954417
21
77.7232135
0
LINE
8
DEFAULT_255_2_778
10
16.1954417
20
77.7232135
11
16.1954417
21
77.7235135
0
LINE
8
DEFAULT_255_2_778
10
17.5384417
20
77.8203135
11
17.5384417
21
76.9265135
0
LINE
8
DEFAULT_255_2_778
10
17.5384417
20
76.9265135
11
17.4199417
21
76.9265135
0
LINE
8
DEFAULT_255_2_778
10
17.4199417
20
76.9265135
11
16.9698417
21
77.6152135
0
LINE
8
DEFAULT_255_2_778
10
16.9698417
20
77.6152135
11
16.9698417
21
76.9265135
0
LINE
8
DEFAULT_255_2_778
10
16.9698417
20
76.9265135
11
16.8513417
21
76.9265135
0
LINE
8
DEFAULT_255_2_778
10
16.8513417
20
76.9265135
11
16.8513417
21
77.8203135
0
LINE
8
DEFAULT_255_2_778
10
16.8513417
20
77.8203135
11
16.9698417
21
77.8203135
0
LINE
8
DEFAULT_255_2_778
10
16.9698417
20
77.8203135
11
17.4209417
21
77.1284135
0
LINE
8
DEFAULT_255_2_778
10
17.4209417
20
77.1284135
11
17.4209417
21
77.8203135
0
LINE
8
DEFAULT_255_2_778
10
17.4209417
20
77.8203135
11
17.5382417
21
77.8203135
0
LINE
8
DEFAULT_255_2_778
10
17.5382417
20
77.8203135
11
17.5384417
21
77.8203135
0
LINE
8
DEFAULT_255_2_778
10
18.2533021
20
77.4358812
11
18.2533021
21
77.3395812
0
LINE
8
DEFAULT_255_2_778
10
18.2533021
20
77.3395812
11
17.8659021
21
77.3395812
0
LINE
8
DEFAULT_255_2_778
10
17.8659021
20
77.3395812
11
17.8659021
21
77.0227812
0
LINE
8
DEFAULT_255_2_778
10
17.8659021
20
77.0227812
11
18.3160021
21
77.0227812
0
LINE
8
DEFAULT_255_2_778
10
18.3160021
20
77.0227812
11
18.3160021
21
76.9264812
0
LINE
8
DEFAULT_255_2_778
10
18.3160021
20
76.9264812
11
17.7482021
21
76.9264812
0
LINE
8
DEFAULT_255_2_778
10
17.7482021
20
76.9264812
11
17.7482021
21
77.8202812
0
LINE
8
DEFAULT_255_2_778
10
17.7482021
20
77.8202812
11
18.3099021
21
77.8202812
0
LINE
8
DEFAULT_255_2_778
10
18.3099021
20
77.8202812
11
18.3099021
21
77.7231812
0
LINE
8
DEFAULT_255_2_778
10
18.3099021
20
77.7231812
11
17.8659021
21
77.7231812
0
LINE
8
DEFAULT_255_2_778
10
17.8659021
20
77.7231812
11
17.8659021
21
77.4358812
0
LINE
8
DEFAULT_255_2_778
10
17.8659021
20
77.4358812
11
18.2533021
21
77.4358812
0
LINE
8
DEFAULT_255_2_778
10
18.2533021
20
77.4358812
11
18.2533021
21
77.4358812
0
LINE
8
DEFAULT_255_2_778
10
19.0926219
20
77.8203135
11
19.0926219
21
77.7232135
0
LINE
8
DEFAULT_255_2_778
10
19.0926219
20
77.7232135
11
18.8052219
21
77.7232135
0
LINE
8
DEFAULT_255_2_778
10
18.8052219
20
77.7232135
11
18.8052219
21
76.9263135
0
LINE
8
DEFAULT_255_2_778
10
18.8052219
20
76.9263135
11
18.6880219
21
76.9263135
0
LINE
8
DEFAULT_255_2_778
10
18.6880219
20
76.9263135
11
18.6880219
21
77.7232135
0
LINE
8
DEFAULT_255_2_778
10
18.6880219
20
77.7232135
11
18.4012219
21
77.7232135
0
LINE
8
DEFAULT_255_2_778
10
18.4012219
20
77.7232135
11
18.4012219
21
77.8203135
0
LINE
8
DEFAULT_255_2_778
10
18.4012219
20
77.8203135
11
19.0926219
21
77.8203135
0
LINE
8
DEFAULT_255_2_778
10
19.0926219
20
77.8203135
11
19.0926219
21
77.8203135
0
ARC
8
DEFAULT_255_2_778
10
19.8791066
20
77.4540379
40
0.3662819
50
61.5810021
51
92.0540557
0
ARC
8
DEFAULT_255_2_778
10
19.9238083
20
77.5540784
40
0.2571567
50
48.0004598
51
59.7322755
0
ARC
8
DEFAULT_255_2_778
10
19.9252432
20
77.5571208
40
0.2539373
50
357.7123021
51
47.7817199
0
ARC
8
DEFAULT_255_2_778
10
19.9290377
20
77.5317669
40
0.2504033
50
312.2739893
51
3.4841206
0
ARC
8
DEFAULT_255_2_778
10
19.9036287
20
77.5876166
40
0.3093903
50
273.0458044
51
308.7962613
0
ARC
8
DEFAULT_255_2_778
10
19.8657835
20
77.8483546
40
0.5722715
50
269.8793179
51
275.4431358
0
ARC
8
DEFAULT_255_2_778
10
19.8786263
20
77.59207
40
0.2197674
50
266.6223107
51
304.8454777
0
ARC
8
DEFAULT_255_2_778
10
19.914311
20
77.5267085
40
0.1459592
50
308.0106214
51
311.3176783
0
ARC
8
DEFAULT_255_2_778
10
19.8986966
20
77.5350214
40
0.1626315
50
313.5162388
51
3.7593165
0
ARC
8
DEFAULT_255_2_778
10
19.8929352
20
77.553344
40
0.1682174
50
357.3901693
51
45.5774137
0
ARC
8
DEFAULT_255_2_778
10
19.8792512
20
77.5250094
40
0.1982873
50
48.4854288
51
91.9285721
0
ARC
8
DEFAULT_255_2_778
10
20.4638607
20
77.3321797
40
0.5531566
50
336.9032102
51
1.2849782
0
ARC
8
DEFAULT_255_2_778
10
20.6640653
20
77.2463372
40
0.3353252
50
303.179819
51
336.9757164
0
ARC
8
DEFAULT_255_2_778
10
20.6660821
20
77.2585031
40
0.3445049
50
268.7186191
51
301.7916183
0
ARC
8
DEFAULT_255_2_778
10
20.6522251
20
77.2557987
40
0.3417698
50
237.9927797
51
271.0315866
0
ARC
8
DEFAULT_255_2_778
10
20.6558961
20
77.2527405
40
0.3411551
50
204.0176344
51
237.1977149
0
ARC
8
DEFAULT_255_2_778
10
20.8259296
20
77.3301784
40
0.5279879
50
179.3265346
51
204.1833055
0
ARC
8
DEFAULT_255_2_778
10
20.8462632
20
77.4116829
40
0.5483894
50
156.6785529
51
181.1178544
0
ARC
8
DEFAULT_255_2_778
10
20.6560669
20
77.4949263
40
0.3407792
50
123.1981014
51
156.8711674
0
ARC
8
DEFAULT_255_2_778
10
20.6511424
20
77.4917171
40
0.340819
50
89.0020707
51
122.2099074
0
ARC
8
DEFAULT_255_2_778
10
20.6639493
20
77.4860183
40
0.3465342
50
58.2154381
51
91.1361453
0
ARC
8
DEFAULT_255_2_778
10
20.6653646
20
77.500293
40
0.3337145
50
22.943822
51
57.1310089
0
ARC
8
DEFAULT_255_2_778
10
20.4603505
20
77.4127127
40
0.5566512
50
358.7927208
51
23.0190908
0
ARC
8
DEFAULT_255_2_778
10
20.3940491
20
77.4145259
40
0.5057772
50
358.6131144
51
18.5694367
0
ARC
8
DEFAULT_255_2_778
10
20.6163605
20
77.4838912
40
0.2729964
50
19.6276585
51
36.4761509
0
ARC
8
DEFAULT_255_2_778
10
20.6668102
20
77.5210778
40
0.2103227
50
36.5006215
51
92.5975963
0
ARC
8
DEFAULT_255_2_778
10
20.6495258
20
77.5227224
40
0.2086061
50
87.870252
51
143.7121189
0
ARC
8
DEFAULT_255_2_778
10
20.7683134
20
77.4452474
40
0.3502963
50
144.9969541
51
176.1386216
0
ARC
8
DEFAULT_255_2_778
10
21.0514717
20
77.4034539
40
0.636029
50
174.0996052
51
179.3936885
0
ARC
8
DEFAULT_255_2_778
10
20.8870097
20
77.3319095
40
0.4717018
50
178.4602536
51
201.2949784
0
ARC
8
DEFAULT_255_2_778
10
20.7106574
20
77.2706555
40
0.2852299
50
202.6960307
51
216.1285267
0
ARC
8
DEFAULT_255_2_778
10
20.6511021
20
77.2237206
40
0.2094732
50
215.363866
51
272.0726745
0
ARC
8
DEFAULT_255_2_778
10
20.6688814
20
77.222102
40
0.2079681
50
267.1878482
51
323.1862877
0
ARC
8
DEFAULT_255_2_778
10
20.5566717
20
77.2918868
40
0.3398081
50
325.1035845
51
355.0806187
0
ARC
8
DEFAULT_255_2_778
10
20.2424767
20
77.3418636
40
0.6575287
50
353.0891747
51
359.4789726
0
ARC
8
DEFAULT_255_2_778
10
21.5015191
20
77.4025459
40
0.4179296
50
67.180855
51
91.7332608
0
ARC
8
DEFAULT_255_2_778
10
21.5606329
20
77.5605349
40
0.2494723
50
49.9437556
51
65.6224429
0
ARC
8
DEFAULT_255_2_778
10
21.5565108
20
77.5678595
40
0.2466443
50
356.4316108
51
48.1155286
0
ARC
8
DEFAULT_255_2_778
10
21.3661478
20
77.5513996
40
0.4365305
50
0.011127
51
0.1455361
0
ARC
8
DEFAULT_255_2_778
10
21.5626706
20
77.5462727
40
0.2400642
50
324.2409138
51
1.2439669
0
ARC
8
DEFAULT_255_2_778
10
21.5406356
20
77.568426
40
0.2709391
50
289.7247719
51
323.1622921
0
ARC
8
DEFAULT_255_2_778
10
21.5034322
20
77.5884714
40
0.2041757
50
266.9526997
51
309.1279444
0
ARC
8
DEFAULT_255_2_778
10
21.5308934
20
77.5452215
40
0.1534126
50
311.3657301
51
2.3396571
0
ARC
8
DEFAULT_255_2_778
10
21.5231339
20
77.5618618
40
0.1613783
50
356.3130538
51
46.2750163
0
ARC
8
DEFAULT_255_2_778
10
21.5064821
20
77.5175538
40
0.2057495
50
51.4594486
51
92.4817894
0
ARC
8
DEFAULT_255_2_778
10
21.4897418
20
77.3357668
40
0.3874227
50
88.8418006
51
89.6988433
0
LINE
8
DEFAULT_255_2_778
10
19.8645782
20
77.2762844
11
19.6539782
21
77.2762844
0
LINE
8
DEFAULT_255_2_778
10
19.6539782
20
77.2762844
11
19.6539782
21
76.9262844
0
LINE
8
DEFAULT_255_2_778
10
19.6539782
20
76.9262844
11
19.5362782
21
76.9262844
0
LINE
8
DEFAULT_255_2_778
10
19.5362782
20
76.9262844
11
19.5362782
21
77.8200844
0
LINE
8
DEFAULT_255_2_778
10
19.5362782
20
77.8200844
11
19.8659782
21
77.8200844
0
LINE
8
DEFAULT_255_2_778
10
19.8645782
20
77.2760844
11
19.8645782
21
77.2762844
0
LINE
8
DEFAULT_255_2_778
10
19.6539782
20
77.7231844
11
19.6539782
21
77.3726844
0
LINE
8
DEFAULT_255_2_778
10
19.6539782
20
77.3726844
11
19.8656782
21
77.3726844
0
LINE
8
DEFAULT_255_2_778
10
19.8725782
20
77.7231844
11
19.6539782
21
77.7231844
0
LINE
8
DEFAULT_255_2_778
10
19.6539782
20
77.7231844
11
19.6539782
21
77.7231844
0
LINE
8
DEFAULT_255_2_778
10
21.0168782
20
77.4009844
11
21.0168782
21
77.3445844
0
LINE
8
DEFAULT_255_2_778
10
20.2979782
20
77.3363844
11
20.2979782
21
77.4009844
0
LINE
8
DEFAULT_255_2_778
10
21.0168782
20
77.4009844
11
21.0168782
21
77.4009844
0
LINE
8
DEFAULT_255_2_778
10
20.8996782
20
77.3358844
11
20.8996782
21
77.4022844
0
LINE
8
DEFAULT_255_2_778
10
20.4154782
20
77.4101844
11
20.4154782
21
77.3445844
0
LINE
8
DEFAULT_255_2_778
10
20.8999782
20
77.3358844
11
20.8996782
21
77.3358844
0
LINE
8
DEFAULT_255_2_778
10
21.7156782
20
76.9265844
11
21.5216782
21
77.2882844
0
LINE
8
DEFAULT_255_2_778
10
21.5216782
20
77.2882844
11
21.3116782
21
77.2882844
0
LINE
8
DEFAULT_255_2_778
10
21.3116782
20
77.2882844
11
21.3116782
21
76.9265844
0
LINE
8
DEFAULT_255_2_778
10
21.3116782
20
76.9265844
11
21.1930782
21
76.9265844
0
LINE
8
DEFAULT_255_2_778
10
21.1930782
20
76.9265844
11
21.1930782
21
77.8202844
0
LINE
8
DEFAULT_255_2_778
10
21.1930782
20
77.8202844
11
21.4888782
21
77.8202844
0
LINE
8
DEFAULT_255_2_778
10
21.6320782
20
77.3133844
11
21.8420782
21
76.9339844
0
LINE
8
DEFAULT_255_2_778
10
21.8420782
20
76.9339844
11
21.8420782
21
76.9265844
0
LINE
8
DEFAULT_255_2_778
10
21.8420782
20
76.9265844
11
21.7156782
21
76.9265844
0
LINE
8
DEFAULT_255_2_778
10
21.7156782
20
76.9265844
11
21.7156782
21
76.9265844
0
LINE
8
DEFAULT_255_2_778
10
21.3116782
20
77.7234844
11
21.3116782
21
77.3845844
0
LINE
8
DEFAULT_255_2_778
10
21.3116782
20
77.3845844
11
21.4925782
21
77.3845844
0
LINE
8
DEFAULT_255_2_778
10
21.4917782
20
77.7231844
11
21.3113782
21
77.7231844
0
LINE
8
DEFAULT_255_2_778
10
21.3113782
20
77.7231844
11
21.3116782
21
77.7234844
0
LINE
8
DEFAULT_255_2_778
10
22.5367219
20
77.8203135
11
22.5367219
21
77.7232135
0
LINE
8
DEFAULT_255_2_778
10
22.5367219
20
77.7232135
11
22.2493219
21
77.7232135
0
LINE
8
DEFAULT_255_2_778
10
22.2493219
20
77.7232135
11
22.2493219
21
76.9263135
0
LINE
8
DEFAULT_255_2_778
10
22.2493219
20
76.9263135
11
22.1321219
21
76.9263135
0
LINE
8
DEFAULT_255_2_778
10
22.1321219
20
76.9263135
11
22.1321219
21
77.7232135
0
LINE
8
DEFAULT_255_2_778
10
22.1321219
20
77.7232135
11
21.8453219
21
77.7232135
0
LINE
8
DEFAULT_255_2_778
10
21.8453219
20
77.7232135
11
21.8453219
21
77.8203135
0
LINE
8
DEFAULT_255_2_778
10
21.8453219
20
77.8203135
11
22.5367219
21
77.8203135
0
LINE
8
DEFAULT_255_2_778
10
22.5367219
20
77.8203135
11
22.5367219
21
77.8203135
0
ARC
8
DEFAULT_255_2_778
10
16.5906617
20
79.5675437
40
0.7627142
50
347.0817925
51
0.9219944
0
ARC
8
DEFAULT_255_2_778
10
17.0036779
20
79.4720525
40
0.3388043
50
326.1265847
51
347.2070213
0
ARC
8
DEFAULT_255_2_778
10
17.0925291
20
79.4249216
40
0.2389907
50
267.2234926
51
323.6347322
0
ARC
8
DEFAULT_255_2_778
10
17.0720046
20
79.6075275
40
0.421411
50
269.9962633
51
271.216638
0
ARC
8
DEFAULT_255_2_778
10
17.057389
20
79.443028
40
0.2573252
50
228.6552557
51
273.2499336
0
ARC
8
DEFAULT_255_2_778
10
17.0399677
20
79.4102315
40
0.2213615
50
215.7769161
51
226.4323593
0
ARC
8
DEFAULT_255_2_778
10
17.1723366
20
79.4911726
40
0.3762557
50
187.7047397
51
213.9919963
0
ARC
8
DEFAULT_255_2_778
10
17.5921877
20
79.5690252
40
0.803025
50
180.34309
51
189.1933449
0
ARC
8
DEFAULT_255_2_778
10
17.5328712
20
79.7279825
40
0.7437936
50
166.8935453
51
180.9371964
0
ARC
8
DEFAULT_255_2_778
10
17.1316867
20
79.8220092
40
0.3317386
50
145.749307
51
166.9979196
0
ARC
8
DEFAULT_255_2_778
10
17.049263
20
79.8646023
40
0.2398974
50
87.4961675
51
143.0775749
0
ARC
8
DEFAULT_255_2_778
10
17.070927
20
79.6765866
40
0.4278303
50
89.9932897
51
91.4979263
0
ARC
8
DEFAULT_255_2_778
10
17.0848601
20
79.8354076
40
0.2693671
50
53.0191454
51
92.9542843
0
ARC
8
DEFAULT_255_2_778
10
17.1118614
20
79.8860104
40
0.2128859
50
36.3250295
51
50.6310843
0
ARC
8
DEFAULT_255_2_778
10
16.9881849
20
79.8103995
40
0.3575307
50
7.9522693
51
34.3464188
0
ARC
8
DEFAULT_255_2_778
10
16.5420067
20
79.7267229
40
0.8112705
50
0.0136851
51
9.4457349
0
ARC
8
DEFAULT_255_2_778
10
16.6268199
20
79.7467774
40
0.6130681
50
358.9101507
51
12.4379033
0
ARC
8
DEFAULT_255_2_778
10
16.9968228
20
79.8272396
40
0.2344218
50
12.7111548
51
30.2730522
0
ARC
8
DEFAULT_255_2_778
10
17.0805751
20
79.8721599
40
0.1394874
50
31.6807435
51
93.9455737
0
ARC
8
DEFAULT_255_2_778
10
17.0614368
20
79.874052
40
0.1375958
50
86.0241683
51
148.6117439
0
ARC
8
DEFAULT_255_2_778
10
17.2121789
20
79.7992085
40
0.305609
50
151.3539362
51
175.6204508
0
ARC
8
DEFAULT_255_2_778
10
17.6341154
20
79.7416541
40
0.7311416
50
173.6479375
51
179.8305291
0
ARC
8
DEFAULT_255_2_778
10
17.5043692
20
79.5501114
40
0.6015099
50
178.865915
51
193.1253165
0
ARC
8
DEFAULT_255_2_778
10
17.1548148
20
79.4706741
40
0.243057
50
193.6003907
51
210.3077794
0
ARC
8
DEFAULT_255_2_778
10
17.0653231
20
79.4179153
40
0.1391725
50
210.1486155
51
272.8640803
0
ARC
8
DEFAULT_255_2_778
10
17.0802985
20
79.4158927
40
0.1372107
50
266.6485701
51
328.4100109
0
ARC
8
DEFAULT_255_2_778
10
16.9377807
20
79.4894933
40
0.2974054
50
330.7150985
51
354.6410588
0
ARC
8
DEFAULT_255_2_778
10
16.4986892
20
79.5551699
40
0.7411126
50
352.7558333
51
359.532012
0
ARC
8
DEFAULT_255_2_778
10
17.8329139
20
79.6613409
40
0.4313522
50
69.9990196
51
91.6388937
0
ARC
8
DEFAULT_255_2_778
10
17.8989303
20
79.8581526
40
0.2238931
50
51.1492375
51
68.6472068
0
ARC
8
DEFAULT_255_2_778
10
17.8963129
20
79.8695023
40
0.2168895
50
356.0115986
51
48.7292536
0
ARC
8
DEFAULT_255_2_778
10
17.9316445
20
79.851628
40
0.1810541
50
323.3359483
51
0.882508
0
ARC
8
DEFAULT_255_2_778
10
17.8916378
20
79.8841327
40
0.232565
50
292.2710138
51
322.7976995
0
ARC
8
DEFAULT_255_2_778
10
17.9277069
20
79.4676396
40
0.2079032
50
36.7099107
51
75.4956033
0
ARC
8
DEFAULT_255_2_778
10
17.9155055
20
79.4620549
40
0.2210411
50
358.5642896
51
35.9798441
0
ARC
8
DEFAULT_255_2_778
10
17.8977002
20
79.4443621
40
0.2390861
50
312.2251965
51
2.9140439
0
ARC
8
DEFAULT_255_2_778
10
17.8693544
20
79.4983094
40
0.2984749
50
271.6203754
51
309.2936727
0
ARC
8
DEFAULT_255_2_778
10
17.8386172
20
79.7331384
40
0.534622
50
269.931406
51
274.2024108
0
ARC
8
DEFAULT_255_2_778
10
17.8510726
20
79.4827694
40
0.1879405
50
266.8291946
51
309.4840517
0
ARC
8
DEFAULT_255_2_778
10
17.8688909
20
79.4472952
40
0.149491
50
312.8605638
51
2.9991058
0
ARC
8
DEFAULT_255_2_778
10
17.8774114
20
79.4725151
40
0.1418369
50
352.9540432
51
88.451633
0
ARC
8
DEFAULT_255_2_778
10
17.8435842
20
79.2957683
40
0.3207504
50
83.2572758
51
90.1977621
0
ARC
8
DEFAULT_255_2_778
10
17.8333654
20
79.8988499
40
0.1875683
50
267.1309974
51
307.5875924
0
ARC
8
DEFAULT_255_2_778
10
17.8647123
20
79.8495523
40
0.1294888
50
309.9024812
51
2.5071286
0
ARC
8
DEFAULT_255_2_778
10
17.8669779
20
79.8666158
40
0.1276094
50
354.8750084
51
48.6540709
0
ARC
8
DEFAULT_255_2_778
10
17.8428613
20
79.8021841
40
0.1934643
50
55.917112
51
91.0706986
0
ARC
8
DEFAULT_255_2_778
10
17.8208413
20
79.574376
40
0.4216406
50
87.4982022
51
90.0359008
0
ARC
8
DEFAULT_255_2_778
10
19.5906925
20
80.3224881
40
0.7515119
50
242.0856849
51
254.8729012
0
ARC
8
DEFAULT_255_2_778
10
19.3995744
20
79.9560294
40
0.3382296
50
228.1417466
51
241.6322633
0
ARC
8
DEFAULT_255_2_778
10
19.3093516
20
79.8574468
40
0.2046056
50
179.0002763
51
228.5378676
0
ARC
8
DEFAULT_255_2_778
10
19.3208044
20
79.8642902
40
0.2160521
50
127.534478
51
180.8681489
0
ARC
8
DEFAULT_255_2_778
10
19.3926856
20
79.7714273
40
0.3334842
50
87.9586537
51
127.6075265
0
ARC
8
DEFAULT_255_2_778
10
19.408771
20
79.5780987
40
0.5266179
50
89.9993296
51
90.4576632
0
ARC
8
DEFAULT_255_2_778
10
19.4152844
20
79.7382983
40
0.3664762
50
64.4790888
51
91.0174092
0
ARC
8
DEFAULT_255_2_778
10
19.4578556
20
79.8254445
40
0.2694929
50
32.6447345
51
64.6643406
0
ARC
8
DEFAULT_255_2_778
10
19.4736973
20
79.8353997
40
0.2507837
50
359.6840122
51
32.6819396
0
ARC
8
DEFAULT_255_2_778
10
19.443871
20
79.8424161
40
0.1623236
50
357.0339106
51
47.0956199
0
ARC
8
DEFAULT_255_2_778
10
19.4221152
20
79.7974762
40
0.2105633
50
51.0874297
51
93.6318141
0
ARC
8
DEFAULT_255_2_778
10
19.3958825
20
79.7931748
40
0.2148291
50
86.5588803
51
124.900432
0
ARC
8
DEFAULT_255_2_778
10
19.3305979
20
79.8959207
40
0.0933571
50
128.1200507
51
128.2687466
0
ARC
8
DEFAULT_255_2_778
10
19.3521267
20
79.8686618
40
0.1280923
50
128.2775751
51
182.7049968
0
ARC
8
DEFAULT_255_2_778
10
19.3387475
20
79.8623254
40
0.1145707
50
179.8543415
51
233.4246454
0
ARC
8
DEFAULT_255_2_778
10
19.4678309
20
80.0355082
40
0.3305678
50
233.3436216
51
251.8595559
0
ARC
8
DEFAULT_255_2_778
10
19.6580061
20
80.5320634
40
0.8620486
50
250.1231261
51
254.5374836
0
ARC
8
DEFAULT_255_2_778
10
19.211241
20
78.8835769
40
0.8459291
50
64.7113889
51
75.1406486
0
ARC
8
DEFAULT_255_2_778
10
19.3880657
20
79.2729763
40
0.4183609
50
59.1692717
51
63.8261145
0
ARC
8
DEFAULT_255_2_778
10
19.4720692
20
79.400567
40
0.2658342
50
32.6578373
51
60.6225224
0
ARC
8
DEFAULT_255_2_778
10
19.502001
20
79.4311302
40
0.2243464
50
358.566197
51
30.2105512
0
ARC
8
DEFAULT_255_2_778
10
19.5173275
20
79.4194463
40
0.2090378
50
306.5031348
51
1.6640703
0
ARC
8
DEFAULT_255_2_778
10
19.4424162
20
79.5277056
40
0.3406471
50
271.231083
51
305.7993288
0
ARC
8
DEFAULT_255_2_778
10
19.4156071
20
79.7573596
40
0.571243
50
269.956875
51
273.4250693
0
ARC
8
DEFAULT_255_2_778
10
19.4119026
20
79.6079435
40
0.4218395
50
246.4233513
51
270.4447605
0
ARC
8
DEFAULT_255_2_778
10
19.3518207
20
79.4864336
40
0.2865142
50
216.0514518
51
247.7164313
0
ARC
8
DEFAULT_255_2_778
10
19.3125214
20
79.4541582
40
0.2357654
50
179.2324074
51
215.3305893
0
ARC
8
DEFAULT_255_2_778
10
19.3495029
20
79.4513047
40
0.1543428
50
177.7676654
51
232.2808121
0
ARC
8
DEFAULT_255_2_778
10
19.4019667
20
79.5329477
40
0.2511631
50
234.2084865
51
272.946444
0
ARC
8
DEFAULT_255_2_778
10
19.4272365
20
79.5311227
40
0.2493126
50
267.1584591
51
298.3976027
0
ARC
8
DEFAULT_255_2_778
10
19.4708123
20
79.434436
40
0.1437401
50
301.4486767
51
307.3802196
0
ARC
8
DEFAULT_255_2_778
10
19.4841897
20
79.4193883
40
0.1236704
50
306.6878262
51
2.0984377
0
ARC
8
DEFAULT_255_2_778
10
19.4863747
20
79.4301644
40
0.1215631
50
357.0539959
51
51.6638462
0
ARC
8
DEFAULT_255_2_778
10
19.3633958
20
79.245869
40
0.3428672
50
54.6482085
51
71.0157428
0
ARC
8
DEFAULT_255_2_778
10
19.1122634
20
78.6011805
40
1.0345575
50
69.4786925
51
74.1525544
0
LINE
8
DEFAULT_255_2_778
10
16.4600771
20
80.0968167
11
16.4600771
21
79.1985167
0
LINE
8
DEFAULT_255_2_778
10
16.4600771
20
79.1985167
11
16.3457771
21
79.1985167
0
LINE
8
DEFAULT_255_2_778
10
16.3457771
20
79.1985167
11
16.3457771
21
79.9555167
0
LINE
8
DEFAULT_255_2_778
10
16.3457771
20
79.9555167
11
16.1168771
21
79.8713167
0
LINE
8
DEFAULT_255_2_778
10
16.1168771
20
79.8713167
11
16.1168771
21
79.9745167
0
LINE
8
DEFAULT_255_2_778
10
16.1168771
20
79.9745167
11
16.4422771
21
80.0968167
0
LINE
8
DEFAULT_255_2_778
10
16.4422771
20
80.0968167
11
16.4600771
21
80.0968167
0
LINE
8
DEFAULT_255_2_778
10
16.4600771
20
80.0968167
11
16.4600771
21
80.0968167
0
LINE
8
DEFAULT_255_2_778
10
17.3532771
20
79.7271167
11
17.3532771
21
79.5798167
0
LINE
8
DEFAULT_255_2_778
10
16.7891771
20
79.5642167
11
16.7891771
21
79.7158167
0
LINE
8
DEFAULT_255_2_778
10
17.3532771
20
79.7269167
11
17.3532771
21
79.7271167
0
LINE
8
DEFAULT_255_2_778
10
17.2397771
20
79.5491167
11
17.2397771
21
79.7351167
0
LINE
8
DEFAULT_255_2_778
10
16.9029771
20
79.7438167
11
16.9029771
21
79.5620167
0
LINE
8
DEFAULT_255_2_778
10
17.2397771
20
79.5491167
11
17.2397771
21
79.5491167
0
LINE
8
DEFAULT_255_2_778
10
17.8382771
20
79.1988167
11
17.5281771
21
79.1988167
0
LINE
8
DEFAULT_255_2_778
10
17.5281771
20
79.1988167
11
17.5281771
21
80.0925167
0
LINE
8
DEFAULT_255_2_778
10
17.5281771
20
80.0925167
11
17.8205771
21
80.0925167
0
LINE
8
DEFAULT_255_2_778
10
17.8379771
20
79.1985167
11
17.8382771
21
79.1988167
0
LINE
8
DEFAULT_255_2_778
10
17.8424771
20
79.6168167
11
17.6458771
21
79.6168167
0
LINE
8
DEFAULT_255_2_778
10
17.6458771
20
79.6168167
11
17.6458771
21
79.2951167
0
LINE
8
DEFAULT_255_2_778
10
17.6458771
20
79.2951167
11
17.8406771
21
79.2951167
0
LINE
8
DEFAULT_255_2_778
10
17.8424771
20
79.6165167
11
17.8424771
21
79.6168167
0
LINE
8
DEFAULT_255_2_778
10
17.6458771
20
79.9957167
11
17.6458771
21
79.7115167
0
LINE
8
DEFAULT_255_2_778
10
17.6458771
20
79.7115167
11
17.8239771
21
79.7115167
0
LINE
8
DEFAULT_255_2_778
10
17.8205771
20
79.9960167
11
17.6461771
21
79.9960167
0
LINE
8
DEFAULT_255_2_778
10
17.6461771
20
79.9960167
11
17.6458771
21
79.9957167
0
LINE
8
DEFAULT_255_2_778
10
18.8899771
20
79.1988167
11
18.8047771
21
79.4321167
0
LINE
8
DEFAULT_255_2_778
10
18.8047771
20
79.4321167
11
18.4303771
21
79.4321167
0
LINE
8
DEFAULT_255_2_778
10
18.4303771
20
79.4321167
11
18.3462771
21
79.1988167
0
LINE
8
DEFAULT_255_2_778
10
18.3462771
20
79.1988167
11
18.2247771
21
79.1988167
0
LINE
8
DEFAULT_255_2_778
10
18.2247771
20
79.1988167
11
18.5660771
21
80.0925167
0
LINE
8
DEFAULT_255_2_778
10
18.5660771
20
80.0925167
11
18.6692771
21
80.0925167
0
LINE
8
DEFAULT_255_2_778
10
18.6692771
20
80.0925167
11
19.0111771
21
79.1988167
0
LINE
8
DEFAULT_255_2_778
10
19.0111771
20
79.1988167
11
18.8902771
21
79.1988167
0
LINE
8
DEFAULT_255_2_778
10
18.8902771
20
79.1988167
11
18.8899771
21
79.1988167
0
LINE
8
DEFAULT_255_2_778
10
18.6174771
20
79.9473167
11
18.4658771
21
79.5292167
0
LINE
8
DEFAULT_255_2_778
10
18.4658771
20
79.5292167
11
18.7695771
21
79.5292167
0
LINE
8
DEFAULT_255_2_778
10
18.7695771
20
79.5292167
11
18.6174771
21
79.9473167
0
LINE
8
DEFAULT_255_2_778
10
18.6174771
20
79.9473167
11
18.6174771
21
79.9473167
0
LINE
8
DEFAULT_255_2_778
10
19.7244771
20
79.8340167
11
19.6059771
21
79.8340167
0
LINE
8
DEFAULT_255_2_778
10
19.0767771
20
79.4573167
11
19.1952771
21
79.4573167
0
LINE
8
DEFAULT_255_2_778
10
19.3947771
20
79.5964167
11
19.3945771
21
79.5970167
0
LINE
8
DEFAULT_255_2_778
10
20.3824021
20
79.7083812
11
20.3824021
21
79.6120812
0
LINE
8
DEFAULT_255_2_778
10
20.3824021
20
79.6120812
11
19.9950021
21
79.6120812
0
LINE
8
DEFAULT_255_2_778
10
19.9950021
20
79.6120812
11
19.9950021
21
79.2952812
0
LINE
8
DEFAULT_255_2_778
10
19.9950021
20
79.2952812
11
20.4451021
21
79.2952812
0
LINE
8
DEFAULT_255_2_778
10
20.4451021
20
79.2952812
11
20.4451021
21
79.1989812
0
LINE
8
DEFAULT_255_2_778
10
20.4451021
20
79.1989812
11
19.8773021
21
79.1989812
0
LINE
8
DEFAULT_255_2_778
10
19.8773021
20
79.1989812
11
19.8773021
21
80.0927812
0
LINE
8
DEFAULT_255_2_778
10
19.8773021
20
80.0927812
11
20.4390021
21
80.0927812
0
LINE
8
DEFAULT_255_2_778
10
20.4390021
20
80.0927812
11
20.4390021
21
79.9956812
0
LINE
8
DEFAULT_255_2_778
10
20.4390021
20
79.9956812
11
19.9950021
21
79.9956812
0
LINE
8
DEFAULT_255_2_778
10
19.9950021
20
79.9956812
11
19.9950021
21
79.7083812
0
LINE
8
DEFAULT_255_2_778
10
19.9950021
20
79.7083812
11
20.3824021
21
79.7083812
0
LINE
8
DEFAULT_255_2_778
10
20.3824021
20
79.7083812
11
20.3824021
21
79.7083812
0
LINE
8
DEFAULT_255_2_778
10
20.8102458
20
79.6245021
11
20.8102458
21
79.5319021
0
LINE
8
DEFAULT_255_2_778
10
20.8102458
20
79.5319021
11
20.5107458
21
79.5319021
0
LINE
8
DEFAULT_255_2_778
10
20.5107458
20
79.5319021
11
20.5107458
21
79.6245021
0
LINE
8
DEFAULT_255_2_778
10
20.5107458
20
79.6245021
11
20.8102458
21
79.6245021
0
LINE
8
DEFAULT_255_2_778
10
20.8102458
20
79.6245021
11
20.8102458
21
79.6245021
0
LINE
8
DEFAULT_255_2_778
10
21.5562219
20
80.0925135
11
21.5562219
21
79.9954135
0
LINE
8
DEFAULT_255_2_778
10
21.5562219
20
79.9954135
11
21.2688219
21
79.9954135
0
LINE
8
DEFAULT_255_2_778
10
21.2688219
20
79.9954135
11
21.2688219
21
79.1985135
0
LINE
8
DEFAULT_255_2_778
10
21.2688219
20
79.1985135
11
21.1516219
21
79.1985135
0
LINE
8
DEFAULT_255_2_778
10
21.1516219
20
79.1985135
11
21.1516219
21
79.9954135
0
LINE
8
DEFAULT_255_2_778
10
21.1516219
20
79.9954135
11
20.8648219
21
79.9954135
0
LINE
8
DEFAULT_255_2_778
10
20.8648219
20
79.9954135
11
20.8648219
21
80.0925135
0
LINE
8
DEFAULT_255_2_778
10
20.8648219
20
80.0925135
11
21.5562219
21
80.0925135
0
LINE
8
DEFAULT_255_2_778
10
21.5562219
20
80.0925135
11
21.5562219
21
80.0925135
0
LINE
8
DEFAULT_255_2_778
10
4.0020406
20
147.4034
11
4.0020406
21
147.2938
0
LINE
8
DEFAULT_255_2_778
10
4.0020406
20
147.2938
11
3.5618406
21
147.2938
0
LINE
8
DEFAULT_255_2_778
10
3.5618406
20
147.2938
11
3.5618406
21
146.9337
0
LINE
8
DEFAULT_255_2_778
10
3.5618406
20
146.9337
11
4.0732406
21
146.9337
0
LINE
8
DEFAULT_255_2_778
10
4.0732406
20
146.9337
11
4.0732406
21
146.8242
0
LINE
8
DEFAULT_255_2_778
10
4.0732406
20
146.8242
11
3.4279406
21
146.8242
0
LINE
8
DEFAULT_255_2_778
10
3.4279406
20
146.8242
11
3.4279406
21
147.8402
0
LINE
8
DEFAULT_255_2_778
10
3.4279406
20
147.8402
11
4.0663406
21
147.8402
0
LINE
8
DEFAULT_255_2_778
10
4.0663406
20
147.8402
11
4.0663406
21
147.7299
0
LINE
8
DEFAULT_255_2_778
10
4.0663406
20
147.7299
11
3.5620406
21
147.7299
0
LINE
8
DEFAULT_255_2_778
10
3.5620406
20
147.7299
11
3.5620406
21
147.4034
0
LINE
8
DEFAULT_255_2_778
10
3.5620406
20
147.4034
11
4.0023406
21
147.4034
0
LINE
8
DEFAULT_255_2_778
10
4.0023406
20
147.4034
11
4.0020406
21
147.4034
0
LINE
8
DEFAULT_255_2_778
10
4.9556261
20
147.8401677
11
4.9556261
21
147.7298677
0
LINE
8
DEFAULT_255_2_778
10
4.9556261
20
147.7298677
11
4.6292261
21
147.7298677
0
LINE
8
DEFAULT_255_2_778
10
4.6292261
20
147.7298677
11
4.6292261
21
146.8244677
0
LINE
8
DEFAULT_255_2_778
10
4.6292261
20
146.8244677
11
4.4958261
21
146.8244677
0
LINE
8
DEFAULT_255_2_778
10
4.4958261
20
146.8244677
11
4.4958261
21
147.7298677
0
LINE
8
DEFAULT_255_2_778
10
4.4958261
20
147.7298677
11
4.1701261
21
147.7298677
0
LINE
8
DEFAULT_255_2_778
10
4.1701261
20
147.7298677
11
4.1701261
21
147.8401677
0
LINE
8
DEFAULT_255_2_778
10
4.1701261
20
147.8401677
11
4.9556261
21
147.8401677
0
LINE
8
DEFAULT_255_2_778
10
4.9556261
20
147.8401677
11
4.9556261
21
147.8401677
0
ARC
8
DEFAULT_255_2_778
10
7.2852573
20
147.349773
40
0.490591
50
69.1845228
51
91.4814454
0
ARC
8
DEFAULT_255_2_778
10
7.3515309
20
147.5408541
40
0.2884922
50
50.0767251
51
68.0018331
0
ARC
8
DEFAULT_255_2_778
10
7.3533438
20
147.5563979
40
0.2755418
50
358.3488609
51
48.2912556
0
ARC
8
DEFAULT_255_2_778
10
7.1606085
20
147.5346701
40
0.4683657
50
359.9914194
51
1.686994
0
ARC
8
DEFAULT_255_2_778
10
7.3557446
20
147.5286885
40
0.2732933
50
324.2972594
51
1.239435
0
ARC
8
DEFAULT_255_2_778
10
7.3314887
20
147.5533843
40
0.3074591
50
289.6885896
51
323.1978938
0
ARC
8
DEFAULT_255_2_778
10
7.2891014
20
147.577141
40
0.2325626
50
266.9861782
51
309.0368388
0
ARC
8
DEFAULT_255_2_778
10
7.3204535
20
147.5273357
40
0.1742719
50
311.3440832
51
2.3889876
0
ARC
8
DEFAULT_255_2_778
10
7.3109473
20
147.5464496
40
0.1840086
50
356.3077567
51
46.1281825
0
ARC
8
DEFAULT_255_2_778
10
7.2957988
20
147.5024745
40
0.2270523
50
51.0692847
51
90.8206227
0
ARC
8
DEFAULT_255_2_778
10
7.2740047
20
147.3027383
40
0.4271678
50
87.512152
51
89.6956139
0
LINE
8
DEFAULT_255_2_778
10
5.886974
20
147.8402
11
5.886974
21
146.8245
0
LINE
8
DEFAULT_255_2_778
10
5.886974
20
146.8245
11
5.752274
21
146.8245
0
LINE
8
DEFAULT_255_2_778
10
5.752274
20
146.8245
11
5.752274
21
147.2938
0
LINE
8
DEFAULT_255_2_778
10
5.752274
20
147.2938
11
5.240374
21
147.2938
0
LINE
8
DEFAULT_255_2_778
10
5.240374
20
147.2938
11
5.240374
21
146.8242
0
LINE
8
DEFAULT_255_2_778
10
5.240374
20
146.8242
11
5.106474
21
146.8242
0
LINE
8
DEFAULT_255_2_778
10
5.106474
20
146.8242
11
5.106474
21
147.8402
0
LINE
8
DEFAULT_255_2_778
10
5.106474
20
147.8402
11
5.240374
21
147.8402
0
LINE
8
DEFAULT_255_2_778
10
5.240374
20
147.8402
11
5.240374
21
147.4034
0
LINE
8
DEFAULT_255_2_778
10
5.240374
20
147.4034
11
5.752274
21
147.4034
0
LINE
8
DEFAULT_255_2_778
10
5.752274
20
147.4034
11
5.752274
21
147.8402
0
LINE
8
DEFAULT_255_2_778
10
5.752274
20
147.8402
11
5.886974
21
147.8402
0
LINE
8
DEFAULT_255_2_778
10
5.886974
20
147.8402
11
5.886974
21
147.8402
0
LINE
8
DEFAULT_255_2_778
10
6.699274
20
147.4034
11
6.699274
21
147.2938
0
LINE
8
DEFAULT_255_2_778
10
6.699274
20
147.2938
11
6.258974
21
147.2938
0
LINE
8
DEFAULT_255_2_778
10
6.258974
20
147.2938
11
6.258974
21
146.9337
0
LINE
8
DEFAULT_255_2_778
10
6.258974
20
146.9337
11
6.770474
21
146.9337
0
LINE
8
DEFAULT_255_2_778
10
6.770474
20
146.9337
11
6.770474
21
146.8242
0
LINE
8
DEFAULT_255_2_778
10
6.770474
20
146.8242
11
6.125074
21
146.8242
0
LINE
8
DEFAULT_255_2_778
10
6.125074
20
146.8242
11
6.125074
21
147.8402
0
LINE
8
DEFAULT_255_2_778
10
6.125074
20
147.8402
11
6.763574
21
147.8402
0
LINE
8
DEFAULT_255_2_778
10
6.763574
20
147.8402
11
6.763574
21
147.7299
0
LINE
8
DEFAULT_255_2_778
10
6.763574
20
147.7299
11
6.259274
21
147.7299
0
LINE
8
DEFAULT_255_2_778
10
6.259274
20
147.7299
11
6.259274
21
147.4034
0
LINE
8
DEFAULT_255_2_778
10
6.259274
20
147.4034
11
6.699274
21
147.4034
0
LINE
8
DEFAULT_255_2_778
10
6.699274
20
147.4034
11
6.699274
21
147.4034
0
LINE
8
DEFAULT_255_2_778
10
7.530074
20
146.8245
11
7.309674
21
147.2354
0
LINE
8
DEFAULT_255_2_778
10
7.309674
20
147.2354
11
7.070974
21
147.2354
0
LINE
8
DEFAULT_255_2_778
10
7.070974
20
147.2354
11
7.070974
21
146.8245
0
LINE
8
DEFAULT_255_2_778
10
7.070974
20
146.8245
11
6.936374
21
146.8245
0
LINE
8
DEFAULT_255_2_778
10
6.936374
20
146.8245
11
6.936374
21
147.8402
0
LINE
8
DEFAULT_255_2_778
10
6.936374
20
147.8402
11
7.272574
21
147.8402
0
LINE
8
DEFAULT_255_2_778
10
7.435074
20
147.2639
11
7.673774
21
146.8329
0
LINE
8
DEFAULT_255_2_778
10
7.673774
20
146.8329
11
7.673774
21
146.8245
0
LINE
8
DEFAULT_255_2_778
10
7.673774
20
146.8245
11
7.530074
21
146.8245
0
LINE
8
DEFAULT_255_2_778
10
7.530074
20
146.8245
11
7.530074
21
146.8245
0
LINE
8
DEFAULT_255_2_778
10
7.070974
20
147.7299
11
7.070974
21
147.3449
0
LINE
8
DEFAULT_255_2_778
10
7.070974
20
147.3449
11
7.276874
21
147.3449
0
LINE
8
DEFAULT_255_2_778
10
7.276274
20
147.7299
11
7.071274
21
147.7299
0
LINE
8
DEFAULT_255_2_778
10
7.071274
20
147.7299
11
7.070974
21
147.7299
0
LINE
8
DEFAULT_255_2_778
10
8.5974073
20
147.8401677
11
8.5974073
21
146.8244677
0
LINE
8
DEFAULT_255_2_778
10
8.5974073
20
146.8244677
11
8.4627073
21
146.8244677
0
LINE
8
DEFAULT_255_2_778
10
8.4627073
20
146.8244677
11
7.9513073
21
147.6070677
0
LINE
8
DEFAULT_255_2_778
10
7.9513073
20
147.6070677
11
7.9513073
21
146.8244677
0
LINE
8
DEFAULT_255_2_778
10
7.9513073
20
146.8244677
11
7.8166073
21
146.8244677
0
LINE
8
DEFAULT_255_2_778
10
7.8166073
20
146.8244677
11
7.8166073
21
147.8401677
0
LINE
8
DEFAULT_255_2_778
10
7.8166073
20
147.8401677
11
7.9513073
21
147.8401677
0
LINE
8
DEFAULT_255_2_778
10
7.9513073
20
147.8401677
11
8.4640073
21
147.0538677
0
LINE
8
DEFAULT_255_2_778
10
8.4640073
20
147.0538677
11
8.4640073
21
147.8401677
0
LINE
8
DEFAULT_255_2_778
10
8.4640073
20
147.8401677
11
8.5974073
21
147.8401677
0
LINE
8
DEFAULT_255_2_778
10
8.5974073
20
147.8401677
11
8.5974073
21
147.8401677
0
LINE
8
DEFAULT_255_2_778
10
9.4093406
20
147.4034
11
9.4093406
21
147.2938
0
LINE
8
DEFAULT_255_2_778
10
9.4093406
20
147.2938
11
8.9691406
21
147.2938
0
LINE
8
DEFAULT_255_2_778
10
8.9691406
20
147.2938
11
8.9691406
21
146.9337
0
LINE
8
DEFAULT_255_2_778
10
8.9691406
20
146.9337
11
9.4805406
21
146.9337
0
LINE
8
DEFAULT_255_2_778
10
9.4805406
20
146.9337
11
9.4805406
21
146.8242
0
LINE
8
DEFAULT_255_2_778
10
9.4805406
20
146.8242
11
8.8352406
21
146.8242
0
LINE
8
DEFAULT_255_2_778
10
8.8352406
20
146.8242
11
8.8352406
21
147.8402
0
LINE
8
DEFAULT_255_2_778
10
8.8352406
20
147.8402
11
9.4736406
21
147.8402
0
LINE
8
DEFAULT_255_2_778
10
9.4736406
20
147.8402
11
9.4736406
21
147.7299
0
LINE
8
DEFAULT_255_2_778
10
9.4736406
20
147.7299
11
8.9693406
21
147.7299
0
LINE
8
DEFAULT_255_2_778
10
8.9693406
20
147.7299
11
8.9693406
21
147.4034
0
LINE
8
DEFAULT_255_2_778
10
8.9693406
20
147.4034
11
9.4096406
21
147.4034
0
LINE
8
DEFAULT_255_2_778
10
9.4096406
20
147.4034
11
9.4093406
21
147.4034
0
LINE
8
DEFAULT_255_2_778
10
10.3631261
20
147.8401677
11
10.3631261
21
147.7298677
0
LINE
8
DEFAULT_255_2_778
10
10.3631261
20
147.7298677
11
10.0367261
21
147.7298677
0
LINE
8
DEFAULT_255_2_778
10
10.0367261
20
147.7298677
11
10.0367261
21
146.8244677
0
LINE
8
DEFAULT_255_2_778
10
10.0367261
20
146.8244677
11
9.9033261
21
146.8244677
0
LINE
8
DEFAULT_255_2_778
10
9.9033261
20
146.8244677
11
9.9033261
21
147.7298677
0
LINE
8
DEFAULT_255_2_778
10
9.9033261
20
147.7298677
11
9.5776261
21
147.7298677
0
LINE
8
DEFAULT_255_2_778
10
9.5776261
20
147.7298677
11
9.5776261
21
147.8401677
0
LINE
8
DEFAULT_255_2_778
10
9.5776261
20
147.8401677
11
10.3631261
21
147.8401677
0
LINE
8
DEFAULT_255_2_778
10
10.3631261
20
147.8401677
11
10.3631261
21
147.8401677
0
ARC
8
DEFAULT_255_2_778
10
11.225229
20
147.1777779
40
0.3906557
50
320.0939117
51
355.4357419
0
ARC
8
DEFAULT_255_2_778
10
11.2848515
20
147.1393714
40
0.3204011
50
311.1167713
51
318.5221627
0
ARC
8
DEFAULT_255_2_778
10
11.2555337
20
147.1861765
40
0.3750426
50
270.683661
51
309.7888225
0
ARC
8
DEFAULT_255_2_778
10
11.2297289
20
147.4062448
40
0.5958541
50
269.972783
51
272.9128762
0
ARC
8
DEFAULT_255_2_778
10
11.2164301
20
147.1679966
40
0.3578428
50
219.6849258
51
272.0844704
0
ARC
8
DEFAULT_255_2_778
10
11.3141735
20
147.2395905
40
0.4788363
50
184.2995714
51
218.8090964
0
ARC
8
DEFAULT_255_2_778
10
11.5991458
20
147.2832599
40
0.7666015
50
179.8855959
51
185.9576703
0
ARC
8
DEFAULT_255_2_778
10
11.4116394
20
147.3945649
40
0.5792215
50
155.8661952
51
181.2043532
0
ARC
8
DEFAULT_255_2_778
10
11.2286133
20
147.4760691
40
0.3788689
50
122.2495513
51
155.7976055
0
ARC
8
DEFAULT_255_2_778
10
11.233214
20
147.4554363
40
0.3988372
50
88.8317267
51
121.2268317
0
ARC
8
DEFAULT_255_2_778
10
11.2556982
20
147.4701682
40
0.3842906
50
56.325729
51
92.1403545
0
ARC
8
DEFAULT_255_2_778
10
11.2863447
20
147.5320468
40
0.315925
50
47.2374097
51
54.7285172
0
ARC
8
DEFAULT_255_2_778
10
11.2409839
20
147.4955066
40
0.3736468
50
4.3570756
51
45.9349246
0
ARC
8
DEFAULT_255_2_778
10
11.0438439
20
147.4564653
40
0.5736833
50
5.7448877
51
6.7498734
0
ARC
8
DEFAULT_255_2_778
10
11.1298415
20
147.4760775
40
0.3521404
50
6.1643586
51
30.3070805
0
ARC
8
DEFAULT_255_2_778
10
11.2783444
20
147.5556941
40
0.1838603
50
32.2407584
51
46.739966
0
ARC
8
DEFAULT_255_2_778
10
11.2556548
20
147.5156718
40
0.2288161
50
49.4713676
51
93.3800918
0
ARC
8
DEFAULT_255_2_778
10
11.2415505
20
147.4654796
40
0.2786108
50
89.8738676
51
90.0420958
0
ARC
8
DEFAULT_255_2_778
10
11.2313881
20
147.5042169
40
0.2400803
50
87.622888
51
142.8834388
0
ARC
8
DEFAULT_255_2_778
10
11.3375002
20
147.4349665
40
0.3665893
50
144.2607007
51
174.305077
0
ARC
8
DEFAULT_255_2_778
10
11.6575905
20
147.3821749
40
0.6906506
50
172.581923
51
180.2392783
0
ARC
8
DEFAULT_255_2_778
10
11.4920857
20
147.268241
40
0.5252898
50
178.6310243
51
200.357842
0
ARC
8
DEFAULT_255_2_778
10
11.3027995
20
147.2052849
40
0.3259969
50
201.5575735
51
215.0880289
0
ARC
8
DEFAULT_255_2_778
10
11.2206047
20
147.1429864
40
0.2229594
50
214.1298041
51
272.1954385
0
ARC
8
DEFAULT_255_2_778
10
11.2418114
20
147.2043374
40
0.284429
50
267.4477976
51
298.4423644
0
ARC
8
DEFAULT_255_2_778
10
11.2872781
20
147.1040327
40
0.1747506
50
300.9985725
51
310.3175476
0
ARC
8
DEFAULT_255_2_778
10
11.2415871
20
147.1385628
40
0.2309802
50
313.4188311
51
347.5688654
0
ARC
8
DEFAULT_255_2_778
10
10.9678755
20
147.2247699
40
0.5174494
50
344.7702088
51
351.3549471
0
LINE
8
DEFAULT_255_2_778
10
11.4799458
20
147.1466906
11
11.6146458
21
147.1466906
0
LINE
8
DEFAULT_255_2_778
10
10.8325458
20
147.2847906
11
10.8325458
21
147.3823906
0
LINE
8
DEFAULT_255_2_778
10
11.6146458
20
147.5138906
11
11.4799458
21
147.5138906
0
LINE
8
DEFAULT_255_2_778
10
10.9669458
20
147.3792906
11
10.9669458
21
147.2807906
0
LINE
8
DEFAULT_255_2_778
10
11.4794458
20
147.1469906
11
11.4799458
21
147.1466906
0
ARC
8
DEFAULT_255_2_778
10
11.9449939
20
147.2861447
40
0.6339595
50
337.7168824
51
1.1942991
0
ARC
8
DEFAULT_255_2_778
10
12.0839848
20
147.2394798
40
0.4877467
50
335.6991379
51
336.5981488
0
ARC
8
DEFAULT_255_2_778
10
12.1789961
20
147.1871445
40
0.3797136
50
303.0742929
51
336.996679
0
ARC
8
DEFAULT_255_2_778
10
12.1800012
20
147.2025198
40
0.3921577
50
268.7308963
51
301.7251905
0
ARC
8
DEFAULT_255_2_778
10
12.1641808
20
147.1976375
40
0.3872449
50
237.9377536
51
271.0557082
0
ARC
8
DEFAULT_255_2_778
10
12.169144
20
147.1954145
40
0.388033
50
204.0208413
51
237.1424158
0
ARC
8
DEFAULT_255_2_778
10
12.3631859
20
147.2836909
40
0.6012072
50
179.3645781
51
204.177428
0
ARC
8
DEFAULT_255_2_778
10
12.3835427
20
147.3760442
40
0.6216505
50
156.6474981
51
181.1416474
0
ARC
8
DEFAULT_255_2_778
10
12.1689375
20
147.4707122
40
0.3871042
50
123.2456192
51
156.9207945
0
ARC
8
DEFAULT_255_2_778
10
12.1632224
20
147.4662345
40
0.3877833
50
88.9962297
51
122.1766417
0
ARC
8
DEFAULT_255_2_778
10
12.1778321
20
147.4608536
40
0.3931825
50
58.1839244
51
91.1391171
0
ARC
8
DEFAULT_255_2_778
10
12.1780332
20
147.4755855
40
0.3806338
50
22.958682
51
57.0404811
0
ARC
8
DEFAULT_255_2_778
10
11.9485459
20
147.3769605
40
0.6304143
50
358.772752
51
23.0765762
0
ARC
8
DEFAULT_255_2_778
10
11.85467
20
147.3776903
40
0.5908765
50
358.7944184
51
17.1809147
0
ARC
8
DEFAULT_255_2_778
10
12.117483
20
147.454721
40
0.3170624
50
17.9107977
51
36.3296241
0
ARC
8
DEFAULT_255_2_778
10
12.1807276
20
147.5002708
40
0.2391276
50
36.5146052
51
92.567474
0
ARC
8
DEFAULT_255_2_778
10
12.1610296
20
147.5028189
40
0.2365102
50
87.8225671
51
143.7834327
0
ARC
8
DEFAULT_255_2_778
10
12.285727
20
147.4188964
40
0.3867455
50
144.667664
51
174.581815
0
ARC
8
DEFAULT_255_2_778
10
12.5924589
20
147.3686821
40
0.6971657
50
172.8534764
51
179.5417231
0
ARC
8
DEFAULT_255_2_778
10
12.4493891
20
147.2870788
40
0.5542163
50
178.6993945
51
199.2821565
0
ARC
8
DEFAULT_255_2_778
10
12.2358048
20
147.2186874
40
0.330083
50
200.319352
51
216.0453191
0
ARC
8
DEFAULT_255_2_778
10
12.1628629
20
147.162153
40
0.2378558
50
215.3731997
51
272.108875
0
ARC
8
DEFAULT_255_2_778
10
12.1829615
20
147.1609367
40
0.2367504
50
267.2531548
51
323.1518407
0
ARC
8
DEFAULT_255_2_778
10
12.0641667
20
147.2356557
40
0.376796
50
324.8929865
51
353.7567572
0
ARC
8
DEFAULT_255_2_778
10
11.7183996
20
147.2954099
40
0.7273372
50
352.0393908
51
359.5626741
0
LINE
8
DEFAULT_255_2_778
10
12.5788156
20
147.3636583
11
12.5788156
21
147.2993583
0
LINE
8
DEFAULT_255_2_778
10
11.7620156
20
147.2903583
11
11.7620156
21
147.3636583
0
LINE
8
DEFAULT_255_2_778
10
12.5788156
20
147.3634583
11
12.5788156
21
147.3636583
0
LINE
8
DEFAULT_255_2_778
10
12.4454156
20
147.2898583
11
12.4454156
21
147.3652583
0
LINE
8
DEFAULT_255_2_778
10
11.8953156
20
147.3742583
11
11.8953156
21
147.2996583
0
LINE
8
DEFAULT_255_2_778
10
12.4457156
20
147.2898583
11
12.4454156
21
147.2898583
0
LINE
8
DEFAULT_255_2_778
10
12.7796136
20
147.8401677
11
12.9526136
21
147.8401677
0
LINE
8
DEFAULT_255_2_778
10
12.9526136
20
147.8401677
11
13.2847136
21
147.0114677
0
LINE
8
DEFAULT_255_2_778
10
13.2847136
20
147.0114677
11
13.6167136
21
147.8401677
0
LINE
8
DEFAULT_255_2_778
10
13.6167136
20
147.8401677
11
13.7906136
21
147.8401677
0
LINE
8
DEFAULT_255_2_778
10
13.7906136
20
147.8401677
11
13.7906136
21
146.8244677
0
LINE
8
DEFAULT_255_2_778
10
13.7906136
20
146.8244677
11
13.6567136
21
146.8244677
0
LINE
8
DEFAULT_255_2_778
10
13.6567136
20
146.8244677
11
13.6567136
21
147.2199677
0
LINE
8
DEFAULT_255_2_778
10
13.6567136
20
147.2199677
11
13.6691136
21
147.6470677
0
LINE
8
DEFAULT_255_2_778
10
13.6691136
20
147.6470677
11
13.3358136
21
146.8244677
0
LINE
8
DEFAULT_255_2_778
10
13.3358136
20
146.8244677
11
13.2331136
21
146.8244677
0
LINE
8
DEFAULT_255_2_778
10
13.2331136
20
146.8244677
11
12.9002136
21
147.6448677
0
LINE
8
DEFAULT_255_2_778
10
12.9002136
20
147.6448677
11
12.9135136
21
147.2199677
0
LINE
8
DEFAULT_255_2_778
10
12.9135136
20
147.2199677
11
12.9135136
21
146.8244677
0
LINE
8
DEFAULT_255_2_778
10
12.9135136
20
146.8244677
11
12.7796136
21
146.8244677
0
LINE
8
DEFAULT_255_2_778
10
12.7796136
20
146.8244677
11
12.7796136
21
147.8401677
0
LINE
8
DEFAULT_255_2_778
10
12.7796136
20
147.8401677
11
12.7796136
21
147.8401677
0
LINE
8
DEFAULT_255_2_778
10
14.0271136
20
147.8401677
11
14.2001136
21
147.8401677
0
LINE
8
DEFAULT_255_2_778
10
14.2001136
20
147.8401677
11
14.5322136
21
147.0114677
0
LINE
8
DEFAULT_255_2_778
10
14.5322136
20
147.0114677
11
14.8642136
21
147.8401677
0
LINE
8
DEFAULT_255_2_778
10
14.8642136
20
147.8401677
11
15.0381136
21
147.8401677
0
LINE
8
DEFAULT_255_2_778
10
15.0381136
20
147.8401677
11
15.0381136
21
146.8244677
0
LINE
8
DEFAULT_255_2_778
10
15.0381136
20
146.8244677
11
14.9042136
21
146.8244677
0
LINE
8
DEFAULT_255_2_778
10
14.9042136
20
146.8244677
11
14.9042136
21
147.2199677
0
LINE
8
DEFAULT_255_2_778
10
14.9042136
20
147.2199677
11
14.9166136
21
147.6470677
0
LINE
8
DEFAULT_255_2_778
10
14.9166136
20
147.6470677
11
14.5833136
21
146.8244677
0
LINE
8
DEFAULT_255_2_778
10
14.5833136
20
146.8244677
11
14.4806136
21
146.8244677
0
LINE
8
DEFAULT_255_2_778
10
14.4806136
20
146.8244677
11
14.1477136
21
147.6448677
0
LINE
8
DEFAULT_255_2_778
10
14.1477136
20
147.6448677
11
14.1610136
21
147.2199677
0
LINE
8
DEFAULT_255_2_778
10
14.1610136
20
147.2199677
11
14.1610136
21
146.8244677
0
LINE
8
DEFAULT_255_2_778
10
14.1610136
20
146.8244677
11
14.0271136
21
146.8244677
0
LINE
8
DEFAULT_255_2_778
10
14.0271136
20
146.8244677
11
14.0271136
21
147.8401677
0
LINE
8
DEFAULT_255_2_778
10
14.0271136
20
147.8401677
11
14.0271136
21
147.8401677
0
ARC
8
DEFAULT_255_2_778
10
15.6643096
20
147.1394184
40
0.3254106
50
316.2466963
51
1.7893263
0
ARC
8
DEFAULT_255_2_778
10
15.6465335
20
147.1748959
40
0.3630303
50
272.2747692
51
314.1419021
0
ARC
8
DEFAULT_255_2_778
10
15.6154999
20
147.3644341
40
0.5541487
50
274.2079517
51
274.7038113
0
ARC
8
DEFAULT_255_2_778
10
15.6069011
20
147.2204178
40
0.4102695
50
239.9450506
51
271.9220485
0
ARC
8
DEFAULT_255_2_778
10
15.5680275
20
147.1355829
40
0.3174952
50
227.8004954
51
238.3493764
0
ARC
8
DEFAULT_255_2_778
10
15.5767882
20
147.1347007
40
0.322804
50
177.6247285
51
226.5432821
0
ARC
8
DEFAULT_255_2_778
10
15.6187893
20
147.1379496
40
0.23237
50
176.4645097
51
222.4610689
0
ARC
8
DEFAULT_255_2_778
10
15.6038892
20
147.1501041
40
0.2303701
50
227.1983884
51
272.818391
0
ARC
8
DEFAULT_255_2_778
10
15.6204474
20
147.3271705
40
0.4071914
50
269.2639482
51
270.0019806
0
ARC
8
DEFAULT_255_2_778
10
15.6339018
20
147.1667058
40
0.2470925
50
266.8819176
51
306.1592018
0
ARC
8
DEFAULT_255_2_778
10
15.6668175
20
147.1076683
40
0.1801946
50
308.7860395
51
315.1472303
0
ARC
8
DEFAULT_255_2_778
10
15.6237394
20
147.1369032
40
0.2315543
50
317.5374882
51
3.5022842
0
ARC
8
DEFAULT_255_2_778
10
15.623161
20
147.1513715
40
0.2317005
50
359.9201326
51
0.0266303
0
LINE
8
DEFAULT_255_2_778
10
15.8548615
20
147.8401792
11
15.9895615
21
147.8401792
0
LINE
8
DEFAULT_255_2_778
10
15.9895615
20
147.8401792
11
15.9895615
21
147.1495792
0
LINE
8
DEFAULT_255_2_778
10
15.6561615
20
146.8117792
11
15.6206615
21
146.8103792
0
LINE
8
DEFAULT_255_2_778
10
15.2542615
20
147.1480792
11
15.2542615
21
147.8401792
0
LINE
8
DEFAULT_255_2_778
10
15.2542615
20
147.8401792
11
15.3868615
21
147.8401792
0
LINE
8
DEFAULT_255_2_778
10
15.3868615
20
147.8401792
11
15.3868615
21
147.1522792
0
LINE
8
DEFAULT_255_2_778
10
15.8548615
20
147.1514792
11
15.8548615
21
147.8401792
0
LINE
8
DEFAULT_255_2_778
10
15.8548615
20
147.8401792
11
15.8548615
21
147.8401792
0
LINE
8
DEFAULT_255_2_778
10
16.9815073
20
147.8401677
11
16.9815073
21
146.8244677
0
LINE
8
DEFAULT_255_2_778
10
16.9815073
20
146.8244677
11
16.8468073
21
146.8244677
0
LINE
8
DEFAULT_255_2_778
10
16.8468073
20
146.8244677
11
16.3354073
21
147.6070677
0
LINE
8
DEFAULT_255_2_778
10
16.3354073
20
147.6070677
11
16.3354073
21
146.8244677
0
LINE
8
DEFAULT_255_2_778
10
16.3354073
20
146.8244677
11
16.2007073
21
146.8244677
0
LINE
8
DEFAULT_255_2_778
10
16.2007073
20
146.8244677
11
16.2007073
21
147.8401677
0
LINE
8
DEFAULT_255_2_778
10
16.2007073
20
147.8401677
11
16.3354073
21
147.8401677
0
LINE
8
DEFAULT_255_2_778
10
16.3354073
20
147.8401677
11
16.8481073
21
147.0538677
0
LINE
8
DEFAULT_255_2_778
10
16.8481073
20
147.0538677
11
16.8481073
21
147.8401677
0
LINE
8
DEFAULT_255_2_778
10
16.8481073
20
147.8401677
11
16.9815073
21
147.8401677
0
LINE
8
DEFAULT_255_2_778
10
16.9815073
20
147.8401677
11
16.9815073
21
147.8401677
0
LINE
8
DEFAULT_255_2_778
10
17.3630604
20
147.8401677
11
17.3630604
21
146.8244677
0
LINE
8
DEFAULT_255_2_778
10
17.3630604
20
146.8244677
11
17.2291604
21
146.8244677
0
LINE
8
DEFAULT_255_2_778
10
17.2291604
20
146.8244677
11
17.2291604
21
147.8401677
0
LINE
8
DEFAULT_255_2_778
10
17.2291604
20
147.8401677
11
17.3630604
21
147.8401677
0
LINE
8
DEFAULT_255_2_778
10
17.3630604
20
147.8401677
11
17.3630604
21
147.8401677
0
ARC
8
DEFAULT_255_2_778
10
17.965729
20
147.1777779
40
0.3906557
50
320.0939117
51
355.4357419
0
ARC
8
DEFAULT_255_2_778
10
18.0253515
20
147.1393714
40
0.3204011
50
311.1167713
51
318.5221627
0
ARC
8
DEFAULT_255_2_778
10
17.9960337
20
147.1861765
40
0.3750426
50
270.683661
51
309.7888225
0
ARC
8
DEFAULT_255_2_778
10
17.9702289
20
147.4062448
40
0.5958541
50
269.972783
51
272.9128762
0
ARC
8
DEFAULT_255_2_778
10
17.9569301
20
147.1679966
40
0.3578428
50
219.6849258
51
272.0844704
0
ARC
8
DEFAULT_255_2_778
10
18.0546735
20
147.2395905
40
0.4788363
50
184.2995714
51
218.8090964
0
ARC
8
DEFAULT_255_2_778
10
18.3396458
20
147.2832599
40
0.7666015
50
179.8855959
51
185.9576703
0
ARC
8
DEFAULT_255_2_778
10
18.1521394
20
147.3945649
40
0.5792215
50
155.8661952
51
181.2043532
0
ARC
8
DEFAULT_255_2_778
10
17.9691133
20
147.4760691
40
0.3788689
50
122.2495513
51
155.7976055
0
ARC
8
DEFAULT_255_2_778
10
17.973714
20
147.4554363
40
0.3988372
50
88.8317267
51
121.2268317
0
ARC
8
DEFAULT_255_2_778
10
17.9961982
20
147.4701682
40
0.3842906
50
56.325729
51
92.1403545
0
ARC
8
DEFAULT_255_2_778
10
18.0268447
20
147.5320468
40
0.315925
50
47.2374097
51
54.7285172
0
ARC
8
DEFAULT_255_2_778
10
17.9814839
20
147.4955066
40
0.3736468
50
4.3570756
51
45.9349246
0
ARC
8
DEFAULT_255_2_778
10
17.7843439
20
147.4564653
40
0.5736833
50
5.7448877
51
6.7498734
0
ARC
8
DEFAULT_255_2_778
10
17.8708978
20
147.4761483
40
0.3515798
50
6.1626079
51
30.3471013
0
ARC
8
DEFAULT_255_2_778
10
18.018855
20
147.555576
40
0.1838708
50
32.2822483
51
46.7902919
0
ARC
8
DEFAULT_255_2_778
10
17.9963964
20
147.5164527
40
0.2280006
50
49.4091002
51
93.2474645
0
ARC
8
DEFAULT_255_2_778
10
17.9818472
20
147.3273022
40
0.4167883
50
89.7754773
51
90.0001927
0
ARC
8
DEFAULT_255_2_778
10
17.9718881
20
147.5042169
40
0.2400803
50
87.622888
51
142.8834388
0
ARC
8
DEFAULT_255_2_778
10
18.0780002
20
147.4349665
40
0.3665893
50
144.2607007
51
174.305077
0
ARC
8
DEFAULT_255_2_778
10
18.3980905
20
147.3821749
40
0.6906506
50
172.581923
51
180.2392783
0
ARC
8
DEFAULT_255_2_778
10
18.2325857
20
147.268241
40
0.5252898
50
178.6310243
51
200.357842
0
ARC
8
DEFAULT_255_2_778
10
18.0432995
20
147.2052849
40
0.3259969
50
201.5575735
51
215.0880289
0
ARC
8
DEFAULT_255_2_778
10
17.9611047
20
147.1429864
40
0.2229594
50
214.1298041
51
272.1954385
0
ARC
8
DEFAULT_255_2_778
10
17.9823114
20
147.2043374
40
0.284429
50
267.4477976
51
298.4423644
0
ARC
8
DEFAULT_255_2_778
10
18.0277781
20
147.1040327
40
0.1747506
50
300.9985725
51
310.3175476
0
ARC
8
DEFAULT_255_2_778
10
17.9820871
20
147.1385628
40
0.2309802
50
313.4188311
51
347.5688654
0
ARC
8
DEFAULT_255_2_778
10
17.7083755
20
147.2247699
40
0.5174494
50
344.7702088
51
351.3549471
0
LINE
8
DEFAULT_255_2_778
10
18.2204458
20
147.1466906
11
18.3551458
21
147.1466906
0
LINE
8
DEFAULT_255_2_778
10
17.5730458
20
147.2847906
11
17.5730458
21
147.3823906
0
LINE
8
DEFAULT_255_2_778
10
18.3551458
20
147.5138906
11
18.2204458
21
147.5138906
0
LINE
8
DEFAULT_255_2_778
10
17.7074458
20
147.3792906
11
17.7074458
21
147.2807906
0
LINE
8
DEFAULT_255_2_778
10
18.2199458
20
147.1469906
11
18.2204458
21
147.1466906
0
LINE
8
DEFAULT_255_2_778
10
19.1958188
20
146.8244677
11
19.0987188
21
147.0895677
0
LINE
8
DEFAULT_255_2_778
10
19.0987188
20
147.0895677
11
18.6732188
21
147.0895677
0
LINE
8
DEFAULT_255_2_778
10
18.6732188
20
147.0895677
11
18.5777188
21
146.8244677
0
LINE
8
DEFAULT_255_2_778
10
18.5777188
20
146.8244677
11
18.4396188
21
146.8244677
0
LINE
8
DEFAULT_255_2_778
10
18.4396188
20
146.8244677
11
18.8275188
21
147.8401677
0
LINE
8
DEFAULT_255_2_778
10
18.8275188
20
147.8401677
11
18.9447188
21
147.8401677
0
LINE
8
DEFAULT_255_2_778
10
18.9447188
20
147.8401677
11
19.3334188
21
146.8244677
0
LINE
8
DEFAULT_255_2_778
10
19.3334188
20
146.8244677
11
19.1960188
21
146.8244677
0
LINE
8
DEFAULT_255_2_778
10
19.1960188
20
146.8244677
11
19.1958188
21
146.8244677
0
LINE
8
DEFAULT_255_2_778
10
18.8860188
20
147.6747677
11
18.7137188
21
147.1995677
0
LINE
8
DEFAULT_255_2_778
10
18.7137188
20
147.1995677
11
19.0590188
21
147.1995677
0
LINE
8
DEFAULT_255_2_778
10
19.0590188
20
147.1995677
11
18.8860188
21
147.6747677
0
LINE
8
DEFAULT_255_2_778
10
18.8860188
20
147.6747677
11
18.8860188
21
147.6747677
0
LINE
8
DEFAULT_255_2_778
10
20.0818261
20
147.8401677
11
20.0818261
21
147.7298677
0
LINE
8
DEFAULT_255_2_778
10
20.0818261
20
147.7298677
11
19.7554261
21
147.7298677
0
LINE
8
DEFAULT_255_2_778
10
19.7554261
20
147.7298677
11
19.7554261
21
146.8244677
0
LINE
8
DEFAULT_255_2_778
10
19.7554261
20
146.8244677
11
19.6220261
21
146.8244677
0
LINE
8
DEFAULT_255_2_778
10
19.6220261
20
146.8244677
11
19.6220261
21
147.7298677
0
LINE
8
DEFAULT_255_2_778
10
19.6220261
20
147.7298677
11
19.2963261
21
147.7298677
0
LINE
8
DEFAULT_255_2_778
10
19.2963261
20
147.7298677
11
19.2963261
21
147.8401677
0
LINE
8
DEFAULT_255_2_778
10
19.2963261
20
147.8401677
11
20.0818261
21
147.8401677
0
LINE
8
DEFAULT_255_2_778
10
20.0818261
20
147.8401677
11
20.0818261
21
147.8401677
0
LINE
8
DEFAULT_255_2_778
10
20.3761604
20
147.8401677
11
20.3761604
21
146.8244677
0
LINE
8
DEFAULT_255_2_778
10
20.3761604
20
146.8244677
11
20.2422604
21
146.8244677
0
LINE
8
DEFAULT_255_2_778
10
20.2422604
20
146.8244677
11
20.2422604
21
147.8401677
0
LINE
8
DEFAULT_255_2_778
10
20.2422604
20
147.8401677
11
20.3761604
21
147.8401677
0
LINE
8
DEFAULT_255_2_778
10
20.3761604
20
147.8401677
11
20.3761604
21
147.8401677
0
ARC
8
DEFAULT_255_2_778
10
20.7685939
20
147.2861447
40
0.6339595
50
337.7168824
51
1.1942991
0
ARC
8
DEFAULT_255_2_778
10
20.9075848
20
147.2394798
40
0.4877467
50
335.6991379
51
336.5981488
0
ARC
8
DEFAULT_255_2_778
10
21.0025961
20
147.1871445
40
0.3797136
50
303.0742929
51
336.996679
0
ARC
8
DEFAULT_255_2_778
10
21.0036012
20
147.2025198
40
0.3921577
50
268.7308963
51
301.7251905
0
ARC
8
DEFAULT_255_2_778
10
20.9877808
20
147.1976375
40
0.3872449
50
237.9377536
51
271.0557082
0
ARC
8
DEFAULT_255_2_778
10
20.992744
20
147.1954145
40
0.388033
50
204.0208413
51
237.1424158
0
ARC
8
DEFAULT_255_2_778
10
21.1867859
20
147.2836909
40
0.6012072
50
179.3645781
51
204.177428
0
ARC
8
DEFAULT_255_2_778
10
21.2071427
20
147.3760442
40
0.6216505
50
156.6474981
51
181.1416474
0
ARC
8
DEFAULT_255_2_778
10
20.9925375
20
147.4707122
40
0.3871042
50
123.2456192
51
156.9207945
0
ARC
8
DEFAULT_255_2_778
10
20.9868224
20
147.4662345
40
0.3877833
50
88.9962297
51
122.1766417
0
ARC
8
DEFAULT_255_2_778
10
21.0014321
20
147.4608536
40
0.3931825
50
58.1839244
51
91.1391171
0
ARC
8
DEFAULT_255_2_778
10
21.0016332
20
147.4755855
40
0.3806338
50
22.958682
51
57.0404811
0
ARC
8
DEFAULT_255_2_778
10
20.7721459
20
147.3769605
40
0.6304143
50
358.772752
51
23.0765762
0
ARC
8
DEFAULT_255_2_778
10
20.67827
20
147.3776903
40
0.5908765
50
358.7944184
51
17.1809147
0
ARC
8
DEFAULT_255_2_778
10
20.941083
20
147.454721
40
0.3170624
50
17.9107977
51
36.3296241
0
ARC
8
DEFAULT_255_2_778
10
21.0043276
20
147.5002708
40
0.2391276
50
36.5146052
51
92.567474
0
ARC
8
DEFAULT_255_2_778
10
20.9846296
20
147.5028189
40
0.2365102
50
87.8225671
51
143.7834327
0
ARC
8
DEFAULT_255_2_778
10
21.109327
20
147.4188964
40
0.3867455
50
144.667664
51
174.581815
0
ARC
8
DEFAULT_255_2_778
10
21.4160589
20
147.3686821
40
0.6971657
50
172.8534764
51
179.5417231
0
ARC
8
DEFAULT_255_2_778
10
21.2729891
20
147.2870788
40
0.5542163
50
178.6993945
51
199.2821565
0
ARC
8
DEFAULT_255_2_778
10
21.0594048
20
147.2186874
40
0.330083
50
200.319352
51
216.0453191
0
ARC
8
DEFAULT_255_2_778
10
20.9864629
20
147.162153
40
0.2378558
50
215.3731997
51
272.108875
0
ARC
8
DEFAULT_255_2_778
10
21.0065615
20
147.1609367
40
0.2367504
50
267.2531548
51
323.1518407
0
ARC
8
DEFAULT_255_2_778
10
20.8877667
20
147.2356557
40
0.376796
50
324.8929865
51
353.7567572
0
ARC
8
DEFAULT_255_2_778
10
20.5419996
20
147.2954099
40
0.7273372
50
352.0393908
51
359.5626741
0
LINE
8
DEFAULT_255_2_778
10
21.4024156
20
147.3636583
11
21.4024156
21
147.2993583
0
LINE
8
DEFAULT_255_2_778
10
20.5856156
20
147.2903583
11
20.5856156
21
147.3636583
0
LINE
8
DEFAULT_255_2_778
10
21.4024156
20
147.3634583
11
21.4024156
21
147.3636583
0
LINE
8
DEFAULT_255_2_778
10
21.2690156
20
147.2898583
11
21.2690156
21
147.3652583
0
LINE
8
DEFAULT_255_2_778
10
20.7189156
20
147.3742583
11
20.7189156
21
147.2996583
0
LINE
8
DEFAULT_255_2_778
10
21.2693156
20
147.2898583
11
21.2690156
21
147.2898583
0
LINE
8
DEFAULT_255_2_778
10
22.3838073
20
147.8401677
11
22.3838073
21
146.8244677
0
LINE
8
DEFAULT_255_2_778
10
22.3838073
20
146.8244677
11
22.2491073
21
146.8244677
0
LINE
8
DEFAULT_255_2_778
10
22.2491073
20
146.8244677
11
21.7377073
21
147.6070677
0
LINE
8
DEFAULT_255_2_778
10
21.7377073
20
147.6070677
11
21.7377073
21
146.8244677
0
LINE
8
DEFAULT_255_2_778
10
21.7377073
20
146.8244677
11
21.6030073
21
146.8244677
0
LINE
8
DEFAULT_255_2_778
10
21.6030073
20
146.8244677
11
21.6030073
21
147.8401677
0
LINE
8
DEFAULT_255_2_778
10
21.6030073
20
147.8401677
11
21.7377073
21
147.8401677
0
LINE
8
DEFAULT_255_2_778
10
21.7377073
20
147.8401677
11
22.2504073
21
147.0538677
0
LINE
8
DEFAULT_255_2_778
10
22.2504073
20
147.0538677
11
22.2504073
21
147.8401677
0
LINE
8
DEFAULT_255_2_778
10
22.2504073
20
147.8401677
11
22.3838073
21
147.8401677
0
LINE
8
DEFAULT_255_2_778
10
22.3838073
20
147.8401677
11
22.3838073
21
147.8401677
0
LINE
8
DEFAULT_255_2_778
10
14.8423188
20
132.0281677
11
14.7452188
21
132.2932677
0
LINE
8
DEFAULT_255_2_778
10
14.7452188
20
132.2932677
11
14.3197188
21
132.2932677
0
LINE
8
DEFAULT_255_2_778
10
14.3197188
20
132.2932677
11
14.2242188
21
132.0281677
0
LINE
8
DEFAULT_255_2_778
10
14.2242188
20
132.0281677
11
14.0861188
21
132.0281677
0
LINE
8
DEFAULT_255_2_778
10
14.0861188
20
132.0281677
11
14.4740188
21
133.0438677
0
LINE
8
DEFAULT_255_2_778
10
14.4740188
20
133.0438677
11
14.5912188
21
133.0438677
0
LINE
8
DEFAULT_255_2_778
10
14.5912188
20
133.0438677
11
14.9799188
21
132.0281677
0
LINE
8
DEFAULT_255_2_778
10
14.9799188
20
132.0281677
11
14.8425188
21
132.0281677
0
LINE
8
DEFAULT_255_2_778
10
14.8425188
20
132.0281677
11
14.8423188
21
132.0281677
0
LINE
8
DEFAULT_255_2_778
10
14.5325188
20
132.8784677
11
14.3602188
21
132.4032677
0
LINE
8
DEFAULT_255_2_778
10
14.3602188
20
132.4032677
11
14.7055188
21
132.4032677
0
LINE
8
DEFAULT_255_2_778
10
14.7055188
20
132.4032677
11
14.5325188
21
132.8784677
0
LINE
8
DEFAULT_255_2_778
10
14.5325188
20
132.8784677
11
14.5325188
21
132.8784677
0
ARC
8
DEFAULT_255_2_778
10
15.4667655
20
132.3814779
40
0.3906557
50
320.0939117
51
355.4357419
0
ARC
8
DEFAULT_255_2_778
10
15.526388
20
132.3430714
40
0.3204011
50
311.1167713
51
318.5221627
0
ARC
8
DEFAULT_255_2_778
10
15.4970702
20
132.3898765
40
0.3750426
50
270.683661
51
309.7888225
0
ARC
8
DEFAULT_255_2_778
10
15.4712654
20
132.6099448
40
0.5958541
50
269.972783
51
272.9128762
0
ARC
8
DEFAULT_255_2_778
10
15.4579666
20
132.3716966
40
0.3578428
50
219.6849258
51
272.0844704
0
ARC
8
DEFAULT_255_2_778
10
15.55571
20
132.4432905
40
0.4788363
50
184.2995714
51
218.8090964
0
ARC
8
DEFAULT_255_2_778
10
15.8406822
20
132.4869599
40
0.7666015
50
179.8855959
51
185.9576703
0
ARC
8
DEFAULT_255_2_778
10
15.6531759
20
132.5982649
40
0.5792215
50
155.8661952
51
181.2043532
0
ARC
8
DEFAULT_255_2_778
10
15.4701497
20
132.6797691
40
0.3788689
50
122.2495513
51
155.7976055
0
ARC
8
DEFAULT_255_2_778
10
15.4747505
20
132.6591363
40
0.3988372
50
88.8317267
51
121.2268317
0
ARC
8
DEFAULT_255_2_778
10
15.4972346
20
132.6738682
40
0.3842906
50
56.325729
51
92.1403545
0
ARC
8
DEFAULT_255_2_778
10
15.5278812
20
132.7357468
40
0.315925
50
47.2374097
51
54.7285172
0
ARC
8
DEFAULT_255_2_778
10
15.4825204
20
132.6992066
40
0.3736468
50
4.3570756
51
45.9349246
0
ARC
8
DEFAULT_255_2_778
10
15.2853804
20
132.6601653
40
0.5736833
50
5.7448877
51
6.7498734
0
ARC
8
DEFAULT_255_2_778
10
15.371378
20
132.6797775
40
0.3521404
50
6.1643586
51
30.3070805
0
ARC
8
DEFAULT_255_2_778
10
15.5198809
20
132.7593941
40
0.1838603
50
32.2407584
51
46.739966
0
ARC
8
DEFAULT_255_2_778
10
15.4971913
20
132.7193718
40
0.2288161
50
49.4713676
51
93.3800918
0
ARC
8
DEFAULT_255_2_778
10
15.483087
20
132.6691796
40
0.2786108
50
89.8738676
51
90.0420958
0
ARC
8
DEFAULT_255_2_778
10
15.4729246
20
132.7079169
40
0.2400803
50
87.622888
51
142.8834388
0
ARC
8
DEFAULT_255_2_778
10
15.5790367
20
132.6386665
40
0.3665893
50
144.2607007
51
174.305077
0
ARC
8
DEFAULT_255_2_778
10
15.8991269
20
132.5858749
40
0.6906506
50
172.581923
51
180.2392783
0
ARC
8
DEFAULT_255_2_778
10
15.7336222
20
132.471941
40
0.5252898
50
178.6310243
51
200.357842
0
ARC
8
DEFAULT_255_2_778
10
15.5443359
20
132.4089849
40
0.3259969
50
201.5575735
51
215.0880289
0
ARC
8
DEFAULT_255_2_778
10
15.4621411
20
132.3466864
40
0.2229594
50
214.1298041
51
272.1954385
0
ARC
8
DEFAULT_255_2_778
10
15.4833478
20
132.4080374
40
0.284429
50
267.4477976
51
298.4423644
0
ARC
8
DEFAULT_255_2_778
10
15.5288146
20
132.3077327
40
0.1747506
50
300.9985725
51
310.3175476
0
ARC
8
DEFAULT_255_2_778
10
15.4831236
20
132.3422628
40
0.2309802
50
313.4188311
51
347.5688654
0
ARC
8
DEFAULT_255_2_778
10
15.209412
20
132.4284699
40
0.5174494
50
344.7702088
51
351.3549471
0
LINE
8
DEFAULT_255_2_778
10
15.7214823
20
132.3503906
11
15.8561823
21
132.3503906
0
LINE
8
DEFAULT_255_2_778
10
15.0740823
20
132.4884906
11
15.0740823
21
132.5860906
0
LINE
8
DEFAULT_255_2_778
10
15.8561823
20
132.7175906
11
15.7214823
21
132.7175906
0
LINE
8
DEFAULT_255_2_778
10
15.2084823
20
132.5829906
11
15.2084823
21
132.4844906
0
LINE
8
DEFAULT_255_2_778
10
15.7209823
20
132.3506906
11
15.7214823
21
132.3503906
0
LINE
8
DEFAULT_255_2_778
10
16.7202823
20
133.0438906
11
16.7202823
21
132.9334906
0
LINE
8
DEFAULT_255_2_778
10
16.7202823
20
132.9334906
11
16.3937823
21
132.9334906
0
LINE
8
DEFAULT_255_2_778
10
16.3937823
20
132.9334906
11
16.3937823
21
132.0280906
0
LINE
8
DEFAULT_255_2_778
10
16.3937823
20
132.0280906
11
16.2604823
21
132.0280906
0
LINE
8
DEFAULT_255_2_778
10
16.2604823
20
132.0280906
11
16.2604823
21
132.9334906
0
LINE
8
DEFAULT_255_2_778
10
16.2604823
20
132.9334906
11
15.9347823
21
132.9334906
0
LINE
8
DEFAULT_255_2_778
10
15.9347823
20
132.9334906
11
15.9347823
21
133.0438906
0
LINE
8
DEFAULT_255_2_778
10
15.9347823
20
133.0438906
11
16.7202823
21
133.0438906
0
LINE
8
DEFAULT_255_2_778
10
16.7202823
20
133.0438906
11
16.7202823
21
133.0438906
0
LINE
8
DEFAULT_255_2_778
10
17.0147823
20
133.0438906
11
17.0147823
21
132.0280906
0
LINE
8
DEFAULT_255_2_778
10
17.0147823
20
132.0280906
11
16.8808823
21
132.0280906
0
LINE
8
DEFAULT_255_2_778
10
16.8808823
20
132.0280906
11
16.8808823
21
133.0438906
0
LINE
8
DEFAULT_255_2_778
10
16.8808823
20
133.0438906
11
17.0147823
21
133.0438906
0
LINE
8
DEFAULT_255_2_778
10
17.0147823
20
133.0438906
11
17.0147823
21
133.0438906
0
LINE
8
DEFAULT_255_2_778
10
17.3071823
20
133.0438906
11
17.5960823
21
132.2058906
0
LINE
8
DEFAULT_255_2_778
10
17.5960823
20
132.2058906
11
17.8863823
21
133.0438906
0
LINE
8
DEFAULT_255_2_778
10
17.8863823
20
133.0438906
11
18.0328823
21
133.0438906
0
LINE
8
DEFAULT_255_2_778
10
18.0328823
20
133.0438906
11
17.6561823
21
132.0280906
0
LINE
8
DEFAULT_255_2_778
10
17.6561823
20
132.0280906
11
17.5375823
21
132.0280906
0
LINE
8
DEFAULT_255_2_778
10
17.5375823
20
132.0280906
11
17.1616823
21
133.0438906
0
LINE
8
DEFAULT_255_2_778
10
17.1616823
20
133.0438906
11
17.3073823
21
133.0438906
0
LINE
8
DEFAULT_255_2_778
10
17.3073823
20
133.0438906
11
17.3071823
21
133.0438906
0
LINE
8
DEFAULT_255_2_778
10
18.7427406
20
132.6069677
11
18.7427406
21
132.4974677
0
LINE
8
DEFAULT_255_2_778
10
18.7427406
20
132.4974677
11
18.3025406
21
132.4974677
0
LINE
8
DEFAULT_255_2_778
10
18.3025406
20
132.4974677
11
18.3025406
21
132.1373677
0
LINE
8
DEFAULT_255_2_778
10
18.3025406
20
132.1373677
11
18.8139406
21
132.1373677
0
LINE
8
DEFAULT_255_2_778
10
18.8139406
20
132.1373677
11
18.8139406
21
132.0278677
0
LINE
8
DEFAULT_255_2_778
10
18.8139406
20
132.0278677
11
18.1686406
21
132.0278677
0
LINE
8
DEFAULT_255_2_778
10
18.1686406
20
132.0278677
11
18.1686406
21
133.0435677
0
LINE
8
DEFAULT_255_2_778
10
18.1686406
20
133.0435677
11
18.8070406
21
133.0435677
0
LINE
8
DEFAULT_255_2_778
10
18.8070406
20
133.0435677
11
18.8070406
21
132.9332677
0
LINE
8
DEFAULT_255_2_778
10
18.8070406
20
132.9332677
11
18.3027406
21
132.9332677
0
LINE
8
DEFAULT_255_2_778
10
18.3027406
20
132.9332677
11
18.3027406
21
132.6067677
0
LINE
8
DEFAULT_255_2_778
10
18.3027406
20
132.6067677
11
18.7430406
21
132.6067677
0
LINE
8
DEFAULT_255_2_778
10
18.7430406
20
132.6067677
11
18.7427406
21
132.6069677
0
LINE
8
DEFAULT_255_2_778
10
15.0978406
20
128.1410677
11
15.0978406
21
128.0315677
0
LINE
8
DEFAULT_255_2_778
10
15.0978406
20
128.0315677
11
14.6576406
21
128.0315677
0
LINE
8
DEFAULT_255_2_778
10
14.6576406
20
128.0315677
11
14.6576406
21
127.6714677
0
LINE
8
DEFAULT_255_2_778
10
14.6576406
20
127.6714677
11
15.1690406
21
127.6714677
0
LINE
8
DEFAULT_255_2_778
10
15.1690406
20
127.6714677
11
15.1690406
21
127.5619677
0
LINE
8
DEFAULT_255_2_778
10
15.1690406
20
127.5619677
11
14.5237406
21
127.5619677
0
LINE
8
DEFAULT_255_2_778
10
14.5237406
20
127.5619677
11
14.5237406
21
128.5776677
0
LINE
8
DEFAULT_255_2_778
10
14.5237406
20
128.5776677
11
15.1621406
21
128.5776677
0
LINE
8
DEFAULT_255_2_778
10
15.1621406
20
128.5776677
11
15.1621406
21
128.4673677
0
LINE
8
DEFAULT_255_2_778
10
15.1621406
20
128.4673677
11
14.6578406
21
128.4673677
0
LINE
8
DEFAULT_255_2_778
10
14.6578406
20
128.4673677
11
14.6578406
21
128.1408677
0
LINE
8
DEFAULT_255_2_778
10
14.6578406
20
128.1408677
11
15.0981406
21
128.1408677
0
LINE
8
DEFAULT_255_2_778
10
15.0981406
20
128.1408677
11
15.0978406
21
128.1410677
0
ARC
8
DEFAULT_255_2_778
10
15.6842018
20
128.0882156
40
0.4899167
50
69.1377785
51
91.4852761
0
ARC
8
DEFAULT_255_2_778
10
15.7503683
20
128.2786558
40
0.2884607
50
50.0736439
51
67.9476545
0
ARC
8
DEFAULT_255_2_778
10
15.7524059
20
128.2941375
40
0.2754079
50
358.3539178
51
48.3313319
0
ARC
8
DEFAULT_255_2_778
10
15.5595375
20
128.2724378
40
0.4683656
50
359.9914195
51
1.6869942
0
ARC
8
DEFAULT_255_2_778
10
15.7550402
20
128.2664765
40
0.2729265
50
324.2366589
51
1.2368448
0
ARC
8
DEFAULT_255_2_778
10
15.7303178
20
128.291152
40
0.3074591
50
289.6885896
51
323.1978938
0
ARC
8
DEFAULT_255_2_778
10
15.6879734
20
128.3150608
40
0.2327168
50
266.9776182
51
309.0241782
0
ARC
8
DEFAULT_255_2_778
10
15.7193827
20
128.2651034
40
0.1742719
50
311.3440832
51
2.3889876
0
ARC
8
DEFAULT_255_2_778
10
15.7098765
20
128.2842173
40
0.1840086
50
356.3077567
51
46.1281825
0
ARC
8
DEFAULT_255_2_778
10
15.6947279
20
128.2402422
40
0.2270523
50
51.0692847
51
90.8206227
0
ARC
8
DEFAULT_255_2_778
10
15.6729338
20
128.040506
40
0.4271678
50
87.512152
51
89.6956139
0
LINE
8
DEFAULT_255_2_778
10
15.9289031
20
127.5622677
11
15.7085031
21
127.9731677
0
LINE
8
DEFAULT_255_2_778
10
15.7085031
20
127.9731677
11
15.4699031
21
127.9731677
0
LINE
8
DEFAULT_255_2_778
10
15.4699031
20
127.9731677
11
15.4699031
21
127.5622677
0
LINE
8
DEFAULT_255_2_778
10
15.4699031
20
127.5622677
11
15.3352031
21
127.5622677
0
LINE
8
DEFAULT_255_2_778
10
15.3352031
20
127.5622677
11
15.3352031
21
128.5779677
0
LINE
8
DEFAULT_255_2_778
10
15.3352031
20
128.5779677
11
15.6715031
21
128.5779677
0
LINE
8
DEFAULT_255_2_778
10
15.8339031
20
128.0016677
11
16.0726031
21
127.5706677
0
LINE
8
DEFAULT_255_2_778
10
16.0726031
20
127.5706677
11
16.0726031
21
127.5622677
0
LINE
8
DEFAULT_255_2_778
10
16.0726031
20
127.5622677
11
15.9289031
21
127.5622677
0
LINE
8
DEFAULT_255_2_778
10
15.9289031
20
127.5622677
11
15.9289031
21
127.5622677
0
LINE
8
DEFAULT_255_2_778
10
15.4699031
20
128.4676677
11
15.4699031
21
128.0826677
0
LINE
8
DEFAULT_255_2_778
10
15.4699031
20
128.0826677
11
15.6757031
21
128.0826677
0
LINE
8
DEFAULT_255_2_778
10
15.6752031
20
128.4676677
11
15.4701031
21
128.4676677
0
LINE
8
DEFAULT_255_2_778
10
15.4701031
20
128.4676677
11
15.4699031
21
128.4676677
0
ARC
8
DEFAULT_255_2_778
10
16.5637018
20
128.0882156
40
0.4899167
50
69.1377785
51
91.4852761
0
ARC
8
DEFAULT_255_2_778
10
16.6298683
20
128.2786558
40
0.2884607
50
50.0736439
51
67.9476545
0
ARC
8
DEFAULT_255_2_778
10
16.6319059
20
128.2941375
40
0.2754079
50
358.3539178
51
48.3313319
0
ARC
8
DEFAULT_255_2_778
10
16.4390375
20
128.2724378
40
0.4683656
50
359.9914195
51
1.6869942
0
ARC
8
DEFAULT_255_2_778
10
16.6345402
20
128.2664765
40
0.2729265
50
324.2366589
51
1.2368448
0
ARC
8
DEFAULT_255_2_778
10
16.6098178
20
128.291152
40
0.3074591
50
289.6885896
51
323.1978938
0
ARC
8
DEFAULT_255_2_778
10
16.5674734
20
128.3150608
40
0.2327168
50
266.9776182
51
309.0241782
0
ARC
8
DEFAULT_255_2_778
10
16.5988827
20
128.2651034
40
0.1742719
50
311.3440832
51
2.3889876
0
ARC
8
DEFAULT_255_2_778
10
16.5893765
20
128.2842173
40
0.1840086
50
356.3077567
51
46.1281825
0
ARC
8
DEFAULT_255_2_778
10
16.5742279
20
128.2402422
40
0.2270523
50
51.0692847
51
90.8206227
0
ARC
8
DEFAULT_255_2_778
10
16.5524338
20
128.040506
40
0.4271678
50
87.512152
51
89.6956139
0
LINE
8
DEFAULT_255_2_778
10
16.8084031
20
127.5622677
11
16.5880031
21
127.9731677
0
LINE
8
DEFAULT_255_2_778
10
16.5880031
20
127.9731677
11
16.3494031
21
127.9731677
0
LINE
8
DEFAULT_255_2_778
10
16.3494031
20
127.9731677
11
16.3494031
21
127.5622677
0
LINE
8
DEFAULT_255_2_778
10
16.3494031
20
127.5622677
11
16.2147031
21
127.5622677
0
LINE
8
DEFAULT_255_2_778
10
16.2147031
20
127.5622677
11
16.2147031
21
128.5779677
0
LINE
8
DEFAULT_255_2_778
10
16.2147031
20
128.5779677
11
16.5510031
21
128.5779677
0
LINE
8
DEFAULT_255_2_778
10
16.7134031
20
128.0016677
11
16.9521031
21
127.5706677
0
LINE
8
DEFAULT_255_2_778
10
16.9521031
20
127.5706677
11
16.9521031
21
127.5622677
0
LINE
8
DEFAULT_255_2_778
10
16.9521031
20
127.5622677
11
16.8084031
21
127.5622677
0
LINE
8
DEFAULT_255_2_778
10
16.8084031
20
127.5622677
11
16.8084031
21
127.5622677
0
LINE
8
DEFAULT_255_2_778
10
16.3494031
20
128.4676677
11
16.3494031
21
128.0826677
0
LINE
8
DEFAULT_255_2_778
10
16.3494031
20
128.0826677
11
16.5552031
21
128.0826677
0
LINE
8
DEFAULT_255_2_778
10
16.5547031
20
128.4676677
11
16.3496031
21
128.4676677
0
LINE
8
DEFAULT_255_2_778
10
16.3496031
20
128.4676677
11
16.3494031
21
128.4676677
0
ARC
8
DEFAULT_255_2_778
10
17.2427939
20
128.0239447
40
0.6339595
50
337.7168824
51
1.1942991
0
ARC
8
DEFAULT_255_2_778
10
17.3817848
20
127.9772798
40
0.4877467
50
335.6991379
51
336.5981488
0
ARC
8
DEFAULT_255_2_778
10
17.4767961
20
127.9249445
40
0.3797136
50
303.0742929
51
336.996679
0
ARC
8
DEFAULT_255_2_778
10
17.4778012
20
127.9403198
40
0.3921577
50
268.7308963
51
301.7251905
0
ARC
8
DEFAULT_255_2_778
10
17.4619808
20
127.9354375
40
0.3872449
50
237.9377536
51
271.0557082
0
ARC
8
DEFAULT_255_2_778
10
17.466944
20
127.9332145
40
0.388033
50
204.0208413
51
237.1424158
0
ARC
8
DEFAULT_255_2_778
10
17.6609859
20
128.0214909
40
0.6012072
50
179.3645781
51
204.177428
0
ARC
8
DEFAULT_255_2_778
10
17.6813427
20
128.1138442
40
0.6216505
50
156.6474981
51
181.1416474
0
ARC
8
DEFAULT_255_2_778
10
17.4667375
20
128.2085122
40
0.3871042
50
123.2456192
51
156.9207945
0
ARC
8
DEFAULT_255_2_778
10
17.4610224
20
128.2040345
40
0.3877833
50
88.9962297
51
122.1766417
0
ARC
8
DEFAULT_255_2_778
10
17.4756321
20
128.1986536
40
0.3931825
50
58.1839244
51
91.1391171
0
ARC
8
DEFAULT_255_2_778
10
17.4758332
20
128.2133855
40
0.3806338
50
22.958682
51
57.0404811
0
ARC
8
DEFAULT_255_2_778
10
17.2463459
20
128.1147605
40
0.6304143
50
358.772752
51
23.0765762
0
ARC
8
DEFAULT_255_2_778
10
17.15247
20
128.1154903
40
0.5908765
50
358.7944184
51
17.1809147
0
ARC
8
DEFAULT_255_2_778
10
17.415283
20
128.192521
40
0.3170624
50
17.9107977
51
36.3296241
0
ARC
8
DEFAULT_255_2_778
10
17.4785276
20
128.2380708
40
0.2391276
50
36.5146052
51
92.567474
0
ARC
8
DEFAULT_255_2_778
10
17.4588296
20
128.2406189
40
0.2365102
50
87.8225671
51
143.7834327
0
ARC
8
DEFAULT_255_2_778
10
17.583527
20
128.1566964
40
0.3867455
50
144.667664
51
174.581815
0
ARC
8
DEFAULT_255_2_778
10
17.8902589
20
128.1064821
40
0.6971657
50
172.8534764
51
179.5417231
0
ARC
8
DEFAULT_255_2_778
10
17.7471891
20
128.0248788
40
0.5542163
50
178.6993945
51
199.2821565
0
ARC
8
DEFAULT_255_2_778
10
17.5336048
20
127.9564874
40
0.330083
50
200.319352
51
216.0453191
0
ARC
8
DEFAULT_255_2_778
10
17.4606629
20
127.899953
40
0.2378558
50
215.3731997
51
272.108875
0
ARC
8
DEFAULT_255_2_778
10
17.4807615
20
127.8987367
40
0.2367504
50
267.2531548
51
323.1518407
0
ARC
8
DEFAULT_255_2_778
10
17.3619667
20
127.9734557
40
0.376796
50
324.8929865
51
353.7567572
0
ARC
8
DEFAULT_255_2_778
10
17.0161996
20
128.0332099
40
0.7273372
50
352.0393908
51
359.5626741
0
LINE
8
DEFAULT_255_2_778
10
17.8766156
20
128.1014583
11
17.8766156
21
128.0371583
0
LINE
8
DEFAULT_255_2_778
10
17.0598156
20
128.0281583
11
17.0598156
21
128.1014583
0
LINE
8
DEFAULT_255_2_778
10
17.8766156
20
128.1012583
11
17.8766156
21
128.1014583
0
LINE
8
DEFAULT_255_2_778
10
17.7432156
20
128.0276583
11
17.7432156
21
128.1030583
0
LINE
8
DEFAULT_255_2_778
10
17.1931156
20
128.1120583
11
17.1931156
21
128.0374583
0
LINE
8
DEFAULT_255_2_778
10
17.7435156
20
128.0276583
11
17.7432156
21
128.0276583
0
ARC
8
DEFAULT_255_2_778
10
18.4259018
20
128.0882156
40
0.4899167
50
69.1377785
51
91.4852761
0
ARC
8
DEFAULT_255_2_778
10
18.4920683
20
128.2786558
40
0.2884607
50
50.0736439
51
67.9476545
0
ARC
8
DEFAULT_255_2_778
10
18.4941059
20
128.2941375
40
0.2754079
50
358.3539178
51
48.3313319
0
ARC
8
DEFAULT_255_2_778
10
18.3012375
20
128.2724378
40
0.4683656
50
359.9914195
51
1.6869942
0
ARC
8
DEFAULT_255_2_778
10
18.4967402
20
128.2664765
40
0.2729265
50
324.2366589
51
1.2368448
0
ARC
8
DEFAULT_255_2_778
10
18.4720178
20
128.291152
40
0.3074591
50
289.6885896
51
323.1978938
0
ARC
8
DEFAULT_255_2_778
10
18.4296734
20
128.3150608
40
0.2327168
50
266.9776182
51
309.0241782
0
ARC
8
DEFAULT_255_2_778
10
18.4610827
20
128.2651034
40
0.1742719
50
311.3440832
51
2.3889876
0
ARC
8
DEFAULT_255_2_778
10
18.4515765
20
128.2842173
40
0.1840086
50
356.3077567
51
46.1281825
0
ARC
8
DEFAULT_255_2_778
10
18.4364279
20
128.2402422
40
0.2270523
50
51.0692847
51
90.8206227
0
ARC
8
DEFAULT_255_2_778
10
18.4146338
20
128.040506
40
0.4271678
50
87.512152
51
89.6956139
0
LINE
8
DEFAULT_255_2_778
10
18.6706031
20
127.5622677
11
18.4502031
21
127.9731677
0
LINE
8
DEFAULT_255_2_778
10
18.4502031
20
127.9731677
11
18.2116031
21
127.9731677
0
LINE
8
DEFAULT_255_2_778
10
18.2116031
20
127.9731677
11
18.2116031
21
127.5622677
0
LINE
8
DEFAULT_255_2_778
10
18.2116031
20
127.5622677
11
18.0769031
21
127.5622677
0
LINE
8
DEFAULT_255_2_778
10
18.0769031
20
127.5622677
11
18.0769031
21
128.5779677
0
LINE
8
DEFAULT_255_2_778
10
18.0769031
20
128.5779677
11
18.4132031
21
128.5779677
0
LINE
8
DEFAULT_255_2_778
10
18.5756031
20
128.0016677
11
18.8143031
21
127.5706677
0
LINE
8
DEFAULT_255_2_778
10
18.8143031
20
127.5706677
11
18.8143031
21
127.5622677
0
LINE
8
DEFAULT_255_2_778
10
18.8143031
20
127.5622677
11
18.6706031
21
127.5622677
0
LINE
8
DEFAULT_255_2_778
10
18.6706031
20
127.5622677
11
18.6706031
21
127.5622677
0
LINE
8
DEFAULT_255_2_778
10
18.2116031
20
128.4676677
11
18.2116031
21
128.0826677
0
LINE
8
DEFAULT_255_2_778
10
18.2116031
20
128.0826677
11
18.4174031
21
128.0826677
0
LINE
8
DEFAULT_255_2_778
10
18.4169031
20
128.4676677
11
18.2118031
21
128.4676677
0
LINE
8
DEFAULT_255_2_778
10
18.2118031
20
128.4676677
11
18.2116031
21
128.4676677
0
ARC
8
DEFAULT_255_2_778
10
17.603549
20
136.7825644
40
0.3101005
50
290.5297066
51
324.561282
0
ARC
8
DEFAULT_255_2_778
10
17.5089945
20
137.0382043
40
0.5826654
50
268.8400278
51
290.4213703
0
ARC
8
DEFAULT_255_2_778
10
17.4895844
20
136.8732431
40
0.4176542
50
239.3709777
51
271.0446681
0
ARC
8
DEFAULT_255_2_778
10
17.478531
20
136.8452003
40
0.3879218
50
205.293563
51
238.6655679
0
ARC
8
DEFAULT_255_2_778
10
17.6455889
20
136.9218759
40
0.5717278
50
179.3403287
51
205.0879372
0
ARC
8
DEFAULT_255_2_778
10
17.7575489
20
137.0298118
40
0.6837689
50
162.1073806
51
181.0687302
0
ARC
8
DEFAULT_255_2_778
10
17.4964187
20
137.1100107
40
0.4106471
50
140.1839381
51
161.5620914
0
ARC
8
DEFAULT_255_2_778
10
17.4585675
20
137.1305366
40
0.3685275
50
88.6759764
51
138.866807
0
ARC
8
DEFAULT_255_2_778
10
17.4820419
20
136.9181476
40
0.5810107
50
89.9943628
51
91.4753275
0
ARC
8
DEFAULT_255_2_778
10
17.4957345
20
137.085941
40
0.4134423
50
60.7250612
51
91.8899762
0
ARC
8
DEFAULT_255_2_778
10
17.5366477
20
137.176898
40
0.3142181
50
50.1008966
51
59.1220214
0
ARC
8
DEFAULT_255_2_778
10
17.5052219
20
137.1523219
40
0.3533285
50
5.7071531
51
48.7475339
0
ARC
8
DEFAULT_255_2_778
10
17.478639
20
137.1559706
40
0.2462812
50
7.3455357
51
48.9708056
0
ARC
8
DEFAULT_255_2_778
10
17.4950936
20
137.1440653
40
0.2452963
50
53.7010196
51
92.8495667
0
ARC
8
DEFAULT_255_2_778
10
17.4685572
20
137.1524275
40
0.237065
50
86.5316373
51
143.1325802
0
ARC
8
DEFAULT_255_2_778
10
17.588554
20
137.0834422
40
0.3748312
50
145.7020448
51
173.6971936
0
ARC
8
DEFAULT_255_2_778
10
17.9561911
20
137.0211752
40
0.7473921
50
172.0464313
51
180.0319609
0
ARC
8
DEFAULT_255_2_778
10
17.7083251
20
136.9248539
40
0.4996928
50
178.5201891
51
202.4664264
0
ARC
8
DEFAULT_255_2_778
10
17.5463993
20
136.86599
40
0.3276476
50
203.7749681
51
217.6262597
0
ARC
8
DEFAULT_255_2_778
10
17.4891941
20
136.8181397
40
0.2531452
50
216.9532031
51
272.0612059
0
ARC
8
DEFAULT_255_2_778
10
17.5062483
20
137.0301265
40
0.4650361
50
269.0205433
51
285.4329125
0
ARC
8
DEFAULT_255_2_778
10
17.5760299
20
136.7762801
40
0.2017734
50
285.5140025
51
316.9173647
0
ARC
8
DEFAULT_255_2_778
10
18.3755312
20
137.022898
40
0.4623505
50
60.841773
51
91.1317561
0
ARC
8
DEFAULT_255_2_778
10
18.4034655
20
137.0826744
40
0.3965672
50
26.5543497
51
60.1583651
0
ARC
8
DEFAULT_255_2_778
10
18.2741538
20
137.020104
40
0.5402128
50
359.0935974
51
26.3593617
0
ARC
8
DEFAULT_255_2_778
10
18.2705662
20
136.9346863
40
0.5438668
50
333.8343259
51
1.2718778
0
ARC
8
DEFAULT_255_2_778
10
18.4090291
20
136.8695347
40
0.390872
50
299.2973181
51
333.4557386
0
ARC
8
DEFAULT_255_2_778
10
18.3661366
20
136.9610678
40
0.4917418
50
269.3431162
51
298.4368451
0
ARC
8
DEFAULT_255_2_778
10
18.3699997
20
136.8923858
40
0.3138105
50
267.1687219
51
311.6876156
0
ARC
8
DEFAULT_255_2_778
10
18.3846973
20
136.8640364
40
0.2829744
50
313.2830039
51
318.1547703
0
ARC
8
DEFAULT_255_2_778
10
18.3248368
20
136.903143
40
0.3538212
50
319.904218
51
355.5143301
0
ARC
8
DEFAULT_255_2_778
10
18.0500095
20
136.9475637
40
0.6316921
50
353.4467408
51
0.1627779
0
ARC
8
DEFAULT_255_2_778
10
18.197942
20
137.0214371
40
0.4839258
50
358.486838
51
21.9686755
0
ARC
8
DEFAULT_255_2_778
10
18.3701113
20
137.0836744
40
0.3010492
50
23.2420812
51
40.0678827
0
ARC
8
DEFAULT_255_2_778
10
18.3840933
20
137.0864597
40
0.288638
50
41.4314548
51
92.779
0
LINE
8
DEFAULT_255_2_778
10
14.190999
20
137.4851583
11
14.190999
21
136.5789583
0
LINE
8
DEFAULT_255_2_778
10
14.190999
20
136.5789583
11
14.672199
21
136.5789583
0
LINE
8
DEFAULT_255_2_778
10
14.672199
20
136.5789583
11
14.672199
21
136.4693583
0
LINE
8
DEFAULT_255_2_778
10
14.672199
20
136.4693583
11
14.056299
21
136.4693583
0
LINE
8
DEFAULT_255_2_778
10
14.056299
20
136.4693583
11
14.056299
21
137.4851583
0
LINE
8
DEFAULT_255_2_778
10
14.056299
20
137.4851583
11
14.190999
21
137.4851583
0
LINE
8
DEFAULT_255_2_778
10
14.190999
20
137.4851583
11
14.190999
21
137.4851583
0
LINE
8
DEFAULT_255_2_778
10
14.968799
20
137.4851583
11
14.968799
21
136.4693583
0
LINE
8
DEFAULT_255_2_778
10
14.968799
20
136.4693583
11
14.834999
21
136.4693583
0
LINE
8
DEFAULT_255_2_778
10
14.834999
20
136.4693583
11
14.834999
21
137.4851583
0
LINE
8
DEFAULT_255_2_778
10
14.834999
20
137.4851583
11
14.968799
21
137.4851583
0
LINE
8
DEFAULT_255_2_778
10
14.968799
20
137.4851583
11
14.968799
21
137.4851583
0
LINE
8
DEFAULT_255_2_778
10
15.994099
20
137.4851583
11
15.994099
21
136.4693583
0
LINE
8
DEFAULT_255_2_778
10
15.994099
20
136.4693583
11
15.859399
21
136.4693583
0
LINE
8
DEFAULT_255_2_778
10
15.859399
20
136.4693583
11
15.347999
21
137.2520583
0
LINE
8
DEFAULT_255_2_778
10
15.347999
20
137.2520583
11
15.347999
21
136.4693583
0
LINE
8
DEFAULT_255_2_778
10
15.347999
20
136.4693583
11
15.213299
21
136.4693583
0
LINE
8
DEFAULT_255_2_778
10
15.213299
20
136.4693583
11
15.213299
21
137.4851583
0
LINE
8
DEFAULT_255_2_778
10
15.213299
20
137.4851583
11
15.347999
21
137.4851583
0
LINE
8
DEFAULT_255_2_778
10
15.347999
20
137.4851583
11
15.860799
21
136.6987583
0
LINE
8
DEFAULT_255_2_778
10
15.860799
20
136.6987583
11
15.860799
21
137.4851583
0
LINE
8
DEFAULT_255_2_778
10
15.860799
20
137.4851583
11
15.994099
21
137.4851583
0
LINE
8
DEFAULT_255_2_778
10
15.994099
20
137.4851583
11
15.994099
21
137.4851583
0
LINE
8
DEFAULT_255_2_778
10
16.850299
20
136.4693583
11
16.490199
21
136.9416583
0
LINE
8
DEFAULT_255_2_778
10
16.490199
20
136.9416583
11
16.366099
21
136.8125583
0
LINE
8
DEFAULT_255_2_778
10
16.366099
20
136.8125583
11
16.366099
21
136.4693583
0
LINE
8
DEFAULT_255_2_778
10
16.366099
20
136.4693583
11
16.232199
21
136.4693583
0
LINE
8
DEFAULT_255_2_778
10
16.232199
20
136.4693583
11
16.232199
21
137.4851583
0
LINE
8
DEFAULT_255_2_778
10
16.232199
20
137.4851583
11
16.366099
21
137.4851583
0
LINE
8
DEFAULT_255_2_778
10
16.366099
20
137.4851583
11
16.366099
21
136.9829583
0
LINE
8
DEFAULT_255_2_778
10
16.366099
20
136.9829583
11
16.817499
21
137.4851583
0
LINE
8
DEFAULT_255_2_778
10
16.817499
20
137.4851583
11
16.979399
21
137.4851583
0
LINE
8
DEFAULT_255_2_778
10
16.979399
20
137.4851583
11
16.579599
21
137.0366583
0
LINE
8
DEFAULT_255_2_778
10
16.579599
20
137.0366583
11
17.010599
21
136.4693583
0
LINE
8
DEFAULT_255_2_778
10
17.010599
20
136.4693583
11
16.850299
21
136.4693583
0
LINE
8
DEFAULT_255_2_778
10
16.850299
20
136.4693583
11
16.850299
21
136.4693583
0
LINE
8
DEFAULT_255_2_778
10
17.856199
20
136.9752583
11
17.856199
21
136.6027583
0
LINE
8
DEFAULT_255_2_778
10
17.073899
20
136.9284583
11
17.073899
21
137.0170583
0
LINE
8
DEFAULT_255_2_778
10
17.856799
20
137.1874583
11
17.722899
21
137.1874583
0
LINE
8
DEFAULT_255_2_778
10
17.208799
20
137.0207583
11
17.208799
21
136.9377583
0
LINE
8
DEFAULT_255_2_778
10
17.723399
20
136.6384583
11
17.723399
21
136.8665583
0
LINE
8
DEFAULT_255_2_778
10
17.723399
20
136.8665583
11
17.488199
21
136.8665583
0
LINE
8
DEFAULT_255_2_778
10
17.488199
20
136.8665583
11
17.488199
21
136.9752583
0
LINE
8
DEFAULT_255_2_778
10
17.488199
20
136.9752583
11
17.856499
21
136.9752583
0
LINE
8
DEFAULT_255_2_778
10
17.856499
20
136.9752583
11
17.856199
21
136.9752583
0
LINE
8
DEFAULT_255_2_778
10
18.360799
20
136.4693583
11
18.079599
21
136.4693583
0
LINE
8
DEFAULT_255_2_778
10
18.079599
20
136.4693583
11
18.079599
21
137.4851583
0
LINE
8
DEFAULT_255_2_778
10
18.079599
20
137.4851583
11
18.366399
21
137.4851583
0
LINE
8
DEFAULT_255_2_778
10
18.814299
20
137.0115583
11
18.814299
21
136.9467583
0
LINE
8
DEFAULT_255_2_778
10
18.360499
20
136.4693583
11
18.360799
21
136.4693583
0
LINE
8
DEFAULT_255_2_778
10
18.369799
20
137.3747583
11
18.213399
21
137.3747583
0
LINE
8
DEFAULT_255_2_778
10
18.213399
20
137.3747583
11
18.213399
21
136.5789583
0
LINE
8
DEFAULT_255_2_778
10
18.213399
20
136.5789583
11
18.354499
21
136.5789583
0
LINE
8
DEFAULT_255_2_778
10
18.681699
20
136.9493583
11
18.681699
21
137.0086583
0
LINE
8
DEFAULT_255_2_778
10
18.370099
20
137.3747583
11
18.369799
21
137.3747583
0
ARC
8
DEFAULT_255_2_778
10
5.5347803
20
120.6640671
40
0.4456204
50
323.6601795
51
355.1233293
0
ARC
8
DEFAULT_255_2_778
10
5.6141541
20
120.6167629
40
0.3537652
50
311.0521247
51
322.2136496
0
ARC
8
DEFAULT_255_2_778
10
5.5820841
20
120.6656505
40
0.4117697
50
271.8966838
51
309.9497075
0
ARC
8
DEFAULT_255_2_778
10
5.5512359
20
120.9031939
40
0.6506097
50
269.951717
51
273.9198894
0
ARC
8
DEFAULT_255_2_778
10
5.5361061
20
120.6496411
40
0.3973244
50
219.6735259
51
272.1031849
0
ARC
8
DEFAULT_255_2_778
10
5.6385629
20
120.72622
40
0.5251136
50
185.5129033
51
218.9678463
0
ARC
8
DEFAULT_255_2_778
10
5.9468179
20
120.7774147
40
0.8371333
50
179.8446571
51
186.9738973
0
ARC
8
DEFAULT_255_2_778
10
5.7531769
20
120.9017561
40
0.6436324
50
155.8694198
51
181.2082375
0
ARC
8
DEFAULT_255_2_778
10
5.5484982
20
120.9934698
40
0.4193451
50
122.2083176
51
155.8725853
0
ARC
8
DEFAULT_255_2_778
10
5.5546492
20
120.9688567
40
0.4435198
50
88.8322953
51
121.1858566
0
ARC
8
DEFAULT_255_2_778
10
5.5777341
20
120.9749864
40
0.4375235
50
59.5813536
51
91.8397661
0
ARC
8
DEFAULT_255_2_778
10
5.6141932
20
121.0549068
40
0.3502607
50
47.2194478
51
58.104983
0
ARC
8
DEFAULT_255_2_778
10
5.5665417
20
121.0157941
40
0.4114185
50
5.6180249
51
46.0482559
0
ARC
8
DEFAULT_255_2_778
10
5.3537346
20
120.9709485
40
0.6280447
50
5.7787271
51
7.7895363
0
ARC
8
DEFAULT_255_2_778
10
5.4289908
20
120.9890247
40
0.4026373
50
6.4398215
51
28.8243863
0
ARC
8
DEFAULT_255_2_778
10
5.6010132
20
121.0772285
40
0.2094794
50
30.3729647
51
46.6212223
0
ARC
8
DEFAULT_255_2_778
10
5.5814377
20
121.0397824
40
0.2504051
50
49.2513381
51
92.1612477
0
ARC
8
DEFAULT_255_2_778
10
5.5639081
20
120.8541276
40
0.4359569
50
88.9372002
51
90.0026979
0
ARC
8
DEFAULT_255_2_778
10
5.5526225
20
121.0241544
40
0.2661684
50
87.5743378
51
142.8797508
0
ARC
8
DEFAULT_255_2_778
10
5.664452
20
120.9503614
40
0.3999648
50
144.1186281
51
173.203564
0
ARC
8
DEFAULT_255_2_778
10
6.0143023
20
120.8886253
40
0.754925
50
171.6930403
51
180.2991012
0
ARC
8
DEFAULT_255_2_778
10
5.8542899
20
120.7626058
40
0.5950395
50
178.7694719
51
199.1632919
0
ARC
8
DEFAULT_255_2_778
10
5.6367332
20
120.6937438
40
0.366989
50
200.1577462
51
214.9929817
0
ARC
8
DEFAULT_255_2_778
10
5.5413933
20
120.6230806
40
0.2483817
50
214.2516371
51
272.2137212
0
ARC
8
DEFAULT_255_2_778
10
5.5635717
20
120.7017778
40
0.3271356
50
267.7954214
51
296.0075302
0
ARC
8
DEFAULT_255_2_778
10
5.6139233
20
120.5815491
40
0.1971445
50
298.1779573
51
310.2060537
0
ARC
8
DEFAULT_255_2_778
10
5.5698003
20
120.6140272
40
0.2507554
50
313.1164959
51
346.3416907
0
ARC
8
DEFAULT_255_2_778
10
5.2752394
20
120.710874
40
0.5603932
50
343.830525
51
351.3699023
0
ARC
8
DEFAULT_255_2_778
10
6.3332919
20
120.7825045
40
0.7172186
50
339.3791949
51
1.0609399
0
ARC
8
DEFAULT_255_2_778
10
6.4960626
20
120.7315474
40
0.5470151
50
335.6932827
51
338.3702099
0
ARC
8
DEFAULT_255_2_778
10
6.6053663
20
120.6721525
40
0.4230512
50
303.0825801
51
336.9309987
0
ARC
8
DEFAULT_255_2_778
10
6.6071806
20
120.6875914
40
0.4351106
50
268.7498544
51
301.772574
0
ARC
8
DEFAULT_255_2_778
10
6.5899181
20
120.6840355
40
0.4315211
50
237.9750779
51
271.0316625
0
ARC
8
DEFAULT_255_2_778
10
6.5971164
20
120.6822728
40
0.4339009
50
204.1164204
51
237.0457414
0
ARC
8
DEFAULT_255_2_778
10
6.8132288
20
120.7790124
40
0.6706775
50
179.4043792
51
204.1159133
0
ARC
8
DEFAULT_255_2_778
10
6.8326649
20
120.8810459
40
0.6902105
50
156.6069781
51
181.1258396
0
ARC
8
DEFAULT_255_2_778
10
6.5953352
20
120.9858137
40
0.4307963
50
123.2253347
51
156.8633764
0
ARC
8
DEFAULT_255_2_778
10
6.5884937
20
120.9822769
40
0.4300745
50
88.9882691
51
122.2046611
0
ARC
8
DEFAULT_255_2_778
10
6.6048089
20
120.9751828
40
0.4371885
50
58.1846328
51
91.1430485
0
ARC
8
DEFAULT_255_2_778
10
6.6047693
20
120.9916327
40
0.4233207
50
22.9481207
51
57.0062329
0
ARC
8
DEFAULT_255_2_778
10
6.3594877
20
120.8849737
40
0.6907811
50
359.8091565
51
23.1623762
0
ARC
8
DEFAULT_255_2_778
10
6.0916755
20
120.867341
40
0.9587121
50
359.9966153
51
0.9163202
0
ARC
8
DEFAULT_255_2_778
10
6.2286496
20
120.8808291
40
0.6736493
50
358.9584962
51
15.8602584
0
ARC
8
DEFAULT_255_2_778
10
6.5314213
20
120.9641924
40
0.3596301
50
16.2673724
51
36.2379956
0
ARC
8
DEFAULT_255_2_778
10
6.6076756
20
121.0183138
40
0.2661362
50
36.5446493
51
92.5601975
0
ARC
8
DEFAULT_255_2_778
10
6.5859136
20
121.0214529
40
0.2629169
50
87.8477192
51
143.7861693
0
ARC
8
DEFAULT_255_2_778
10
6.7199031
20
120.9307321
40
0.4246618
50
144.5911185
51
173.410085
0
ARC
8
DEFAULT_255_2_778
10
7.0515914
20
120.872257
40
0.7611327
50
171.9026059
51
179.5011062
0
ARC
8
DEFAULT_255_2_778
10
6.9208785
20
120.7836208
40
0.6305141
50
178.8673444
51
197.8935522
0
ARC
8
DEFAULT_255_2_778
10
6.6753522
20
120.7096019
40
0.3741553
50
198.6591336
51
215.9043821
0
ARC
8
DEFAULT_255_2_778
10
6.5876544
20
120.6429517
40
0.2640468
50
215.3494347
51
272.1125038
0
ARC
8
DEFAULT_255_2_778
10
6.6100915
20
120.6420098
40
0.2632322
50
267.233773
51
323.1338702
0
ARC
8
DEFAULT_255_2_778
10
6.4831756
20
120.7222886
40
0.4131048
50
324.7868836
51
352.7637276
0
ARC
8
DEFAULT_255_2_778
10
6.1090686
20
120.7908205
40
0.793139
50
351.2564194
51
359.592843
0
LINE
8
DEFAULT_255_2_778
10
2.6526876
20
121.3966844
11
2.6526876
21
120.2679844
0
LINE
8
DEFAULT_255_2_778
10
2.6526876
20
120.2679844
11
2.5031876
21
120.2679844
0
LINE
8
DEFAULT_255_2_778
10
2.5031876
20
120.2679844
11
2.5031876
21
120.7896844
0
LINE
8
DEFAULT_255_2_778
10
2.5031876
20
120.7896844
11
1.9343876
21
120.7896844
0
LINE
8
DEFAULT_255_2_778
10
1.9343876
20
120.7896844
11
1.9343876
21
120.2679844
0
LINE
8
DEFAULT_255_2_778
10
1.9343876
20
120.2679844
11
1.7856876
21
120.2679844
0
LINE
8
DEFAULT_255_2_778
10
1.7856876
20
120.2679844
11
1.7856876
21
121.3966844
0
LINE
8
DEFAULT_255_2_778
10
1.7856876
20
121.3966844
11
1.9346876
21
121.3966844
0
LINE
8
DEFAULT_255_2_778
10
1.9346876
20
121.3966844
11
1.9346876
21
120.9113844
0
LINE
8
DEFAULT_255_2_778
10
1.9346876
20
120.9113844
11
2.5034876
21
120.9113844
0
LINE
8
DEFAULT_255_2_778
10
2.5034876
20
120.9113844
11
2.5034876
21
121.3966844
0
LINE
8
DEFAULT_255_2_778
10
2.5034876
20
121.3966844
11
2.6529876
21
121.3966844
0
LINE
8
DEFAULT_255_2_778
10
2.6529876
20
121.3966844
11
2.6526876
21
121.3966844
0
LINE
8
DEFAULT_255_2_778
10
3.4853876
20
121.3966844
11
3.4853876
21
120.6470844
0
LINE
8
DEFAULT_255_2_778
10
3.4853876
20
120.6470844
11
3.6419876
21
120.6470844
0
LINE
8
DEFAULT_255_2_778
10
3.6419876
20
120.6470844
11
3.6419876
21
120.5301844
0
LINE
8
DEFAULT_255_2_778
10
3.6419876
20
120.5301844
11
3.4853876
21
120.5301844
0
LINE
8
DEFAULT_255_2_778
10
3.4853876
20
120.5301844
11
3.4853876
21
120.2681844
0
LINE
8
DEFAULT_255_2_778
10
3.4853876
20
120.2681844
11
3.3411876
21
120.2681844
0
LINE
8
DEFAULT_255_2_778
10
3.3411876
20
120.2681844
11
3.3411876
21
120.5301844
0
LINE
8
DEFAULT_255_2_778
10
3.3411876
20
120.5301844
11
2.8273876
21
120.5301844
0
LINE
8
DEFAULT_255_2_778
10
2.8273876
20
120.5301844
11
2.8273876
21
120.6145844
0
LINE
8
DEFAULT_255_2_778
10
2.8273876
20
120.6145844
11
3.3326876
21
121.3966844
0
LINE
8
DEFAULT_255_2_778
10
3.3326876
20
121.3966844
11
3.4853876
21
121.3966844
0
LINE
8
DEFAULT_255_2_778
10
3.4853876
20
121.3966844
11
3.4853876
21
121.3966844
0
LINE
8
DEFAULT_255_2_778
10
3.3242876
20
121.1696844
11
2.9900876
21
120.6470844
0
LINE
8
DEFAULT_255_2_778
10
2.9900876
20
120.6470844
11
3.3411876
21
120.6470844
0
LINE
8
DEFAULT_255_2_778
10
3.3411876
20
120.6470844
11
3.3411876
21
121.2005844
0
LINE
8
DEFAULT_255_2_778
10
3.3411876
20
121.2005844
11
3.3242876
21
121.1696844
0
LINE
8
DEFAULT_255_2_778
10
3.3242876
20
121.1696844
11
3.3242876
21
121.1696844
0
LINE
8
DEFAULT_255_2_778
10
4.0846876
20
120.8060844
11
4.0846876
21
120.6891844
0
LINE
8
DEFAULT_255_2_778
10
4.0846876
20
120.6891844
11
3.7062876
21
120.6891844
0
LINE
8
DEFAULT_255_2_778
10
3.7062876
20
120.6891844
11
3.7062876
21
120.8060844
0
LINE
8
DEFAULT_255_2_778
10
3.7062876
20
120.8060844
11
4.0846876
21
120.8060844
0
LINE
8
DEFAULT_255_2_778
10
4.0846876
20
120.8060844
11
4.0846876
21
120.8060844
0
LINE
8
DEFAULT_255_2_778
10
4.8844876
20
120.9113844
11
4.8844876
21
120.7896844
0
LINE
8
DEFAULT_255_2_778
10
4.8844876
20
120.7896844
11
4.3952876
21
120.7896844
0
LINE
8
DEFAULT_255_2_778
10
4.3952876
20
120.7896844
11
4.3952876
21
120.3896844
0
LINE
8
DEFAULT_255_2_778
10
4.3952876
20
120.3896844
11
4.9632876
21
120.3896844
0
LINE
8
DEFAULT_255_2_778
10
4.9632876
20
120.3896844
11
4.9632876
21
120.2679844
0
LINE
8
DEFAULT_255_2_778
10
4.9632876
20
120.2679844
11
4.2462876
21
120.2679844
0
LINE
8
DEFAULT_255_2_778
10
4.2462876
20
120.2679844
11
4.2462876
21
121.3966844
0
LINE
8
DEFAULT_255_2_778
10
4.2462876
20
121.3966844
11
4.9556876
21
121.3966844
0
LINE
8
DEFAULT_255_2_778
10
4.9556876
20
121.3966844
11
4.9556876
21
121.2741844
0
LINE
8
DEFAULT_255_2_778
10
4.9556876
20
121.2741844
11
4.3952876
21
121.2741844
0
LINE
8
DEFAULT_255_2_778
10
4.3952876
20
121.2741844
11
4.3952876
21
120.9113844
0
LINE
8
DEFAULT_255_2_778
10
4.3952876
20
120.9113844
11
4.8844876
21
120.9113844
0
LINE
8
DEFAULT_255_2_778
10
4.8844876
20
120.9113844
11
4.8844876
21
120.9113844
0
LINE
8
DEFAULT_255_2_778
10
5.8292876
20
120.6261844
11
5.9787876
21
120.6261844
0
LINE
8
DEFAULT_255_2_778
10
5.1096876
20
120.7796844
11
5.1096876
21
120.8881844
0
LINE
8
DEFAULT_255_2_778
10
5.9785876
20
121.0341844
11
5.8290876
21
121.0341844
0
LINE
8
DEFAULT_255_2_778
10
5.2593876
20
120.8846844
11
5.2593876
21
120.7753844
0
LINE
8
DEFAULT_255_2_778
10
5.8292876
20
120.6267844
11
5.8292876
21
120.6261844
0
LINE
8
DEFAULT_255_2_778
10
7.0503876
20
120.8672844
11
7.0503876
21
120.7957844
0
LINE
8
DEFAULT_255_2_778
10
6.1425876
20
120.7859844
11
6.1425876
21
120.8674844
0
LINE
8
DEFAULT_255_2_778
10
7.0503876
20
120.8672844
11
7.0503876
21
120.8672844
0
LINE
8
DEFAULT_255_2_778
10
6.9021876
20
120.7849844
11
6.9021876
21
120.8685844
0
LINE
8
DEFAULT_255_2_778
10
6.2904876
20
120.8788844
11
6.2904876
21
120.7960844
0
LINE
8
DEFAULT_255_2_778
10
6.9021876
20
120.7851844
11
6.9021876
21
120.7849844
0
LINE
8
DEFAULT_255_2_778
10
7.2720876
20
121.3767844
11
7.4644876
21
121.3767844
0
LINE
8
DEFAULT_255_2_778
10
7.4644876
20
121.3767844
11
7.8332876
21
120.4557844
0
LINE
8
DEFAULT_255_2_778
10
7.8332876
20
120.4557844
11
8.2023876
21
121.3767844
0
LINE
8
DEFAULT_255_2_778
10
8.2023876
20
121.3767844
11
8.3954876
21
121.3767844
0
LINE
8
DEFAULT_255_2_778
10
8.3954876
20
121.3767844
11
8.3954876
21
120.2480844
0
LINE
8
DEFAULT_255_2_778
10
8.3954876
20
120.2480844
11
8.2467876
21
120.2480844
0
LINE
8
DEFAULT_255_2_778
10
8.2467876
20
120.2480844
11
8.2467876
21
120.6875844
0
LINE
8
DEFAULT_255_2_778
10
8.2467876
20
120.6875844
11
8.2607876
21
121.1619844
0
LINE
8
DEFAULT_255_2_778
10
8.2607876
20
121.1619844
11
7.8903876
21
120.2480844
0
LINE
8
DEFAULT_255_2_778
10
7.8903876
20
120.2480844
11
7.7763876
21
120.2480844
0
LINE
8
DEFAULT_255_2_778
10
7.7763876
20
120.2480844
11
7.4064876
21
121.1595844
0
LINE
8
DEFAULT_255_2_778
10
7.4064876
20
121.1595844
11
7.4212876
21
120.6875844
0
LINE
8
DEFAULT_255_2_778
10
7.4212876
20
120.6875844
11
7.4212876
21
120.2480844
0
LINE
8
DEFAULT_255_2_778
10
7.4212876
20
120.2480844
11
7.2725876
21
120.2480844
0
LINE
8
DEFAULT_255_2_778
10
7.2725876
20
120.2480844
11
7.2725876
21
121.3767844
0
LINE
8
DEFAULT_255_2_778
10
7.2725876
20
121.3767844
11
7.2720876
21
121.3767844
0
LINE
8
DEFAULT_255_2_778
10
9.1230876
20
121.3820844
11
9.1230876
21
120.2398844
0
LINE
8
DEFAULT_255_2_778
10
9.1230876
20
120.2398844
11
8.9778876
21
120.2398844
0
LINE
8
DEFAULT_255_2_778
10
8.9778876
20
120.2398844
11
8.9778876
21
121.2024844
0
LINE
8
DEFAULT_255_2_778
10
8.9778876
20
121.2024844
11
8.6865876
21
121.0955844
0
LINE
8
DEFAULT_255_2_778
10
8.6865876
20
121.0955844
11
8.6865876
21
121.2267844
0
LINE
8
DEFAULT_255_2_778
10
8.6865876
20
121.2267844
11
9.1003876
21
121.3820844
0
LINE
8
DEFAULT_255_2_778
10
9.1003876
20
121.3820844
11
9.1230876
21
121.3820844
0
LINE
8
DEFAULT_255_2_778
10
9.1230876
20
121.3820844
11
9.1230876
21
121.3820844
0
ARC
8
DEFAULT_255_2_778
10
9.2353829
20
120.7122621
40
1.0236169
50
348.9531472
51
0.6925972
0
ARC
8
DEFAULT_255_2_778
10
9.7951758
20
120.5971191
40
0.4521704
50
326.4978595
51
349.6813455
0
ARC
8
DEFAULT_255_2_778
10
9.9311423
20
120.5233983
40
0.2984102
50
269.6842905
51
323.8903328
0
ARC
8
DEFAULT_255_2_778
10
9.9015084
20
120.7417394
40
0.5175042
50
269.9686291
51
273.1004025
0
ARC
8
DEFAULT_255_2_778
10
9.8874363
20
120.5739405
40
0.3499768
50
237.7088317
51
272.2579812
0
ARC
8
DEFAULT_255_2_778
10
9.8555406
20
120.5056705
40
0.27539
50
215.7086107
51
235.7301572
0
ARC
8
DEFAULT_255_2_778
10
10.0114901
20
120.6035796
40
0.4593109
50
189.9538128
51
214.2713999
0
ARC
8
DEFAULT_255_2_778
10
10.5164993
20
120.7090025
40
0.9750815
50
180.2213549
51
190.9259269
0
ARC
8
DEFAULT_255_2_778
10
10.5368568
20
120.9104366
40
0.9955078
50
168.7441549
51
180.7080065
0
ARC
8
DEFAULT_255_2_778
10
9.9951651
20
121.0237545
40
0.4421497
50
146.0884494
51
169.4446118
0
ARC
8
DEFAULT_255_2_778
10
9.8678582
20
121.0927466
40
0.2983243
50
90.3341331
51
143.4429402
0
ARC
8
DEFAULT_255_2_778
10
9.8995144
20
120.8703201
40
0.5218154
50
89.9549143
51
93.6694096
0
ARC
8
DEFAULT_255_2_778
10
9.9132877
20
121.0261019
40
0.3662773
50
60.5600623
51
92.0907515
0
ARC
8
DEFAULT_255_2_778
10
9.9543431
20
121.1167709
40
0.2672823
50
36.20159
51
58.6709986
0
ARC
8
DEFAULT_255_2_778
10
9.8139748
20
121.0278453
40
0.4332172
50
10.2646842
51
34.7271026
0
ARC
8
DEFAULT_255_2_778
10
9.2778701
20
120.9145583
40
0.9810585
50
359.8468199
51
11.1957863
0
ARC
8
DEFAULT_255_2_778
10
9.2901087
20
120.9340275
40
0.824505
50
359.1596735
51
10.8175739
0
ARC
8
DEFAULT_255_2_778
10
9.7883101
20
121.0312509
40
0.316916
50
10.4574451
51
29.9429295
0
ARC
8
DEFAULT_255_2_778
10
9.9117958
20
121.0961536
40
0.1775993
50
31.6842263
51
93.9295413
0
ARC
8
DEFAULT_255_2_778
10
9.8875441
20
121.0987005
40
0.1750523
50
86.0426764
51
148.6647913
0
ARC
8
DEFAULT_255_2_778
10
10.0576969
20
121.0119003
40
0.3658079
50
150.9125813
51
173.30638
0
ARC
8
DEFAULT_255_2_778
10
10.5630257
20
120.9308687
40
0.8774027
50
171.8971604
51
179.8715723
0
ARC
8
DEFAULT_255_2_778
10
10.5035543
20
120.6901097
40
0.8180133
50
179.1786724
51
191.0460998
0
ARC
8
DEFAULT_255_2_778
10
10.0277717
20
120.5955878
40
0.3329391
50
190.7687959
51
209.8575856
0
ARC
8
DEFAULT_255_2_778
10
9.8920743
20
120.5188737
40
0.1770647
50
210.1892264
51
272.8975752
0
ARC
8
DEFAULT_255_2_778
10
9.9112249
20
120.515973
40
0.1742364
50
266.643942
51
328.4616811
0
ARC
8
DEFAULT_255_2_778
10
9.7510346
20
120.6016105
40
0.3557235
50
330.2018974
51
352.7391288
0
ARC
8
DEFAULT_255_2_778
10
9.2255914
20
120.6904561
40
0.8884478
50
351.3380245
51
359.6762156
0
LINE
8
DEFAULT_255_2_778
10
10.258925
20
120.9119354
11
10.258925
21
120.7246354
0
LINE
8
DEFAULT_255_2_778
10
9.541425
20
120.7052354
11
9.541425
21
120.8981354
0
LINE
8
DEFAULT_255_2_778
10
10.258925
20
120.9119354
11
10.258925
21
120.9119354
0
LINE
8
DEFAULT_255_2_778
10
10.114525
20
120.6854354
11
10.114525
21
120.9219354
0
LINE
8
DEFAULT_255_2_778
10
9.685625
20
120.9328354
11
9.685625
21
120.7018354
0
LINE
8
DEFAULT_255_2_778
10
10.114025
20
120.6854354
11
10.114525
21
120.6854354
0
ARC
8
DEFAULT_255_2_778
10
10.1330829
20
120.7122621
40
1.0236169
50
348.9531472
51
0.6925972
0
ARC
8
DEFAULT_255_2_778
10
10.6928758
20
120.5971191
40
0.4521704
50
326.4978595
51
349.6813455
0
ARC
8
DEFAULT_255_2_778
10
10.8288423
20
120.5233983
40
0.2984102
50
269.6842905
51
323.8903328
0
ARC
8
DEFAULT_255_2_778
10
10.7992084
20
120.7417394
40
0.5175042
50
269.9686291
51
273.1004025
0
ARC
8
DEFAULT_255_2_778
10
10.7851363
20
120.5739405
40
0.3499768
50
237.7088317
51
272.2579812
0
ARC
8
DEFAULT_255_2_778
10
10.7532406
20
120.5056705
40
0.27539
50
215.7086107
51
235.7301572
0
ARC
8
DEFAULT_255_2_778
10
10.9091901
20
120.6035796
40
0.4593109
50
189.9538128
51
214.2713999
0
ARC
8
DEFAULT_255_2_778
10
11.4141993
20
120.7090025
40
0.9750815
50
180.2213549
51
190.9259269
0
ARC
8
DEFAULT_255_2_778
10
11.4345568
20
120.9104366
40
0.9955078
50
168.7441549
51
180.7080065
0
ARC
8
DEFAULT_255_2_778
10
10.8928651
20
121.0237545
40
0.4421497
50
146.0884494
51
169.4446118
0
ARC
8
DEFAULT_255_2_778
10
10.7655582
20
121.0927466
40
0.2983243
50
90.3341331
51
143.4429402
0
ARC
8
DEFAULT_255_2_778
10
10.7972144
20
120.8703201
40
0.5218154
50
89.9549143
51
93.6694096
0
ARC
8
DEFAULT_255_2_778
10
10.8109877
20
121.0261019
40
0.3662773
50
60.5600623
51
92.0907515
0
ARC
8
DEFAULT_255_2_778
10
10.8520431
20
121.1167709
40
0.2672823
50
36.20159
51
58.6709986
0
ARC
8
DEFAULT_255_2_778
10
10.7116748
20
121.0278453
40
0.4332172
50
10.2646842
51
34.7271026
0
ARC
8
DEFAULT_255_2_778
10
10.1755701
20
120.9145583
40
0.9810585
50
359.8468199
51
11.1957863
0
ARC
8
DEFAULT_255_2_778
10
10.1878087
20
120.9340275
40
0.824505
50
359.1596735
51
10.8175739
0
ARC
8
DEFAULT_255_2_778
10
10.6860101
20
121.0312509
40
0.316916
50
10.4574451
51
29.9429295
0
ARC
8
DEFAULT_255_2_778
10
10.8094958
20
121.0961536
40
0.1775993
50
31.6842263
51
93.9295413
0
ARC
8
DEFAULT_255_2_778
10
10.7852441
20
121.0987005
40
0.1750523
50
86.0426764
51
148.6647913
0
ARC
8
DEFAULT_255_2_778
10
10.9553969
20
121.0119003
40
0.3658079
50
150.9125813
51
173.30638
0
ARC
8
DEFAULT_255_2_778
10
11.4607257
20
120.9308687
40
0.8774027
50
171.8971604
51
179.8715723
0
ARC
8
DEFAULT_255_2_778
10
11.4012543
20
120.6901097
40
0.8180133
50
179.1786724
51
191.0460998
0
ARC
8
DEFAULT_255_2_778
10
10.9254717
20
120.5955878
40
0.3329391
50
190.7687959
51
209.8575856
0
ARC
8
DEFAULT_255_2_778
10
10.7897743
20
120.5188737
40
0.1770647
50
210.1892264
51
272.8975752
0
ARC
8
DEFAULT_255_2_778
10
10.8089249
20
120.515973
40
0.1742364
50
266.643942
51
328.4616811
0
ARC
8
DEFAULT_255_2_778
10
10.6487346
20
120.6016105
40
0.3557235
50
330.2018974
51
352.7391288
0
ARC
8
DEFAULT_255_2_778
10
10.1232914
20
120.6904561
40
0.8884478
50
351.3380245
51
359.6762156
0
LINE
8
DEFAULT_255_2_778
10
11.156625
20
120.9119354
11
11.156625
21
120.7246354
0
LINE
8
DEFAULT_255_2_778
10
10.439125
20
120.7052354
11
10.439125
21
120.8981354
0
LINE
8
DEFAULT_255_2_778
10
11.156625
20
120.9119354
11
11.156625
21
120.9119354
0
LINE
8
DEFAULT_255_2_778
10
11.012225
20
120.6854354
11
11.012225
21
120.9219354
0
LINE
8
DEFAULT_255_2_778
10
10.583325
20
120.9328354
11
10.583325
21
120.7018354
0
LINE
8
DEFAULT_255_2_778
10
11.011725
20
120.6854354
11
11.012225
21
120.6854354
0
LINE
8
DEFAULT_255_2_778
10
10.9368367
20
74.2066133
11
24.8737367
21
74.2066133
0
LINE
8
DEFAULT_255_2_778
10
24.8737367
20
74.2066133
11
24.8737367
21
57.5138133
0
LINE
8
DEFAULT_255_2_778
10
24.8737367
20
57.5138133
11
10.9368367
21
57.5138133
0
LINE
8
DEFAULT_255_2_778
10
10.9368367
20
57.5138133
11
10.9368367
21
74.2066133
0
LINE
8
DEFAULT_255_2_778
10
14.0446001
20
72.3478748
11
14.0446001
21
69.9666748
0
LINE
8
DEFAULT_255_2_778
10
14.0446001
20
69.9666748
11
13.2509001
21
69.9666748
0
LINE
8
DEFAULT_255_2_778
10
13.2509001
20
69.9666748
11
13.2509001
21
62.0291748
0
LINE
8
DEFAULT_255_2_778
10
13.2509001
20
62.0291748
11
14.0446001
21
62.0291748
0
LINE
8
DEFAULT_255_2_778
10
14.0446001
20
62.0291748
11
14.0446001
21
59.6478748
0
LINE
8
DEFAULT_255_2_778
10
14.0446001
20
59.6478748
11
15.6321001
21
59.6478748
0
LINE
8
DEFAULT_255_2_778
10
15.6321001
20
59.6478748
11
15.6321001
21
59.2510748
0
LINE
8
DEFAULT_255_2_778
10
15.6321001
20
59.2510748
11
18.3944001
21
59.2510748
0
LINE
8
DEFAULT_255_2_778
10
18.3944001
20
59.2510748
11
18.3944001
21
59.6478748
0
LINE
8
DEFAULT_255_2_778
10
18.3944001
20
59.6478748
11
19.9819001
21
59.6478748
0
LINE
8
DEFAULT_255_2_778
10
19.9819001
20
59.6478748
11
19.9819001
21
62.8228748
0
LINE
8
DEFAULT_255_2_778
10
19.9819001
20
62.8228748
11
23.1569001
21
62.8228748
0
LINE
8
DEFAULT_255_2_778
10
23.1569001
20
62.8228748
11
23.1569001
21
69.1728748
0
LINE
8
DEFAULT_255_2_778
10
23.1569001
20
69.1728748
11
19.9819001
21
69.1728748
0
LINE
8
DEFAULT_255_2_778
10
19.9819001
20
69.1728748
11
19.9819001
21
72.3478748
0
LINE
8
DEFAULT_255_2_778
10
19.9819001
20
72.3478748
11
18.3944001
21
72.3478748
0
LINE
8
DEFAULT_255_2_778
10
18.3944001
20
72.3478748
11
18.3944001
21
72.7447748
0
LINE
8
DEFAULT_255_2_778
10
18.3944001
20
72.7447748
11
15.6321001
21
72.7447748
0
LINE
8
DEFAULT_255_2_778
10
15.6321001
20
72.7447748
11
15.6321001
21
72.3478748
0
LINE
8
DEFAULT_255_2_778
10
15.6321001
20
72.3478748
11
14.0446001
21
72.3478748
0
ENDSEC
0
EOF