0
SECTION
2
HEADER
9
$MEASUREMENT
70
1
0
ENDSEC
0
SECTION
2
TABLES
0
TABLE
2
LTYPE
0
LTYPE
72
65
70
64
2
CONTINUOUS
3
______
73
0
40
0
0
ENDTAB
0
TABLE
2
LAYER
0
LAYER
2
DEFAULT_255_2_778
70
0
62
255
6
CONTINUOUS
0
ENDTAB
0
ENDSEC
0
SECTION
2
ENTITIES
0
LINE
8
DEFAULT_255_2_778
10
3.2091119
20
108.4423725
11
33.2179119
21
108.4423725
0
LINE
8
DEFAULT_255_2_778
10
33.2179119
20
108.4423725
11
33.2179119
21
2.7548725
0
LINE
8
DEFAULT_255_2_778
10
33.2179119
20
2.7548725
11
3.2091119
21
2.7548725
0
LINE
8
DEFAULT_255_2_778
10
3.2091119
20
2.7548725
11
3.2091119
21
108.4423725
0
ARC
8
DEFAULT_255_2_778
10
32.8591429
20
146.476077
40
3.1722224
50
72.0402823
51
90.0567564
0
ARC
8
DEFAULT_255_2_778
10
32.8508128
20
146.468452
40
3.1820494
50
15.1810666
51
71.9399361
0
ARC
8
DEFAULT_255_2_778
10
32.8523357
20
146.4757873
40
3.1786659
50
359.9551287
51
15.0606493
0
ARC
8
DEFAULT_255_2_778
10
32.8587796
20
2.9601556
40
3.1722224
50
342.0402823
51
0.0567564
0
ARC
8
DEFAULT_255_2_778
10
32.8511546
20
2.9684856
40
3.1820494
50
285.1810666
51
341.9399361
0
ARC
8
DEFAULT_255_2_778
10
32.8584899
20
2.9669628
40
3.1786659
50
269.9551287
51
285.0606493
0
ARC
8
DEFAULT_255_2_778
10
3.3888581
20
2.9605188
40
3.1722224
50
252.0402823
51
270.0567564
0
ARC
8
DEFAULT_255_2_778
10
3.3971881
20
2.9681438
40
3.1820494
50
195.1810666
51
251.9399361
0
ARC
8
DEFAULT_255_2_778
10
3.3956653
20
2.9608085
40
3.1786659
50
179.9551287
51
195.0606493
0
ARC
8
DEFAULT_255_2_778
10
3.3892214
20
146.4764403
40
3.1722224
50
162.0402823
51
180.0567564
0
ARC
8
DEFAULT_255_2_778
10
3.3968464
20
146.4681103
40
3.1820494
50
105.1810666
51
161.9399361
0
ARC
8
DEFAULT_255_2_778
10
3.3895111
20
146.4696331
40
3.1786659
50
89.9551287
51
105.0606493
0
LINE
8
DEFAULT_255_2_778
10
36.0310005
20
146.4732979
11
36.0310005
21
2.9632979
0
LINE
8
DEFAULT_255_2_778
10
32.8560005
20
-0.2117021
11
3.3920005
21
-0.2117021
0
LINE
8
DEFAULT_255_2_778
10
0.2170005
20
2.9632979
11
0.2170005
21
146.4732979
0
LINE
8
DEFAULT_255_2_778
10
3.3920005
20
149.6482979
11
32.8560005
21
149.6482979
0
ARC
8
DEFAULT_255_2_778
10
6.8756289
20
147.2885571
40
0.4620026
50
60.8300934
51
91.1434357
0
ARC
8
DEFAULT_255_2_778
10
6.904338
20
147.3485855
40
0.3956164
50
26.5257383
51
60.2233071
0
ARC
8
DEFAULT_255_2_778
10
6.773353
20
147.2854254
40
0.5410241
50
359.0936846
51
26.3153776
0
ARC
8
DEFAULT_255_2_778
10
6.7697628
20
147.1999812
40
0.5446808
50
333.8780828
51
1.2715022
0
ARC
8
DEFAULT_255_2_778
10
6.9087122
20
147.1353666
40
0.3914878
50
299.3016668
51
333.4152708
0
ARC
8
DEFAULT_255_2_778
10
6.8666647
20
147.2251209
40
0.4903905
50
269.2924974
51
298.4535508
0
ARC
8
DEFAULT_255_2_778
10
6.8697544
20
147.1589224
40
0.3150238
50
267.2261935
51
310.8565082
0
ARC
8
DEFAULT_255_2_778
10
6.8857758
20
147.128129
40
0.2813671
50
312.4911396
51
318.1942583
0
ARC
8
DEFAULT_255_2_778
10
6.8251625
20
147.1684907
40
0.3536048
50
319.8665676
51
355.5053476
0
ARC
8
DEFAULT_255_2_778
10
6.5508459
20
147.2128732
40
0.6309661
50
353.4391497
51
0.1629479
0
ARC
8
DEFAULT_255_2_778
10
6.6980524
20
147.2867465
40
0.4839258
50
358.486838
51
21.9686755
0
ARC
8
DEFAULT_255_2_778
10
6.8702217
20
147.3489838
40
0.3010492
50
23.2420812
51
40.0678827
0
ARC
8
DEFAULT_255_2_778
10
6.8838645
20
147.3512769
40
0.2892181
50
41.4601008
51
92.7259834
0
LINE
8
DEFAULT_255_2_778
10
6.8609094
20
146.7347677
11
6.5796094
21
146.7347677
0
LINE
8
DEFAULT_255_2_778
10
6.5796094
20
146.7347677
11
6.5796094
21
147.7504677
0
LINE
8
DEFAULT_255_2_778
10
6.5796094
20
147.7504677
11
6.8664094
21
147.7504677
0
LINE
8
DEFAULT_255_2_778
10
7.3143094
20
147.2768677
11
7.3143094
21
147.2120677
0
LINE
8
DEFAULT_255_2_778
10
6.8606094
20
146.7347677
11
6.8609094
21
146.7347677
0
LINE
8
DEFAULT_255_2_778
10
6.8698094
20
147.6401677
11
6.7135094
21
147.6401677
0
LINE
8
DEFAULT_255_2_778
10
6.7135094
20
147.6401677
11
6.7135094
21
146.8442677
0
LINE
8
DEFAULT_255_2_778
10
6.7135094
20
146.8442677
11
6.8545094
21
146.8442677
0
LINE
8
DEFAULT_255_2_778
10
7.1818094
20
147.2146677
11
7.1818094
21
147.2739677
0
LINE
8
DEFAULT_255_2_778
10
6.8701094
20
147.6401677
11
6.8698094
21
147.6401677
0
LINE
8
DEFAULT_255_2_778
10
8.1597094
20
146.7347677
11
8.0626094
21
146.9998677
0
LINE
8
DEFAULT_255_2_778
10
8.0626094
20
146.9998677
11
7.6371094
21
146.9998677
0
LINE
8
DEFAULT_255_2_778
10
7.6371094
20
146.9998677
11
7.5416094
21
146.7347677
0
LINE
8
DEFAULT_255_2_778
10
7.5416094
20
146.7347677
11
7.4035094
21
146.7347677
0
LINE
8
DEFAULT_255_2_778
10
7.4035094
20
146.7347677
11
7.7914094
21
147.7504677
0
LINE
8
DEFAULT_255_2_778
10
7.7914094
20
147.7504677
11
7.9086094
21
147.7504677
0
LINE
8
DEFAULT_255_2_778
10
7.9086094
20
147.7504677
11
8.2973094
21
146.7347677
0
LINE
8
DEFAULT_255_2_778
10
8.2973094
20
146.7347677
11
8.1600094
21
146.7347677
0
LINE
8
DEFAULT_255_2_778
10
8.1600094
20
146.7347677
11
8.1597094
21
146.7347677
0
LINE
8
DEFAULT_255_2_778
10
7.8501094
20
147.5850677
11
7.6779094
21
147.1098677
0
LINE
8
DEFAULT_255_2_778
10
7.6779094
20
147.1098677
11
8.0232094
21
147.1098677
0
LINE
8
DEFAULT_255_2_778
10
8.0232094
20
147.1098677
11
7.8501094
21
147.5850677
0
LINE
8
DEFAULT_255_2_778
10
7.8501094
20
147.5850677
11
7.8501094
21
147.5850677
0
LINE
8
DEFAULT_255_2_778
10
9.0458094
20
147.7504677
11
9.0458094
21
147.6401677
0
LINE
8
DEFAULT_255_2_778
10
9.0458094
20
147.6401677
11
8.7193094
21
147.6401677
0
LINE
8
DEFAULT_255_2_778
10
8.7193094
20
147.6401677
11
8.7193094
21
146.7347677
0
LINE
8
DEFAULT_255_2_778
10
8.7193094
20
146.7347677
11
8.5859094
21
146.7347677
0
LINE
8
DEFAULT_255_2_778
10
8.5859094
20
146.7347677
11
8.5859094
21
147.6401677
0
LINE
8
DEFAULT_255_2_778
10
8.5859094
20
147.6401677
11
8.2602094
21
147.6401677
0
LINE
8
DEFAULT_255_2_778
10
8.2602094
20
147.6401677
11
8.2602094
21
147.7504677
0
LINE
8
DEFAULT_255_2_778
10
8.2602094
20
147.7504677
11
9.0458094
21
147.7504677
0
LINE
8
DEFAULT_255_2_778
10
9.0458094
20
147.7504677
11
9.0458094
21
147.7504677
0
LINE
8
DEFAULT_255_2_778
10
9.7991188
20
146.7347677
11
9.7020188
21
146.9998677
0
LINE
8
DEFAULT_255_2_778
10
9.7020188
20
146.9998677
11
9.2765188
21
146.9998677
0
LINE
8
DEFAULT_255_2_778
10
9.2765188
20
146.9998677
11
9.1810188
21
146.7347677
0
LINE
8
DEFAULT_255_2_778
10
9.1810188
20
146.7347677
11
9.0429188
21
146.7347677
0
LINE
8
DEFAULT_255_2_778
10
9.0429188
20
146.7347677
11
9.4308188
21
147.7504677
0
LINE
8
DEFAULT_255_2_778
10
9.4308188
20
147.7504677
11
9.5480188
21
147.7504677
0
LINE
8
DEFAULT_255_2_778
10
9.5480188
20
147.7504677
11
9.9367188
21
146.7347677
0
LINE
8
DEFAULT_255_2_778
10
9.9367188
20
146.7347677
11
9.7993188
21
146.7347677
0
LINE
8
DEFAULT_255_2_778
10
9.7993188
20
146.7347677
11
9.7991188
21
146.7347677
0
LINE
8
DEFAULT_255_2_778
10
9.4893188
20
147.5850677
11
9.3170188
21
147.1098677
0
LINE
8
DEFAULT_255_2_778
10
9.3170188
20
147.1098677
11
9.6623188
21
147.1098677
0
LINE
8
DEFAULT_255_2_778
10
9.6623188
20
147.1098677
11
9.4893188
21
147.5850677
0
LINE
8
DEFAULT_255_2_778
10
9.4893188
20
147.5850677
11
9.4893188
21
147.5850677
0
ARC
8
DEFAULT_255_2_778
10
10.785029
20
147.0880779
40
0.3906557
50
320.0939117
51
355.4357419
0
ARC
8
DEFAULT_255_2_778
10
10.8446515
20
147.0496714
40
0.3204011
50
311.1167713
51
318.5221627
0
ARC
8
DEFAULT_255_2_778
10
10.8153337
20
147.0964765
40
0.3750426
50
270.683661
51
309.7888225
0
ARC
8
DEFAULT_255_2_778
10
10.7895289
20
147.3165448
40
0.5958541
50
269.972783
51
272.9128762
0
ARC
8
DEFAULT_255_2_778
10
10.7762301
20
147.0782966
40
0.3578428
50
219.6849258
51
272.0844704
0
ARC
8
DEFAULT_255_2_778
10
10.8739735
20
147.1498905
40
0.4788363
50
184.2995714
51
218.8090964
0
ARC
8
DEFAULT_255_2_778
10
11.1589458
20
147.1935599
40
0.7666015
50
179.8855959
51
185.9576703
0
ARC
8
DEFAULT_255_2_778
10
10.9714394
20
147.3048649
40
0.5792215
50
155.8661952
51
181.2043532
0
ARC
8
DEFAULT_255_2_778
10
10.7884133
20
147.3863691
40
0.3788689
50
122.2495513
51
155.7976055
0
ARC
8
DEFAULT_255_2_778
10
10.793014
20
147.3657363
40
0.3988372
50
88.8317267
51
121.2268317
0
ARC
8
DEFAULT_255_2_778
10
10.8154982
20
147.3804682
40
0.3842906
50
56.325729
51
92.1403545
0
ARC
8
DEFAULT_255_2_778
10
10.8461447
20
147.4423468
40
0.315925
50
47.2374097
51
54.7285172
0
ARC
8
DEFAULT_255_2_778
10
10.8007839
20
147.4058066
40
0.3736468
50
4.3570756
51
45.9349246
0
ARC
8
DEFAULT_255_2_778
10
10.6036439
20
147.3667653
40
0.5736833
50
5.7448877
51
6.7498734
0
ARC
8
DEFAULT_255_2_778
10
10.6896415
20
147.3863775
40
0.3521404
50
6.1643586
51
30.3070805
0
ARC
8
DEFAULT_255_2_778
10
10.8381444
20
147.4659941
40
0.1838603
50
32.2407584
51
46.739966
0
ARC
8
DEFAULT_255_2_778
10
10.8154548
20
147.4259718
40
0.2288161
50
49.4713676
51
93.3800918
0
ARC
8
DEFAULT_255_2_778
10
10.8013505
20
147.3757796
40
0.2786108
50
89.8738676
51
90.0420958
0
ARC
8
DEFAULT_255_2_778
10
10.7911881
20
147.4145169
40
0.2400803
50
87.622888
51
142.8834388
0
ARC
8
DEFAULT_255_2_778
10
10.8973002
20
147.3452665
40
0.3665893
50
144.2607007
51
174.305077
0
ARC
8
DEFAULT_255_2_778
10
11.2173905
20
147.2924749
40
0.6906506
50
172.581923
51
180.2392783
0
ARC
8
DEFAULT_255_2_778
10
11.0518857
20
147.178541
40
0.5252898
50
178.6310243
51
200.357842
0
ARC
8
DEFAULT_255_2_778
10
10.8625995
20
147.1155849
40
0.3259969
50
201.5575735
51
215.0880289
0
ARC
8
DEFAULT_255_2_778
10
10.7804047
20
147.0532864
40
0.2229594
50
214.1298041
51
272.1954385
0
ARC
8
DEFAULT_255_2_778
10
10.8016114
20
147.1146374
40
0.284429
50
267.4477976
51
298.4423644
0
ARC
8
DEFAULT_255_2_778
10
10.8470781
20
147.0143327
40
0.1747506
50
300.9985725
51
310.3175476
0
ARC
8
DEFAULT_255_2_778
10
10.8013871
20
147.0488628
40
0.2309802
50
313.4188311
51
347.5688654
0
ARC
8
DEFAULT_255_2_778
10
10.5276755
20
147.1350699
40
0.5174494
50
344.7702088
51
351.3549471
0
LINE
8
DEFAULT_255_2_778
10
11.0397458
20
147.0569906
11
11.1744458
21
147.0569906
0
LINE
8
DEFAULT_255_2_778
10
10.3923458
20
147.1950906
11
10.3923458
21
147.2926906
0
LINE
8
DEFAULT_255_2_778
10
11.1744458
20
147.4241906
11
11.0397458
21
147.4241906
0
LINE
8
DEFAULT_255_2_778
10
10.5267458
20
147.2895906
11
10.5267458
21
147.1910906
0
LINE
8
DEFAULT_255_2_778
10
11.0392458
20
147.0572906
11
11.0397458
21
147.0569906
0
ARC
8
DEFAULT_255_2_778
10
11.5047939
20
147.1964447
40
0.6339595
50
337.7168824
51
1.1942991
0
ARC
8
DEFAULT_255_2_778
10
11.6437848
20
147.1497798
40
0.4877467
50
335.6991379
51
336.5981488
0
ARC
8
DEFAULT_255_2_778
10
11.7387961
20
147.0974445
40
0.3797136
50
303.0742929
51
336.996679
0
ARC
8
DEFAULT_255_2_778
10
11.7398012
20
147.1128198
40
0.3921577
50
268.7308963
51
301.7251905
0
ARC
8
DEFAULT_255_2_778
10
11.7239808
20
147.1079375
40
0.3872449
50
237.9377536
51
271.0557082
0
ARC
8
DEFAULT_255_2_778
10
11.728944
20
147.1057145
40
0.388033
50
204.0208413
51
237.1424158
0
ARC
8
DEFAULT_255_2_778
10
11.9229859
20
147.1939909
40
0.6012072
50
179.3645781
51
204.177428
0
ARC
8
DEFAULT_255_2_778
10
11.9433427
20
147.2863442
40
0.6216505
50
156.6474981
51
181.1416474
0
ARC
8
DEFAULT_255_2_778
10
11.7287375
20
147.3810122
40
0.3871042
50
123.2456192
51
156.9207945
0
ARC
8
DEFAULT_255_2_778
10
11.7230224
20
147.3765345
40
0.3877833
50
88.9962297
51
122.1766417
0
ARC
8
DEFAULT_255_2_778
10
11.7376321
20
147.3711536
40
0.3931825
50
58.1839244
51
91.1391171
0
ARC
8
DEFAULT_255_2_778
10
11.7378332
20
147.3858855
40
0.3806338
50
22.958682
51
57.0404811
0
ARC
8
DEFAULT_255_2_778
10
11.5083459
20
147.2872605
40
0.6304143
50
358.772752
51
23.0765762
0
ARC
8
DEFAULT_255_2_778
10
11.41447
20
147.2879903
40
0.5908765
50
358.7944184
51
17.1809147
0
ARC
8
DEFAULT_255_2_778
10
11.677283
20
147.365021
40
0.3170624
50
17.9107977
51
36.3296241
0
ARC
8
DEFAULT_255_2_778
10
11.7405276
20
147.4105708
40
0.2391276
50
36.5146052
51
92.567474
0
ARC
8
DEFAULT_255_2_778
10
11.7208296
20
147.4131189
40
0.2365102
50
87.8225671
51
143.7834327
0
ARC
8
DEFAULT_255_2_778
10
11.845527
20
147.3291964
40
0.3867455
50
144.667664
51
174.581815
0
ARC
8
DEFAULT_255_2_778
10
12.1522589
20
147.2789821
40
0.6971657
50
172.8534764
51
179.5417231
0
ARC
8
DEFAULT_255_2_778
10
12.0091891
20
147.1973788
40
0.5542163
50
178.6993945
51
199.2821565
0
ARC
8
DEFAULT_255_2_778
10
11.7956048
20
147.1289874
40
0.330083
50
200.319352
51
216.0453191
0
ARC
8
DEFAULT_255_2_778
10
11.7226629
20
147.072453
40
0.2378558
50
215.3731997
51
272.108875
0
ARC
8
DEFAULT_255_2_778
10
11.7427615
20
147.0712367
40
0.2367504
50
267.2531548
51
323.1518407
0
ARC
8
DEFAULT_255_2_778
10
11.6239667
20
147.1459557
40
0.376796
50
324.8929865
51
353.7567572
0
ARC
8
DEFAULT_255_2_778
10
11.2781996
20
147.2057099
40
0.7273372
50
352.0393908
51
359.5626741
0
LINE
8
DEFAULT_255_2_778
10
12.1386156
20
147.2739583
11
12.1386156
21
147.2096583
0
LINE
8
DEFAULT_255_2_778
10
11.3218156
20
147.2006583
11
11.3218156
21
147.2739583
0
LINE
8
DEFAULT_255_2_778
10
12.1386156
20
147.2737583
11
12.1386156
21
147.2739583
0
LINE
8
DEFAULT_255_2_778
10
12.0052156
20
147.2001583
11
12.0052156
21
147.2755583
0
LINE
8
DEFAULT_255_2_778
10
11.4551156
20
147.2845583
11
11.4551156
21
147.2099583
0
LINE
8
DEFAULT_255_2_778
10
12.0055156
20
147.2001583
11
12.0052156
21
147.2001583
0
LINE
8
DEFAULT_255_2_778
10
12.3394136
20
147.7504677
11
12.5124136
21
147.7504677
0
LINE
8
DEFAULT_255_2_778
10
12.5124136
20
147.7504677
11
12.8445136
21
146.9217677
0
LINE
8
DEFAULT_255_2_778
10
12.8445136
20
146.9217677
11
13.1765136
21
147.7504677
0
LINE
8
DEFAULT_255_2_778
10
13.1765136
20
147.7504677
11
13.3504136
21
147.7504677
0
LINE
8
DEFAULT_255_2_778
10
13.3504136
20
147.7504677
11
13.3504136
21
146.7347677
0
LINE
8
DEFAULT_255_2_778
10
13.3504136
20
146.7347677
11
13.2165136
21
146.7347677
0
LINE
8
DEFAULT_255_2_778
10
13.2165136
20
146.7347677
11
13.2165136
21
147.1302677
0
LINE
8
DEFAULT_255_2_778
10
13.2165136
20
147.1302677
11
13.2289136
21
147.5573677
0
LINE
8
DEFAULT_255_2_778
10
13.2289136
20
147.5573677
11
12.8956136
21
146.7347677
0
LINE
8
DEFAULT_255_2_778
10
12.8956136
20
146.7347677
11
12.7929136
21
146.7347677
0
LINE
8
DEFAULT_255_2_778
10
12.7929136
20
146.7347677
11
12.4600136
21
147.5551677
0
LINE
8
DEFAULT_255_2_778
10
12.4600136
20
147.5551677
11
12.4733136
21
147.1302677
0
LINE
8
DEFAULT_255_2_778
10
12.4733136
20
147.1302677
11
12.4733136
21
146.7347677
0
LINE
8
DEFAULT_255_2_778
10
12.4733136
20
146.7347677
11
12.3394136
21
146.7347677
0
LINE
8
DEFAULT_255_2_778
10
12.3394136
20
146.7347677
11
12.3394136
21
147.7504677
0
LINE
8
DEFAULT_255_2_778
10
12.3394136
20
147.7504677
11
12.3394136
21
147.7504677
0
LINE
8
DEFAULT_255_2_778
10
13.5866136
20
147.7504677
11
13.7596136
21
147.7504677
0
LINE
8
DEFAULT_255_2_778
10
13.7596136
20
147.7504677
11
14.0917136
21
146.9217677
0
LINE
8
DEFAULT_255_2_778
10
14.0917136
20
146.9217677
11
14.4237136
21
147.7504677
0
LINE
8
DEFAULT_255_2_778
10
14.4237136
20
147.7504677
11
14.5976136
21
147.7504677
0
LINE
8
DEFAULT_255_2_778
10
14.5976136
20
147.7504677
11
14.5976136
21
146.7347677
0
LINE
8
DEFAULT_255_2_778
10
14.5976136
20
146.7347677
11
14.4637136
21
146.7347677
0
LINE
8
DEFAULT_255_2_778
10
14.4637136
20
146.7347677
11
14.4637136
21
147.1302677
0
LINE
8
DEFAULT_255_2_778
10
14.4637136
20
147.1302677
11
14.4761136
21
147.5573677
0
LINE
8
DEFAULT_255_2_778
10
14.4761136
20
147.5573677
11
14.1428136
21
146.7347677
0
LINE
8
DEFAULT_255_2_778
10
14.1428136
20
146.7347677
11
14.0401136
21
146.7347677
0
LINE
8
DEFAULT_255_2_778
10
14.0401136
20
146.7347677
11
13.7072136
21
147.5551677
0
LINE
8
DEFAULT_255_2_778
10
13.7072136
20
147.5551677
11
13.7205136
21
147.1302677
0
LINE
8
DEFAULT_255_2_778
10
13.7205136
20
147.1302677
11
13.7205136
21
146.7347677
0
LINE
8
DEFAULT_255_2_778
10
13.7205136
20
146.7347677
11
13.5866136
21
146.7347677
0
LINE
8
DEFAULT_255_2_778
10
13.5866136
20
146.7347677
11
13.5866136
21
147.7504677
0
LINE
8
DEFAULT_255_2_778
10
13.5866136
20
147.7504677
11
13.5866136
21
147.7504677
0
ARC
8
DEFAULT_255_2_778
10
15.2238096
20
147.0497184
40
0.3254106
50
316.2466963
51
1.7893263
0
ARC
8
DEFAULT_255_2_778
10
15.2060335
20
147.0851959
40
0.3630303
50
272.2747692
51
314.1419021
0
ARC
8
DEFAULT_255_2_778
10
15.1749999
20
147.2747341
40
0.5541487
50
274.2079517
51
274.7038113
0
ARC
8
DEFAULT_255_2_778
10
15.1664011
20
147.1307178
40
0.4102695
50
239.9450506
51
271.9220485
0
ARC
8
DEFAULT_255_2_778
10
15.1275275
20
147.0458829
40
0.3174952
50
227.8004954
51
238.3493764
0
ARC
8
DEFAULT_255_2_778
10
15.1362882
20
147.0450007
40
0.322804
50
177.6247285
51
226.5432821
0
ARC
8
DEFAULT_255_2_778
10
15.1782893
20
147.0482496
40
0.23237
50
176.4645097
51
222.4610689
0
ARC
8
DEFAULT_255_2_778
10
15.1633892
20
147.0604041
40
0.2303701
50
227.1983884
51
272.818391
0
ARC
8
DEFAULT_255_2_778
10
15.1799474
20
147.2374705
40
0.4071914
50
269.2639482
51
270.0019806
0
ARC
8
DEFAULT_255_2_778
10
15.1934018
20
147.0770058
40
0.2470925
50
266.8819176
51
306.1592018
0
ARC
8
DEFAULT_255_2_778
10
15.2263175
20
147.0179683
40
0.1801946
50
308.7860395
51
315.1472303
0
ARC
8
DEFAULT_255_2_778
10
15.1832394
20
147.0472032
40
0.2315543
50
317.5374882
51
3.5022842
0
ARC
8
DEFAULT_255_2_778
10
15.182661
20
147.0616715
40
0.2317005
50
359.9201326
51
0.0266303
0
LINE
8
DEFAULT_255_2_778
10
15.4143615
20
147.7504792
11
15.5490615
21
147.7504792
0
LINE
8
DEFAULT_255_2_778
10
15.5490615
20
147.7504792
11
15.5490615
21
147.0598792
0
LINE
8
DEFAULT_255_2_778
10
15.2156615
20
146.7220792
11
15.1801615
21
146.7206792
0
LINE
8
DEFAULT_255_2_778
10
14.8137615
20
147.0583792
11
14.8137615
21
147.7504792
0
LINE
8
DEFAULT_255_2_778
10
14.8137615
20
147.7504792
11
14.9463615
21
147.7504792
0
LINE
8
DEFAULT_255_2_778
10
14.9463615
20
147.7504792
11
14.9463615
21
147.0625792
0
LINE
8
DEFAULT_255_2_778
10
15.4143615
20
147.0617792
11
15.4143615
21
147.7504792
0
LINE
8
DEFAULT_255_2_778
10
15.4143615
20
147.7504792
11
15.4143615
21
147.7504792
0
LINE
8
DEFAULT_255_2_778
10
16.5410073
20
147.7504677
11
16.5410073
21
146.7347677
0
LINE
8
DEFAULT_255_2_778
10
16.5410073
20
146.7347677
11
16.4063073
21
146.7347677
0
LINE
8
DEFAULT_255_2_778
10
16.4063073
20
146.7347677
11
15.8949073
21
147.5173677
0
LINE
8
DEFAULT_255_2_778
10
15.8949073
20
147.5173677
11
15.8949073
21
146.7347677
0
LINE
8
DEFAULT_255_2_778
10
15.8949073
20
146.7347677
11
15.7602073
21
146.7347677
0
LINE
8
DEFAULT_255_2_778
10
15.7602073
20
146.7347677
11
15.7602073
21
147.7504677
0
LINE
8
DEFAULT_255_2_778
10
15.7602073
20
147.7504677
11
15.8949073
21
147.7504677
0
LINE
8
DEFAULT_255_2_778
10
15.8949073
20
147.7504677
11
16.4076073
21
146.9641677
0
LINE
8
DEFAULT_255_2_778
10
16.4076073
20
146.9641677
11
16.4076073
21
147.7504677
0
LINE
8
DEFAULT_255_2_778
10
16.4076073
20
147.7504677
11
16.5410073
21
147.7504677
0
LINE
8
DEFAULT_255_2_778
10
16.5410073
20
147.7504677
11
16.5410073
21
147.7504677
0
LINE
8
DEFAULT_255_2_778
10
16.9227604
20
147.7504677
11
16.9227604
21
146.7347677
0
LINE
8
DEFAULT_255_2_778
10
16.9227604
20
146.7347677
11
16.7888604
21
146.7347677
0
LINE
8
DEFAULT_255_2_778
10
16.7888604
20
146.7347677
11
16.7888604
21
147.7504677
0
LINE
8
DEFAULT_255_2_778
10
16.7888604
20
147.7504677
11
16.9227604
21
147.7504677
0
LINE
8
DEFAULT_255_2_778
10
16.9227604
20
147.7504677
11
16.9227604
21
147.7504677
0
ARC
8
DEFAULT_255_2_778
10
17.525529
20
147.0880779
40
0.3906557
50
320.0939117
51
355.4357419
0
ARC
8
DEFAULT_255_2_778
10
17.5851515
20
147.0496714
40
0.3204011
50
311.1167713
51
318.5221627
0
ARC
8
DEFAULT_255_2_778
10
17.5558337
20
147.0964765
40
0.3750426
50
270.683661
51
309.7888225
0
ARC
8
DEFAULT_255_2_778
10
17.5300289
20
147.3165448
40
0.5958541
50
269.972783
51
272.9128762
0
ARC
8
DEFAULT_255_2_778
10
17.5167301
20
147.0782966
40
0.3578428
50
219.6849258
51
272.0844704
0
ARC
8
DEFAULT_255_2_778
10
17.6144735
20
147.1498905
40
0.4788363
50
184.2995714
51
218.8090964
0
ARC
8
DEFAULT_255_2_778
10
17.8994458
20
147.1935599
40
0.7666015
50
179.8855959
51
185.9576703
0
ARC
8
DEFAULT_255_2_778
10
17.7119394
20
147.3048649
40
0.5792215
50
155.8661952
51
181.2043532
0
ARC
8
DEFAULT_255_2_778
10
17.5289133
20
147.3863691
40
0.3788689
50
122.2495513
51
155.7976055
0
ARC
8
DEFAULT_255_2_778
10
17.533514
20
147.3657363
40
0.3988372
50
88.8317267
51
121.2268317
0
ARC
8
DEFAULT_255_2_778
10
17.5559982
20
147.3804682
40
0.3842906
50
56.325729
51
92.1403545
0
ARC
8
DEFAULT_255_2_778
10
17.5866447
20
147.4423468
40
0.315925
50
47.2374097
51
54.7285172
0
ARC
8
DEFAULT_255_2_778
10
17.5412839
20
147.4058066
40
0.3736468
50
4.3570756
51
45.9349246
0
ARC
8
DEFAULT_255_2_778
10
17.3441439
20
147.3667653
40
0.5736833
50
5.7448877
51
6.7498734
0
ARC
8
DEFAULT_255_2_778
10
17.4306978
20
147.3864483
40
0.3515798
50
6.1626079
51
30.3471013
0
ARC
8
DEFAULT_255_2_778
10
17.578655
20
147.465876
40
0.1838708
50
32.2822483
51
46.7902919
0
ARC
8
DEFAULT_255_2_778
10
17.5561964
20
147.4267527
40
0.2280006
50
49.4091002
51
93.2474645
0
ARC
8
DEFAULT_255_2_778
10
17.5416472
20
147.2376022
40
0.4167883
50
89.7754773
51
90.0001927
0
ARC
8
DEFAULT_255_2_778
10
17.5316881
20
147.4145169
40
0.2400803
50
87.622888
51
142.8834388
0
ARC
8
DEFAULT_255_2_778
10
17.6378002
20
147.3452665
40
0.3665893
50
144.2607007
51
174.305077
0
ARC
8
DEFAULT_255_2_778
10
17.9578905
20
147.2924749
40
0.6906506
50
172.581923
51
180.2392783
0
ARC
8
DEFAULT_255_2_778
10
17.7923857
20
147.178541
40
0.5252898
50
178.6310243
51
200.357842
0
ARC
8
DEFAULT_255_2_778
10
17.6030995
20
147.1155849
40
0.3259969
50
201.5575735
51
215.0880289
0
ARC
8
DEFAULT_255_2_778
10
17.5209047
20
147.0532864
40
0.2229594
50
214.1298041
51
272.1954385
0
ARC
8
DEFAULT_255_2_778
10
17.5421114
20
147.1146374
40
0.284429
50
267.4477976
51
298.4423644
0
ARC
8
DEFAULT_255_2_778
10
17.5875781
20
147.0143327
40
0.1747506
50
300.9985725
51
310.3175476
0
ARC
8
DEFAULT_255_2_778
10
17.5418871
20
147.0488628
40
0.2309802
50
313.4188311
51
347.5688654
0
ARC
8
DEFAULT_255_2_778
10
17.2681755
20
147.1350699
40
0.5174494
50
344.7702088
51
351.3549471
0
LINE
8
DEFAULT_255_2_778
10
17.7802458
20
147.0569906
11
17.9149458
21
147.0569906
0
LINE
8
DEFAULT_255_2_778
10
17.1328458
20
147.1950906
11
17.1328458
21
147.2926906
0
LINE
8
DEFAULT_255_2_778
10
17.9149458
20
147.4241906
11
17.7802458
21
147.4241906
0
LINE
8
DEFAULT_255_2_778
10
17.2672458
20
147.2895906
11
17.2672458
21
147.1910906
0
LINE
8
DEFAULT_255_2_778
10
17.7797458
20
147.0572906
11
17.7802458
21
147.0569906
0
LINE
8
DEFAULT_255_2_778
10
18.7552573
20
146.7347677
11
18.6584573
21
146.9998677
0
LINE
8
DEFAULT_255_2_778
10
18.6584573
20
146.9998677
11
18.2329573
21
146.9998677
0
LINE
8
DEFAULT_255_2_778
10
18.2329573
20
146.9998677
11
18.1374573
21
146.7347677
0
LINE
8
DEFAULT_255_2_778
10
18.1374573
20
146.7347677
11
17.9993573
21
146.7347677
0
LINE
8
DEFAULT_255_2_778
10
17.9993573
20
146.7347677
11
18.3872573
21
147.7504677
0
LINE
8
DEFAULT_255_2_778
10
18.3872573
20
147.7504677
11
18.5044573
21
147.7504677
0
LINE
8
DEFAULT_255_2_778
10
18.5044573
20
147.7504677
11
18.8931573
21
146.7347677
0
LINE
8
DEFAULT_255_2_778
10
18.8931573
20
146.7347677
11
18.7557573
21
146.7347677
0
LINE
8
DEFAULT_255_2_778
10
18.7557573
20
146.7347677
11
18.7552573
21
146.7347677
0
LINE
8
DEFAULT_255_2_778
10
18.4454573
20
147.5850677
11
18.2731573
21
147.1098677
0
LINE
8
DEFAULT_255_2_778
10
18.2731573
20
147.1098677
11
18.6184573
21
147.1098677
0
LINE
8
DEFAULT_255_2_778
10
18.6184573
20
147.1098677
11
18.4454573
21
147.5850677
0
LINE
8
DEFAULT_255_2_778
10
18.4454573
20
147.5850677
11
18.4454573
21
147.5850677
0
LINE
8
DEFAULT_255_2_778
10
19.6413573
20
147.7504677
11
19.6413573
21
147.6401677
0
LINE
8
DEFAULT_255_2_778
10
19.6413573
20
147.6401677
11
19.3148573
21
147.6401677
0
LINE
8
DEFAULT_255_2_778
10
19.3148573
20
147.6401677
11
19.3148573
21
146.7347677
0
LINE
8
DEFAULT_255_2_778
10
19.3148573
20
146.7347677
11
19.1815573
21
146.7347677
0
LINE
8
DEFAULT_255_2_778
10
19.1815573
20
146.7347677
11
19.1815573
21
147.6401677
0
LINE
8
DEFAULT_255_2_778
10
19.1815573
20
147.6401677
11
18.8558573
21
147.6401677
0
LINE
8
DEFAULT_255_2_778
10
18.8558573
20
147.6401677
11
18.8558573
21
147.7504677
0
LINE
8
DEFAULT_255_2_778
10
18.8558573
20
147.7504677
11
19.6413573
21
147.7504677
0
LINE
8
DEFAULT_255_2_778
10
19.6413573
20
147.7504677
11
19.6413573
21
147.7504677
0
LINE
8
DEFAULT_255_2_778
10
19.9358573
20
147.7504677
11
19.9358573
21
146.7347677
0
LINE
8
DEFAULT_255_2_778
10
19.9358573
20
146.7347677
11
19.8019573
21
146.7347677
0
LINE
8
DEFAULT_255_2_778
10
19.8019573
20
146.7347677
11
19.8019573
21
147.7504677
0
LINE
8
DEFAULT_255_2_778
10
19.8019573
20
147.7504677
11
19.9358573
21
147.7504677
0
LINE
8
DEFAULT_255_2_778
10
19.9358573
20
147.7504677
11
19.9358573
21
147.7504677
0
ARC
8
DEFAULT_255_2_778
10
20.3283939
20
147.1964447
40
0.6339595
50
337.7168824
51
1.1942991
0
ARC
8
DEFAULT_255_2_778
10
20.4673848
20
147.1497798
40
0.4877467
50
335.6991379
51
336.5981488
0
ARC
8
DEFAULT_255_2_778
10
20.5623961
20
147.0974445
40
0.3797136
50
303.0742929
51
336.996679
0
ARC
8
DEFAULT_255_2_778
10
20.5634012
20
147.1128198
40
0.3921577
50
268.7308963
51
301.7251905
0
ARC
8
DEFAULT_255_2_778
10
20.5475808
20
147.1079375
40
0.3872449
50
237.9377536
51
271.0557082
0
ARC
8
DEFAULT_255_2_778
10
20.552544
20
147.1057145
40
0.388033
50
204.0208413
51
237.1424158
0
ARC
8
DEFAULT_255_2_778
10
20.7465859
20
147.1939909
40
0.6012072
50
179.3645781
51
204.177428
0
ARC
8
DEFAULT_255_2_778
10
20.7669427
20
147.2863442
40
0.6216505
50
156.6474981
51
181.1416474
0
ARC
8
DEFAULT_255_2_778
10
20.5523375
20
147.3810122
40
0.3871042
50
123.2456192
51
156.9207945
0
ARC
8
DEFAULT_255_2_778
10
20.5466224
20
147.3765345
40
0.3877833
50
88.9962297
51
122.1766417
0
ARC
8
DEFAULT_255_2_778
10
20.5612321
20
147.3711536
40
0.3931825
50
58.1839244
51
91.1391171
0
ARC
8
DEFAULT_255_2_778
10
20.5614332
20
147.3858855
40
0.3806338
50
22.958682
51
57.0404811
0
ARC
8
DEFAULT_255_2_778
10
20.3319459
20
147.2872605
40
0.6304143
50
358.772752
51
23.0765762
0
ARC
8
DEFAULT_255_2_778
10
20.23807
20
147.2879903
40
0.5908765
50
358.7944184
51
17.1809147
0
ARC
8
DEFAULT_255_2_778
10
20.500883
20
147.365021
40
0.3170624
50
17.9107977
51
36.3296241
0
ARC
8
DEFAULT_255_2_778
10
20.5641276
20
147.4105708
40
0.2391276
50
36.5146052
51
92.567474
0
ARC
8
DEFAULT_255_2_778
10
20.5444296
20
147.4131189
40
0.2365102
50
87.8225671
51
143.7834327
0
ARC
8
DEFAULT_255_2_778
10
20.669127
20
147.3291964
40
0.3867455
50
144.667664
51
174.581815
0
ARC
8
DEFAULT_255_2_778
10
20.9758589
20
147.2789821
40
0.6971657
50
172.8534764
51
179.5417231
0
ARC
8
DEFAULT_255_2_778
10
20.8327891
20
147.1973788
40
0.5542163
50
178.6993945
51
199.2821565
0
ARC
8
DEFAULT_255_2_778
10
20.6192048
20
147.1289874
40
0.330083
50
200.319352
51
216.0453191
0
ARC
8
DEFAULT_255_2_778
10
20.5462629
20
147.072453
40
0.2378558
50
215.3731997
51
272.108875
0
ARC
8
DEFAULT_255_2_778
10
20.5663615
20
147.0712367
40
0.2367504
50
267.2531548
51
323.1518407
0
ARC
8
DEFAULT_255_2_778
10
20.4475667
20
147.1459557
40
0.376796
50
324.8929865
51
353.7567572
0
ARC
8
DEFAULT_255_2_778
10
20.1017996
20
147.2057099
40
0.7273372
50
352.0393908
51
359.5626741
0
LINE
8
DEFAULT_255_2_778
10
20.9622156
20
147.2739583
11
20.9622156
21
147.2096583
0
LINE
8
DEFAULT_255_2_778
10
20.1454156
20
147.2006583
11
20.1454156
21
147.2739583
0
LINE
8
DEFAULT_255_2_778
10
20.9622156
20
147.2737583
11
20.9622156
21
147.2739583
0
LINE
8
DEFAULT_255_2_778
10
20.8288156
20
147.2001583
11
20.8288156
21
147.2755583
0
LINE
8
DEFAULT_255_2_778
10
20.2787156
20
147.2845583
11
20.2787156
21
147.2099583
0
LINE
8
DEFAULT_255_2_778
10
20.8291156
20
147.2001583
11
20.8288156
21
147.2001583
0
LINE
8
DEFAULT_255_2_778
10
21.9435073
20
147.7504677
11
21.9435073
21
146.7347677
0
LINE
8
DEFAULT_255_2_778
10
21.9435073
20
146.7347677
11
21.8088073
21
146.7347677
0
LINE
8
DEFAULT_255_2_778
10
21.8088073
20
146.7347677
11
21.2974073
21
147.5173677
0
LINE
8
DEFAULT_255_2_778
10
21.2974073
20
147.5173677
11
21.2974073
21
146.7347677
0
LINE
8
DEFAULT_255_2_778
10
21.2974073
20
146.7347677
11
21.1627073
21
146.7347677
0
LINE
8
DEFAULT_255_2_778
10
21.1627073
20
146.7347677
11
21.1627073
21
147.7504677
0
LINE
8
DEFAULT_255_2_778
10
21.1627073
20
147.7504677
11
21.2974073
21
147.7504677
0
LINE
8
DEFAULT_255_2_778
10
21.2974073
20
147.7504677
11
21.8101073
21
146.9641677
0
LINE
8
DEFAULT_255_2_778
10
21.8101073
20
146.9641677
11
21.8101073
21
147.7504677
0
LINE
8
DEFAULT_255_2_778
10
21.8101073
20
147.7504677
11
21.9435073
21
147.7504677
0
LINE
8
DEFAULT_255_2_778
10
21.9435073
20
147.7504677
11
21.9435073
21
147.7504677
0
ARC
8
DEFAULT_255_2_778
10
5.000903
20
59.8449821
40
1.2109325
50
317.9976301
51
324.6502281
0
ARC
8
DEFAULT_255_2_778
10
5.6115882
20
59.4085938
40
0.4603638
50
324.9752893
51
331.6055518
0
ARC
8
DEFAULT_255_2_778
10
5.791671
20
59.3140489
40
0.2569979
50
331.0558286
51
359.827004
0
ARC
8
DEFAULT_255_2_778
10
5.8531546
20
59.3206031
40
0.1956504
50
357.85286
51
42.7747783
0
ARC
8
DEFAULT_255_2_778
10
5.8667265
20
59.3271706
40
0.1812815
50
44.1643676
51
92.5479001
0
ARC
8
DEFAULT_255_2_778
10
5.8457739
20
59.2945392
40
0.2141223
50
86.5477258
51
133.7269736
0
ARC
8
DEFAULT_255_2_778
10
5.8653854
20
59.2985536
40
0.2254151
50
138.0385922
51
183.4030901
0
ARC
8
DEFAULT_255_2_778
10
5.824042
20
59.2981247
40
0.3228342
50
134.3004829
51
182.2992711
0
ARC
8
DEFAULT_255_2_778
10
5.8376173
20
59.2682333
40
0.3538844
50
89.042448
51
132.4931277
0
ARC
8
DEFAULT_255_2_778
10
5.8586041
20
59.0669745
40
0.5552985
50
89.9934386
51
91.5554109
0
ARC
8
DEFAULT_255_2_778
10
5.8720507
20
59.2462416
40
0.3762694
50
60.430778
51
92.0383059
0
ARC
8
DEFAULT_255_2_778
10
5.9133992
20
59.3364674
40
0.2775223
50
47.8971468
51
58.6630586
0
ARC
8
DEFAULT_255_2_778
10
5.9158608
20
59.3410885
40
0.2724461
50
357.598583
51
47.6296702
0
ARC
8
DEFAULT_255_2_778
10
5.8160646
20
59.3426931
40
0.3722309
50
330.677692
51
357.995449
0
ARC
8
DEFAULT_255_2_778
10
5.3530011
20
59.5833717
40
0.8939921
50
319.4614421
51
331.7627879
0
ARC
8
DEFAULT_255_2_778
10
4.8891684
20
59.9563997
40
1.4890522
50
317.241771
51
320.1534065
0
LINE
8
DEFAULT_255_2_778
10
6.2383677
20
58.6279729
11
6.2383677
21
58.5147729
0
LINE
8
DEFAULT_255_2_778
10
6.2383677
20
58.5147729
11
5.5226677
21
58.5147729
0
LINE
8
DEFAULT_255_2_778
10
5.5226677
20
58.5147729
11
5.5226677
21
58.6144729
0
LINE
8
DEFAULT_255_2_778
10
5.5226677
20
58.6144729
11
5.9007677
21
59.0346729
0
LINE
8
DEFAULT_255_2_778
10
5.6403677
20
59.2851729
11
5.5014677
21
59.2851729
0
LINE
8
DEFAULT_255_2_778
10
5.9824677
20
58.9454729
11
5.6898677
21
58.6279729
0
LINE
8
DEFAULT_255_2_778
10
5.6898677
20
58.6279729
11
6.2383677
21
58.6279729
0
LINE
8
DEFAULT_255_2_778
10
6.2383677
20
58.6279729
11
6.2383677
21
58.6279729
0
ARC
8
DEFAULT_255_2_778
10
6.7005121
20
59.3576893
40
0.2292895
50
267.7206101
51
309.3494278
0
ARC
8
DEFAULT_255_2_778
10
6.7293946
20
59.3082495
40
0.1729801
50
312.3360073
51
2.6281302
0
ARC
8
DEFAULT_255_2_778
10
6.695579
20
59.3290605
40
0.2070148
50
356.4330877
51
35.748983
0
ARC
8
DEFAULT_255_2_778
10
6.7327185
20
59.3313957
40
0.1766222
50
42.1865549
51
91.8548352
0
ARC
8
DEFAULT_255_2_778
10
6.7110597
20
59.1509901
40
0.3572913
50
87.4426602
51
90.0267722
0
ARC
8
DEFAULT_255_2_778
10
6.701036
20
59.3095256
40
0.1989999
50
87.1609186
51
132.2275915
0
ARC
8
DEFAULT_255_2_778
10
6.693032
20
59.3286194
40
0.1796148
50
134.430997
51
182.5330326
0
ARC
8
DEFAULT_255_2_778
10
6.652781
20
59.3269619
40
0.2781592
50
131.1911722
51
181.2938093
0
ARC
8
DEFAULT_255_2_778
10
6.6980943
20
59.2766697
40
0.3458485
50
87.8792426
51
131.3531786
0
ARC
8
DEFAULT_255_2_778
10
6.7243466
20
59.2465757
40
0.3759464
50
60.7464017
51
92.0508708
0
ARC
8
DEFAULT_255_2_778
10
6.7672919
20
59.3407796
40
0.272905
50
47.0343964
51
58.9475011
0
ARC
8
DEFAULT_255_2_778
10
6.7481099
20
59.3309597
40
0.2932563
50
357.4304702
51
45.5994207
0
ARC
8
DEFAULT_255_2_778
10
6.5584805
20
59.3132677
40
0.4826122
50
0.0016014
51
0.5395657
0
ARC
8
DEFAULT_255_2_778
10
6.800372
20
59.3167523
40
0.2407457
50
323.9811049
51
359.1738924
0
ARC
8
DEFAULT_255_2_778
10
6.7665336
20
59.3339951
40
0.2783184
50
291.6893293
51
325.206578
0
ARC
8
DEFAULT_255_2_778
10
6.7951105
20
58.816016
40
0.2697928
50
37.6945336
51
74.0182931
0
ARC
8
DEFAULT_255_2_778
10
6.7949508
20
58.8276573
40
0.2629659
50
358.2400843
51
35.6657885
0
ARC
8
DEFAULT_255_2_778
10
6.7601548
20
58.8055601
40
0.297968
50
312.5870868
51
2.6970986
0
ARC
8
DEFAULT_255_2_778
10
6.7276598
20
58.8592117
40
0.3596718
50
267.5034334
51
310.614211
0
ARC
8
DEFAULT_255_2_778
10
6.6970074
20
58.8740066
40
0.3744253
50
233.1448014
51
272.2937172
0
ARC
8
DEFAULT_255_2_778
10
6.6723441
20
58.8272561
40
0.3223317
50
229.1922119
51
231.668172
0
ARC
8
DEFAULT_255_2_778
10
6.6417289
20
58.79316
40
0.2765178
50
177.9230901
51
229.3766641
0
ARC
8
DEFAULT_255_2_778
10
6.6834008
20
58.7954634
40
0.1787747
50
177.5257273
51
226.8754275
0
ARC
8
DEFAULT_255_2_778
10
6.7011119
20
58.8269093
40
0.2140049
50
229.1702869
51
272.914384
0
ARC
8
DEFAULT_255_2_778
10
6.7256238
20
58.8253806
40
0.2126367
50
266.3245278
51
309.8557631
0
ARC
8
DEFAULT_255_2_778
10
6.7546357
20
58.7781031
40
0.1579554
50
312.7686299
51
314.6755694
0
ARC
8
DEFAULT_255_2_778
10
6.7164094
20
58.8032302
40
0.202923
50
317.3634204
51
3.7724099
0
ARC
8
DEFAULT_255_2_778
10
6.7352923
20
58.8281043
40
0.1839617
50
356.4087245
51
47.1536027
0
ARC
8
DEFAULT_255_2_778
10
6.7111921
20
58.7741054
40
0.2406967
50
51.693372
51
89.6507409
0
ARC
8
DEFAULT_255_2_778
10
6.6852499
20
58.5614851
40
0.4541404
50
86.5398428
51
89.1997469
0
LINE
8
DEFAULT_255_2_778
10
6.5870927
20
59.0152812
11
6.5870927
21
59.1285812
0
LINE
8
DEFAULT_255_2_778
10
6.5870927
20
59.1285812
11
6.6913927
21
59.1285812
0
LINE
8
DEFAULT_255_2_778
10
6.5135927
20
59.3206812
11
6.3746927
21
59.3206812
0
LINE
8
DEFAULT_255_2_778
10
6.3653927
20
58.8031812
11
6.5047927
21
58.8031812
0
LINE
8
DEFAULT_255_2_778
10
6.6915927
20
59.0155812
11
6.5873927
21
59.0155812
0
LINE
8
DEFAULT_255_2_778
10
6.5873927
20
59.0155812
11
6.5870927
21
59.0152812
0
ARC
8
DEFAULT_255_2_778
10
6.726803
20
59.8449821
40
1.2109325
50
317.9976301
51
324.6502281
0
ARC
8
DEFAULT_255_2_778
10
7.3374882
20
59.4085938
40
0.4603638
50
324.9752893
51
331.6055518
0
ARC
8
DEFAULT_255_2_778
10
7.517571
20
59.3140489
40
0.2569979
50
331.0558286
51
359.827004
0
ARC
8
DEFAULT_255_2_778
10
7.5790546
20
59.3206031
40
0.1956504
50
357.85286
51
42.7747783
0
ARC
8
DEFAULT_255_2_778
10
7.5926265
20
59.3271706
40
0.1812815
50
44.1643676
51
92.5479001
0
ARC
8
DEFAULT_255_2_778
10
7.5716739
20
59.2945392
40
0.2141223
50
86.5477258
51
133.7269736
0
ARC
8
DEFAULT_255_2_778
10
7.5912854
20
59.2985536
40
0.2254151
50
138.0385922
51
183.4030901
0
ARC
8
DEFAULT_255_2_778
10
7.549942
20
59.2981247
40
0.3228342
50
134.3004829
51
182.2992711
0
ARC
8
DEFAULT_255_2_778
10
7.5635173
20
59.2682333
40
0.3538844
50
89.042448
51
132.4931277
0
ARC
8
DEFAULT_255_2_778
10
7.5845041
20
59.0669745
40
0.5552985
50
89.9934386
51
91.5554109
0
ARC
8
DEFAULT_255_2_778
10
7.5979507
20
59.2462416
40
0.3762694
50
60.430778
51
92.0383059
0
ARC
8
DEFAULT_255_2_778
10
7.6392992
20
59.3364674
40
0.2775223
50
47.8971468
51
58.6630586
0
ARC
8
DEFAULT_255_2_778
10
7.6417608
20
59.3410885
40
0.2724461
50
357.598583
51
47.6296702
0
ARC
8
DEFAULT_255_2_778
10
7.5419646
20
59.3426931
40
0.3722309
50
330.677692
51
357.995449
0
ARC
8
DEFAULT_255_2_778
10
7.0789011
20
59.5833717
40
0.8939921
50
319.4614421
51
331.7627879
0
ARC
8
DEFAULT_255_2_778
10
6.6150684
20
59.9563997
40
1.4890522
50
317.241771
51
320.1534065
0
LINE
8
DEFAULT_255_2_778
10
7.9642677
20
58.6279729
11
7.9642677
21
58.5147729
0
LINE
8
DEFAULT_255_2_778
10
7.9642677
20
58.5147729
11
7.2485677
21
58.5147729
0
LINE
8
DEFAULT_255_2_778
10
7.2485677
20
58.5147729
11
7.2485677
21
58.6144729
0
LINE
8
DEFAULT_255_2_778
10
7.2485677
20
58.6144729
11
7.6266677
21
59.0346729
0
LINE
8
DEFAULT_255_2_778
10
7.3662677
20
59.2851729
11
7.2273677
21
59.2851729
0
LINE
8
DEFAULT_255_2_778
10
7.7083677
20
58.9454729
11
7.4157677
21
58.6279729
0
LINE
8
DEFAULT_255_2_778
10
7.4157677
20
58.6279729
11
7.9642677
21
58.6279729
0
LINE
8
DEFAULT_255_2_778
10
7.9642677
20
58.6279729
11
7.9642677
21
58.6279729
0
ARC
8
DEFAULT_255_2_778
10
8.5240696
20
58.8973534
40
0.4283556
50
322.3307474
51
355.1767704
0
ARC
8
DEFAULT_255_2_778
10
8.5963896
20
58.8528993
40
0.3440625
50
311.1531773
51
320.8306199
0
ARC
8
DEFAULT_255_2_778
10
8.5656066
20
58.9022329
40
0.4015733
50
271.3016676
51
309.8280021
0
ARC
8
DEFAULT_255_2_778
10
8.5369102
20
59.1346699
40
0.6350337
50
269.9637456
51
273.4142095
0
ARC
8
DEFAULT_255_2_778
10
8.522471
20
58.8843293
40
0.3849489
50
219.6806412
51
272.0897897
0
ARC
8
DEFAULT_255_2_778
10
8.6232808
20
58.9590547
40
0.5102926
50
185.2054061
51
218.910591
0
ARC
8
DEFAULT_255_2_778
10
8.9238249
20
59.0079819
40
0.8143191
50
179.8554407
51
186.7153767
0
ARC
8
DEFAULT_255_2_778
10
8.7300393
20
59.1281978
40
0.6206705
50
155.7785902
51
181.2150517
0
ARC
8
DEFAULT_255_2_778
10
8.5351359
20
59.2160331
40
0.4068894
50
122.2009621
51
155.798448
0
ARC
8
DEFAULT_255_2_778
10
8.5403522
20
59.193669
40
0.428659
50
88.8161781
51
121.1979586
0
ARC
8
DEFAULT_255_2_778
10
8.5633837
20
59.2024074
40
0.4200683
50
58.5006667
51
91.933826
0
ARC
8
DEFAULT_255_2_778
10
8.5977515
20
59.2757076
40
0.3397314
50
47.2392011
51
56.9834937
0
ARC
8
DEFAULT_255_2_778
10
8.5513954
20
59.2383558
40
0.3987221
50
5.219041
51
45.9925515
0
ARC
8
DEFAULT_255_2_778
10
8.3430649
20
59.1953863
40
0.6105633
50
5.7008598
51
7.4568515
0
ARC
8
DEFAULT_255_2_778
10
8.4218867
20
59.2131208
40
0.3864122
50
6.3765238
51
29.3980597
0
ARC
8
DEFAULT_255_2_778
10
8.5851323
20
59.2982678
40
0.2024786
50
31.0821217
51
46.5394194
0
ARC
8
DEFAULT_255_2_778
10
8.5660341
20
59.2606974
40
0.2431812
50
49.3632935
51
92.3197554
0
ARC
8
DEFAULT_255_2_778
10
8.5492443
20
59.0804194
40
0.4233169
50
89.0597319
51
90.0048687
0
ARC
8
DEFAULT_255_2_778
10
8.5383447
20
59.2465349
40
0.2574309
50
87.581377
51
142.9788783
0
ARC
8
DEFAULT_255_2_778
10
8.6508132
20
59.1728169
40
0.3917138
50
144.2750719
51
173.7748175
0
ARC
8
DEFAULT_255_2_778
10
8.9933525
20
59.1144872
40
0.7388522
50
172.1583588
51
180.267595
0
ARC
8
DEFAULT_255_2_778
10
8.8270444
20
58.9925263
40
0.5726771
50
178.7282572
51
199.5173695
0
ARC
8
DEFAULT_255_2_778
10
8.6184169
20
58.9254936
40
0.3537023
50
200.5735799
51
215.0359725
0
ARC
8
DEFAULT_255_2_778
10
8.5276294
20
58.8575436
40
0.2403825
50
214.1977457
51
272.1883677
0
ARC
8
DEFAULT_255_2_778
10
8.5493528
20
58.9301506
40
0.3130655
50
267.7035649
51
296.7544725
0
ARC
8
DEFAULT_255_2_778
10
8.5978236
20
58.8172141
40
0.1905496
50
299.0278712
51
310.276053
0
ARC
8
DEFAULT_255_2_778
10
8.5518906
20
58.8509738
40
0.2463554
50
313.3520111
51
346.9383222
0
ARC
8
DEFAULT_255_2_778
10
8.2634359
20
58.9437678
40
0.5488973
50
344.3066748
51
351.362859
0
LINE
8
DEFAULT_255_2_778
10
8.8061084
20
58.8613364
11
8.9509084
21
58.8613364
0
LINE
8
DEFAULT_255_2_778
10
8.1095084
20
59.0100364
11
8.1095084
21
59.1150364
0
LINE
8
DEFAULT_255_2_778
10
8.9506084
20
59.2560364
11
8.8059084
21
59.2560364
0
LINE
8
DEFAULT_255_2_778
10
8.2545084
20
59.1110364
11
8.2545084
21
59.0052364
0
LINE
8
DEFAULT_255_2_778
10
8.8061084
20
58.8613364
11
8.8061084
21
58.8613364
0
LINE
8
DEFAULT_255_2_778
10
9.6089084
20
59.6071364
11
9.1535084
21
58.4207364
0
LINE
8
DEFAULT_255_2_778
10
9.1535084
20
58.4207364
11
9.0342084
21
58.4207364
0
LINE
8
DEFAULT_255_2_778
10
9.0342084
20
58.4207364
11
9.4904084
21
59.6071364
0
LINE
8
DEFAULT_255_2_778
10
9.4904084
20
59.6071364
11
9.6089084
21
59.6071364
0
LINE
8
DEFAULT_255_2_778
10
9.6089084
20
59.6071364
11
9.6089084
21
59.6071364
0
LINE
8
DEFAULT_255_2_778
10
10.3307084
20
59.6071364
11
10.3307084
21
58.8816364
0
LINE
8
DEFAULT_255_2_778
10
10.3307084
20
58.8816364
11
10.4823084
21
58.8816364
0
LINE
8
DEFAULT_255_2_778
10
10.4823084
20
58.8816364
11
10.4823084
21
58.7684364
0
LINE
8
DEFAULT_255_2_778
10
10.4823084
20
58.7684364
11
10.3307084
21
58.7684364
0
LINE
8
DEFAULT_255_2_778
10
10.3307084
20
58.7684364
11
10.3307084
21
58.5147364
0
LINE
8
DEFAULT_255_2_778
10
10.3307084
20
58.5147364
11
10.1912084
21
58.5147364
0
LINE
8
DEFAULT_255_2_778
10
10.1912084
20
58.5147364
11
10.1912084
21
58.7684364
0
LINE
8
DEFAULT_255_2_778
10
10.1912084
20
58.7684364
11
9.6938084
21
58.7684364
0
LINE
8
DEFAULT_255_2_778
10
9.6938084
20
58.7684364
11
9.6938084
21
58.8501364
0
LINE
8
DEFAULT_255_2_778
10
9.6938084
20
58.8501364
11
10.1830084
21
59.6071364
0
LINE
8
DEFAULT_255_2_778
10
10.1830084
20
59.6071364
11
10.3309084
21
59.6071364
0
LINE
8
DEFAULT_255_2_778
10
10.3309084
20
59.6071364
11
10.3307084
21
59.6071364
0
LINE
8
DEFAULT_255_2_778
10
10.1746084
20
59.3873364
11
9.8513084
21
58.8816364
0
LINE
8
DEFAULT_255_2_778
10
9.8513084
20
58.8816364
11
10.1912084
21
58.8816364
0
LINE
8
DEFAULT_255_2_778
10
10.1912084
20
58.8816364
11
10.1912084
21
59.4174364
0
LINE
8
DEFAULT_255_2_778
10
10.1912084
20
59.4174364
11
10.1748084
21
59.3875364
0
LINE
8
DEFAULT_255_2_778
10
10.1748084
20
59.3875364
11
10.1746084
21
59.3873364
0
ARC
8
DEFAULT_255_2_778
10
10.085903
20
59.8449821
40
1.2109325
50
317.9976301
51
324.6502281
0
ARC
8
DEFAULT_255_2_778
10
10.6965882
20
59.4085938
40
0.4603638
50
324.9752893
51
331.6055518
0
ARC
8
DEFAULT_255_2_778
10
10.876671
20
59.3140489
40
0.2569979
50
331.0558286
51
359.827004
0
ARC
8
DEFAULT_255_2_778
10
10.9381546
20
59.3206031
40
0.1956504
50
357.85286
51
42.7747783
0
ARC
8
DEFAULT_255_2_778
10
10.9517265
20
59.3271706
40
0.1812815
50
44.1643676
51
92.5479001
0
ARC
8
DEFAULT_255_2_778
10
10.9307739
20
59.2945392
40
0.2141223
50
86.5477258
51
133.7269736
0
ARC
8
DEFAULT_255_2_778
10
10.9503854
20
59.2985536
40
0.2254151
50
138.0385922
51
183.4030901
0
ARC
8
DEFAULT_255_2_778
10
10.909042
20
59.2981247
40
0.3228342
50
134.3004829
51
182.2992711
0
ARC
8
DEFAULT_255_2_778
10
10.9226173
20
59.2682333
40
0.3538844
50
89.042448
51
132.4931277
0
ARC
8
DEFAULT_255_2_778
10
10.9436041
20
59.0669745
40
0.5552985
50
89.9934386
51
91.5554109
0
ARC
8
DEFAULT_255_2_778
10
10.9570507
20
59.2462416
40
0.3762694
50
60.430778
51
92.0383059
0
ARC
8
DEFAULT_255_2_778
10
10.9983992
20
59.3364674
40
0.2775223
50
47.8971468
51
58.6630586
0
ARC
8
DEFAULT_255_2_778
10
11.0008608
20
59.3410885
40
0.2724461
50
357.598583
51
47.6296702
0
ARC
8
DEFAULT_255_2_778
10
10.9010646
20
59.3426931
40
0.3722309
50
330.677692
51
357.995449
0
ARC
8
DEFAULT_255_2_778
10
10.4380011
20
59.5833717
40
0.8939921
50
319.4614421
51
331.7627879
0
ARC
8
DEFAULT_255_2_778
10
9.9741684
20
59.9563997
40
1.4890522
50
317.241771
51
320.1534065
0
LINE
8
DEFAULT_255_2_778
10
11.3233677
20
58.6279729
11
11.3233677
21
58.5147729
0
LINE
8
DEFAULT_255_2_778
10
11.3233677
20
58.5147729
11
10.6076677
21
58.5147729
0
LINE
8
DEFAULT_255_2_778
10
10.6076677
20
58.5147729
11
10.6076677
21
58.6144729
0
LINE
8
DEFAULT_255_2_778
10
10.6076677
20
58.6144729
11
10.9857677
21
59.0346729
0
LINE
8
DEFAULT_255_2_778
10
10.7253677
20
59.2851729
11
10.5864677
21
59.2851729
0
LINE
8
DEFAULT_255_2_778
10
11.0674677
20
58.9454729
11
10.7748677
21
58.6279729
0
LINE
8
DEFAULT_255_2_778
10
10.7748677
20
58.6279729
11
11.3233677
21
58.6279729
0
LINE
8
DEFAULT_255_2_778
10
11.3233677
20
58.6279729
11
11.3233677
21
58.6279729
0
ARC
8
DEFAULT_255_2_778
10
10.948703
20
59.8449821
40
1.2109325
50
317.9976301
51
324.6502281
0
ARC
8
DEFAULT_255_2_778
10
11.5593882
20
59.4085938
40
0.4603638
50
324.9752893
51
331.6055518
0
ARC
8
DEFAULT_255_2_778
10
11.739471
20
59.3140489
40
0.2569979
50
331.0558286
51
359.827004
0
ARC
8
DEFAULT_255_2_778
10
11.8009546
20
59.3206031
40
0.1956504
50
357.85286
51
42.7747783
0
ARC
8
DEFAULT_255_2_778
10
11.8145265
20
59.3271706
40
0.1812815
50
44.1643676
51
92.5479001
0
ARC
8
DEFAULT_255_2_778
10
11.7935739
20
59.2945392
40
0.2141223
50
86.5477258
51
133.7269736
0
ARC
8
DEFAULT_255_2_778
10
11.8131854
20
59.2985536
40
0.2254151
50
138.0385922
51
183.4030901
0
ARC
8
DEFAULT_255_2_778
10
11.771842
20
59.2981247
40
0.3228342
50
134.3004829
51
182.2992711
0
ARC
8
DEFAULT_255_2_778
10
11.7854173
20
59.2682333
40
0.3538844
50
89.042448
51
132.4931277
0
ARC
8
DEFAULT_255_2_778
10
11.8064041
20
59.0669745
40
0.5552985
50
89.9934386
51
91.5554109
0
ARC
8
DEFAULT_255_2_778
10
11.8198507
20
59.2462416
40
0.3762694
50
60.430778
51
92.0383059
0
ARC
8
DEFAULT_255_2_778
10
11.8611992
20
59.3364674
40
0.2775223
50
47.8971468
51
58.6630586
0
ARC
8
DEFAULT_255_2_778
10
11.8636608
20
59.3410885
40
0.2724461
50
357.598583
51
47.6296702
0
ARC
8
DEFAULT_255_2_778
10
11.7638646
20
59.3426931
40
0.3722309
50
330.677692
51
357.995449
0
ARC
8
DEFAULT_255_2_778
10
11.3008011
20
59.5833717
40
0.8939921
50
319.4614421
51
331.7627879
0
ARC
8
DEFAULT_255_2_778
10
10.8369684
20
59.9563997
40
1.4890522
50
317.241771
51
320.1534065
0
LINE
8
DEFAULT_255_2_778
10
12.1861677
20
58.6279729
11
12.1861677
21
58.5147729
0
LINE
8
DEFAULT_255_2_778
10
12.1861677
20
58.5147729
11
11.4704677
21
58.5147729
0
LINE
8
DEFAULT_255_2_778
10
11.4704677
20
58.5147729
11
11.4704677
21
58.6144729
0
LINE
8
DEFAULT_255_2_778
10
11.4704677
20
58.6144729
11
11.8485677
21
59.0346729
0
LINE
8
DEFAULT_255_2_778
10
11.5881677
20
59.2851729
11
11.4492677
21
59.2851729
0
LINE
8
DEFAULT_255_2_778
10
11.9302677
20
58.9454729
11
11.6376677
21
58.6279729
0
LINE
8
DEFAULT_255_2_778
10
11.6376677
20
58.6279729
11
12.1861677
21
58.6279729
0
LINE
8
DEFAULT_255_2_778
10
12.1861677
20
58.6279729
11
12.1861677
21
58.6279729
0
ARC
8
DEFAULT_255_2_778
10
8.8219102
20
139.4847077
40
0.4271642
50
63.9891245
51
91.7714721
0
ARC
8
DEFAULT_255_2_778
10
8.8727026
20
139.6072911
40
0.2948342
50
48.0209163
51
62.4128357
0
ARC
8
DEFAULT_255_2_778
10
8.8755562
20
139.6126043
40
0.2889794
50
357.7120353
51
47.7369084
0
ARC
8
DEFAULT_255_2_778
10
8.870717
20
139.5860336
40
0.293973
50
318.9374902
51
2.9314543
0
ARC
8
DEFAULT_255_2_778
10
8.9030438
20
139.5686658
40
0.2583183
50
310.8500832
51
317.1317631
0
ARC
8
DEFAULT_255_2_778
10
8.855527
20
139.6405766
40
0.3439722
50
274.6912302
51
309.0020429
0
ARC
8
DEFAULT_255_2_778
10
8.8092302
20
139.9261801
40
0.6328156
50
269.8166543
51
276.7545006
0
ARC
8
DEFAULT_255_2_778
10
8.8214963
20
139.6634816
40
0.260628
50
267.186928
51
300.8753259
0
ARC
8
DEFAULT_255_2_778
10
8.8629931
20
139.5785286
40
0.1666103
50
303.6203986
51
311.4599666
0
ARC
8
DEFAULT_255_2_778
10
8.8463385
20
139.587624
40
0.1845667
50
313.4655273
51
3.7725283
0
ARC
8
DEFAULT_255_2_778
10
8.8404942
20
139.6084999
40
0.1902116
50
357.368759
51
45.7149934
0
ARC
8
DEFAULT_255_2_778
10
8.8238692
20
139.5765853
40
0.2249063
50
48.3608428
51
91.9018101
0
ARC
8
DEFAULT_255_2_778
10
10.9511039
20
139.4219156
40
0.4899167
50
69.1377785
51
91.4852761
0
ARC
8
DEFAULT_255_2_778
10
11.0172704
20
139.6123558
40
0.2884607
50
50.0736439
51
67.9476545
0
ARC
8
DEFAULT_255_2_778
10
11.019308
20
139.6278375
40
0.2754079
50
358.3539178
51
48.3313319
0
ARC
8
DEFAULT_255_2_778
10
10.8264396
20
139.6061378
40
0.4683656
50
359.9914195
51
1.6869942
0
ARC
8
DEFAULT_255_2_778
10
11.0219423
20
139.6001765
40
0.2729265
50
324.2366589
51
1.2368448
0
ARC
8
DEFAULT_255_2_778
10
10.9972199
20
139.624852
40
0.3074591
50
289.6885896
51
323.1978938
0
ARC
8
DEFAULT_255_2_778
10
10.9548755
20
139.6487608
40
0.2327168
50
266.9776182
51
309.0241782
0
ARC
8
DEFAULT_255_2_778
10
10.9862848
20
139.5988034
40
0.1742719
50
311.3440832
51
2.3889876
0
ARC
8
DEFAULT_255_2_778
10
10.9767786
20
139.6179173
40
0.1840086
50
356.3077567
51
46.1281825
0
ARC
8
DEFAULT_255_2_778
10
10.9616301
20
139.5739422
40
0.2270523
50
51.0692847
51
90.8206227
0
ARC
8
DEFAULT_255_2_778
10
10.9398359
20
139.374206
40
0.4271678
50
87.512152
51
89.6956139
0
LINE
8
DEFAULT_255_2_778
10
8.8072052
20
139.2935677
11
8.5680052
21
139.2935677
0
LINE
8
DEFAULT_255_2_778
10
8.5680052
20
139.2935677
11
8.5680052
21
138.8959677
0
LINE
8
DEFAULT_255_2_778
10
8.5680052
20
138.8959677
11
8.4341052
21
138.8959677
0
LINE
8
DEFAULT_255_2_778
10
8.4341052
20
138.8959677
11
8.4341052
21
139.9116677
0
LINE
8
DEFAULT_255_2_778
10
8.4341052
20
139.9116677
11
8.8087052
21
139.9116677
0
LINE
8
DEFAULT_255_2_778
10
8.8072052
20
139.2933677
11
8.8072052
21
139.2935677
0
LINE
8
DEFAULT_255_2_778
10
8.5680052
20
139.8015677
11
8.5680052
21
139.4031677
0
LINE
8
DEFAULT_255_2_778
10
8.5680052
20
139.4031677
11
8.8087052
21
139.4031677
0
LINE
8
DEFAULT_255_2_778
10
8.8164052
20
139.8013677
11
8.5680052
21
139.8013677
0
LINE
8
DEFAULT_255_2_778
10
8.5680052
20
139.8013677
11
8.5680052
21
139.8015677
0
LINE
8
DEFAULT_255_2_778
10
9.3937052
20
139.9116677
11
9.5541052
21
139.2160677
0
LINE
8
DEFAULT_255_2_778
10
9.5541052
20
139.2160677
11
9.5737052
21
139.0821677
0
LINE
8
DEFAULT_255_2_778
10
9.5737052
20
139.0821677
11
9.6022052
21
139.2028677
0
LINE
8
DEFAULT_255_2_778
10
9.6022052
20
139.2028677
11
9.8031052
21
139.9116677
0
LINE
8
DEFAULT_255_2_778
10
9.8031052
20
139.9116677
11
9.9160052
21
139.9116677
0
LINE
8
DEFAULT_255_2_778
10
9.9160052
20
139.9116677
11
10.1121052
21
139.2028677
0
LINE
8
DEFAULT_255_2_778
10
10.1121052
20
139.2028677
11
10.1399052
21
139.0800677
0
LINE
8
DEFAULT_255_2_778
10
10.1399052
20
139.0800677
11
10.1616052
21
139.2168677
0
LINE
8
DEFAULT_255_2_778
10
10.1616052
20
139.2168677
11
10.3193052
21
139.9116677
0
LINE
8
DEFAULT_255_2_778
10
10.3193052
20
139.9116677
11
10.4539052
21
139.9116677
0
LINE
8
DEFAULT_255_2_778
10
10.4539052
20
139.9116677
11
10.2076052
21
138.8959677
0
LINE
8
DEFAULT_255_2_778
10
10.2076052
20
138.8959677
11
10.0859052
21
138.8959677
0
LINE
8
DEFAULT_255_2_778
10
10.0859052
20
138.8959677
11
9.8766052
21
139.6362677
0
LINE
8
DEFAULT_255_2_778
10
9.8766052
20
139.6362677
11
9.8605052
21
139.7137677
0
LINE
8
DEFAULT_255_2_778
10
9.8605052
20
139.7137677
11
9.8443052
21
139.6362677
0
LINE
8
DEFAULT_255_2_778
10
9.8443052
20
139.6362677
11
9.6274052
21
138.8959677
0
LINE
8
DEFAULT_255_2_778
10
9.6274052
20
138.8959677
11
9.5054052
21
138.8959677
0
LINE
8
DEFAULT_255_2_778
10
9.5054052
20
138.8959677
11
9.2599052
21
139.9116677
0
LINE
8
DEFAULT_255_2_778
10
9.2599052
20
139.9116677
11
9.3937052
21
139.9116677
0
LINE
8
DEFAULT_255_2_778
10
9.3937052
20
139.9116677
11
9.3937052
21
139.9116677
0
LINE
8
DEFAULT_255_2_778
10
11.1958052
20
138.8959677
11
10.9754052
21
139.3068677
0
LINE
8
DEFAULT_255_2_778
10
10.9754052
20
139.3068677
11
10.7368052
21
139.3068677
0
LINE
8
DEFAULT_255_2_778
10
10.7368052
20
139.3068677
11
10.7368052
21
138.8959677
0
LINE
8
DEFAULT_255_2_778
10
10.7368052
20
138.8959677
11
10.6021052
21
138.8959677
0
LINE
8
DEFAULT_255_2_778
10
10.6021052
20
138.8959677
11
10.6021052
21
139.9116677
0
LINE
8
DEFAULT_255_2_778
10
10.6021052
20
139.9116677
11
10.9384052
21
139.9116677
0
LINE
8
DEFAULT_255_2_778
10
11.1008052
20
139.3353677
11
11.3395052
21
138.9043677
0
LINE
8
DEFAULT_255_2_778
10
11.3395052
20
138.9043677
11
11.3395052
21
138.8959677
0
LINE
8
DEFAULT_255_2_778
10
11.3395052
20
138.8959677
11
11.1958052
21
138.8959677
0
LINE
8
DEFAULT_255_2_778
10
11.1958052
20
138.8959677
11
11.1958052
21
138.8959677
0
LINE
8
DEFAULT_255_2_778
10
10.7368052
20
139.8013677
11
10.7368052
21
139.4163677
0
LINE
8
DEFAULT_255_2_778
10
10.7368052
20
139.4163677
11
10.9426052
21
139.4163677
0
LINE
8
DEFAULT_255_2_778
10
10.9421052
20
139.8013677
11
10.7370052
21
139.8013677
0
LINE
8
DEFAULT_255_2_778
10
10.7370052
20
139.8013677
11
10.7368052
21
139.8013677
0
LINE
8
DEFAULT_255_2_778
10
9.2398073
20
136.6387677
11
9.2398073
21
135.6230677
0
LINE
8
DEFAULT_255_2_778
10
9.2398073
20
135.6230677
11
9.1051073
21
135.6230677
0
LINE
8
DEFAULT_255_2_778
10
9.1051073
20
135.6230677
11
8.5937073
21
136.4056677
0
LINE
8
DEFAULT_255_2_778
10
8.5937073
20
136.4056677
11
8.5937073
21
135.6230677
0
LINE
8
DEFAULT_255_2_778
10
8.5937073
20
135.6230677
11
8.4590073
21
135.6230677
0
LINE
8
DEFAULT_255_2_778
10
8.4590073
20
135.6230677
11
8.4590073
21
136.6387677
0
LINE
8
DEFAULT_255_2_778
10
8.4590073
20
136.6387677
11
8.5937073
21
136.6387677
0
LINE
8
DEFAULT_255_2_778
10
8.5937073
20
136.6387677
11
9.1064073
21
135.8524677
0
LINE
8
DEFAULT_255_2_778
10
9.1064073
20
135.8524677
11
9.1064073
21
136.6387677
0
LINE
8
DEFAULT_255_2_778
10
9.1064073
20
136.6387677
11
9.2398073
21
136.6387677
0
LINE
8
DEFAULT_255_2_778
10
9.2398073
20
136.6387677
11
9.2398073
21
136.6387677
0
LINE
8
DEFAULT_255_2_778
10
10.1481219
20
135.6230677
11
10.0510219
21
135.8881677
0
LINE
8
DEFAULT_255_2_778
10
10.0510219
20
135.8881677
11
9.6255219
21
135.8881677
0
LINE
8
DEFAULT_255_2_778
10
9.6255219
20
135.8881677
11
9.5300219
21
135.6230677
0
LINE
8
DEFAULT_255_2_778
10
9.5300219
20
135.6230677
11
9.3919219
21
135.6230677
0
LINE
8
DEFAULT_255_2_778
10
9.3919219
20
135.6230677
11
9.7798219
21
136.6387677
0
LINE
8
DEFAULT_255_2_778
10
9.7798219
20
136.6387677
11
9.8970219
21
136.6387677
0
LINE
8
DEFAULT_255_2_778
10
9.8970219
20
136.6387677
11
10.2857219
21
135.6230677
0
LINE
8
DEFAULT_255_2_778
10
10.2857219
20
135.6230677
11
10.1483219
21
135.6230677
0
LINE
8
DEFAULT_255_2_778
10
10.1483219
20
135.6230677
11
10.1481219
21
135.6230677
0
LINE
8
DEFAULT_255_2_778
10
9.8383219
20
136.4733677
11
9.6660219
21
135.9981677
0
LINE
8
DEFAULT_255_2_778
10
9.6660219
20
135.9981677
11
10.0113219
21
135.9981677
0
LINE
8
DEFAULT_255_2_778
10
10.0113219
20
135.9981677
11
9.8383219
21
136.4733677
0
LINE
8
DEFAULT_255_2_778
10
9.8383219
20
136.4733677
11
9.8383219
21
136.4733677
0
LINE
8
DEFAULT_255_2_778
10
11.0405219
20
135.6230677
11
10.6804219
21
136.0952677
0
LINE
8
DEFAULT_255_2_778
10
10.6804219
20
136.0952677
11
10.5563219
21
135.9661677
0
LINE
8
DEFAULT_255_2_778
10
10.5563219
20
135.9661677
11
10.5563219
21
135.6230677
0
LINE
8
DEFAULT_255_2_778
10
10.5563219
20
135.6230677
11
10.4225219
21
135.6230677
0
LINE
8
DEFAULT_255_2_778
10
10.4225219
20
135.6230677
11
10.4225219
21
136.6387677
0
LINE
8
DEFAULT_255_2_778
10
10.4225219
20
136.6387677
11
10.5563219
21
136.6387677
0
LINE
8
DEFAULT_255_2_778
10
10.5563219
20
136.6387677
11
10.5563219
21
136.1365677
0
LINE
8
DEFAULT_255_2_778
10
10.5563219
20
136.1365677
11
11.0077219
21
136.6387677
0
LINE
8
DEFAULT_255_2_778
10
11.0077219
20
136.6387677
11
11.1696219
21
136.6387677
0
LINE
8
DEFAULT_255_2_778
10
11.1696219
20
136.6387677
11
10.7698219
21
136.1902677
0
LINE
8
DEFAULT_255_2_778
10
10.7698219
20
136.1902677
11
11.2009219
21
135.6230677
0
LINE
8
DEFAULT_255_2_778
10
11.2009219
20
135.6230677
11
11.0405219
21
135.6230677
0
LINE
8
DEFAULT_255_2_778
10
11.0405219
20
135.6230677
11
11.0405219
21
135.6230677
0
LINE
8
DEFAULT_255_2_778
10
9.1511261
20
133.4312677
11
9.1511261
21
133.3209677
0
LINE
8
DEFAULT_255_2_778
10
9.1511261
20
133.3209677
11
8.8247261
21
133.3209677
0
LINE
8
DEFAULT_255_2_778
10
8.8247261
20
133.3209677
11
8.8247261
21
132.4155677
0
LINE
8
DEFAULT_255_2_778
10
8.8247261
20
132.4155677
11
8.6913261
21
132.4155677
0
LINE
8
DEFAULT_255_2_778
10
8.6913261
20
132.4155677
11
8.6913261
21
133.3209677
0
LINE
8
DEFAULT_255_2_778
10
8.6913261
20
133.3209677
11
8.3656261
21
133.3209677
0
LINE
8
DEFAULT_255_2_778
10
8.3656261
20
133.3209677
11
8.3656261
21
133.4312677
0
LINE
8
DEFAULT_255_2_778
10
8.3656261
20
133.4312677
11
9.1511261
21
133.4312677
0
LINE
8
DEFAULT_255_2_778
10
9.1511261
20
133.4312677
11
9.1511261
21
133.4312677
0
ARC
8
DEFAULT_255_2_778
10
9.4298939
20
132.8771447
40
0.6339595
50
337.7168824
51
1.1942991
0
ARC
8
DEFAULT_255_2_778
10
9.5688848
20
132.8304798
40
0.4877467
50
335.6991379
51
336.5981488
0
ARC
8
DEFAULT_255_2_778
10
9.6638961
20
132.7781445
40
0.3797136
50
303.0742929
51
336.996679
0
ARC
8
DEFAULT_255_2_778
10
9.6649012
20
132.7935198
40
0.3921577
50
268.7308963
51
301.7251905
0
ARC
8
DEFAULT_255_2_778
10
9.6490808
20
132.7886375
40
0.3872449
50
237.9377536
51
271.0557082
0
ARC
8
DEFAULT_255_2_778
10
9.654044
20
132.7864145
40
0.388033
50
204.0208413
51
237.1424158
0
ARC
8
DEFAULT_255_2_778
10
9.8480859
20
132.8746909
40
0.6012072
50
179.3645781
51
204.177428
0
ARC
8
DEFAULT_255_2_778
10
9.8684427
20
132.9670442
40
0.6216505
50
156.6474981
51
181.1416474
0
ARC
8
DEFAULT_255_2_778
10
9.6538375
20
133.0617122
40
0.3871042
50
123.2456192
51
156.9207945
0
ARC
8
DEFAULT_255_2_778
10
9.6481224
20
133.0572345
40
0.3877833
50
88.9962297
51
122.1766417
0
ARC
8
DEFAULT_255_2_778
10
9.6627321
20
133.0518536
40
0.3931825
50
58.1839244
51
91.1391171
0
ARC
8
DEFAULT_255_2_778
10
9.6629332
20
133.0665855
40
0.3806338
50
22.958682
51
57.0404811
0
ARC
8
DEFAULT_255_2_778
10
9.4334459
20
132.9679605
40
0.6304143
50
358.772752
51
23.0765762
0
ARC
8
DEFAULT_255_2_778
10
9.33957
20
132.9686903
40
0.5908765
50
358.7944184
51
17.1809147
0
ARC
8
DEFAULT_255_2_778
10
9.602383
20
133.045721
40
0.3170624
50
17.9107977
51
36.3296241
0
ARC
8
DEFAULT_255_2_778
10
9.6656276
20
133.0912708
40
0.2391276
50
36.5146052
51
92.567474
0
ARC
8
DEFAULT_255_2_778
10
9.6459296
20
133.0938189
40
0.2365102
50
87.8225671
51
143.7834327
0
ARC
8
DEFAULT_255_2_778
10
9.770627
20
133.0098964
40
0.3867455
50
144.667664
51
174.581815
0
ARC
8
DEFAULT_255_2_778
10
10.0773589
20
132.9596821
40
0.6971657
50
172.8534764
51
179.5417231
0
ARC
8
DEFAULT_255_2_778
10
9.9342891
20
132.8780788
40
0.5542163
50
178.6993945
51
199.2821565
0
ARC
8
DEFAULT_255_2_778
10
9.7207048
20
132.8096874
40
0.330083
50
200.319352
51
216.0453191
0
ARC
8
DEFAULT_255_2_778
10
9.6477629
20
132.753153
40
0.2378558
50
215.3731997
51
272.108875
0
ARC
8
DEFAULT_255_2_778
10
9.6678615
20
132.7519367
40
0.2367504
50
267.2531548
51
323.1518407
0
ARC
8
DEFAULT_255_2_778
10
9.5490667
20
132.8266557
40
0.376796
50
324.8929865
51
353.7567572
0
ARC
8
DEFAULT_255_2_778
10
9.2032996
20
132.8864099
40
0.7273372
50
352.0393908
51
359.5626741
0
LINE
8
DEFAULT_255_2_778
10
10.0637156
20
132.9546583
11
10.0637156
21
132.8903583
0
LINE
8
DEFAULT_255_2_778
10
9.2469156
20
132.8813583
11
9.2469156
21
132.9546583
0
LINE
8
DEFAULT_255_2_778
10
10.0637156
20
132.9544583
11
10.0637156
21
132.9546583
0
LINE
8
DEFAULT_255_2_778
10
9.9303156
20
132.8808583
11
9.9303156
21
132.9562583
0
LINE
8
DEFAULT_255_2_778
10
9.3802156
20
132.9652583
11
9.3802156
21
132.8906583
0
LINE
8
DEFAULT_255_2_778
10
9.9306156
20
132.8808583
11
9.9303156
21
132.8808583
0
ARC
8
DEFAULT_255_2_778
10
10.6544711
20
132.7304184
40
0.3254106
50
316.2466963
51
1.7893263
0
ARC
8
DEFAULT_255_2_778
10
10.6366949
20
132.7658959
40
0.3630303
50
272.2747692
51
314.1419021
0
ARC
8
DEFAULT_255_2_778
10
10.6056614
20
132.9554341
40
0.5541487
50
274.2079517
51
274.7038113
0
ARC
8
DEFAULT_255_2_778
10
10.5970626
20
132.8114178
40
0.4102695
50
239.9450506
51
271.9220485
0
ARC
8
DEFAULT_255_2_778
10
10.558189
20
132.7265829
40
0.3174952
50
227.8004954
51
238.3493764
0
ARC
8
DEFAULT_255_2_778
10
10.5669496
20
132.7257007
40
0.322804
50
177.6247285
51
226.5432821
0
ARC
8
DEFAULT_255_2_778
10
10.6089507
20
132.7289496
40
0.23237
50
176.4645097
51
222.4610689
0
ARC
8
DEFAULT_255_2_778
10
10.5940506
20
132.7411041
40
0.2303701
50
227.1983884
51
272.818391
0
ARC
8
DEFAULT_255_2_778
10
10.6106089
20
132.9181705
40
0.4071914
50
269.2639482
51
270.0019806
0
ARC
8
DEFAULT_255_2_778
10
10.6240633
20
132.7577058
40
0.2470925
50
266.8819176
51
306.1592018
0
ARC
8
DEFAULT_255_2_778
10
10.656979
20
132.6986683
40
0.1801946
50
308.7860395
51
315.1472303
0
ARC
8
DEFAULT_255_2_778
10
10.6139009
20
132.7279032
40
0.2315543
50
317.5374882
51
3.5022842
0
ARC
8
DEFAULT_255_2_778
10
10.6133225
20
132.7423715
40
0.2317005
50
359.9201326
51
0.0266303
0
LINE
8
DEFAULT_255_2_778
10
10.8450229
20
133.4311792
11
10.9797229
21
133.4311792
0
LINE
8
DEFAULT_255_2_778
10
10.9797229
20
133.4311792
11
10.9797229
21
132.7405792
0
LINE
8
DEFAULT_255_2_778
10
10.6463229
20
132.4027792
11
10.6108229
21
132.4013792
0
LINE
8
DEFAULT_255_2_778
10
10.2444229
20
132.7390792
11
10.2444229
21
133.4311792
0
LINE
8
DEFAULT_255_2_778
10
10.2444229
20
133.4311792
11
10.3770229
21
133.4311792
0
LINE
8
DEFAULT_255_2_778
10
10.3770229
20
133.4311792
11
10.3770229
21
132.7432792
0
LINE
8
DEFAULT_255_2_778
10
10.8450229
20
132.7424792
11
10.8450229
21
133.4308792
0
LINE
8
DEFAULT_255_2_778
10
10.8450229
20
133.4308792
11
10.8450229
21
133.4311792
0
LINE
8
DEFAULT_255_2_778
10
11.8928229
20
133.4311792
11
11.8928229
21
133.3208792
0
LINE
8
DEFAULT_255_2_778
10
11.8928229
20
133.3208792
11
11.5663229
21
133.3208792
0
LINE
8
DEFAULT_255_2_778
10
11.5663229
20
133.3208792
11
11.5663229
21
132.4154792
0
LINE
8
DEFAULT_255_2_778
10
11.5663229
20
132.4154792
11
11.4329229
21
132.4154792
0
LINE
8
DEFAULT_255_2_778
10
11.4329229
20
132.4154792
11
11.4329229
21
133.3208792
0
LINE
8
DEFAULT_255_2_778
10
11.4329229
20
133.3208792
11
11.1072229
21
133.3208792
0
LINE
8
DEFAULT_255_2_778
10
11.1072229
20
133.3208792
11
11.1072229
21
133.4311792
0
LINE
8
DEFAULT_255_2_778
10
11.1072229
20
133.4311792
11
11.8928229
21
133.4311792
0
LINE
8
DEFAULT_255_2_778
10
11.8928229
20
133.4311792
11
11.8928229
21
133.4311792
0
ARC
8
DEFAULT_255_2_778
10
10.2268536
20
130.7495446
40
0.8783015
50
242.9992358
51
254.7617958
0
ARC
8
DEFAULT_255_2_778
10
10.0092092
20
130.3198872
40
0.396667
50
228.2560753
51
242.8339565
0
ARC
8
DEFAULT_255_2_778
10
9.8989624
20
130.1982215
40
0.2324896
50
179.0138233
51
228.5648314
0
ARC
8
DEFAULT_255_2_778
10
9.9116067
20
130.2059771
40
0.2451281
50
127.4336887
51
180.8775362
0
ARC
8
DEFAULT_255_2_778
10
9.990979
20
130.1067325
40
0.3721897
50
89.6666509
51
127.8494992
0
ARC
8
DEFAULT_255_2_778
10
10.0120038
20
129.8998137
40
0.5794091
50
89.9897644
51
91.865269
0
ARC
8
DEFAULT_255_2_778
10
10.019768
20
130.0648395
40
0.4144543
50
64.4368573
51
91.0591053
0
ARC
8
DEFAULT_255_2_778
10
10.0671323
20
130.1610427
40
0.3072328
50
32.7223108
51
64.6635468
0
ARC
8
DEFAULT_255_2_778
10
10.0850197
20
130.1732371
40
0.2855928
50
359.6560846
51
32.6039799
0
ARC
8
DEFAULT_255_2_778
10
10.0513042
20
130.1811532
40
0.1848542
50
357.0137333
51
46.943646
0
ARC
8
DEFAULT_255_2_778
10
10.0300069
20
130.1362496
40
0.2326945
50
50.6630442
51
91.9662912
0
ARC
8
DEFAULT_255_2_778
10
10.0121512
20
129.9481039
40
0.420819
50
88.6558207
51
90.0059731
0
ARC
8
DEFAULT_255_2_778
10
9.9992642
20
130.1154292
40
0.2538189
50
87.0996214
51
121.5263517
0
ARC
8
DEFAULT_255_2_778
10
9.9598257
20
130.1953569
40
0.1652688
50
124.3620236
51
128.2065242
0
ARC
8
DEFAULT_255_2_778
10
9.946909
20
130.2109197
40
0.1450517
50
127.9994386
51
182.6066534
0
ARC
8
DEFAULT_255_2_778
10
9.9325735
20
130.2041295
40
0.1305663
50
179.9151231
51
233.3894619
0
ARC
8
DEFAULT_255_2_778
10
10.0677951
20
130.3828834
40
0.3547012
50
233.0761664
51
250.5082689
0
ARC
8
DEFAULT_255_2_778
10
10.2844323
20
130.9263175
40
0.9395552
50
249.1120385
51
254.5481051
0
ARC
8
DEFAULT_255_2_778
10
9.7771087
20
129.060588
40
0.9939353
50
65.6023573
51
75.0149636
0
ARC
8
DEFAULT_255_2_778
10
9.9795353
20
129.5199208
40
0.4920343
50
59.1010665
51
64.9752555
0
ARC
8
DEFAULT_255_2_778
10
10.0844884
20
129.6791071
40
0.3016591
50
32.7107057
51
60.6799032
0
ARC
8
DEFAULT_255_2_778
10
10.1184374
20
129.7136628
40
0.2546464
50
358.5958766
51
30.2958211
0
ARC
8
DEFAULT_255_2_778
10
10.135507
20
129.7006125
40
0.2375979
50
306.4615009
51
1.6425194
0
ARC
8
DEFAULT_255_2_778
10
10.0525048
20
129.8183587
40
0.3816364
50
272.3266399
51
305.9781563
0
ARC
8
DEFAULT_255_2_778
10
10.0199589
20
130.0721378
40
0.6369152
50
269.9323914
51
274.3256099
0
ARC
8
DEFAULT_255_2_778
10
10.0153625
20
129.9105718
40
0.4753645
50
246.2626818
51
270.4634247
0
ARC
8
DEFAULT_255_2_778
10
9.9500419
20
129.7802759
40
0.3298788
50
216.2483719
51
247.5384617
0
ARC
8
DEFAULT_255_2_778
10
9.9031881
20
129.7401449
40
0.2684046
50
179.2361902
51
215.2535505
0
ARC
8
DEFAULT_255_2_778
10
9.9447115
20
129.7368699
40
0.1753381
50
177.7600491
51
232.3082015
0
ARC
8
DEFAULT_255_2_778
10
10.0027629
20
129.8265798
40
0.2819609
50
234.1196973
51
271.9069815
0
ARC
8
DEFAULT_255_2_778
10
10.0191719
20
130.0175991
40
0.4728763
50
269.1486452
51
270.0042937
0
ARC
8
DEFAULT_255_2_778
10
10.03151
20
129.841065
40
0.2965974
50
267.6227259
51
295.4168994
0
ARC
8
DEFAULT_255_2_778
10
10.0806672
20
129.720553
40
0.1668125
50
297.9335694
51
307.2800297
0
ARC
8
DEFAULT_255_2_778
10
10.0981553
20
129.700474
40
0.1402541
50
306.5639188
51
2.1856445
0
ARC
8
DEFAULT_255_2_778
10
10.1007317
20
129.7129503
40
0.1377601
50
357.0343284
51
51.8086844
0
ARC
8
DEFAULT_255_2_778
10
9.9658227
20
129.5117756
40
0.37973
50
54.5788548
51
70.3121902
0
ARC
8
DEFAULT_255_2_778
10
9.6782922
20
128.7889463
40
1.1574915
50
68.9654435
51
74.0583266
0
LINE
8
DEFAULT_255_2_778
10
8.4492073
20
130.4652229
11
8.6222073
21
130.4652229
0
LINE
8
DEFAULT_255_2_778
10
8.6222073
20
130.4652229
11
8.9543073
21
129.6365229
0
LINE
8
DEFAULT_255_2_778
10
8.9543073
20
129.6365229
11
9.2863073
21
130.4652229
0
LINE
8
DEFAULT_255_2_778
10
9.2863073
20
130.4652229
11
9.4602073
21
130.4652229
0
LINE
8
DEFAULT_255_2_778
10
9.4602073
20
130.4652229
11
9.4602073
21
129.4494229
0
LINE
8
DEFAULT_255_2_778
10
9.4602073
20
129.4494229
11
9.3263073
21
129.4494229
0
LINE
8
DEFAULT_255_2_778
10
9.3263073
20
129.4494229
11
9.3263073
21
129.8450229
0
LINE
8
DEFAULT_255_2_778
10
9.3263073
20
129.8450229
11
9.3387073
21
130.2720229
0
LINE
8
DEFAULT_255_2_778
10
9.3387073
20
130.2720229
11
9.0054073
21
129.4494229
0
LINE
8
DEFAULT_255_2_778
10
9.0054073
20
129.4494229
11
8.9027073
21
129.4494229
0
LINE
8
DEFAULT_255_2_778
10
8.9027073
20
129.4494229
11
8.5698073
21
130.2699229
0
LINE
8
DEFAULT_255_2_778
10
8.5698073
20
130.2699229
11
8.5831073
21
129.8450229
0
LINE
8
DEFAULT_255_2_778
10
8.5831073
20
129.8450229
11
8.5831073
21
129.4494229
0
LINE
8
DEFAULT_255_2_778
10
8.5831073
20
129.4494229
11
8.4492073
21
129.4494229
0
LINE
8
DEFAULT_255_2_778
10
8.4492073
20
129.4494229
11
8.4492073
21
130.4652229
0
LINE
8
DEFAULT_255_2_778
10
8.4492073
20
130.4652229
11
8.4492073
21
130.4652229
0
LINE
8
DEFAULT_255_2_778
10
10.3706073
20
130.1715229
11
10.2359073
21
130.1715229
0
LINE
8
DEFAULT_255_2_778
10
9.6348073
20
129.7437229
11
9.7695073
21
129.7437229
0
LINE
8
DEFAULT_255_2_778
10
9.9962073
20
129.9019229
11
9.9960073
21
129.9021229
0
LINE
8
DEFAULT_255_2_778
10
11.2460261
20
130.4652677
11
11.2460261
21
130.3549677
0
LINE
8
DEFAULT_255_2_778
10
11.2460261
20
130.3549677
11
10.9196261
21
130.3549677
0
LINE
8
DEFAULT_255_2_778
10
10.9196261
20
130.3549677
11
10.9196261
21
129.4495677
0
LINE
8
DEFAULT_255_2_778
10
10.9196261
20
129.4495677
11
10.7862261
21
129.4495677
0
LINE
8
DEFAULT_255_2_778
10
10.7862261
20
129.4495677
11
10.7862261
21
130.3549677
0
LINE
8
DEFAULT_255_2_778
10
10.7862261
20
130.3549677
11
10.4605261
21
130.3549677
0
LINE
8
DEFAULT_255_2_778
10
10.4605261
20
130.3549677
11
10.4605261
21
130.4652677
0
LINE
8
DEFAULT_255_2_778
10
10.4605261
20
130.4652677
11
11.2460261
21
130.4652677
0
LINE
8
DEFAULT_255_2_778
10
11.2460261
20
130.4652677
11
11.2460261
21
130.4652677
0
ARC
8
DEFAULT_255_2_778
10
11.7449018
20
129.9755156
40
0.4899167
50
69.1377785
51
91.4852761
0
ARC
8
DEFAULT_255_2_778
10
11.8110683
20
130.1659558
40
0.2884607
50
50.0736439
51
67.9476545
0
ARC
8
DEFAULT_255_2_778
10
11.8131059
20
130.1814375
40
0.2754079
50
358.3539178
51
48.3313319
0
ARC
8
DEFAULT_255_2_778
10
11.6202375
20
130.1597378
40
0.4683656
50
359.9914195
51
1.6869942
0
ARC
8
DEFAULT_255_2_778
10
11.8157402
20
130.1537765
40
0.2729265
50
324.2366589
51
1.2368448
0
ARC
8
DEFAULT_255_2_778
10
11.7910178
20
130.178452
40
0.3074591
50
289.6885896
51
323.1978938
0
ARC
8
DEFAULT_255_2_778
10
11.7486734
20
130.2023608
40
0.2327168
50
266.9776182
51
309.0241782
0
ARC
8
DEFAULT_255_2_778
10
11.7800827
20
130.1524034
40
0.1742719
50
311.3440832
51
2.3889876
0
ARC
8
DEFAULT_255_2_778
10
11.7705765
20
130.1715173
40
0.1840086
50
356.3077567
51
46.1281825
0
ARC
8
DEFAULT_255_2_778
10
11.7554279
20
130.1275422
40
0.2270523
50
51.0692847
51
90.8206227
0
ARC
8
DEFAULT_255_2_778
10
11.7336338
20
129.927806
40
0.4271678
50
87.512152
51
89.6956139
0
LINE
8
DEFAULT_255_2_778
10
11.9896031
20
129.4495677
11
11.7692031
21
129.8604677
0
LINE
8
DEFAULT_255_2_778
10
11.7692031
20
129.8604677
11
11.5306031
21
129.8604677
0
LINE
8
DEFAULT_255_2_778
10
11.5306031
20
129.8604677
11
11.5306031
21
129.4495677
0
LINE
8
DEFAULT_255_2_778
10
11.5306031
20
129.4495677
11
11.3959031
21
129.4495677
0
LINE
8
DEFAULT_255_2_778
10
11.3959031
20
129.4495677
11
11.3959031
21
130.4652677
0
LINE
8
DEFAULT_255_2_778
10
11.3959031
20
130.4652677
11
11.7322031
21
130.4652677
0
LINE
8
DEFAULT_255_2_778
10
11.8946031
20
129.8889677
11
12.1333031
21
129.4579677
0
LINE
8
DEFAULT_255_2_778
10
12.1333031
20
129.4579677
11
12.1333031
21
129.4495677
0
LINE
8
DEFAULT_255_2_778
10
12.1333031
20
129.4495677
11
11.9896031
21
129.4495677
0
LINE
8
DEFAULT_255_2_778
10
11.9896031
20
129.4495677
11
11.9896031
21
129.4495677
0
LINE
8
DEFAULT_255_2_778
10
11.5306031
20
130.3549677
11
11.5306031
21
129.9699677
0
LINE
8
DEFAULT_255_2_778
10
11.5306031
20
129.9699677
11
11.7364031
21
129.9699677
0
LINE
8
DEFAULT_255_2_778
10
11.7359031
20
130.3549677
11
11.5308031
21
130.3549677
0
LINE
8
DEFAULT_255_2_778
10
11.5308031
20
130.3549677
11
11.5306031
21
130.3549677
0
ARC
8
DEFAULT_255_2_778
10
22.6869455
20
130.0033571
40
0.4620026
50
60.8300934
51
91.1434357
0
ARC
8
DEFAULT_255_2_778
10
22.7156547
20
130.0633855
40
0.3956164
50
26.5257383
51
60.2233071
0
ARC
8
DEFAULT_255_2_778
10
22.5846697
20
130.0002254
40
0.5410241
50
359.0936846
51
26.3153776
0
ARC
8
DEFAULT_255_2_778
10
22.5810794
20
129.9147812
40
0.5446808
50
333.8780828
51
1.2715022
0
ARC
8
DEFAULT_255_2_778
10
22.7200288
20
129.8501666
40
0.3914878
50
299.3016668
51
333.4152708
0
ARC
8
DEFAULT_255_2_778
10
22.6779814
20
129.9399209
40
0.4903905
50
269.2924974
51
298.4535508
0
ARC
8
DEFAULT_255_2_778
10
22.681071
20
129.8737224
40
0.3150238
50
267.2261935
51
310.8565082
0
ARC
8
DEFAULT_255_2_778
10
22.6970924
20
129.842929
40
0.2813671
50
312.4911396
51
318.1942583
0
ARC
8
DEFAULT_255_2_778
10
22.6364791
20
129.8832907
40
0.3536048
50
319.8665676
51
355.5053476
0
ARC
8
DEFAULT_255_2_778
10
22.3621626
20
129.9276732
40
0.6309661
50
353.4391497
51
0.1629479
0
ARC
8
DEFAULT_255_2_778
10
22.509369
20
130.0015465
40
0.4839258
50
358.486838
51
21.9686755
0
ARC
8
DEFAULT_255_2_778
10
22.6815383
20
130.0637838
40
0.3010492
50
23.2420812
51
40.0678827
0
ARC
8
DEFAULT_255_2_778
10
22.6951811
20
130.0660769
40
0.2892181
50
41.4601008
51
92.7259834
0
LINE
8
DEFAULT_255_2_778
10
22.6722261
20
129.4495677
11
22.3909261
21
129.4495677
0
LINE
8
DEFAULT_255_2_778
10
22.3909261
20
129.4495677
11
22.3909261
21
130.4652677
0
LINE
8
DEFAULT_255_2_778
10
22.3909261
20
130.4652677
11
22.6777261
21
130.4652677
0
LINE
8
DEFAULT_255_2_778
10
23.1256261
20
129.9916677
11
23.1256261
21
129.9268677
0
LINE
8
DEFAULT_255_2_778
10
22.6719261
20
129.4495677
11
22.6722261
21
129.4495677
0
LINE
8
DEFAULT_255_2_778
10
22.6811261
20
130.3549677
11
22.5248261
21
130.3549677
0
LINE
8
DEFAULT_255_2_778
10
22.5248261
20
130.3549677
11
22.5248261
21
129.5590677
0
LINE
8
DEFAULT_255_2_778
10
22.5248261
20
129.5590677
11
22.6658261
21
129.5590677
0
LINE
8
DEFAULT_255_2_778
10
22.9931261
20
129.9294677
11
22.9931261
21
129.9887677
0
LINE
8
DEFAULT_255_2_778
10
22.6814261
20
130.3549677
11
22.6811261
21
130.3549677
0
LINE
8
DEFAULT_255_2_778
10
23.9710188
20
129.4495677
11
23.8739188
21
129.7146677
0
LINE
8
DEFAULT_255_2_778
10
23.8739188
20
129.7146677
11
23.4484188
21
129.7146677
0
LINE
8
DEFAULT_255_2_778
10
23.4484188
20
129.7146677
11
23.3529188
21
129.4495677
0
LINE
8
DEFAULT_255_2_778
10
23.3529188
20
129.4495677
11
23.2148188
21
129.4495677
0
LINE
8
DEFAULT_255_2_778
10
23.2148188
20
129.4495677
11
23.6027188
21
130.4652677
0
LINE
8
DEFAULT_255_2_778
10
23.6027188
20
130.4652677
11
23.7199188
21
130.4652677
0
LINE
8
DEFAULT_255_2_778
10
23.7199188
20
130.4652677
11
24.1086188
21
129.4495677
0
LINE
8
DEFAULT_255_2_778
10
24.1086188
20
129.4495677
11
23.9712188
21
129.4495677
0
LINE
8
DEFAULT_255_2_778
10
23.9712188
20
129.4495677
11
23.9710188
21
129.4495677
0
LINE
8
DEFAULT_255_2_778
10
23.6612188
20
130.2998677
11
23.4889188
21
129.8246677
0
LINE
8
DEFAULT_255_2_778
10
23.4889188
20
129.8246677
11
23.8342188
21
129.8246677
0
LINE
8
DEFAULT_255_2_778
10
23.8342188
20
129.8246677
11
23.6612188
21
130.2998677
0
LINE
8
DEFAULT_255_2_778
10
23.6612188
20
130.2998677
11
23.6612188
21
130.2998677
0
LINE
8
DEFAULT_255_2_778
10
24.8570261
20
130.4652677
11
24.8570261
21
130.3549677
0
LINE
8
DEFAULT_255_2_778
10
24.8570261
20
130.3549677
11
24.5306261
21
130.3549677
0
LINE
8
DEFAULT_255_2_778
10
24.5306261
20
130.3549677
11
24.5306261
21
129.4495677
0
LINE
8
DEFAULT_255_2_778
10
24.5306261
20
129.4495677
11
24.3972261
21
129.4495677
0
LINE
8
DEFAULT_255_2_778
10
24.3972261
20
129.4495677
11
24.3972261
21
130.3549677
0
LINE
8
DEFAULT_255_2_778
10
24.3972261
20
130.3549677
11
24.0715261
21
130.3549677
0
LINE
8
DEFAULT_255_2_778
10
24.0715261
20
130.3549677
11
24.0715261
21
130.4652677
0
LINE
8
DEFAULT_255_2_778
10
24.0715261
20
130.4652677
11
24.8570261
21
130.4652677
0
LINE
8
DEFAULT_255_2_778
10
24.8570261
20
130.4652677
11
24.8570261
21
130.4652677
0
LINE
8
DEFAULT_255_2_778
10
25.6103188
20
129.4495677
11
25.5132188
21
129.7146677
0
LINE
8
DEFAULT_255_2_778
10
25.5132188
20
129.7146677
11
25.0877188
21
129.7146677
0
LINE
8
DEFAULT_255_2_778
10
25.0877188
20
129.7146677
11
24.9922188
21
129.4495677
0
LINE
8
DEFAULT_255_2_778
10
24.9922188
20
129.4495677
11
24.8541188
21
129.4495677
0
LINE
8
DEFAULT_255_2_778
10
24.8541188
20
129.4495677
11
25.2420188
21
130.4652677
0
LINE
8
DEFAULT_255_2_778
10
25.2420188
20
130.4652677
11
25.3592188
21
130.4652677
0
LINE
8
DEFAULT_255_2_778
10
25.3592188
20
130.4652677
11
25.7479188
21
129.4495677
0
LINE
8
DEFAULT_255_2_778
10
25.7479188
20
129.4495677
11
25.6105188
21
129.4495677
0
LINE
8
DEFAULT_255_2_778
10
25.6105188
20
129.4495677
11
25.6103188
21
129.4495677
0
LINE
8
DEFAULT_255_2_778
10
25.3005188
20
130.2998677
11
25.1282188
21
129.8246677
0
LINE
8
DEFAULT_255_2_778
10
25.1282188
20
129.8246677
11
25.4735188
21
129.8246677
0
LINE
8
DEFAULT_255_2_778
10
25.4735188
20
129.8246677
11
25.3005188
21
130.2998677
0
LINE
8
DEFAULT_255_2_778
10
25.3005188
20
130.2998677
11
25.3005188
21
130.2998677
0
LINE
8
DEFAULT_255_2_778
10
23.1714396
20
133.4312677
11
23.1714396
21
132.4155677
0
LINE
8
DEFAULT_255_2_778
10
23.1714396
20
132.4155677
11
23.0367396
21
132.4155677
0
LINE
8
DEFAULT_255_2_778
10
23.0367396
20
132.4155677
11
23.0367396
21
132.8851677
0
LINE
8
DEFAULT_255_2_778
10
23.0367396
20
132.8851677
11
22.5248396
21
132.8851677
0
LINE
8
DEFAULT_255_2_778
10
22.5248396
20
132.8851677
11
22.5248396
21
132.4155677
0
LINE
8
DEFAULT_255_2_778
10
22.5248396
20
132.4155677
11
22.3909396
21
132.4155677
0
LINE
8
DEFAULT_255_2_778
10
22.3909396
20
132.4155677
11
22.3909396
21
133.4312677
0
LINE
8
DEFAULT_255_2_778
10
22.3909396
20
133.4312677
11
22.5248396
21
133.4312677
0
LINE
8
DEFAULT_255_2_778
10
22.5248396
20
133.4312677
11
22.5248396
21
132.9944677
0
LINE
8
DEFAULT_255_2_778
10
22.5248396
20
132.9944677
11
23.0367396
21
132.9944677
0
LINE
8
DEFAULT_255_2_778
10
23.0367396
20
132.9944677
11
23.0367396
21
133.4312677
0
LINE
8
DEFAULT_255_2_778
10
23.0367396
20
133.4312677
11
23.1714396
21
133.4312677
0
LINE
8
DEFAULT_255_2_778
10
23.1714396
20
133.4312677
11
23.1714396
21
133.4312677
0
ARC
8
DEFAULT_255_2_778
10
23.7055455
20
132.9693571
40
0.4620026
50
60.8300934
51
91.1434357
0
ARC
8
DEFAULT_255_2_778
10
23.7342547
20
133.0293855
40
0.3956164
50
26.5257383
51
60.2233071
0
ARC
8
DEFAULT_255_2_778
10
23.6032697
20
132.9662254
40
0.5410241
50
359.0936846
51
26.3153776
0
ARC
8
DEFAULT_255_2_778
10
23.5996794
20
132.8807812
40
0.5446808
50
333.8780828
51
1.2715022
0
ARC
8
DEFAULT_255_2_778
10
23.7386288
20
132.8161666
40
0.3914878
50
299.3016668
51
333.4152708
0
ARC
8
DEFAULT_255_2_778
10
23.6965814
20
132.9059209
40
0.4903905
50
269.2924974
51
298.4535508
0
ARC
8
DEFAULT_255_2_778
10
23.699671
20
132.8397224
40
0.3150238
50
267.2261935
51
310.8565082
0
ARC
8
DEFAULT_255_2_778
10
23.7156924
20
132.808929
40
0.2813671
50
312.4911396
51
318.1942583
0
ARC
8
DEFAULT_255_2_778
10
23.6550791
20
132.8492907
40
0.3536048
50
319.8665676
51
355.5053476
0
ARC
8
DEFAULT_255_2_778
10
23.3807626
20
132.8936732
40
0.6309661
50
353.4391497
51
0.1629479
0
ARC
8
DEFAULT_255_2_778
10
23.527969
20
132.9675465
40
0.4839258
50
358.486838
51
21.9686755
0
ARC
8
DEFAULT_255_2_778
10
23.7001383
20
133.0297838
40
0.3010492
50
23.2420812
51
40.0678827
0
ARC
8
DEFAULT_255_2_778
10
23.7137811
20
133.0320769
40
0.2892181
50
41.4601008
51
92.7259834
0
LINE
8
DEFAULT_255_2_778
10
23.6908261
20
132.4155677
11
23.4095261
21
132.4155677
0
LINE
8
DEFAULT_255_2_778
10
23.4095261
20
132.4155677
11
23.4095261
21
133.4312677
0
LINE
8
DEFAULT_255_2_778
10
23.4095261
20
133.4312677
11
23.6963261
21
133.4312677
0
LINE
8
DEFAULT_255_2_778
10
24.1442261
20
132.9576677
11
24.1442261
21
132.8928677
0
LINE
8
DEFAULT_255_2_778
10
23.6905261
20
132.4155677
11
23.6908261
21
132.4155677
0
LINE
8
DEFAULT_255_2_778
10
23.6997261
20
133.3209677
11
23.5434261
21
133.3209677
0
LINE
8
DEFAULT_255_2_778
10
23.5434261
20
133.3209677
11
23.5434261
21
132.5250677
0
LINE
8
DEFAULT_255_2_778
10
23.5434261
20
132.5250677
11
23.6844261
21
132.5250677
0
LINE
8
DEFAULT_255_2_778
10
24.0117261
20
132.8954677
11
24.0117261
21
132.9547677
0
LINE
8
DEFAULT_255_2_778
10
23.7000261
20
133.3209677
11
23.6997261
21
133.3209677
0
ARC
8
DEFAULT_255_2_778
10
24.6946018
20
132.9415156
40
0.4899167
50
69.1377785
51
91.4852761
0
ARC
8
DEFAULT_255_2_778
10
24.7607683
20
133.1319558
40
0.2884607
50
50.0736439
51
67.9476545
0
ARC
8
DEFAULT_255_2_778
10
24.7628059
20
133.1474375
40
0.2754079
50
358.3539178
51
48.3313319
0
ARC
8
DEFAULT_255_2_778
10
24.5699375
20
133.1257378
40
0.4683656
50
359.9914195
51
1.6869942
0
ARC
8
DEFAULT_255_2_778
10
24.7654402
20
133.1197765
40
0.2729265
50
324.2366589
51
1.2368448
0
ARC
8
DEFAULT_255_2_778
10
24.7407178
20
133.144452
40
0.3074591
50
289.6885896
51
323.1978938
0
ARC
8
DEFAULT_255_2_778
10
24.6983734
20
133.1683608
40
0.2327168
50
266.9776182
51
309.0241782
0
ARC
8
DEFAULT_255_2_778
10
24.7297827
20
133.1184034
40
0.1742719
50
311.3440832
51
2.3889876
0
ARC
8
DEFAULT_255_2_778
10
24.7202765
20
133.1375173
40
0.1840086
50
356.3077567
51
46.1281825
0
ARC
8
DEFAULT_255_2_778
10
24.7051279
20
133.0935422
40
0.2270523
50
51.0692847
51
90.8206227
0
ARC
8
DEFAULT_255_2_778
10
24.6833338
20
132.893806
40
0.4271678
50
87.512152
51
89.6956139
0
LINE
8
DEFAULT_255_2_778
10
24.9393031
20
132.4155677
11
24.7189031
21
132.8264677
0
LINE
8
DEFAULT_255_2_778
10
24.7189031
20
132.8264677
11
24.4803031
21
132.8264677
0
LINE
8
DEFAULT_255_2_778
10
24.4803031
20
132.8264677
11
24.4803031
21
132.4155677
0
LINE
8
DEFAULT_255_2_778
10
24.4803031
20
132.4155677
11
24.3456031
21
132.4155677
0
LINE
8
DEFAULT_255_2_778
10
24.3456031
20
132.4155677
11
24.3456031
21
133.4312677
0
LINE
8
DEFAULT_255_2_778
10
24.3456031
20
133.4312677
11
24.6819031
21
133.4312677
0
LINE
8
DEFAULT_255_2_778
10
24.8443031
20
132.8549677
11
25.0830031
21
132.4239677
0
LINE
8
DEFAULT_255_2_778
10
25.0830031
20
132.4239677
11
25.0830031
21
132.4155677
0
LINE
8
DEFAULT_255_2_778
10
25.0830031
20
132.4155677
11
24.9393031
21
132.4155677
0
LINE
8
DEFAULT_255_2_778
10
24.9393031
20
132.4155677
11
24.9393031
21
132.4155677
0
LINE
8
DEFAULT_255_2_778
10
24.4803031
20
133.3209677
11
24.4803031
21
132.9359677
0
LINE
8
DEFAULT_255_2_778
10
24.4803031
20
132.9359677
11
24.6861031
21
132.9359677
0
LINE
8
DEFAULT_255_2_778
10
24.6856031
20
133.3209677
11
24.4805031
21
133.3209677
0
LINE
8
DEFAULT_255_2_778
10
24.4805031
20
133.3209677
11
24.4803031
21
133.3209677
0
LINE
8
DEFAULT_255_2_778
10
22.9750406
20
136.202
11
22.9750406
21
136.0924
0
LINE
8
DEFAULT_255_2_778
10
22.9750406
20
136.0924
11
22.5348406
21
136.0924
0
LINE
8
DEFAULT_255_2_778
10
22.5348406
20
136.0924
11
22.5348406
21
135.7323
0
LINE
8
DEFAULT_255_2_778
10
22.5348406
20
135.7323
11
23.0462406
21
135.7323
0
LINE
8
DEFAULT_255_2_778
10
23.0462406
20
135.7323
11
23.0462406
21
135.6228
0
LINE
8
DEFAULT_255_2_778
10
23.0462406
20
135.6228
11
22.4009406
21
135.6228
0
LINE
8
DEFAULT_255_2_778
10
22.4009406
20
135.6228
11
22.4009406
21
136.6388
0
LINE
8
DEFAULT_255_2_778
10
22.4009406
20
136.6388
11
23.0393406
21
136.6388
0
LINE
8
DEFAULT_255_2_778
10
23.0393406
20
136.6388
11
23.0393406
21
136.5285
0
LINE
8
DEFAULT_255_2_778
10
23.0393406
20
136.5285
11
22.5350406
21
136.5285
0
LINE
8
DEFAULT_255_2_778
10
22.5350406
20
136.5285
11
22.5350406
21
136.202
0
LINE
8
DEFAULT_255_2_778
10
22.5350406
20
136.202
11
22.9753406
21
136.202
0
LINE
8
DEFAULT_255_2_778
10
22.9753406
20
136.202
11
22.9750406
21
136.202
0
LINE
8
DEFAULT_255_2_778
10
23.9935073
20
136.6387677
11
23.9935073
21
135.6230677
0
LINE
8
DEFAULT_255_2_778
10
23.9935073
20
135.6230677
11
23.8588073
21
135.6230677
0
LINE
8
DEFAULT_255_2_778
10
23.8588073
20
135.6230677
11
23.3474073
21
136.4056677
0
LINE
8
DEFAULT_255_2_778
10
23.3474073
20
136.4056677
11
23.3474073
21
135.6230677
0
LINE
8
DEFAULT_255_2_778
10
23.3474073
20
135.6230677
11
23.2127073
21
135.6230677
0
LINE
8
DEFAULT_255_2_778
10
23.2127073
20
135.6230677
11
23.2127073
21
136.6387677
0
LINE
8
DEFAULT_255_2_778
10
23.2127073
20
136.6387677
11
23.3474073
21
136.6387677
0
LINE
8
DEFAULT_255_2_778
10
23.3474073
20
136.6387677
11
23.8601073
21
135.8524677
0
LINE
8
DEFAULT_255_2_778
10
23.8601073
20
135.8524677
11
23.8601073
21
136.6387677
0
LINE
8
DEFAULT_255_2_778
10
23.8601073
20
136.6387677
11
23.9935073
21
136.6387677
0
LINE
8
DEFAULT_255_2_778
10
23.9935073
20
136.6387677
11
23.9935073
21
136.6387677
0
ARC
8
DEFAULT_255_2_778
10
24.3597458
20
136.0852041
40
0.6477159
50
340.214735
51
1.1500343
0
ARC
8
DEFAULT_255_2_778
10
24.5336337
20
136.0326501
40
0.4663985
50
336.2492692
51
339.0588288
0
ARC
8
DEFAULT_255_2_778
10
24.5971278
20
135.9963592
40
0.3937398
50
306.1204337
51
337.3617485
0
ARC
8
DEFAULT_255_2_778
10
24.6014629
20
136.0511842
40
0.4418852
50
269.7235999
51
283.6083362
0
ARC
8
DEFAULT_255_2_778
10
24.5921965
20
135.9964833
40
0.3872449
50
237.9377536
51
271.0557082
0
ARC
8
DEFAULT_255_2_778
10
24.5971596
20
135.9942603
40
0.388033
50
204.0208413
51
237.1424158
0
ARC
8
DEFAULT_255_2_778
10
24.7912015
20
136.0825368
40
0.6012072
50
179.3645781
51
204.177428
0
ARC
8
DEFAULT_255_2_778
10
24.8115583
20
136.17489
40
0.6216505
50
156.6474981
51
181.1416474
0
ARC
8
DEFAULT_255_2_778
10
24.5969531
20
136.269558
40
0.3871042
50
123.2456192
51
156.9207945
0
ARC
8
DEFAULT_255_2_778
10
24.591238
20
136.2650803
40
0.3877833
50
88.9962297
51
122.1766417
0
ARC
8
DEFAULT_255_2_778
10
24.6061652
20
136.2597428
40
0.3931455
50
58.0977779
51
91.1854975
0
ARC
8
DEFAULT_255_2_778
10
24.6056923
20
136.2728979
40
0.3822981
50
23.1026926
51
56.9956221
0
ARC
8
DEFAULT_255_2_778
10
24.3820271
20
136.1767804
40
0.625741
50
358.8007214
51
23.1619704
0
ARC
8
DEFAULT_255_2_778
10
24.5877498
20
136.1632491
40
0.4198815
50
359.9802268
51
0.05931
0
ARC
8
DEFAULT_255_2_778
10
24.2819893
20
136.1763609
40
0.5915731
50
358.7934337
51
17.261675
0
ARC
8
DEFAULT_255_2_778
10
24.5417752
20
136.2525613
40
0.3209058
50
18.0329308
51
35.8058299
0
ARC
8
DEFAULT_255_2_778
10
24.609841
20
136.3001047
40
0.2378928
50
36.1101045
51
92.8455191
0
ARC
8
DEFAULT_255_2_778
10
24.5895005
20
136.3016092
40
0.236249
50
87.930645
51
143.8105368
0
ARC
8
DEFAULT_255_2_778
10
24.7131649
20
136.2177951
40
0.3855808
50
144.6092398
51
174.6124766
0
ARC
8
DEFAULT_255_2_778
10
25.0200047
20
136.1676591
40
0.6960924
50
172.8750523
51
179.5765036
0
ARC
8
DEFAULT_255_2_778
10
24.8780976
20
136.0856057
40
0.5543095
50
178.6976583
51
199.4340082
0
ARC
8
DEFAULT_255_2_778
10
24.6682132
20
136.0181194
40
0.3339865
50
200.4962531
51
215.683198
0
ARC
8
DEFAULT_255_2_778
10
24.5905302
20
135.9591125
40
0.2364835
50
215.0493953
51
272.2055684
0
ARC
8
DEFAULT_255_2_778
10
24.6110044
20
135.9593748
40
0.2368439
50
267.2476214
51
323.1106452
0
ARC
8
DEFAULT_255_2_778
10
24.4916684
20
136.0340739
40
0.3773155
50
324.916456
51
353.7530618
0
ARC
8
DEFAULT_255_2_778
10
24.1462113
20
136.0937619
40
0.7275412
50
352.0404789
51
359.5623076
0
LINE
8
DEFAULT_255_2_778
10
25.0073313
20
136.1631041
11
25.0073313
21
136.0982041
0
LINE
8
DEFAULT_255_2_778
10
24.8292313
20
135.6783041
11
25.0107313
21
135.5360041
0
LINE
8
DEFAULT_255_2_778
10
25.0107313
20
135.5360041
11
24.9195313
21
135.4516041
0
LINE
8
DEFAULT_255_2_778
10
24.9195313
20
135.4516041
11
24.7054313
21
135.6217041
0
LINE
8
DEFAULT_255_2_778
10
24.1900313
20
136.0892041
11
24.1900313
21
136.1625041
0
LINE
8
DEFAULT_255_2_778
10
25.0076313
20
136.1631041
11
25.0073313
21
136.1631041
0
LINE
8
DEFAULT_255_2_778
10
24.8734313
20
136.0884041
11
24.8734313
21
136.1639041
0
LINE
8
DEFAULT_255_2_778
10
24.3239313
20
136.1728041
11
24.3239313
21
136.0982041
0
LINE
8
DEFAULT_255_2_778
10
24.8737313
20
136.0882041
11
24.8734313
21
136.0884041
0
ARC
8
DEFAULT_255_2_778
10
22.5230939
20
139.3576447
40
0.6339595
50
337.7168824
51
1.1942991
0
ARC
8
DEFAULT_255_2_778
10
22.6620848
20
139.3109798
40
0.4877467
50
335.6991379
51
336.5981488
0
ARC
8
DEFAULT_255_2_778
10
22.7570961
20
139.2586445
40
0.3797136
50
303.0742929
51
336.996679
0
ARC
8
DEFAULT_255_2_778
10
22.7581012
20
139.2740198
40
0.3921577
50
268.7308963
51
301.7251905
0
ARC
8
DEFAULT_255_2_778
10
22.7422808
20
139.2691375
40
0.3872449
50
237.9377536
51
271.0557082
0
ARC
8
DEFAULT_255_2_778
10
22.747244
20
139.2669145
40
0.388033
50
204.0208413
51
237.1424158
0
ARC
8
DEFAULT_255_2_778
10
22.9412859
20
139.3551909
40
0.6012072
50
179.3645781
51
204.177428
0
ARC
8
DEFAULT_255_2_778
10
22.9616427
20
139.4475442
40
0.6216505
50
156.6474981
51
181.1416474
0
ARC
8
DEFAULT_255_2_778
10
22.7470375
20
139.5422122
40
0.3871042
50
123.2456192
51
156.9207945
0
ARC
8
DEFAULT_255_2_778
10
22.7413224
20
139.5377345
40
0.3877833
50
88.9962297
51
122.1766417
0
ARC
8
DEFAULT_255_2_778
10
22.7559321
20
139.5323536
40
0.3931825
50
58.1839244
51
91.1391171
0
ARC
8
DEFAULT_255_2_778
10
22.7561332
20
139.5470855
40
0.3806338
50
22.958682
51
57.0404811
0
ARC
8
DEFAULT_255_2_778
10
22.5266459
20
139.4484605
40
0.6304143
50
358.772752
51
23.0765762
0
ARC
8
DEFAULT_255_2_778
10
22.43277
20
139.4491903
40
0.5908765
50
358.7944184
51
17.1809147
0
ARC
8
DEFAULT_255_2_778
10
22.695583
20
139.526221
40
0.3170624
50
17.9107977
51
36.3296241
0
ARC
8
DEFAULT_255_2_778
10
22.7588276
20
139.5717708
40
0.2391276
50
36.5146052
51
92.567474
0
ARC
8
DEFAULT_255_2_778
10
22.7391296
20
139.5743189
40
0.2365102
50
87.8225671
51
143.7834327
0
ARC
8
DEFAULT_255_2_778
10
22.863827
20
139.4903964
40
0.3867455
50
144.667664
51
174.581815
0
ARC
8
DEFAULT_255_2_778
10
23.1705589
20
139.4401821
40
0.6971657
50
172.8534764
51
179.5417231
0
ARC
8
DEFAULT_255_2_778
10
23.0274891
20
139.3585788
40
0.5542163
50
178.6993945
51
199.2821565
0
ARC
8
DEFAULT_255_2_778
10
22.8139048
20
139.2901874
40
0.330083
50
200.319352
51
216.0453191
0
ARC
8
DEFAULT_255_2_778
10
22.7409629
20
139.233653
40
0.2378558
50
215.3731997
51
272.108875
0
ARC
8
DEFAULT_255_2_778
10
22.7610615
20
139.2324367
40
0.2367504
50
267.2531548
51
323.1518407
0
ARC
8
DEFAULT_255_2_778
10
22.6422667
20
139.3071557
40
0.376796
50
324.8929865
51
353.7567572
0
ARC
8
DEFAULT_255_2_778
10
22.2964996
20
139.3669099
40
0.7273372
50
352.0393908
51
359.5626741
0
LINE
8
DEFAULT_255_2_778
10
23.1569156
20
139.4351583
11
23.1569156
21
139.3708583
0
LINE
8
DEFAULT_255_2_778
10
22.3401156
20
139.3618583
11
22.3401156
21
139.4351583
0
LINE
8
DEFAULT_255_2_778
10
23.1569156
20
139.4349583
11
23.1569156
21
139.4351583
0
LINE
8
DEFAULT_255_2_778
10
23.0235156
20
139.3613583
11
23.0235156
21
139.4367583
0
LINE
8
DEFAULT_255_2_778
10
22.4734156
20
139.4457583
11
22.4734156
21
139.3711583
0
LINE
8
DEFAULT_255_2_778
10
23.0238156
20
139.3613583
11
23.0235156
21
139.3613583
0
LINE
8
DEFAULT_255_2_778
10
23.9757979
20
138.8959677
11
23.6156979
21
139.3681677
0
LINE
8
DEFAULT_255_2_778
10
23.6156979
20
139.3681677
11
23.4915979
21
139.2390677
0
LINE
8
DEFAULT_255_2_778
10
23.4915979
20
139.2390677
11
23.4915979
21
138.8959677
0
LINE
8
DEFAULT_255_2_778
10
23.4915979
20
138.8959677
11
23.3576979
21
138.8959677
0
LINE
8
DEFAULT_255_2_778
10
23.3576979
20
138.8959677
11
23.3576979
21
139.9116677
0
LINE
8
DEFAULT_255_2_778
10
23.3576979
20
139.9116677
11
23.4915979
21
139.9116677
0
LINE
8
DEFAULT_255_2_778
10
23.4915979
20
139.9116677
11
23.4915979
21
139.4094677
0
LINE
8
DEFAULT_255_2_778
10
23.4915979
20
139.4094677
11
23.9429979
21
139.9116677
0
LINE
8
DEFAULT_255_2_778
10
23.9429979
20
139.9116677
11
24.1048979
21
139.9116677
0
LINE
8
DEFAULT_255_2_778
10
24.1048979
20
139.9116677
11
23.7050979
21
139.4631677
0
LINE
8
DEFAULT_255_2_778
10
23.7050979
20
139.4631677
11
24.1360979
21
138.8959677
0
LINE
8
DEFAULT_255_2_778
10
24.1360979
20
138.8959677
11
23.9757979
21
138.8959677
0
LINE
8
DEFAULT_255_2_778
10
23.9757979
20
138.8959677
11
23.9757979
21
138.8959677
0
ARC
8
DEFAULT_255_2_778
10
2.1370154
20
120.34652
40
0.5494011
50
60.823782
51
91.1230878
0
ARC
8
DEFAULT_255_2_778
10
2.1714481
20
120.4186893
40
0.4696304
50
26.4697718
51
60.1993248
0
ARC
8
DEFAULT_255_2_778
10
2.0131103
20
120.3421124
40
0.645505
50
359.1659021
51
26.2899555
0
ARC
8
DEFAULT_255_2_778
10
2.0075391
20
120.2418679
40
0.6511551
50
334.7957587
51
1.2185619
0
ARC
8
DEFAULT_255_2_778
10
2.1153899
20
120.2016269
40
0.5365201
50
332.815721
51
333.7792696
0
ARC
8
DEFAULT_255_2_778
10
2.1784763
20
120.1628546
40
0.4627236
50
299.2463228
51
333.5176067
0
ARC
8
DEFAULT_255_2_778
10
2.1268456
20
120.2712813
40
0.5826077
50
269.3117151
51
298.4669966
0
ARC
8
DEFAULT_255_2_778
10
2.1265296
20
120.2119151
40
0.3937586
50
267.9212816
51
302.9186006
0
ARC
8
DEFAULT_255_2_778
10
2.1559051
20
120.149464
40
0.3255028
50
304.5522653
51
318.2495054
0
ARC
8
DEFAULT_255_2_778
10
2.0857473
20
120.198626
40
0.4107032
50
319.6502683
51
353.6388596
0
ARC
8
DEFAULT_255_2_778
10
1.771304
20
120.2556097
40
0.7298495
50
351.927691
51
0.2438277
0
ARC
8
DEFAULT_255_2_778
10
1.9045367
20
120.3417788
40
0.5967468
50
358.7744644
51
19.4894128
0
ARC
8
DEFAULT_255_2_778
10
2.1243209
20
120.4139191
40
0.3655258
50
20.3234008
51
39.9470392
0
ARC
8
DEFAULT_255_2_778
10
2.1498773
20
120.4254572
40
0.3386094
50
41.2269798
51
90.960992
0
ARC
8
DEFAULT_255_2_778
10
2.1256161
20
120.2214231
40
0.5429139
50
88.0385748
51
89.4901733
0
ARC
8
DEFAULT_255_2_778
10
4.6725154
20
120.34652
40
0.5494011
50
60.823782
51
91.1230878
0
ARC
8
DEFAULT_255_2_778
10
4.7066102
20
120.4181583
40
0.4702591
50
26.5039138
51
60.1957629
0
ARC
8
DEFAULT_255_2_778
10
4.5477898
20
120.3421233
40
0.6463257
50
359.1659917
51
26.2529417
0
ARC
8
DEFAULT_255_2_778
10
4.5430391
20
120.2418679
40
0.6511551
50
334.7957587
51
1.2185619
0
ARC
8
DEFAULT_255_2_778
10
4.6508899
20
120.2016269
40
0.5365201
50
332.815721
51
333.7792696
0
ARC
8
DEFAULT_255_2_778
10
4.7139763
20
120.1628546
40
0.4627236
50
299.2463228
51
333.5176067
0
ARC
8
DEFAULT_255_2_778
10
4.6623456
20
120.2712813
40
0.5826077
50
269.3117151
51
298.4669966
0
ARC
8
DEFAULT_255_2_778
10
4.6620296
20
120.2119151
40
0.3937586
50
267.9212816
51
302.9186006
0
ARC
8
DEFAULT_255_2_778
10
4.6914051
20
120.149464
40
0.3255028
50
304.5522653
51
318.2495054
0
ARC
8
DEFAULT_255_2_778
10
4.6212473
20
120.198626
40
0.4107032
50
319.6502683
51
353.6388596
0
ARC
8
DEFAULT_255_2_778
10
4.306804
20
120.2556097
40
0.7298495
50
351.927691
51
0.2438277
0
ARC
8
DEFAULT_255_2_778
10
4.4400367
20
120.3417788
40
0.5967468
50
358.7744644
51
19.4894128
0
ARC
8
DEFAULT_255_2_778
10
4.6598209
20
120.4139191
40
0.3655258
50
20.3234008
51
39.9470392
0
ARC
8
DEFAULT_255_2_778
10
4.6853773
20
120.4254572
40
0.3386094
50
41.2269798
51
90.960992
0
ARC
8
DEFAULT_255_2_778
10
4.6611161
20
120.2214231
40
0.5429139
50
88.0385748
51
89.4901733
0
ARC
8
DEFAULT_255_2_778
10
5.83979
20
120.1143403
40
0.4846439
50
325.2359898
51
354.9424162
0
ARC
8
DEFAULT_255_2_778
10
5.9320191
20
120.0613
40
0.3787409
50
311.1508023
51
323.8719528
0
ARC
8
DEFAULT_255_2_778
10
5.8988576
20
120.1138576
40
0.4402424
50
272.2349347
51
309.8993234
0
ARC
8
DEFAULT_255_2_778
10
5.8656973
20
120.3633221
40
0.6912067
50
269.9460937
51
274.1755464
0
ARC
8
DEFAULT_255_2_778
10
5.8496254
20
120.0975911
40
0.4257549
50
219.7204657
51
272.0757981
0
ARC
8
DEFAULT_255_2_778
10
5.957018
20
120.1772502
40
0.5593121
50
186.1278982
51
218.9667965
0
ARC
8
DEFAULT_255_2_778
10
6.281379
20
120.2331645
40
0.8880361
50
179.8224976
51
187.4809931
0
ARC
8
DEFAULT_255_2_778
10
6.0883184
20
120.3657117
40
0.6951064
50
156.751088
51
181.1290051
0
ARC
8
DEFAULT_255_2_778
10
5.9583014
20
120.4110384
40
0.5578392
50
154.8498445
51
155.7573149
0
ARC
8
DEFAULT_255_2_778
10
5.8622706
20
120.4648678
40
0.4481053
50
122.1605679
51
155.8617792
0
ARC
8
DEFAULT_255_2_778
10
5.8693215
20
120.4389598
40
0.4738556
50
88.8239776
51
121.2147862
0
ARC
8
DEFAULT_255_2_778
10
5.8929224
20
120.4383909
40
0.4745277
50
61.3435439
51
91.6755984
0
ARC
8
DEFAULT_255_2_778
10
5.9328611
20
120.5303076
40
0.3748257
50
47.1971218
51
59.9626802
0
ARC
8
DEFAULT_255_2_778
10
5.8848677
20
120.4903076
40
0.4368579
50
6.1823173
51
46.1434475
0
ARC
8
DEFAULT_255_2_778
10
5.6632866
20
120.4423873
40
0.6627378
50
5.7004676
51
8.2385266
0
ARC
8
DEFAULT_255_2_778
10
5.7271482
20
120.4580949
40
0.4384728
50
6.5636763
51
27.9020656
0
ARC
8
DEFAULT_255_2_778
10
5.9158976
20
120.5521133
40
0.227729
50
29.2202686
51
46.4684089
0
ARC
8
DEFAULT_255_2_778
10
5.8996221
20
120.5162994
40
0.265216
50
49.2492819
51
91.1321793
0
ARC
8
DEFAULT_255_2_778
10
5.8791519
20
120.3213977
40
0.460318
50
88.1039995
51
90.0130639
0
ARC
8
DEFAULT_255_2_778
10
5.8670053
20
120.4970785
40
0.2848917
50
87.5775277
51
142.8777712
0
ARC
8
DEFAULT_255_2_778
10
5.9855196
20
120.4191001
40
0.4265529
50
144.1337072
51
172.9172221
0
ARC
8
DEFAULT_255_2_778
10
6.3568197
20
120.3525221
40
0.8034849
50
171.4703858
51
180.3142232
0
ARC
8
DEFAULT_255_2_778
10
6.1998627
20
120.218424
40
0.6466403
50
178.8753802
51
198.1559348
0
ARC
8
DEFAULT_255_2_778
10
5.9589836
20
120.1453754
40
0.3950323
50
198.9750542
51
215.0139029
0
ARC
8
DEFAULT_255_2_778
10
5.8548661
20
120.067333
40
0.265013
50
214.1106399
51
272.201639
0
ARC
8
DEFAULT_255_2_778
10
5.8775301
20
120.1587876
40
0.3564906
50
267.9932759
51
294.7057039
0
ARC
8
DEFAULT_255_2_778
10
5.9306079
20
120.0262241
40
0.2139973
50
296.6301898
51
310.1343923
0
ARC
8
DEFAULT_255_2_778
10
5.8883682
20
120.056233
40
0.2644846
50
312.940992
51
345.7522077
0
ARC
8
DEFAULT_255_2_778
10
5.5799652
20
120.1595943
40
0.5893404
50
343.3911252
51
351.4440944
0
LINE
8
DEFAULT_255_2_778
10
2.119647
20
119.6885156
11
1.785447
21
119.6885156
0
LINE
8
DEFAULT_255_2_778
10
1.785447
20
119.6885156
11
1.785447
21
120.8958156
0
LINE
8
DEFAULT_255_2_778
10
1.785447
20
120.8958156
11
2.126247
21
120.8958156
0
LINE
8
DEFAULT_255_2_778
10
2.658547
20
120.3327156
11
2.658547
21
120.2557156
0
LINE
8
DEFAULT_255_2_778
10
2.119847
20
119.6887156
11
2.119647
21
119.6885156
0
LINE
8
DEFAULT_255_2_778
10
2.130447
20
120.7645156
11
1.944747
21
120.7645156
0
LINE
8
DEFAULT_255_2_778
10
1.944747
20
120.7645156
11
1.944747
21
119.8184156
0
LINE
8
DEFAULT_255_2_778
10
1.944747
20
119.8184156
11
2.112247
21
119.8184156
0
LINE
8
DEFAULT_255_2_778
10
2.501147
20
120.2587156
11
2.501147
21
120.3290156
0
LINE
8
DEFAULT_255_2_778
10
2.130447
20
120.7643156
11
2.130447
21
120.7645156
0
LINE
8
DEFAULT_255_2_778
10
3.506547
20
120.8958156
11
3.506547
21
120.0941156
0
LINE
8
DEFAULT_255_2_778
10
3.506547
20
120.0941156
11
3.674047
21
120.0941156
0
LINE
8
DEFAULT_255_2_778
10
3.674047
20
120.0941156
11
3.674047
21
119.9689156
0
LINE
8
DEFAULT_255_2_778
10
3.674047
20
119.9689156
11
3.506547
21
119.9689156
0
LINE
8
DEFAULT_255_2_778
10
3.506547
20
119.9689156
11
3.506547
21
119.6887156
0
LINE
8
DEFAULT_255_2_778
10
3.506547
20
119.6887156
11
3.352347
21
119.6887156
0
LINE
8
DEFAULT_255_2_778
10
3.352347
20
119.6887156
11
3.352347
21
119.9689156
0
LINE
8
DEFAULT_255_2_778
10
3.352347
20
119.9689156
11
2.802747
21
119.9689156
0
LINE
8
DEFAULT_255_2_778
10
2.802747
20
119.9689156
11
2.802747
21
120.0594156
0
LINE
8
DEFAULT_255_2_778
10
2.802747
20
120.0594156
11
3.343347
21
120.8960156
0
LINE
8
DEFAULT_255_2_778
10
3.343347
20
120.8960156
11
3.506547
21
120.8960156
0
LINE
8
DEFAULT_255_2_778
10
3.506547
20
120.8960156
11
3.506547
21
120.8958156
0
LINE
8
DEFAULT_255_2_778
10
3.334047
20
120.6529156
11
2.976647
21
120.0941156
0
LINE
8
DEFAULT_255_2_778
10
2.976647
20
120.0941156
11
3.352347
21
120.0941156
0
LINE
8
DEFAULT_255_2_778
10
3.352347
20
120.0941156
11
3.352347
21
120.6860156
0
LINE
8
DEFAULT_255_2_778
10
3.352347
20
120.6860156
11
3.334047
21
120.6529156
0
LINE
8
DEFAULT_255_2_778
10
3.334047
20
120.6529156
11
3.334047
21
120.6529156
0
LINE
8
DEFAULT_255_2_778
10
4.147647
20
120.2642156
11
4.147647
21
120.1391156
0
LINE
8
DEFAULT_255_2_778
10
4.147647
20
120.1391156
11
3.743147
21
120.1391156
0
LINE
8
DEFAULT_255_2_778
10
3.743147
20
120.1391156
11
3.743147
21
120.2642156
0
LINE
8
DEFAULT_255_2_778
10
3.743147
20
120.2642156
11
4.147647
21
120.2642156
0
LINE
8
DEFAULT_255_2_778
10
4.147647
20
120.2642156
11
4.147647
21
120.2642156
0
LINE
8
DEFAULT_255_2_778
10
4.655147
20
119.6885156
11
4.320947
21
119.6885156
0
LINE
8
DEFAULT_255_2_778
10
4.320947
20
119.6885156
11
4.320947
21
120.8958156
0
LINE
8
DEFAULT_255_2_778
10
4.320947
20
120.8958156
11
4.661747
21
120.8958156
0
LINE
8
DEFAULT_255_2_778
10
5.194047
20
120.3327156
11
5.194047
21
120.2557156
0
LINE
8
DEFAULT_255_2_778
10
4.655347
20
119.6887156
11
4.655147
21
119.6885156
0
LINE
8
DEFAULT_255_2_778
10
4.665947
20
120.7645156
11
4.480247
21
120.7645156
0
LINE
8
DEFAULT_255_2_778
10
4.480247
20
120.7645156
11
4.480247
21
119.8184156
0
LINE
8
DEFAULT_255_2_778
10
4.480247
20
119.8184156
11
4.647747
21
119.8184156
0
LINE
8
DEFAULT_255_2_778
10
5.036647
20
120.2587156
11
5.036647
21
120.3290156
0
LINE
8
DEFAULT_255_2_778
10
4.665947
20
120.7643156
11
4.665947
21
120.7645156
0
LINE
8
DEFAULT_255_2_778
10
6.162447
20
120.0716156
11
6.322547
21
120.0716156
0
LINE
8
DEFAULT_255_2_778
10
5.393347
20
120.2359156
11
5.393347
21
120.3520156
0
LINE
8
DEFAULT_255_2_778
10
6.322747
20
120.5082156
11
6.162747
21
120.5082156
0
LINE
8
DEFAULT_255_2_778
10
5.553347
20
120.3481156
11
5.553347
21
120.2311156
0
LINE
8
DEFAULT_255_2_778
10
6.162747
20
120.0719156
11
6.162447
21
120.0716156
0
LINE
8
DEFAULT_255_2_778
10
6.539447
20
120.8958156
11
6.745047
21
120.8958156
0
LINE
8
DEFAULT_255_2_778
10
6.745047
20
120.8958156
11
7.139847
21
119.9107156
0
LINE
8
DEFAULT_255_2_778
10
7.139847
20
119.9107156
11
7.534547
21
120.8958156
0
LINE
8
DEFAULT_255_2_778
10
7.534547
20
120.8958156
11
7.740947
21
120.8958156
0
LINE
8
DEFAULT_255_2_778
10
7.740947
20
120.8958156
11
7.740947
21
119.6885156
0
LINE
8
DEFAULT_255_2_778
10
7.740947
20
119.6885156
11
7.581647
21
119.6885156
0
LINE
8
DEFAULT_255_2_778
10
7.581647
20
119.6885156
11
7.581647
21
120.1586156
0
LINE
8
DEFAULT_255_2_778
10
7.581647
20
120.1586156
11
7.596447
21
120.6661156
0
LINE
8
DEFAULT_255_2_778
10
7.596447
20
120.6661156
11
7.200147
21
119.6885156
0
LINE
8
DEFAULT_255_2_778
10
7.200147
20
119.6885156
11
7.078147
21
119.6885156
0
LINE
8
DEFAULT_255_2_778
10
7.078147
20
119.6885156
11
6.682647
21
120.6635156
0
LINE
8
DEFAULT_255_2_778
10
6.682647
20
120.6635156
11
6.698447
21
120.1586156
0
LINE
8
DEFAULT_255_2_778
10
6.698447
20
120.1586156
11
6.698447
21
119.6885156
0
LINE
8
DEFAULT_255_2_778
10
6.698447
20
119.6885156
11
6.539247
21
119.6885156
0
LINE
8
DEFAULT_255_2_778
10
6.539247
20
119.6885156
11
6.539247
21
120.8958156
0
LINE
8
DEFAULT_255_2_778
10
6.539247
20
120.8958156
11
6.539447
21
120.8958156
0
ARC
8
DEFAULT_255_2_778
10
8.2107777
20
96.458364
40
0.691508
50
338.9795145
51
1.0951939
0
ARC
8
DEFAULT_255_2_778
10
8.3662975
20
96.4088893
40
0.5286782
50
335.706015
51
337.9387352
0
ARC
8
DEFAULT_255_2_778
10
8.4710206
20
96.3518551
40
0.4098604
50
303.1188983
51
336.9500784
0
ARC
8
DEFAULT_255_2_778
10
8.4733614
20
96.3661073
40
0.4206311
50
268.7192126
51
301.7910248
0
ARC
8
DEFAULT_255_2_778
10
8.456371
20
96.3621896
40
0.4166775
50
237.9341075
51
271.0435033
0
ARC
8
DEFAULT_255_2_778
10
8.4638857
20
96.362317
40
0.420822
50
204.2046391
51
237.076241
0
ARC
8
DEFAULT_255_2_778
10
8.6747818
20
96.4554249
40
0.6513534
50
179.4408581
51
204.0688006
0
ARC
8
DEFAULT_255_2_778
10
8.6897662
20
96.5540242
40
0.6664404
50
156.5736159
51
181.1472108
0
ARC
8
DEFAULT_255_2_778
10
8.4611789
20
96.6555892
40
0.4163224
50
123.1928805
51
156.8920217
0
ARC
8
DEFAULT_255_2_778
10
8.4552545
20
96.6513611
40
0.4166807
50
89.0230002
51
122.1928362
0
ARC
8
DEFAULT_255_2_778
10
8.4707289
20
96.644406
40
0.4236579
50
58.2029442
51
91.1319707
0
ARC
8
DEFAULT_255_2_778
10
8.471552
20
96.6613945
40
0.4088686
50
22.9131034
51
57.0465075
0
ARC
8
DEFAULT_255_2_778
10
8.2295625
20
96.5565876
40
0.6725732
50
359.4669371
51
23.1109487
0
ARC
8
DEFAULT_255_2_778
10
7.9684207
20
96.5404004
40
0.9337387
50
359.9988219
51
0.6093223
0
ARC
8
DEFAULT_255_2_778
10
8.1139365
20
96.5544833
40
0.6449441
50
358.889268
51
16.3950159
0
ARC
8
DEFAULT_255_2_778
10
8.4036796
20
96.6363722
40
0.3438836
50
16.9320491
51
36.3466223
0
ARC
8
DEFAULT_255_2_778
10
8.4738676
20
96.6872274
40
0.2572114
50
36.4885372
51
92.5643983
0
ARC
8
DEFAULT_255_2_778
10
8.4527693
20
96.6901661
40
0.2541961
50
87.8378895
51
143.8319797
0
ARC
8
DEFAULT_255_2_778
10
8.58617
20
96.6002467
40
0.4150009
50
144.679176
51
173.9382402
0
ARC
8
DEFAULT_255_2_778
10
8.9116716
20
96.5446544
40
0.7448465
50
172.3296956
51
179.4517755
0
ARC
8
DEFAULT_255_2_778
10
8.7716731
20
96.4589066
40
0.6049465
50
178.7994658
51
198.4311496
0
ARC
8
DEFAULT_255_2_778
10
8.5362772
20
96.3862343
40
0.3586908
50
199.3064472
51
215.964441
0
ARC
8
DEFAULT_255_2_778
10
8.4545444
20
96.3233054
40
0.2555977
50
215.3069076
51
272.1109683
0
ARC
8
DEFAULT_255_2_778
10
8.4761841
20
96.3226993
40
0.2551111
50
267.2533778
51
323.0875933
0
ARC
8
DEFAULT_255_2_778
10
8.3529898
20
96.4001833
40
0.4003291
50
324.8106022
51
352.9309699
0
ARC
8
DEFAULT_255_2_778
10
7.9877275
20
96.4664533
40
0.7712513
50
351.3844328
51
359.5934801
0
LINE
8
DEFAULT_255_2_778
10
8.9021594
20
96.5406812
11
8.9021594
21
96.4715812
0
LINE
8
DEFAULT_255_2_778
10
8.0234594
20
96.4617812
11
8.0234594
21
96.5406812
0
LINE
8
DEFAULT_255_2_778
10
8.9021594
20
96.5403812
11
8.9021594
21
96.5406812
0
LINE
8
DEFAULT_255_2_778
10
8.7587594
20
96.4609812
11
8.7587594
21
96.5419812
0
LINE
8
DEFAULT_255_2_778
10
8.1668594
20
96.5517812
11
8.1668594
21
96.4715812
0
LINE
8
DEFAULT_255_2_778
10
8.7589594
20
96.4609812
11
8.7587594
21
96.4609812
0
LINE
8
DEFAULT_255_2_778
10
9.7207979
20
96.5610323
11
9.7207979
21
96.4432323
0
LINE
8
DEFAULT_255_2_778
10
9.7207979
20
96.4432323
11
9.2621979
21
96.4432323
0
LINE
8
DEFAULT_255_2_778
10
9.2621979
20
96.4432323
11
9.2621979
21
95.9606323
0
LINE
8
DEFAULT_255_2_778
10
9.2621979
20
95.9606323
11
9.1182979
21
95.9606323
0
LINE
8
DEFAULT_255_2_778
10
9.1182979
20
95.9606323
11
9.1182979
21
97.0531323
0
LINE
8
DEFAULT_255_2_778
10
9.1182979
20
97.0531323
11
9.7950979
21
97.0531323
0
LINE
8
DEFAULT_255_2_778
10
9.7950979
20
97.0531323
11
9.7950979
21
96.9346323
0
LINE
8
DEFAULT_255_2_778
10
9.7950979
20
96.9346323
11
9.2621979
21
96.9346323
0
LINE
8
DEFAULT_255_2_778
10
9.2621979
20
96.9346323
11
9.2621979
21
96.5610323
0
LINE
8
DEFAULT_255_2_778
10
9.2621979
20
96.5610323
11
9.7207979
21
96.5610323
0
LINE
8
DEFAULT_255_2_778
10
9.7207979
20
96.5610323
11
9.7207979
21
96.5610323
0
LINE
8
DEFAULT_255_2_778
10
10.5700979
20
96.5610323
11
10.5700979
21
96.4432323
0
LINE
8
DEFAULT_255_2_778
10
10.5700979
20
96.4432323
11
10.1114979
21
96.4432323
0
LINE
8
DEFAULT_255_2_778
10
10.1114979
20
96.4432323
11
10.1114979
21
95.9606323
0
LINE
8
DEFAULT_255_2_778
10
10.1114979
20
95.9606323
11
9.9675979
21
95.9606323
0
LINE
8
DEFAULT_255_2_778
10
9.9675979
20
95.9606323
11
9.9675979
21
97.0531323
0
LINE
8
DEFAULT_255_2_778
10
9.9675979
20
97.0531323
11
10.6443979
21
97.0531323
0
LINE
8
DEFAULT_255_2_778
10
10.6443979
20
97.0531323
11
10.6443979
21
96.9346323
0
LINE
8
DEFAULT_255_2_778
10
10.6443979
20
96.9346323
11
10.1114979
21
96.9346323
0
LINE
8
DEFAULT_255_2_778
10
10.1114979
20
96.9346323
11
10.1114979
21
96.5610323
0
LINE
8
DEFAULT_255_2_778
10
10.1114979
20
96.5610323
11
10.5700979
21
96.5610323
0
LINE
8
DEFAULT_255_2_778
10
10.5700979
20
96.5610323
11
10.5700979
21
96.5610323
0
LINE
8
DEFAULT_255_2_778
10
11.3421417
20
97.0531323
11
11.3421417
21
96.0784323
0
LINE
8
DEFAULT_255_2_778
10
11.3421417
20
96.0784323
11
11.8599417
21
96.0784323
0
LINE
8
DEFAULT_255_2_778
10
11.8599417
20
96.0784323
11
11.8599417
21
95.9606323
0
LINE
8
DEFAULT_255_2_778
10
11.8599417
20
95.9606323
11
11.1974417
21
95.9606323
0
LINE
8
DEFAULT_255_2_778
10
11.1974417
20
95.9606323
11
11.1974417
21
97.0531323
0
LINE
8
DEFAULT_255_2_778
10
11.1974417
20
97.0531323
11
11.3421417
21
97.0531323
0
LINE
8
DEFAULT_255_2_778
10
11.3421417
20
97.0531323
11
11.3421417
21
97.0531323
0
LINE
8
DEFAULT_255_2_778
10
12.179001
20
97.0531323
11
12.179001
21
95.9606323
0
LINE
8
DEFAULT_255_2_778
10
12.179001
20
95.9606323
11
12.034801
21
95.9606323
0
LINE
8
DEFAULT_255_2_778
10
12.034801
20
95.9606323
11
12.034801
21
97.0531323
0
LINE
8
DEFAULT_255_2_778
10
12.034801
20
97.0531323
11
12.179001
21
97.0531323
0
LINE
8
DEFAULT_255_2_778
10
12.179001
20
97.0531323
11
12.179001
21
97.0531323
0
LINE
8
DEFAULT_255_2_778
10
13.2818386
20
97.0531323
11
13.2818386
21
95.9606323
0
LINE
8
DEFAULT_255_2_778
10
13.2818386
20
95.9606323
11
13.1371386
21
95.9606323
0
LINE
8
DEFAULT_255_2_778
10
13.1371386
20
95.9606323
11
12.5870386
21
96.8025323
0
LINE
8
DEFAULT_255_2_778
10
12.5870386
20
96.8025323
11
12.5870386
21
95.9606323
0
LINE
8
DEFAULT_255_2_778
10
12.5870386
20
95.9606323
11
12.4423386
21
95.9606323
0
LINE
8
DEFAULT_255_2_778
10
12.4423386
20
95.9606323
11
12.4423386
21
97.0531323
0
LINE
8
DEFAULT_255_2_778
10
12.4423386
20
97.0531323
11
12.5870386
21
97.0531323
0
LINE
8
DEFAULT_255_2_778
10
12.5870386
20
97.0531323
11
13.1384386
21
96.2075323
0
LINE
8
DEFAULT_255_2_778
10
13.1384386
20
96.2075323
11
13.1384386
21
97.0531323
0
LINE
8
DEFAULT_255_2_778
10
13.1384386
20
97.0531323
11
13.2818386
21
97.0531323
0
LINE
8
DEFAULT_255_2_778
10
13.2818386
20
97.0531323
11
13.2818386
21
97.0531323
0
LINE
8
DEFAULT_255_2_778
10
14.155199
20
96.5835323
11
14.155199
21
96.4658323
0
LINE
8
DEFAULT_255_2_778
10
14.155199
20
96.4658323
11
13.681599
21
96.4658323
0
LINE
8
DEFAULT_255_2_778
10
13.681599
20
96.4658323
11
13.681599
21
96.0787323
0
LINE
8
DEFAULT_255_2_778
10
13.681599
20
96.0787323
11
14.231699
21
96.0787323
0
LINE
8
DEFAULT_255_2_778
10
14.231699
20
96.0787323
11
14.231699
21
95.9609323
0
LINE
8
DEFAULT_255_2_778
10
14.231699
20
95.9609323
11
13.537699
21
95.9609323
0
LINE
8
DEFAULT_255_2_778
10
13.537699
20
95.9609323
11
13.537699
21
97.0534323
0
LINE
8
DEFAULT_255_2_778
10
13.537699
20
97.0534323
11
14.224299
21
97.0534323
0
LINE
8
DEFAULT_255_2_778
10
14.224299
20
97.0534323
11
14.224299
21
96.9349323
0
LINE
8
DEFAULT_255_2_778
10
14.224299
20
96.9349323
11
13.681899
21
96.9349323
0
LINE
8
DEFAULT_255_2_778
10
13.681899
20
96.9349323
11
13.681899
21
96.5838323
0
LINE
8
DEFAULT_255_2_778
10
13.681899
20
96.5838323
11
14.155199
21
96.5838323
0
LINE
8
DEFAULT_255_2_778
10
14.155199
20
96.5838323
11
14.155199
21
96.5835323
0
ARC
8
DEFAULT_255_2_778
10
8.8140777
20
101.442264
40
0.691508
50
338.9795145
51
1.0951939
0
ARC
8
DEFAULT_255_2_778
10
8.9695975
20
101.3927893
40
0.5286782
50
335.706015
51
337.9387352
0
ARC
8
DEFAULT_255_2_778
10
9.0743206
20
101.3357551
40
0.4098604
50
303.1188983
51
336.9500784
0
ARC
8
DEFAULT_255_2_778
10
9.0766614
20
101.3500073
40
0.4206311
50
268.7192126
51
301.7910248
0
ARC
8
DEFAULT_255_2_778
10
9.059671
20
101.3460896
40
0.4166775
50
237.9341075
51
271.0435033
0
ARC
8
DEFAULT_255_2_778
10
9.0671857
20
101.346217
40
0.420822
50
204.2046391
51
237.076241
0
ARC
8
DEFAULT_255_2_778
10
9.2780818
20
101.4393249
40
0.6513534
50
179.4408581
51
204.0688006
0
ARC
8
DEFAULT_255_2_778
10
9.2930662
20
101.5379242
40
0.6664404
50
156.5736159
51
181.1472108
0
ARC
8
DEFAULT_255_2_778
10
9.0644789
20
101.6394892
40
0.4163224
50
123.1928805
51
156.8920217
0
ARC
8
DEFAULT_255_2_778
10
9.0585545
20
101.6352611
40
0.4166807
50
89.0230002
51
122.1928362
0
ARC
8
DEFAULT_255_2_778
10
9.0740289
20
101.628306
40
0.4236579
50
58.2029442
51
91.1319707
0
ARC
8
DEFAULT_255_2_778
10
9.074852
20
101.6452945
40
0.4088686
50
22.9131034
51
57.0465075
0
ARC
8
DEFAULT_255_2_778
10
8.8328625
20
101.5404876
40
0.6725732
50
359.4669371
51
23.1109487
0
ARC
8
DEFAULT_255_2_778
10
8.5717207
20
101.5243004
40
0.9337387
50
359.9988219
51
0.6093223
0
ARC
8
DEFAULT_255_2_778
10
8.7172365
20
101.5383833
40
0.6449441
50
358.889268
51
16.3950159
0
ARC
8
DEFAULT_255_2_778
10
9.0069796
20
101.6202722
40
0.3438836
50
16.9320491
51
36.3466223
0
ARC
8
DEFAULT_255_2_778
10
9.0771676
20
101.6711274
40
0.2572114
50
36.4885372
51
92.5643983
0
ARC
8
DEFAULT_255_2_778
10
9.0560693
20
101.6740661
40
0.2541961
50
87.8378895
51
143.8319797
0
ARC
8
DEFAULT_255_2_778
10
9.18947
20
101.5841467
40
0.4150009
50
144.679176
51
173.9382402
0
ARC
8
DEFAULT_255_2_778
10
9.5149716
20
101.5285544
40
0.7448465
50
172.3296956
51
179.4517755
0
ARC
8
DEFAULT_255_2_778
10
9.3749731
20
101.4428066
40
0.6049465
50
178.7994658
51
198.4311496
0
ARC
8
DEFAULT_255_2_778
10
9.1395772
20
101.3701343
40
0.3586908
50
199.3064472
51
215.964441
0
ARC
8
DEFAULT_255_2_778
10
9.0578444
20
101.3072054
40
0.2555977
50
215.3069076
51
272.1109683
0
ARC
8
DEFAULT_255_2_778
10
9.0794841
20
101.3065993
40
0.2551111
50
267.2533778
51
323.0875933
0
ARC
8
DEFAULT_255_2_778
10
8.9562898
20
101.3840833
40
0.4003291
50
324.8106022
51
352.9309699
0
ARC
8
DEFAULT_255_2_778
10
8.5910275
20
101.4503533
40
0.7712513
50
351.3844328
51
359.5934801
0
LINE
8
DEFAULT_255_2_778
10
9.5054594
20
101.5245812
11
9.5054594
21
101.4554812
0
LINE
8
DEFAULT_255_2_778
10
8.6267594
20
101.4456812
11
8.6267594
21
101.5245812
0
LINE
8
DEFAULT_255_2_778
10
9.5054594
20
101.5242812
11
9.5054594
21
101.5245812
0
LINE
8
DEFAULT_255_2_778
10
9.3620594
20
101.4448812
11
9.3620594
21
101.5258812
0
LINE
8
DEFAULT_255_2_778
10
8.7701594
20
101.5356812
11
8.7701594
21
101.4554812
0
LINE
8
DEFAULT_255_2_778
10
9.3622594
20
101.4448812
11
9.3620594
21
101.4448812
0
LINE
8
DEFAULT_255_2_778
10
10.5610386
20
102.0371323
11
10.5610386
21
100.9446323
0
LINE
8
DEFAULT_255_2_778
10
10.5610386
20
100.9446323
11
10.4163386
21
100.9446323
0
LINE
8
DEFAULT_255_2_778
10
10.4163386
20
100.9446323
11
9.8662386
21
101.7865323
0
LINE
8
DEFAULT_255_2_778
10
9.8662386
20
101.7865323
11
9.8662386
21
100.9446323
0
LINE
8
DEFAULT_255_2_778
10
9.8662386
20
100.9446323
11
9.7215386
21
100.9446323
0
LINE
8
DEFAULT_255_2_778
10
9.7215386
20
100.9446323
11
9.7215386
21
102.0371323
0
LINE
8
DEFAULT_255_2_778
10
9.7215386
20
102.0371323
11
9.8662386
21
102.0371323
0
LINE
8
DEFAULT_255_2_778
10
9.8662386
20
102.0371323
11
10.4176386
21
101.1915323
0
LINE
8
DEFAULT_255_2_778
10
10.4176386
20
101.1915323
11
10.4176386
21
102.0371323
0
LINE
8
DEFAULT_255_2_778
10
10.4176386
20
102.0371323
11
10.5610386
21
102.0371323
0
LINE
8
DEFAULT_255_2_778
10
10.5610386
20
102.0371323
11
10.5610386
21
102.0371323
0
LINE
8
DEFAULT_255_2_778
10
11.3421417
20
102.0371323
11
11.3421417
21
101.0624323
0
LINE
8
DEFAULT_255_2_778
10
11.3421417
20
101.0624323
11
11.8599417
21
101.0624323
0
LINE
8
DEFAULT_255_2_778
10
11.8599417
20
101.0624323
11
11.8599417
21
100.9446323
0
LINE
8
DEFAULT_255_2_778
10
11.8599417
20
100.9446323
11
11.1974417
21
100.9446323
0
LINE
8
DEFAULT_255_2_778
10
11.1974417
20
100.9446323
11
11.1974417
21
102.0371323
0
LINE
8
DEFAULT_255_2_778
10
11.1974417
20
102.0371323
11
11.3421417
21
102.0371323
0
LINE
8
DEFAULT_255_2_778
10
11.3421417
20
102.0371323
11
11.3421417
21
102.0371323
0
LINE
8
DEFAULT_255_2_778
10
12.179001
20
102.0371323
11
12.179001
21
100.9446323
0
LINE
8
DEFAULT_255_2_778
10
12.179001
20
100.9446323
11
12.034801
21
100.9446323
0
LINE
8
DEFAULT_255_2_778
10
12.034801
20
100.9446323
11
12.034801
21
102.0371323
0
LINE
8
DEFAULT_255_2_778
10
12.034801
20
102.0371323
11
12.179001
21
102.0371323
0
LINE
8
DEFAULT_255_2_778
10
12.179001
20
102.0371323
11
12.179001
21
102.0371323
0
LINE
8
DEFAULT_255_2_778
10
13.2818386
20
102.0371323
11
13.2818386
21
100.9446323
0
LINE
8
DEFAULT_255_2_778
10
13.2818386
20
100.9446323
11
13.1371386
21
100.9446323
0
LINE
8
DEFAULT_255_2_778
10
13.1371386
20
100.9446323
11
12.5870386
21
101.7865323
0
LINE
8
DEFAULT_255_2_778
10
12.5870386
20
101.7865323
11
12.5870386
21
100.9446323
0
LINE
8
DEFAULT_255_2_778
10
12.5870386
20
100.9446323
11
12.4423386
21
100.9446323
0
LINE
8
DEFAULT_255_2_778
10
12.4423386
20
100.9446323
11
12.4423386
21
102.0371323
0
LINE
8
DEFAULT_255_2_778
10
12.4423386
20
102.0371323
11
12.5870386
21
102.0371323
0
LINE
8
DEFAULT_255_2_778
10
12.5870386
20
102.0371323
11
13.1384386
21
101.1915323
0
LINE
8
DEFAULT_255_2_778
10
13.1384386
20
101.1915323
11
13.1384386
21
102.0371323
0
LINE
8
DEFAULT_255_2_778
10
13.1384386
20
102.0371323
11
13.2818386
21
102.0371323
0
LINE
8
DEFAULT_255_2_778
10
13.2818386
20
102.0371323
11
13.2818386
21
102.0371323
0
LINE
8
DEFAULT_255_2_778
10
14.155199
20
101.5674323
11
14.155199
21
101.4497323
0
LINE
8
DEFAULT_255_2_778
10
14.155199
20
101.4497323
11
13.681599
21
101.4497323
0
LINE
8
DEFAULT_255_2_778
10
13.681599
20
101.4497323
11
13.681599
21
101.0626323
0
LINE
8
DEFAULT_255_2_778
10
13.681599
20
101.0626323
11
14.231699
21
101.0626323
0
LINE
8
DEFAULT_255_2_778
10
14.231699
20
101.0626323
11
14.231699
21
100.9448323
0
LINE
8
DEFAULT_255_2_778
10
14.231699
20
100.9448323
11
13.537699
21
100.9448323
0
LINE
8
DEFAULT_255_2_778
10
13.537699
20
100.9448323
11
13.537699
21
102.0373323
0
LINE
8
DEFAULT_255_2_778
10
13.537699
20
102.0373323
11
14.224299
21
102.0373323
0
LINE
8
DEFAULT_255_2_778
10
14.224299
20
102.0373323
11
14.224299
21
101.9188323
0
LINE
8
DEFAULT_255_2_778
10
14.224299
20
101.9188323
11
13.681899
21
101.9188323
0
LINE
8
DEFAULT_255_2_778
10
13.681899
20
101.9188323
11
13.681899
21
101.5677323
0
LINE
8
DEFAULT_255_2_778
10
13.681899
20
101.5677323
11
14.155199
21
101.5677323
0
LINE
8
DEFAULT_255_2_778
10
14.155199
20
101.5677323
11
14.155199
21
101.5674323
0
ARC
8
DEFAULT_255_2_778
10
9.3452236
20
78.6259504
40
0.3492671
50
316.1767373
51
1.8302111
0
ARC
8
DEFAULT_255_2_778
10
9.3274326
20
78.6602496
40
0.386053
50
272.8135264
51
314.3320622
0
ARC
8
DEFAULT_255_2_778
10
9.2933247
20
78.8635752
40
0.5912985
50
274.120548
51
275.1481124
0
ARC
8
DEFAULT_255_2_778
10
9.2838123
20
78.721022
40
0.4490229
50
242.040355
51
271.7356681
0
ARC
8
DEFAULT_255_2_778
10
9.2402493
20
78.6202669
40
0.3397165
50
227.6992172
51
240.5626134
0
ARC
8
DEFAULT_255_2_778
10
9.247589
20
78.6192853
40
0.3439841
50
178.1778561
51
226.6849051
0
ARC
8
DEFAULT_255_2_778
10
9.4440108
20
78.6396555
40
0.5403143
50
180.4401108
51
181.0002955
0
ARC
8
DEFAULT_255_2_778
10
9.3001363
20
78.6257879
40
0.2542216
50
176.7940766
51
219.7763899
0
ARC
8
DEFAULT_255_2_778
10
9.2559341
20
78.5995955
40
0.2036555
50
222.0699435
51
224.91421
0
ARC
8
DEFAULT_255_2_778
10
9.2786473
20
78.6354744
40
0.2452514
50
227.1041265
51
271.8392186
0
ARC
8
DEFAULT_255_2_778
10
9.2976453
20
78.8195416
40
0.4293364
50
268.5149578
51
270.0089712
0
ARC
8
DEFAULT_255_2_778
10
9.3111025
20
78.6605785
40
0.2707046
50
267.164787
51
304.2034849
0
ARC
8
DEFAULT_255_2_778
10
9.3466395
20
78.5934338
40
0.195375
50
306.6539925
51
315.0921474
0
ARC
8
DEFAULT_255_2_778
10
9.3027905
20
78.6226112
40
0.2472434
50
317.4777452
51
2.612246
0
ARC
8
DEFAULT_255_2_778
10
9.1232241
20
78.6393754
40
0.4265882
50
359.2618421
51
0.0040043
0
LINE
8
DEFAULT_255_2_778
10
9.5495125
20
79.3800052
11
9.6943125
21
79.3800052
0
LINE
8
DEFAULT_255_2_778
10
9.6943125
20
79.3800052
11
9.6943125
21
78.6371052
0
LINE
8
DEFAULT_255_2_778
10
9.3358125
20
78.2738052
11
9.2974125
21
78.2722052
0
LINE
8
DEFAULT_255_2_778
10
8.9037125
20
78.6355052
11
8.9037125
21
79.3797052
0
LINE
8
DEFAULT_255_2_778
10
8.9037125
20
79.3797052
11
9.0463125
21
79.3797052
0
LINE
8
DEFAULT_255_2_778
10
9.0463125
20
79.3797052
11
9.0463125
21
78.6400052
0
LINE
8
DEFAULT_255_2_778
10
9.5498125
20
78.6394052
11
9.5498125
21
79.3800052
0
LINE
8
DEFAULT_255_2_778
10
9.5498125
20
79.3800052
11
9.5495125
21
79.3800052
0
LINE
8
DEFAULT_255_2_778
10
10.7611386
20
79.3800323
11
10.7611386
21
78.2875323
0
LINE
8
DEFAULT_255_2_778
10
10.7611386
20
78.2875323
11
10.6164386
21
78.2875323
0
LINE
8
DEFAULT_255_2_778
10
10.6164386
20
78.2875323
11
10.0663386
21
79.1294323
0
LINE
8
DEFAULT_255_2_778
10
10.0663386
20
79.1294323
11
10.0663386
21
78.2875323
0
LINE
8
DEFAULT_255_2_778
10
10.0663386
20
78.2875323
11
9.9216386
21
78.2875323
0
LINE
8
DEFAULT_255_2_778
10
9.9216386
20
78.2875323
11
9.9216386
21
79.3800323
0
LINE
8
DEFAULT_255_2_778
10
9.9216386
20
79.3800323
11
10.0663386
21
79.3800323
0
LINE
8
DEFAULT_255_2_778
10
10.0663386
20
79.3800323
11
10.6177386
21
78.5344323
0
LINE
8
DEFAULT_255_2_778
10
10.6177386
20
78.5344323
11
10.6177386
21
79.3800323
0
LINE
8
DEFAULT_255_2_778
10
10.6177386
20
79.3800323
11
10.7611386
21
79.3800323
0
LINE
8
DEFAULT_255_2_778
10
10.7611386
20
79.3800323
11
10.7611386
21
79.3800323
0
LINE
8
DEFAULT_255_2_778
10
11.1720229
20
79.3800323
11
11.1720229
21
78.2875323
0
LINE
8
DEFAULT_255_2_778
10
11.1720229
20
78.2875323
11
11.0278229
21
78.2875323
0
LINE
8
DEFAULT_255_2_778
10
11.0278229
20
78.2875323
11
11.0278229
21
79.3800323
0
LINE
8
DEFAULT_255_2_778
10
11.0278229
20
79.3800323
11
11.1720229
21
79.3800323
0
LINE
8
DEFAULT_255_2_778
10
11.1720229
20
79.3800323
11
11.1720229
21
79.3800323
0
LINE
8
DEFAULT_255_2_778
10
12.1682229
20
79.3800323
11
12.1682229
21
79.2615323
0
LINE
8
DEFAULT_255_2_778
10
12.1682229
20
79.2615323
11
11.8171229
21
79.2615323
0
LINE
8
DEFAULT_255_2_778
10
11.8171229
20
79.2615323
11
11.8171229
21
78.2875323
0
LINE
8
DEFAULT_255_2_778
10
11.8171229
20
78.2875323
11
11.6736229
21
78.2875323
0
LINE
8
DEFAULT_255_2_778
10
11.6736229
20
78.2875323
11
11.6736229
21
79.2615323
0
LINE
8
DEFAULT_255_2_778
10
11.6736229
20
79.2615323
11
11.3233229
21
79.2615323
0
LINE
8
DEFAULT_255_2_778
10
11.3233229
20
79.2615323
11
11.3233229
21
79.3800323
0
LINE
8
DEFAULT_255_2_778
10
11.3233229
20
79.3800323
11
12.1682229
21
79.3800323
0
LINE
8
DEFAULT_255_2_778
10
12.1682229
20
79.3800323
11
12.1682229
21
79.3800323
0
ARC
8
DEFAULT_255_2_778
10
10.5082349
20
76.0835931
40
0.496969
50
60.8132796
51
91.1356165
0
ARC
8
DEFAULT_255_2_778
10
10.5385179
20
76.1477519
40
0.4262161
50
26.5204361
51
60.1613785
0
ARC
8
DEFAULT_255_2_778
10
10.3942791
20
76.079045
40
0.5859635
50
359.2000884
51
26.2341432
0
ARC
8
DEFAULT_255_2_778
10
10.3926609
20
75.988028
40
0.5876692
50
333.9624391
51
1.2711275
0
ARC
8
DEFAULT_255_2_778
10
10.5467728
20
75.9162217
40
0.4176903
50
299.1589085
51
333.5330053
0
ARC
8
DEFAULT_255_2_778
10
10.4983816
20
76.0174321
40
0.5296993
50
269.3730379
51
298.3958266
0
ARC
8
DEFAULT_255_2_778
10
10.500358
20
75.9531249
40
0.34767
50
267.5812588
51
306.5589175
0
ARC
8
DEFAULT_255_2_778
10
10.5235293
20
75.9070279
40
0.2969727
50
308.2657304
51
318.2203222
0
ARC
8
DEFAULT_255_2_778
10
10.4564142
20
75.9526223
40
0.3775513
50
319.8468139
51
354.875489
0
ARC
8
DEFAULT_255_2_778
10
10.1633684
20
76.0019342
40
0.6742206
50
352.9256701
51
0.1895413
0
ARC
8
DEFAULT_255_2_778
10
10.3071419
20
76.0805734
40
0.5305934
50
358.6383111
51
20.6995301
0
ARC
8
DEFAULT_255_2_778
10
10.4990496
20
76.1466527
40
0.3277724
50
21.751807
51
39.9598194
0
ARC
8
DEFAULT_255_2_778
10
10.5181319
20
76.1527608
40
0.3093156
50
41.3628816
51
91.9908516
0
ARC
8
DEFAULT_255_2_778
10
10.4974237
20
75.963016
40
0.4989732
50
88.8559382
51
89.4302397
0
ARC
8
DEFAULT_255_2_778
10
11.5711561
20
76.0441174
40
0.5364944
50
70.3075606
51
91.3426242
0
ARC
8
DEFAULT_255_2_778
10
11.6414573
20
76.2560527
40
0.3133084
50
50.0865022
51
69.351752
0
ARC
8
DEFAULT_255_2_778
10
11.6467147
20
76.2757992
40
0.2949156
50
359.1338516
51
48.4081851
0
ARC
8
DEFAULT_255_2_778
10
11.4461824
20
76.2517093
40
0.4958032
50
359.983276
51
2.2692792
0
ARC
8
DEFAULT_255_2_778
10
11.6480409
20
76.2452199
40
0.2940131
50
324.3272037
51
1.2365081
0
ARC
8
DEFAULT_255_2_778
10
11.6230627
20
76.270739
40
0.3292436
50
289.5958324
51
323.2543695
0
ARC
8
DEFAULT_255_2_778
10
11.5763778
20
76.2966088
40
0.2490991
50
266.9411388
51
309.161326
0
ARC
8
DEFAULT_255_2_778
10
11.6097771
20
76.244286
40
0.1875739
50
311.3444426
51
2.407269
0
ARC
8
DEFAULT_255_2_778
10
11.5999624
20
76.2649433
40
0.1976366
50
356.2927981
51
46.1476673
0
ARC
8
DEFAULT_255_2_778
10
11.5847194
20
76.2200271
40
0.2414277
50
50.9295114
51
89.8888384
0
ARC
8
DEFAULT_255_2_778
10
11.5596715
20
76.0094127
40
0.4527612
50
86.76927
51
89.6312474
0
LINE
8
DEFAULT_255_2_778
10
9.8948855
20
75.4879646
11
9.7905855
21
75.7732646
0
LINE
8
DEFAULT_255_2_778
10
9.7905855
20
75.7732646
11
9.3328855
21
75.7732646
0
LINE
8
DEFAULT_255_2_778
10
9.3328855
20
75.7732646
11
9.2299855
21
75.4879646
0
LINE
8
DEFAULT_255_2_778
10
9.2299855
20
75.4879646
11
9.0812855
21
75.4879646
0
LINE
8
DEFAULT_255_2_778
10
9.0812855
20
75.4879646
11
9.4984855
21
76.5804646
0
LINE
8
DEFAULT_255_2_778
10
9.4984855
20
76.5804646
11
9.6244855
21
76.5804646
0
LINE
8
DEFAULT_255_2_778
10
9.6244855
20
76.5804646
11
10.0424855
21
75.4879646
0
LINE
8
DEFAULT_255_2_778
10
10.0424855
20
75.4879646
11
9.8945855
21
75.4879646
0
LINE
8
DEFAULT_255_2_778
10
9.8945855
20
75.4879646
11
9.8948855
21
75.4879646
0
LINE
8
DEFAULT_255_2_778
10
9.5617855
20
76.4026646
11
9.3765855
21
75.8917646
0
LINE
8
DEFAULT_255_2_778
10
9.3765855
20
75.8917646
11
9.7479855
21
75.8917646
0
LINE
8
DEFAULT_255_2_778
10
9.7479855
20
75.8917646
11
9.5619855
21
76.4026646
0
LINE
8
DEFAULT_255_2_778
10
9.5619855
20
76.4026646
11
9.5617855
21
76.4026646
0
LINE
8
DEFAULT_255_2_778
10
10.4922855
20
75.4879646
11
10.1898855
21
75.4879646
0
LINE
8
DEFAULT_255_2_778
10
10.1898855
20
75.4879646
11
10.1898855
21
76.5804646
0
LINE
8
DEFAULT_255_2_778
10
10.1898855
20
76.5804646
11
10.4983855
21
76.5804646
0
LINE
8
DEFAULT_255_2_778
10
10.9801855
20
76.0708646
11
10.9801855
21
76.0010646
0
LINE
8
DEFAULT_255_2_778
10
10.4925855
20
75.4877646
11
10.4922855
21
75.4879646
0
LINE
8
DEFAULT_255_2_778
10
10.5020855
20
76.4619646
11
10.3340855
21
76.4619646
0
LINE
8
DEFAULT_255_2_778
10
10.3340855
20
76.4619646
11
10.3340855
21
75.6057646
0
LINE
8
DEFAULT_255_2_778
10
10.3340855
20
75.6057646
11
10.4856855
21
75.6057646
0
LINE
8
DEFAULT_255_2_778
10
10.8375855
20
76.0041646
11
10.8375855
21
76.0679646
0
LINE
8
DEFAULT_255_2_778
10
10.5023855
20
76.4619646
11
10.5020855
21
76.4619646
0
LINE
8
DEFAULT_255_2_778
10
11.8352855
20
75.4879646
11
11.5982855
21
75.9298646
0
LINE
8
DEFAULT_255_2_778
10
11.5982855
20
75.9298646
11
11.3415855
21
75.9298646
0
LINE
8
DEFAULT_255_2_778
10
11.3415855
20
75.9298646
11
11.3415855
21
75.4879646
0
LINE
8
DEFAULT_255_2_778
10
11.3415855
20
75.4879646
11
11.1968855
21
75.4879646
0
LINE
8
DEFAULT_255_2_778
10
11.1968855
20
75.4879646
11
11.1968855
21
76.5804646
0
LINE
8
DEFAULT_255_2_778
10
11.1968855
20
76.5804646
11
11.5585855
21
76.5804646
0
LINE
8
DEFAULT_255_2_778
10
11.7334855
20
75.9605646
11
11.9900855
21
75.4967646
0
LINE
8
DEFAULT_255_2_778
10
11.9900855
20
75.4967646
11
11.9900855
21
75.4877646
0
LINE
8
DEFAULT_255_2_778
10
11.9900855
20
75.4877646
11
11.8355855
21
75.4877646
0
LINE
8
DEFAULT_255_2_778
10
11.8355855
20
75.4877646
11
11.8352855
21
75.4879646
0
LINE
8
DEFAULT_255_2_778
10
11.3415855
20
76.4619646
11
11.3415855
21
76.0478646
0
LINE
8
DEFAULT_255_2_778
10
11.3415855
20
76.0478646
11
11.5630855
21
76.0478646
0
LINE
8
DEFAULT_255_2_778
10
11.5625855
20
76.4621646
11
11.3418855
21
76.4621646
0
LINE
8
DEFAULT_255_2_778
10
11.3418855
20
76.4621646
11
11.3415855
21
76.4619646
0
ARC
8
DEFAULT_255_2_778
10
9.8021367
20
72.7861514
40
1.1579851
50
163.8838285
51
180.2107688
0
ARC
8
DEFAULT_255_2_778
10
9.600616
20
72.8465197
40
0.9476288
50
144.9162267
51
164.0081735
0
ARC
8
DEFAULT_255_2_778
10
9.3798771
20
73.0150265
40
0.6702327
50
129.0087008
51
145.8580205
0
ARC
8
DEFAULT_255_2_778
10
9.2035732
20
73.2219655
40
0.3985153
50
118.7389145
51
128.0393882
0
ARC
8
DEFAULT_255_2_778
10
9.3784151
20
73.0611068
40
0.5381401
50
128.9032228
51
154.022352
0
ARC
8
DEFAULT_255_2_778
10
9.6769338
20
72.8932973
40
0.8802315
50
152.7140517
51
157.9892012
0
ARC
8
DEFAULT_255_2_778
10
9.8913615
20
72.8174908
40
1.1074871
50
158.5108169
51
178.316545
0
ARC
8
DEFAULT_255_2_778
10
10.1862267
20
72.7915204
40
1.4030946
50
177.6102093
51
178.1551004
0
ARC
8
DEFAULT_255_2_778
10
10.0282528
20
72.7596392
40
1.2452639
50
179.3902308
51
195.4662623
0
ARC
8
DEFAULT_255_2_778
10
9.7259474
20
72.6838944
40
0.9337378
50
195.933483
51
206.2993434
0
ARC
8
DEFAULT_255_2_778
10
9.4429627
20
72.5327856
40
0.613177
50
205.3566485
51
227.6050645
0
ARC
8
DEFAULT_255_2_778
10
9.3255964
20
72.4183552
40
0.4496365
50
228.8187095
51
230.6430413
0
ARC
8
DEFAULT_255_2_778
10
9.2824016
20
72.4444536
40
0.532284
50
217.7580644
51
239.4640671
0
ARC
8
DEFAULT_255_2_778
10
9.5568902
20
72.6819662
40
0.8949482
50
214.7388519
51
219.0194548
0
ARC
8
DEFAULT_255_2_778
10
9.6527343
20
72.7386857
40
1.0060617
50
183.7096527
51
214.2829114
0
ARC
8
DEFAULT_255_2_778
10
9.9802059
20
72.7809579
40
1.335747
50
179.9513672
51
184.6102968
0
LINE
8
DEFAULT_255_2_778
10
9.0119594
20
73.5713916
11
9.0404594
21
73.4798916
0
LINE
8
DEFAULT_255_2_778
10
8.7838594
20
72.8366916
11
8.7830594
21
72.7728916
0
LINE
8
DEFAULT_255_2_778
10
9.0404594
20
72.0706916
11
9.0119594
21
71.9859916
0
LINE
8
DEFAULT_255_2_778
10
8.6444594
20
72.7820916
11
8.6441594
21
72.7818916
0
LINE
8
DEFAULT_255_2_778
10
10.0358594
20
73.4308916
11
10.0358594
21
72.3383916
0
LINE
8
DEFAULT_255_2_778
10
10.0358594
20
72.3383916
11
9.8911594
21
72.3383916
0
LINE
8
DEFAULT_255_2_778
10
9.8911594
20
72.3383916
11
9.8911594
21
72.8434916
0
LINE
8
DEFAULT_255_2_778
10
9.8911594
20
72.8434916
11
9.3402594
21
72.8434916
0
LINE
8
DEFAULT_255_2_778
10
9.3402594
20
72.8434916
11
9.3402594
21
72.3383916
0
LINE
8
DEFAULT_255_2_778
10
9.3402594
20
72.3383916
11
9.1963594
21
72.3383916
0
LINE
8
DEFAULT_255_2_778
10
9.1963594
20
72.3383916
11
9.1963594
21
73.4308916
0
LINE
8
DEFAULT_255_2_778
10
9.1963594
20
73.4308916
11
9.3402594
21
73.4308916
0
LINE
8
DEFAULT_255_2_778
10
9.3402594
20
73.4308916
11
9.3402594
21
72.9612916
0
LINE
8
DEFAULT_255_2_778
10
9.3402594
20
72.9612916
11
9.8911594
21
72.9612916
0
LINE
8
DEFAULT_255_2_778
10
9.8911594
20
72.9612916
11
9.8911594
21
73.4308916
0
LINE
8
DEFAULT_255_2_778
10
9.8911594
20
73.4308916
11
10.0358594
21
73.4308916
0
LINE
8
DEFAULT_255_2_778
10
10.0358594
20
73.4308916
11
10.0358594
21
73.4308916
0
LINE
8
DEFAULT_255_2_778
10
10.9095594
20
72.9612916
11
10.9095594
21
72.8434916
0
LINE
8
DEFAULT_255_2_778
10
10.9095594
20
72.8434916
11
10.4361594
21
72.8434916
0
LINE
8
DEFAULT_255_2_778
10
10.4361594
20
72.8434916
11
10.4361594
21
72.4563916
0
LINE
8
DEFAULT_255_2_778
10
10.4361594
20
72.4563916
11
10.9862594
21
72.4563916
0
LINE
8
DEFAULT_255_2_778
10
10.9862594
20
72.4563916
11
10.9862594
21
72.3386916
0
LINE
8
DEFAULT_255_2_778
10
10.9862594
20
72.3386916
11
10.2922594
21
72.3386916
0
LINE
8
DEFAULT_255_2_778
10
10.2922594
20
72.3386916
11
10.2922594
21
73.4311916
0
LINE
8
DEFAULT_255_2_778
10
10.2922594
20
73.4311916
11
10.9788594
21
73.4311916
0
LINE
8
DEFAULT_255_2_778
10
10.9788594
20
73.4311916
11
10.9788594
21
73.3125916
0
LINE
8
DEFAULT_255_2_778
10
10.9788594
20
73.3125916
11
10.4364594
21
73.3125916
0
LINE
8
DEFAULT_255_2_778
10
10.4364594
20
73.3125916
11
10.4364594
21
72.9614916
0
LINE
8
DEFAULT_255_2_778
10
10.4364594
20
72.9614916
11
10.9097594
21
72.9614916
0
LINE
8
DEFAULT_255_2_778
10
10.9097594
20
72.9614916
11
10.9095594
21
72.9612916
0
LINE
8
DEFAULT_255_2_778
10
11.2582594
20
73.4308916
11
11.5214594
21
73.0122916
0
LINE
8
DEFAULT_255_2_778
10
11.5214594
20
73.0122916
11
11.7834594
21
73.4308916
0
LINE
8
DEFAULT_255_2_778
10
11.7834594
20
73.4308916
11
11.9530594
21
73.4308916
0
LINE
8
DEFAULT_255_2_778
10
11.9530594
20
73.4308916
11
11.6077594
21
72.8889916
0
LINE
8
DEFAULT_255_2_778
10
11.6077594
20
72.8889916
11
11.9612594
21
72.3381916
0
LINE
8
DEFAULT_255_2_778
10
11.9612594
20
72.3381916
11
11.7900594
21
72.3381916
0
LINE
8
DEFAULT_255_2_778
10
11.7900594
20
72.3381916
11
11.5214594
21
72.7643916
0
LINE
8
DEFAULT_255_2_778
10
11.5214594
20
72.7643916
11
11.2513594
21
72.3381916
0
LINE
8
DEFAULT_255_2_778
10
11.2513594
20
72.3381916
11
11.0809594
21
72.3381916
0
LINE
8
DEFAULT_255_2_778
10
11.0809594
20
72.3381916
11
11.4352594
21
72.8889916
0
LINE
8
DEFAULT_255_2_778
10
11.4352594
20
72.8889916
11
11.0894594
21
73.4308916
0
LINE
8
DEFAULT_255_2_778
10
11.0894594
20
73.4308916
11
11.2582594
21
73.4308916
0
LINE
8
DEFAULT_255_2_778
10
11.2582594
20
73.4308916
11
11.2582594
21
73.4308916
0
ARC
8
DEFAULT_255_2_778
10
11.2668004
20
72.7697487
40
1.1606385
50
344.1895985
51
0.2210765
0
ARC
8
DEFAULT_255_2_778
10
11.4710867
20
72.7126765
40
0.9485313
50
325.1109608
51
344.1445544
0
ARC
8
DEFAULT_255_2_778
10
11.6821579
20
72.5503055
40
0.682637
50
309.3184282
51
326.1565099
0
ARC
8
DEFAULT_255_2_778
10
11.8586326
20
72.345554
40
0.4124701
50
299.1793165
51
308.3750995
0
ARC
8
DEFAULT_255_2_778
10
11.6987659
20
72.4826602
40
0.5292622
50
308.7898036
51
334.2768952
0
ARC
8
DEFAULT_255_2_778
10
11.3863356
20
72.6545943
40
0.8855647
50
333.0284779
51
339.5389592
0
ARC
8
DEFAULT_255_2_778
10
11.1062513
20
72.7499107
40
1.1813298
50
339.9563763
51
359.7453649
0
ARC
8
DEFAULT_255_2_778
10
10.8042843
20
72.7685813
40
1.4834779
50
359.0760837
51
359.6232645
0
ARC
8
DEFAULT_255_2_778
10
11.0543932
20
72.7922804
40
1.2333725
50
359.5654923
51
13.2909149
0
ARC
8
DEFAULT_255_2_778
10
11.2882963
20
72.8487964
40
0.9927424
50
13.2199821
51
28.2333691
0
ARC
8
DEFAULT_255_2_778
10
11.6617111
20
73.0576698
40
0.5649911
50
27.4855293
51
48.6195762
0
ARC
8
DEFAULT_255_2_778
10
11.7842824
20
73.1827746
40
0.390204
50
49.9806531
51
50.9083995
0
ARC
8
DEFAULT_255_2_778
10
11.7911552
20
73.1131823
40
0.5302017
50
37.5501072
51
59.5655363
0
ARC
8
DEFAULT_255_2_778
10
11.5210706
20
72.8800869
40
0.8866215
50
34.8892321
51
38.8554958
0
ARC
8
DEFAULT_255_2_778
10
11.4681949
20
72.8431331
40
0.9511305
50
15.9452916
51
34.8932851
0
ARC
8
DEFAULT_255_2_778
10
11.2414947
20
72.7817903
40
1.185965
50
359.5959568
51
15.7860387
0
LINE
8
DEFAULT_255_2_778
10
12.0597302
20
71.9854271
11
12.0303302
21
72.0701271
0
LINE
8
DEFAULT_255_2_778
10
12.2877302
20
72.7588271
11
12.2877302
21
72.7829271
0
LINE
8
DEFAULT_255_2_778
10
12.0303302
20
73.4856271
11
12.0597302
21
73.5703271
0
LINE
8
DEFAULT_255_2_778
10
12.4274302
20
72.7734271
11
12.4274302
21
72.7742271
0
LINE
8
DEFAULT_255_2_778
10
36.0310005
20
116.2028302
11
0.2170005
21
116.2028302
0
LINE
8
DEFAULT_255_2_778
10
36.0310005
20
117.4567302
11
0.2170005
21
117.4567302
0
ARC
8
DEFAULT_255_2_778
10
22.2718327
20
79.0498352
40
4.7881779
50
166.3814545
51
180.0465675
0
ARC
8
DEFAULT_255_2_778
10
22.2011004
20
79.0642839
40
4.7160329
50
145.5809817
51
166.3497213
0
ARC
8
DEFAULT_255_2_778
10
22.2193753
20
79.0541156
40
4.7368564
50
109.5815621
51
145.6044674
0
ARC
8
DEFAULT_255_2_778
10
22.2164577
20
79.0480357
40
4.7416092
50
94.2684876
51
109.5237233
0
ARC
8
DEFAULT_255_2_778
10
22.2273353
20
78.9356931
40
4.8544504
50
89.9938503
51
94.2978269
0
ARC
8
DEFAULT_255_2_778
10
22.2317508
20
79.0016709
40
4.7884743
50
76.3818779
51
90.0465986
0
ARC
8
DEFAULT_255_2_778
10
22.2462428
20
79.0725716
40
4.7161554
50
55.5815601
51
76.3501812
0
ARC
8
DEFAULT_255_2_778
10
22.2361652
20
79.0544276
40
4.7368197
50
19.5816826
51
55.6050537
0
ARC
8
DEFAULT_255_2_778
10
22.2300802
20
79.0573454
40
4.7415773
50
4.2684793
51
19.5238207
0
ARC
8
DEFAULT_255_2_778
10
22.1177059
20
79.0464647
40
4.8544504
50
359.9938503
51
4.2978269
0
ARC
8
DEFAULT_255_2_778
10
22.1836837
20
79.0420508
40
4.7884743
50
346.3818576
51
0.0465788
0
ARC
8
DEFAULT_255_2_778
10
22.2546331
20
79.0275478
40
4.7161055
50
325.581282
51
346.3501515
0
ARC
8
DEFAULT_255_2_778
10
22.2364336
20
79.0376749
40
4.7368434
50
289.5810423
51
325.6046626
0
ARC
8
DEFAULT_255_2_778
10
22.2392694
20
79.0439617
40
4.7418187
50
274.2682869
51
289.5232998
0
ARC
8
DEFAULT_255_2_778
10
22.2283776
20
79.1564461
40
4.8548024
50
269.9938484
51
274.2976704
0
ARC
8
DEFAULT_255_2_778
10
22.2239664
20
79.0898199
40
4.7881778
50
256.3814343
51
270.0465478
0
ARC
8
DEFAULT_255_2_778
10
22.2095067
20
79.0190389
40
4.715983
50
235.5807037
51
256.3496915
0
ARC
8
DEFAULT_255_2_778
10
22.2197245
20
79.0373693
40
4.7368801
50
199.5809218
51
235.6040763
0
ARC
8
DEFAULT_255_2_778
10
22.2260062
20
79.0345337
40
4.7418506
50
184.2682953
51
199.5232025
0
ARC
8
DEFAULT_255_2_778
10
22.3384589
20
79.0454224
40
4.8548024
50
179.9938484
51
184.2976704
0
LINE
8
DEFAULT_255_2_778
10
17.4836564
20
79.0459436
11
17.4836564
21
79.0459436
0
LINE
8
DEFAULT_255_2_778
10
27.1403824
20
74.1809582
11
27.1403824
21
83.9112582
0
LINE
8
DEFAULT_255_2_778
10
27.1403824
20
83.9112582
11
17.3235824
21
83.9112582
0
LINE
8
DEFAULT_255_2_778
10
17.3235824
20
83.9112582
11
17.3235824
21
74.1809582
0
LINE
8
DEFAULT_255_2_778
10
17.3235824
20
74.1809582
11
27.1403824
21
74.1809582
0
ARC
8
DEFAULT_255_2_778
10
22.2354626
20
79.0497053
40
2.4912444
50
159.6521798
51
180.0833978
0
ARC
8
DEFAULT_255_2_778
10
22.2218239
20
79.0514735
40
2.4778439
50
100.6628977
51
159.5808547
0
ARC
8
DEFAULT_255_2_778
10
22.2262572
20
79.0132766
40
2.5162028
50
89.9689465
51
100.601169
0
ARC
8
DEFAULT_255_2_778
10
22.2312349
20
79.0383943
40
2.4910874
50
69.6515329
51
90.0831232
0
ARC
8
DEFAULT_255_2_778
10
22.2329251
20
79.0517863
40
2.4779454
50
10.6645685
51
69.5805007
0
ARC
8
DEFAULT_255_2_778
10
22.195026
20
79.0474439
40
2.5159952
50
359.9689189
51
10.6020287
0
ARC
8
DEFAULT_255_2_778
10
22.2200825
20
79.0424695
40
2.490941
50
339.6501738
51
0.0830265
0
ARC
8
DEFAULT_255_2_778
10
22.2332306
20
79.0408814
40
2.4780631
50
280.6657107
51
339.578885
0
ARC
8
DEFAULT_255_2_778
10
22.2289823
20
79.078419
40
2.5157401
50
269.9689951
51
280.602569
0
ARC
8
DEFAULT_255_2_778
10
22.2239991
20
79.0537744
40
2.4910979
50
249.6508208
51
270.0833012
0
ARC
8
DEFAULT_255_2_778
10
22.2223331
20
79.0403795
40
2.4779615
50
190.6640399
51
249.579239
0
ARC
8
DEFAULT_255_2_778
10
22.2601683
20
79.0447188
40
2.5159478
50
179.9690226
51
190.6017092
0
LINE
8
DEFAULT_255_2_778
10
21.7280209
20
81.4786791
11
21.8704209
21
79.3585791
0
LINE
8
DEFAULT_255_2_778
10
21.8704209
20
79.3585791
11
19.7503209
21
79.2161791
0
LINE
8
DEFAULT_255_2_778
10
22.3977209
20
81.5236791
11
22.5401209
21
79.4035791
0
LINE
8
DEFAULT_255_2_778
10
22.5401209
20
79.4035791
11
24.6602209
21
79.5458791
0
LINE
8
DEFAULT_255_2_778
10
19.7442209
20
79.0460791
11
19.7442209
21
79.0460791
0
LINE
8
DEFAULT_255_2_778
10
22.7274209
20
76.6134791
11
22.5850209
21
78.7335791
0
LINE
8
DEFAULT_255_2_778
10
22.5850209
20
78.7335791
11
24.7051209
21
78.8759791
0
LINE
8
DEFAULT_255_2_778
10
19.7950209
20
78.5462791
11
21.9151209
21
78.6886791
0
LINE
8
DEFAULT_255_2_778
10
21.9151209
20
78.6886791
11
22.0575209
21
76.5685791
0
ARC
8
DEFAULT_255_2_778
10
22.2718327
20
68.2124352
40
4.7881779
50
166.3814545
51
180.0465675
0
ARC
8
DEFAULT_255_2_778
10
22.2011004
20
68.2268839
40
4.7160329
50
145.5809817
51
166.3497213
0
ARC
8
DEFAULT_255_2_778
10
22.2193753
20
68.2167156
40
4.7368564
50
109.5815621
51
145.6044674
0
ARC
8
DEFAULT_255_2_778
10
22.2164577
20
68.2106357
40
4.7416092
50
94.2684876
51
109.5237233
0
ARC
8
DEFAULT_255_2_778
10
22.2273353
20
68.0982931
40
4.8544504
50
89.9938503
51
94.2978269
0
ARC
8
DEFAULT_255_2_778
10
22.2317508
20
68.1642709
40
4.7884743
50
76.3818779
51
90.0465986
0
ARC
8
DEFAULT_255_2_778
10
22.2462428
20
68.2351716
40
4.7161554
50
55.5815601
51
76.3501812
0
ARC
8
DEFAULT_255_2_778
10
22.2361652
20
68.2170276
40
4.7368197
50
19.5816826
51
55.6050537
0
ARC
8
DEFAULT_255_2_778
10
22.2300802
20
68.2199454
40
4.7415773
50
4.2684793
51
19.5238207
0
ARC
8
DEFAULT_255_2_778
10
22.1177059
20
68.2090647
40
4.8544504
50
359.9938503
51
4.2978269
0
ARC
8
DEFAULT_255_2_778
10
22.1836837
20
68.2046508
40
4.7884743
50
346.3818576
51
0.0465788
0
ARC
8
DEFAULT_255_2_778
10
22.2546331
20
68.1901478
40
4.7161055
50
325.581282
51
346.3501515
0
ARC
8
DEFAULT_255_2_778
10
22.2364336
20
68.2002749
40
4.7368434
50
289.5810423
51
325.6046626
0
ARC
8
DEFAULT_255_2_778
10
22.2392694
20
68.2065617
40
4.7418187
50
274.2682869
51
289.5232998
0
ARC
8
DEFAULT_255_2_778
10
22.2283776
20
68.3190461
40
4.8548024
50
269.9938484
51
274.2976704
0
ARC
8
DEFAULT_255_2_778
10
22.2239664
20
68.2524199
40
4.7881778
50
256.3814343
51
270.0465478
0
ARC
8
DEFAULT_255_2_778
10
22.2095067
20
68.1816389
40
4.715983
50
235.5807037
51
256.3496915
0
ARC
8
DEFAULT_255_2_778
10
22.2197245
20
68.1999693
40
4.7368801
50
199.5809218
51
235.6040763
0
ARC
8
DEFAULT_255_2_778
10
22.2260062
20
68.1971337
40
4.7418506
50
184.2682953
51
199.5232025
0
ARC
8
DEFAULT_255_2_778
10
22.3384589
20
68.2080224
40
4.8548024
50
179.9938484
51
184.2976704
0
LINE
8
DEFAULT_255_2_778
10
17.4836564
20
68.2085436
11
17.4836564
21
68.2085436
0
LINE
8
DEFAULT_255_2_778
10
27.1403824
20
63.3436582
11
27.1403824
21
73.0739582
0
LINE
8
DEFAULT_255_2_778
10
27.1403824
20
73.0739582
11
17.3235824
21
73.0739582
0
LINE
8
DEFAULT_255_2_778
10
17.3235824
20
73.0739582
11
17.3235824
21
63.3436582
0
LINE
8
DEFAULT_255_2_778
10
17.3235824
20
63.3436582
11
27.1403824
21
63.3436582
0
ARC
8
DEFAULT_255_2_778
10
22.2354626
20
68.2124053
40
2.4912444
50
159.6521798
51
180.0833978
0
ARC
8
DEFAULT_255_2_778
10
22.2218239
20
68.2141735
40
2.4778439
50
100.6628977
51
159.5808547
0
ARC
8
DEFAULT_255_2_778
10
22.2262572
20
68.1759766
40
2.5162028
50
89.9689465
51
100.601169
0
ARC
8
DEFAULT_255_2_778
10
22.2312349
20
68.2010943
40
2.4910874
50
69.6515329
51
90.0831232
0
ARC
8
DEFAULT_255_2_778
10
22.2329251
20
68.2144863
40
2.4779454
50
10.6645685
51
69.5805007
0
ARC
8
DEFAULT_255_2_778
10
22.195026
20
68.2101439
40
2.5159952
50
359.9689189
51
10.6020287
0
ARC
8
DEFAULT_255_2_778
10
22.2200825
20
68.2051695
40
2.490941
50
339.6501738
51
0.0830265
0
ARC
8
DEFAULT_255_2_778
10
22.2332306
20
68.2035814
40
2.4780631
50
280.6657107
51
339.578885
0
ARC
8
DEFAULT_255_2_778
10
22.2289823
20
68.241119
40
2.5157401
50
269.9689951
51
280.602569
0
ARC
8
DEFAULT_255_2_778
10
22.2239991
20
68.2164744
40
2.4910979
50
249.6508208
51
270.0833012
0
ARC
8
DEFAULT_255_2_778
10
22.2223331
20
68.2030795
40
2.4779615
50
190.6640399
51
249.579239
0
ARC
8
DEFAULT_255_2_778
10
22.2601683
20
68.2074188
40
2.5159478
50
179.9690226
51
190.6017092
0
LINE
8
DEFAULT_255_2_778
10
21.7280209
20
70.6413791
11
21.8704209
21
68.5212791
0
LINE
8
DEFAULT_255_2_778
10
21.8704209
20
68.5212791
11
19.7503209
21
68.3788791
0
LINE
8
DEFAULT_255_2_778
10
22.3977209
20
70.6863791
11
22.5401209
21
68.5662791
0
LINE
8
DEFAULT_255_2_778
10
22.5401209
20
68.5662791
11
24.6602209
21
68.7085791
0
LINE
8
DEFAULT_255_2_778
10
19.7442209
20
68.2087791
11
19.7442209
21
68.2087791
0
LINE
8
DEFAULT_255_2_778
10
19.7950209
20
67.7089791
11
21.9151209
21
67.8513791
0
LINE
8
DEFAULT_255_2_778
10
21.9151209
20
67.8513791
11
22.0575209
21
65.7312791
0
LINE
8
DEFAULT_255_2_778
10
24.7049209
20
68.0386791
11
22.5848209
21
67.8962791
0
LINE
8
DEFAULT_255_2_778
10
22.5848209
20
67.8962791
11
22.7271209
21
65.7761791
0
ARC
8
DEFAULT_255_2_778
10
24.2606025
20
101.1569571
40
1.4167331
50
149.0582954
51
180.0914471
0
ARC
8
DEFAULT_255_2_778
10
24.2672116
20
101.1544742
40
1.4236789
50
97.2466346
51
149.1093508
0
ARC
8
DEFAULT_255_2_778
10
24.2668315
20
101.1406259
40
1.4373703
50
89.9864596
51
97.1619713
0
ARC
8
DEFAULT_255_2_778
10
24.2694324
20
101.1612646
40
1.4167331
50
59.0582954
51
90.0914471
0
ARC
8
DEFAULT_255_2_778
10
24.2669495
20
101.1546555
40
1.4236789
50
7.2466346
51
59.1093508
0
ARC
8
DEFAULT_255_2_778
10
24.2531011
20
101.1550356
40
1.4373703
50
359.9864596
51
7.1619713
0
ARC
8
DEFAULT_255_2_778
10
24.2673648
20
101.1545692
40
1.4231064
50
299.9978243
51
0.0051032
0
ARC
8
DEFAULT_255_2_778
10
24.2674158
20
101.153693
40
1.4223221
50
270.0051709
51
300.0136918
0
LINE
8
DEFAULT_255_2_778
10
24.2675442
20
99.731371
11
24.2671837
21
99.7313709
0
ARC
8
DEFAULT_255_2_778
10
24.2669175
20
101.1532861
40
1.4219152
50
239.9819139
51
270.0107282
0
ARC
8
DEFAULT_255_2_778
10
24.2670709
20
101.1546807
40
1.4231996
50
179.9993895
51
240.0046555
0
ARC
8
DEFAULT_255_2_778
10
24.2717091
20
100.5664042
40
3.0476235
50
113.8297098
51
128.0509187
0
ARC
8
DEFAULT_255_2_778
10
24.2699999
20
100.56621
40
3.047111
50
89.9833826
51
113.7988359
0
LINE
8
DEFAULT_255_2_778
10
24.2708837
20
103.6133209
11
24.2711069
21
103.6133209
0
ARC
8
DEFAULT_255_2_778
10
24.2718171
20
100.5664418
40
3.0468792
50
65.452938
51
90.0133546
0
ARC
8
DEFAULT_255_2_778
10
24.2694117
20
100.5651318
40
3.0490704
50
51.9531403
51
65.4220496
0
ARC
8
DEFAULT_255_2_778
10
24.2699515
20
97.461434
40
3.0480871
50
293.8302418
51
308.0484368
0
ARC
8
DEFAULT_255_2_778
10
24.271754
20
97.4613879
40
3.0473171
50
269.987833
51
293.7995914
0
LINE
8
DEFAULT_255_2_778
10
24.2711069
20
94.4140709
11
24.2708837
21
94.4140709
0
ARC
8
DEFAULT_255_2_778
10
24.2699367
20
97.4607392
40
3.0466684
50
245.4535597
51
270.017809
0
ARC
8
DEFAULT_255_2_778
10
24.2722526
20
97.4618199
40
3.048614
50
231.9506801
51
245.4224071
0
LINE
8
DEFAULT_255_2_778
10
22.8438712
20
101.1546959
11
22.8438712
21
101.1546959
0
LINE
8
DEFAULT_255_2_778
10
26.1485712
20
102.9662959
11
26.1485712
21
95.0610959
0
LINE
8
DEFAULT_255_2_778
10
22.3932712
20
95.0610959
11
22.3932712
21
102.9662959
0
ARC
8
DEFAULT_255_2_778
10
22.0087579
20
47.017102
40
1.6709212
50
359.9413215
51
30.8697894
0
ARC
8
DEFAULT_255_2_778
10
22.0037299
20
47.0158069
40
1.675902
50
30.8195946
51
76.0246045
0
ARC
8
DEFAULT_255_2_778
10
22.0016915
20
47.0026371
40
1.6891746
50
76.0653919
51
81.8115974
0
ARC
8
DEFAULT_255_2_778
10
15.760708
20
48.8583198
40
0.8388645
50
81.8397555
51
84.2808796
0
ARC
8
DEFAULT_255_2_778
10
15.7608331
20
48.8596261
40
0.8375522
50
84.280489
51
89.9995116
0
ARC
8
DEFAULT_255_2_778
10
15.760962
20
48.8587146
40
0.8384638
50
90.0083167
51
130.9187389
0
ARC
8
DEFAULT_255_2_778
10
15.7611495
20
48.8583373
40
0.8388717
50
130.9115429
51
179.955371
0
ARC
8
DEFAULT_255_2_778
10
15.7611487
20
11.8346436
40
0.8388707
50
180.0445885
51
229.0884715
0
ARC
8
DEFAULT_255_2_778
10
15.760962
20
11.834267
40
0.8384638
50
229.0812611
51
269.9916833
0
ARC
8
DEFAULT_255_2_778
10
15.7608331
20
11.8333554
40
0.8375522
50
270.0004884
51
275.719511
0
ARC
8
DEFAULT_255_2_778
10
15.760708
20
11.8346617
40
0.8388645
50
275.7191204
51
278.1602445
0
ARC
8
DEFAULT_255_2_778
10
22.0057128
20
13.6723222
40
1.670962
50
278.1389587
51
309.10165
0
ARC
8
DEFAULT_255_2_778
10
22.0038089
20
13.6771795
40
1.675933
50
309.0474293
51
354.2193946
0
ARC
8
DEFAULT_255_2_778
10
21.991098
20
13.6771856
40
1.6885802
50
354.2626288
51
0.0069603
0
LINE
8
DEFAULT_255_2_778
10
22.2422782
20
48.6745908
11
15.8797782
21
49.6886908
0
LINE
8
DEFAULT_255_2_778
10
14.9222782
20
48.8589908
11
14.9222782
21
11.8339908
0
LINE
8
DEFAULT_255_2_778
10
15.8797782
20
11.0042908
11
22.2422782
21
12.0181908
0
LINE
8
DEFAULT_255_2_778
10
23.6796782
20
13.6773908
11
23.6796782
21
47.0153908
0
LINE
8
DEFAULT_255_2_778
10
11.8345669
20
55.1690462
11
26.8290669
21
55.1690462
0
LINE
8
DEFAULT_255_2_778
10
26.8290669
20
55.1690462
11
26.8290669
21
5.5239462
0
LINE
8
DEFAULT_255_2_778
10
26.8290669
20
5.5239462
11
11.8345669
21
5.5239462
0
LINE
8
DEFAULT_255_2_778
10
11.8345669
20
5.5239462
11
11.8345669
21
55.1690462
0
ARC
8
DEFAULT_255_2_778
10
21.1566344
20
34.4187436
40
0.6914683
50
90.9887389
51
180.1249262
0
ARC
8
DEFAULT_255_2_778
10
21.1581632
20
34.3968252
40
0.7134108
50
89.9996325
51
91.0811273
0
ARC
8
DEFAULT_255_2_778
10
21.1596438
20
34.4190506
40
0.6911869
50
1.3367965
51
90.1223571
0
ARC
8
DEFAULT_255_2_778
10
21.1370902
20
34.417247
40
0.7137775
50
359.9991147
51
1.439302
0
ARC
8
DEFAULT_255_2_778
10
21.1595451
20
34.4156819
40
0.6913245
50
271.0010206
51
0.1287974
0
ARC
8
DEFAULT_255_2_778
10
21.1581723
20
34.4366427
40
0.7123068
50
269.9996325
51
271.0819651
0
ARC
8
DEFAULT_255_2_778
10
21.1567075
20
34.4158559
40
0.6915215
50
180.8157611
51
270.1209891
0
ARC
8
DEFAULT_255_2_778
10
21.1765787
20
34.4172126
40
0.7114109
50
179.9981199
51
180.9022331
0
ARC
8
DEFAULT_255_2_778
10
21.1565459
20
37.2482307
40
0.6913797
50
90.981529
51
180.1238715
0
ARC
8
DEFAULT_255_2_778
10
21.1581632
20
37.2262253
40
0.7134108
50
89.9996324
51
91.0811273
0
ARC
8
DEFAULT_255_2_778
10
21.1597276
20
37.2485342
40
0.6911035
50
1.338313
51
90.1293146
0
ARC
8
DEFAULT_255_2_778
10
21.137093
20
37.246747
40
0.7137747
50
359.999114
51
1.4393012
0
ARC
8
DEFAULT_255_2_778
10
21.1597222
20
37.2452076
40
0.6911473
50
270.9865906
51
0.1267006
0
ARC
8
DEFAULT_255_2_778
10
21.1581617
20
37.2685939
40
0.7145579
50
270.0004859
51
271.0794086
0
ARC
8
DEFAULT_255_2_778
10
21.1566684
20
37.2455205
40
0.6914862
50
180.7361546
51
270.1242371
0
ARC
8
DEFAULT_255_2_778
10
21.1762993
20
37.2467133
40
0.7111314
50
179.9981751
51
180.8119275
0
ARC
8
DEFAULT_255_2_778
10
21.1566344
20
45.7365436
40
0.6914683
50
90.9887389
51
180.1249262
0
ARC
8
DEFAULT_255_2_778
10
21.1581632
20
45.7146252
40
0.7134108
50
89.9996325
51
91.0811273
0
ARC
8
DEFAULT_255_2_778
10
21.1596438
20
45.7368506
40
0.6911869
50
1.3367965
51
90.1223571
0
ARC
8
DEFAULT_255_2_778
10
21.1370902
20
45.735047
40
0.7137775
50
359.9991147
51
1.439302
0
ARC
8
DEFAULT_255_2_778
10
21.1597222
20
45.7335076
40
0.6911473
50
270.9865906
51
0.1267006
0
ARC
8
DEFAULT_255_2_778
10
21.1581617
20
45.7568939
40
0.7145579
50
270.0004859
51
271.0794086
0
ARC
8
DEFAULT_255_2_778
10
21.1567333
20
45.7338879
40
0.6915534
50
180.6486373
51
270.1188485
0
ARC
8
DEFAULT_255_2_778
10
21.1785259
20
45.7350452
40
0.7133582
50
180.0007376
51
180.7217646
0
ARC
8
DEFAULT_255_2_778
10
21.1565459
20
42.9071307
40
0.6913797
50
90.981529
51
180.1238715
0
ARC
8
DEFAULT_255_2_778
10
21.1581632
20
42.8851253
40
0.7134108
50
89.9996324
51
91.0811273
0
ARC
8
DEFAULT_255_2_778
10
21.1597276
20
42.9074342
40
0.6911035
50
1.338313
51
90.1293146
0
ARC
8
DEFAULT_255_2_778
10
21.137093
20
42.905647
40
0.7137747
50
359.999114
51
1.4393012
0
ARC
8
DEFAULT_255_2_778
10
21.1594516
20
42.9040708
40
0.691418
50
270.823143
51
0.1297048
0
ARC
8
DEFAULT_255_2_778
10
21.1581909
20
42.9229768
40
0.7103408
50
269.998131
51
270.9029064
0
ARC
8
DEFAULT_255_2_778
10
21.1567917
20
42.9042402
40
0.6916056
50
180.8143597
51
270.1139975
0
ARC
8
DEFAULT_255_2_778
10
21.1765805
20
42.9056126
40
0.7114127
50
179.9981202
51
180.9022333
0
ARC
8
DEFAULT_255_2_778
10
21.1566344
20
40.0776436
40
0.6914683
50
90.9887389
51
180.1249262
0
ARC
8
DEFAULT_255_2_778
10
21.1581632
20
40.0557252
40
0.7134108
50
89.9996325
51
91.0811273
0
ARC
8
DEFAULT_255_2_778
10
21.1596438
20
40.0779506
40
0.6911869
50
1.3367965
51
90.1223571
0
ARC
8
DEFAULT_255_2_778
10
21.1370902
20
40.076147
40
0.7137775
50
359.9991147
51
1.439302
0
ARC
8
DEFAULT_255_2_778
10
21.1595451
20
40.0745819
40
0.6913245
50
271.0010206
51
0.1287974
0
ARC
8
DEFAULT_255_2_778
10
21.1581723
20
40.0955427
40
0.7123068
50
269.9996325
51
271.0819651
0
ARC
8
DEFAULT_255_2_778
10
21.1567075
20
40.0747559
40
0.6915215
50
180.8157611
51
270.1209891
0
ARC
8
DEFAULT_255_2_778
10
21.1765787
20
40.0761126
40
0.7114109
50
179.9981199
51
180.9022331
0
ARC
8
DEFAULT_255_2_778
10
21.1565459
20
25.9301307
40
0.6913797
50
90.981529
51
180.1238715
0
ARC
8
DEFAULT_255_2_778
10
21.1581632
20
25.9081253
40
0.7134108
50
89.9996324
51
91.0811273
0
ARC
8
DEFAULT_255_2_778
10
21.1597276
20
25.9304342
40
0.6911035
50
1.338313
51
90.1293146
0
ARC
8
DEFAULT_255_2_778
10
21.137093
20
25.928647
40
0.7137747
50
359.999114
51
1.4393012
0
ARC
8
DEFAULT_255_2_778
10
21.1594516
20
25.9270708
40
0.691418
50
270.823143
51
0.1297048
0
ARC
8
DEFAULT_255_2_778
10
21.1581909
20
25.9459768
40
0.7103408
50
269.998131
51
270.9029064
0
ARC
8
DEFAULT_255_2_778
10
21.1567917
20
25.9272402
40
0.6916056
50
180.8143597
51
270.1139975
0
ARC
8
DEFAULT_255_2_778
10
21.1765805
20
25.9286126
40
0.7114127
50
179.9981202
51
180.9022333
0
ARC
8
DEFAULT_255_2_778
10
21.1565459
20
31.5890307
40
0.6913797
50
90.981529
51
180.1238715
0
ARC
8
DEFAULT_255_2_778
10
21.1581632
20
31.5670253
40
0.7134108
50
89.9996324
51
91.0811273
0
ARC
8
DEFAULT_255_2_778
10
21.1597276
20
31.5893342
40
0.6911035
50
1.338313
51
90.1293146
0
ARC
8
DEFAULT_255_2_778
10
21.137093
20
31.587547
40
0.7137747
50
359.999114
51
1.4393012
0
ARC
8
DEFAULT_255_2_778
10
21.1594516
20
31.5859708
40
0.691418
50
270.823143
51
0.1297048
0
ARC
8
DEFAULT_255_2_778
10
21.1581909
20
31.6048768
40
0.7103408
50
269.998131
51
270.9029064
0
ARC
8
DEFAULT_255_2_778
10
21.1567917
20
31.5861402
40
0.6916056
50
180.8143597
51
270.1139975
0
ARC
8
DEFAULT_255_2_778
10
21.1765805
20
31.5875126
40
0.7114127
50
179.9981202
51
180.9022333
0
ARC
8
DEFAULT_255_2_778
10
21.1566344
20
28.7595436
40
0.6914683
50
90.9887389
51
180.1249262
0
ARC
8
DEFAULT_255_2_778
10
21.1581632
20
28.7376252
40
0.7134108
50
89.9996325
51
91.0811273
0
ARC
8
DEFAULT_255_2_778
10
21.1596438
20
28.7598506
40
0.6911869
50
1.3367965
51
90.1223571
0
ARC
8
DEFAULT_255_2_778
10
21.1370902
20
28.758047
40
0.7137775
50
359.9991147
51
1.439302
0
ARC
8
DEFAULT_255_2_778
10
21.1598111
20
28.7565203
40
0.6910584
50
270.9793482
51
0.1256664
0
ARC
8
DEFAULT_255_2_778
10
21.1581617
20
28.7799939
40
0.7145579
50
270.0004859
51
271.0794086
0
ARC
8
DEFAULT_255_2_778
10
21.1566487
20
28.7569025
40
0.6914682
50
180.6963389
51
270.1258746
0
ARC
8
DEFAULT_255_2_778
10
21.1791007
20
28.7580433
40
0.7139329
50
180.000587
51
180.7659883
0
ARC
8
DEFAULT_255_2_778
10
17.6396618
20
35.9685149
40
0.6912958
50
90.9829654
51
180.1308669
0
ARC
8
DEFAULT_255_2_778
10
17.6412632
20
35.9464274
40
0.7134086
50
89.999632
51
91.0811269
0
ARC
8
DEFAULT_255_2_778
10
17.6429291
20
35.9685314
40
0.6913066
50
1.3547341
51
90.137693
0
ARC
8
DEFAULT_255_2_778
10
17.6217585
20
35.9669549
40
0.7125093
50
359.9984735
51
1.4412189
0
ARC
8
DEFAULT_255_2_778
10
17.6428666
20
35.9653641
40
0.6914029
50
270.9836905
51
0.1302608
0
ARC
8
DEFAULT_255_2_778
10
17.6412725
20
35.987688
40
0.713752
50
269.99962
51
271.0808734
0
ARC
8
DEFAULT_255_2_778
10
17.639773
20
35.9653141
40
0.6913797
50
180.981529
51
270.1238715
0
ARC
8
DEFAULT_255_2_778
10
17.6617785
20
35.9669314
40
0.7134108
50
179.9996324
51
181.0811273
0
ARC
8
DEFAULT_255_2_778
10
17.6397503
20
33.1390278
40
0.6913844
50
90.990176
51
180.1319208
0
ARC
8
DEFAULT_255_2_778
10
17.6412632
20
33.1170274
40
0.7134086
50
89.999632
51
91.0811269
0
ARC
8
DEFAULT_255_2_778
10
17.6428401
20
33.1390351
40
0.6914026
50
0.98338
51
90.1302971
0
ARC
8
DEFAULT_255_2_778
10
17.6208571
20
33.1374405
40
0.7134108
50
359.9996324
51
1.0811273
0
ARC
8
DEFAULT_255_2_778
10
17.642969
20
33.1358711
40
0.6913006
50
271.34636
51
0.1296969
0
ARC
8
DEFAULT_255_2_778
10
17.6412869
20
33.1573959
40
0.7128599
50
269.9984617
51
271.4408683
0
ARC
8
DEFAULT_255_2_778
10
17.6396888
20
33.13583
40
0.6912958
50
180.9829654
51
270.1308669
0
ARC
8
DEFAULT_255_2_778
10
17.6617763
20
33.1374314
40
0.7134086
50
179.999632
51
181.0811269
0
ARC
8
DEFAULT_255_2_778
10
17.6397503
20
38.7979278
40
0.6913844
50
90.990176
51
180.1319208
0
ARC
8
DEFAULT_255_2_778
10
17.6412632
20
38.7759274
40
0.7134086
50
89.999632
51
91.0811269
0
ARC
8
DEFAULT_255_2_778
10
17.6428401
20
38.7979351
40
0.6914026
50
0.98338
51
90.1302971
0
ARC
8
DEFAULT_255_2_778
10
17.6208571
20
38.7963405
40
0.7134108
50
359.9996324
51
1.0811273
0
ARC
8
DEFAULT_255_2_778
10
17.643238
20
38.794808
40
0.6910315
50
271.3245766
51
0.1266897
0
ARC
8
DEFAULT_255_2_778
10
17.641279
20
38.8178619
40
0.7141259
50
269.9991019
51
271.4389511
0
ARC
8
DEFAULT_255_2_778
10
17.6396295
20
38.7949746
40
0.6912406
50
181.0024604
51
270.1357928
0
ARC
8
DEFAULT_255_2_778
10
17.6606724
20
38.7963314
40
0.7123046
50
179.9996321
51
181.0819647
0
ARC
8
DEFAULT_255_2_778
10
17.6396618
20
30.3096149
40
0.6912958
50
90.9829654
51
180.1308669
0
ARC
8
DEFAULT_255_2_778
10
17.6412632
20
30.2875274
40
0.7134086
50
89.999632
51
91.0811269
0
ARC
8
DEFAULT_255_2_778
10
17.6429291
20
30.3096314
40
0.6913066
50
1.3547341
51
90.137693
0
ARC
8
DEFAULT_255_2_778
10
17.6217585
20
30.3080549
40
0.7125093
50
359.9984735
51
1.4412189
0
ARC
8
DEFAULT_255_2_778
10
17.6428666
20
30.3064641
40
0.6914029
50
270.9836905
51
0.1302608
0
ARC
8
DEFAULT_255_2_778
10
17.6412725
20
30.328788
40
0.713752
50
269.99962
51
271.0808734
0
ARC
8
DEFAULT_255_2_778
10
17.639773
20
30.3064141
40
0.6913797
50
180.981529
51
270.1238715
0
ARC
8
DEFAULT_255_2_778
10
17.6617785
20
30.3080314
40
0.7134108
50
179.9996324
51
181.0811273
0
ARC
8
DEFAULT_255_2_778
10
17.6397503
20
27.4801278
40
0.6913844
50
90.990176
51
180.1319208
0
ARC
8
DEFAULT_255_2_778
10
17.6412632
20
27.4581274
40
0.7134086
50
89.999632
51
91.0811269
0
ARC
8
DEFAULT_255_2_778
10
17.6428401
20
27.4801351
40
0.6914026
50
0.98338
51
90.1302971
0
ARC
8
DEFAULT_255_2_778
10
17.6208571
20
27.4785405
40
0.7134108
50
359.9996324
51
1.0811273
0
ARC
8
DEFAULT_255_2_778
10
17.642969
20
27.4769711
40
0.6913006
50
271.34636
51
0.1296969
0
ARC
8
DEFAULT_255_2_778
10
17.6412869
20
27.4984959
40
0.7128599
50
269.9984617
51
271.4408683
0
ARC
8
DEFAULT_255_2_778
10
17.6396888
20
27.47693
40
0.6912958
50
180.9829654
51
270.1308669
0
ARC
8
DEFAULT_255_2_778
10
17.6617763
20
27.4785314
40
0.7134086
50
179.999632
51
181.0811269
0
ARC
8
DEFAULT_255_2_778
10
17.6396618
20
24.6507149
40
0.6912958
50
90.9829654
51
180.1308669
0
ARC
8
DEFAULT_255_2_778
10
17.6412632
20
24.6286274
40
0.7134086
50
89.999632
51
91.0811269
0
ARC
8
DEFAULT_255_2_778
10
17.6429291
20
24.6507314
40
0.6913066
50
1.3547341
51
90.137693
0
ARC
8
DEFAULT_255_2_778
10
17.6217585
20
24.6491549
40
0.7125093
50
359.9984735
51
1.4412189
0
ARC
8
DEFAULT_255_2_778
10
17.6429457
20
24.647494
40
0.6913241
50
271.348247
51
0.1360828
0
ARC
8
DEFAULT_255_2_778
10
17.6412869
20
24.6689959
40
0.7128599
50
269.9984617
51
271.4408683
0
ARC
8
DEFAULT_255_2_778
10
17.6397029
20
24.6474348
40
0.6913006
50
181.34636
51
270.1296969
0
ARC
8
DEFAULT_255_2_778
10
17.6612277
20
24.6491168
40
0.7128599
50
179.9984617
51
181.4408683
0
ARC
8
DEFAULT_255_2_778
10
17.6396618
20
47.2866149
40
0.6912958
50
90.9829654
51
180.1308669
0
ARC
8
DEFAULT_255_2_778
10
17.6412632
20
47.2645274
40
0.7134086
50
89.999632
51
91.0811269
0
ARC
8
DEFAULT_255_2_778
10
17.6429291
20
47.2866314
40
0.6913066
50
1.3547341
51
90.137693
0
ARC
8
DEFAULT_255_2_778
10
17.6217585
20
47.2850549
40
0.7125093
50
359.9984735
51
1.4412189
0
ARC
8
DEFAULT_255_2_778
10
17.643215
20
47.2834306
40
0.6910546
50
271.3264352
51
0.133099
0
ARC
8
DEFAULT_255_2_778
10
17.641279
20
47.3064619
40
0.7141259
50
269.9991019
51
271.4389511
0
ARC
8
DEFAULT_255_2_778
10
17.6396495
20
47.2835932
40
0.6912591
50
180.9959707
51
270.1341335
0
ARC
8
DEFAULT_255_2_778
10
17.6610473
20
47.2850314
40
0.7126796
50
179.9996321
51
181.0816746
0
ARC
8
DEFAULT_255_2_778
10
17.6396618
20
44.4571149
40
0.6912958
50
90.9829654
51
180.1308669
0
ARC
8
DEFAULT_255_2_778
10
17.6412632
20
44.4350274
40
0.7134086
50
89.999632
51
91.0811269
0
ARC
8
DEFAULT_255_2_778
10
17.6429291
20
44.4571314
40
0.6913066
50
1.3547341
51
90.137693
0
ARC
8
DEFAULT_255_2_778
10
17.6217585
20
44.4555549
40
0.7125093
50
359.9984735
51
1.4412189
0
ARC
8
DEFAULT_255_2_778
10
17.642969
20
44.4539711
40
0.6913006
50
271.34636
51
0.1296969
0
ARC
8
DEFAULT_255_2_778
10
17.6412869
20
44.4754959
40
0.7128599
50
269.9984617
51
271.4408683
0
ARC
8
DEFAULT_255_2_778
10
17.6396888
20
44.45393
40
0.6912958
50
180.9829654
51
270.1308669
0
ARC
8
DEFAULT_255_2_778
10
17.6617763
20
44.4555314
40
0.7134086
50
179.999632
51
181.0811269
0
ARC
8
DEFAULT_255_2_778
10
17.6396723
20
41.6276973
40
0.6913066
50
91.3547341
51
180.137693
0
ARC
8
DEFAULT_255_2_778
10
17.6412488
20
41.6065267
40
0.7125093
50
89.9984735
51
91.4412189
0
ARC
8
DEFAULT_255_2_778
10
17.6429097
20
41.6277139
40
0.6913241
50
1.348247
51
90.1360828
0
ARC
8
DEFAULT_255_2_778
10
17.6214079
20
41.6260551
40
0.7128599
50
359.9984617
51
1.4408683
0
ARC
8
DEFAULT_255_2_778
10
17.642969
20
41.6244711
40
0.6913006
50
271.34636
51
0.1296969
0
ARC
8
DEFAULT_255_2_778
10
17.6412869
20
41.6459959
40
0.7128599
50
269.9984617
51
271.4408683
0
ARC
8
DEFAULT_255_2_778
10
17.6396888
20
41.62443
40
0.6912958
50
180.9829654
51
270.1308669
0
ARC
8
DEFAULT_255_2_778
10
17.6617763
20
41.6260314
40
0.7134086
50
179.999632
51
181.0811269
0
ARC
8
DEFAULT_255_2_778
10
21.1565459
20
17.4420307
40
0.6913797
50
90.981529
51
180.1238715
0
ARC
8
DEFAULT_255_2_778
10
21.1581632
20
17.4200253
40
0.7134108
50
89.9996324
51
91.0811273
0
ARC
8
DEFAULT_255_2_778
10
21.1597276
20
17.4423342
40
0.6911035
50
1.338313
51
90.1293146
0
ARC
8
DEFAULT_255_2_778
10
21.137093
20
17.440547
40
0.7137747
50
359.999114
51
1.4393012
0
ARC
8
DEFAULT_255_2_778
10
21.1594516
20
17.4389708
40
0.691418
50
270.823143
51
0.1297048
0
ARC
8
DEFAULT_255_2_778
10
21.1581909
20
17.4578768
40
0.7103408
50
269.998131
51
270.9029064
0
ARC
8
DEFAULT_255_2_778
10
21.1567917
20
17.4391402
40
0.6916056
50
180.8143597
51
270.1139975
0
ARC
8
DEFAULT_255_2_778
10
21.1765805
20
17.4405126
40
0.7114127
50
179.9981202
51
180.9022333
0
ARC
8
DEFAULT_255_2_778
10
21.1565686
20
20.2715083
40
0.6914026
50
90.98338
51
180.1302971
0
ARC
8
DEFAULT_255_2_778
10
21.1581632
20
20.2495253
40
0.7134108
50
89.9996324
51
91.0811273
0
ARC
8
DEFAULT_255_2_778
10
21.1597082
20
20.2718166
40
0.691121
50
1.3318275
51
90.1277027
0
ARC
8
DEFAULT_255_2_778
10
21.1367418
20
20.2699472
40
0.7141259
50
359.999102
51
1.4389511
0
ARC
8
DEFAULT_255_2_778
10
21.1598111
20
20.2684203
40
0.6910584
50
270.9793482
51
0.1256664
0
ARC
8
DEFAULT_255_2_778
10
21.1581617
20
20.2918939
40
0.7145579
50
270.0004859
51
271.0794086
0
ARC
8
DEFAULT_255_2_778
10
21.1566487
20
20.2688025
40
0.6914682
50
180.6963389
51
270.1258746
0
ARC
8
DEFAULT_255_2_778
10
21.1791007
20
20.2699433
40
0.7139329
50
180.000587
51
180.7659883
0
ARC
8
DEFAULT_255_2_778
10
21.1566344
20
14.6125436
40
0.6914683
50
90.9887389
51
180.1249262
0
ARC
8
DEFAULT_255_2_778
10
21.1581632
20
14.5906252
40
0.7134108
50
89.9996325
51
91.0811273
0
ARC
8
DEFAULT_255_2_778
10
21.1596438
20
14.6128506
40
0.6911869
50
1.3367965
51
90.1223571
0
ARC
8
DEFAULT_255_2_778
10
21.1370902
20
14.611047
40
0.7137775
50
359.9991147
51
1.439302
0
ARC
8
DEFAULT_255_2_778
10
21.1595451
20
14.6094819
40
0.6913245
50
271.0010206
51
0.1287974
0
ARC
8
DEFAULT_255_2_778
10
21.1581723
20
14.6304427
40
0.7123068
50
269.9996325
51
271.0819651
0
ARC
8
DEFAULT_255_2_778
10
21.1567075
20
14.6096559
40
0.6915215
50
180.8157611
51
270.1209891
0
ARC
8
DEFAULT_255_2_778
10
21.1765787
20
14.6110126
40
0.7114109
50
179.9981199
51
180.9022331
0
ARC
8
DEFAULT_255_2_778
10
17.6396618
20
21.8215149
40
0.6912958
50
90.9829654
51
180.1308669
0
ARC
8
DEFAULT_255_2_778
10
17.6412632
20
21.7994274
40
0.7134086
50
89.999632
51
91.0811269
0
ARC
8
DEFAULT_255_2_778
10
17.6429291
20
21.8215314
40
0.6913066
50
1.3547341
51
90.137693
0
ARC
8
DEFAULT_255_2_778
10
17.6217585
20
21.8199549
40
0.7125093
50
359.9984735
51
1.4412189
0
ARC
8
DEFAULT_255_2_778
10
17.6431484
20
21.8183956
40
0.691121
50
271.3318275
51
0.1277027
0
ARC
8
DEFAULT_255_2_778
10
17.641279
20
21.8413619
40
0.7141259
50
269.999102
51
271.4389511
0
ARC
8
DEFAULT_255_2_778
10
17.6396495
20
21.8184932
40
0.6912591
50
180.9959707
51
270.1341335
0
ARC
8
DEFAULT_255_2_778
10
17.6610473
20
21.8199314
40
0.7126796
50
179.9996321
51
181.0816746
0
ARC
8
DEFAULT_255_2_778
10
17.6397503
20
18.9920278
40
0.6913844
50
90.990176
51
180.1319208
0
ARC
8
DEFAULT_255_2_778
10
17.6412632
20
18.9700274
40
0.7134086
50
89.999632
51
91.0811269
0
ARC
8
DEFAULT_255_2_778
10
17.6428401
20
18.9920351
40
0.6914026
50
0.98338
51
90.1302971
0
ARC
8
DEFAULT_255_2_778
10
17.6208571
20
18.9904405
40
0.7134108
50
359.9996324
51
1.0811273
0
ARC
8
DEFAULT_255_2_778
10
17.642969
20
18.9888711
40
0.6913006
50
271.34636
51
0.1296969
0
ARC
8
DEFAULT_255_2_778
10
17.6412869
20
19.0103959
40
0.7128599
50
269.9984617
51
271.4408683
0
ARC
8
DEFAULT_255_2_778
10
17.6396888
20
18.98883
40
0.6912958
50
180.9829654
51
270.1308669
0
ARC
8
DEFAULT_255_2_778
10
17.6617763
20
18.9904314
40
0.7134086
50
179.999632
51
181.0811269
0
ARC
8
DEFAULT_255_2_778
10
17.6396723
20
16.1625973
40
0.6913066
50
91.3547341
51
180.137693
0
ARC
8
DEFAULT_255_2_778
10
17.6412488
20
16.1414267
40
0.7125093
50
89.9984735
51
91.4412189
0
ARC
8
DEFAULT_255_2_778
10
17.6429097
20
16.1626139
40
0.6913241
50
1.348247
51
90.1360828
0
ARC
8
DEFAULT_255_2_778
10
17.6214079
20
16.1609551
40
0.7128599
50
359.9984617
51
1.4408683
0
ARC
8
DEFAULT_255_2_778
10
17.6428894
20
16.1594415
40
0.69138
50
270.9818355
51
0.1238451
0
ARC
8
DEFAULT_255_2_778
10
17.6412725
20
16.181788
40
0.713752
50
269.99962
51
271.0808734
0
ARC
8
DEFAULT_255_2_778
10
17.6397531
20
16.1593956
40
0.6913613
50
180.9880248
51
270.1255274
0
ARC
8
DEFAULT_255_2_778
10
17.6613927
20
16.1609312
40
0.713025
50
179.9996204
51
181.0814212
0
ARC
8
DEFAULT_255_2_778
10
21.1565459
20
23.1012307
40
0.6913797
50
90.981529
51
180.1238715
0
ARC
8
DEFAULT_255_2_778
10
21.1581632
20
23.0792253
40
0.7134108
50
89.9996324
51
91.0811273
0
ARC
8
DEFAULT_255_2_778
10
21.1597276
20
23.1015342
40
0.6911035
50
1.338313
51
90.1293146
0
ARC
8
DEFAULT_255_2_778
10
21.137093
20
23.099747
40
0.7137747
50
359.999114
51
1.4393012
0
ARC
8
DEFAULT_255_2_778
10
21.1595223
20
23.0981043
40
0.6913474
50
271.0028725
51
0.135222
0
ARC
8
DEFAULT_255_2_778
10
21.1581723
20
23.1190427
40
0.7123068
50
269.9996325
51
271.0819651
0
ARC
8
DEFAULT_255_2_778
10
21.1567276
20
23.0982749
40
0.6915404
50
180.8092659
51
270.119319
0
ARC
8
DEFAULT_255_2_778
10
21.1769784
20
23.0997128
40
0.7118105
50
179.9981324
51
180.9019714
0
ARC
8
DEFAULT_255_2_778
10
17.6397503
20
13.3331278
40
0.6913844
50
90.990176
51
180.1319208
0
ARC
8
DEFAULT_255_2_778
10
17.6412632
20
13.3111274
40
0.7134086
50
89.999632
51
91.0811269
0
ARC
8
DEFAULT_255_2_778
10
17.6428401
20
13.3331351
40
0.6914026
50
0.98338
51
90.1302971
0
ARC
8
DEFAULT_255_2_778
10
17.6208571
20
13.3315405
40
0.7134108
50
359.9996324
51
1.0811273
0
ARC
8
DEFAULT_255_2_778
10
17.6431484
20
13.3299956
40
0.691121
50
271.3318275
51
0.1277027
0
ARC
8
DEFAULT_255_2_778
10
17.641279
20
13.3529619
40
0.7141259
50
269.999102
51
271.4389511
0
ARC
8
DEFAULT_255_2_778
10
17.6397137
20
13.3301587
40
0.6913245
50
181.0010206
51
270.1287974
0
ARC
8
DEFAULT_255_2_778
10
17.6606745
20
13.3315314
40
0.7123068
50
179.9996325
51
181.0819651
0
LINE
8
DEFAULT_255_2_778
10
20.4651678
20
34.417236
11
20.4651678
21
34.417236
0
LINE
8
DEFAULT_255_2_778
10
20.4651678
20
37.246736
11
20.4651678
21
37.246736
0
LINE
8
DEFAULT_255_2_778
10
20.4651678
20
45.735036
11
20.4651678
21
45.735036
0
LINE
8
DEFAULT_255_2_778
10
20.4651678
20
42.905636
11
20.4651678
21
42.905636
0
LINE
8
DEFAULT_255_2_778
10
20.4651678
20
40.076136
11
20.4651678
21
40.076136
0
LINE
8
DEFAULT_255_2_778
10
20.4651678
20
25.928636
11
20.4651678
21
25.928636
0
LINE
8
DEFAULT_255_2_778
10
20.4651678
20
31.587536
11
20.4651678
21
31.587536
0
LINE
8
DEFAULT_255_2_778
10
20.4651678
20
28.758036
11
20.4651678
21
28.758036
0
LINE
8
DEFAULT_255_2_778
10
16.9483678
20
35.966936
11
16.9483678
21
35.966936
0
LINE
8
DEFAULT_255_2_778
10
16.9483678
20
33.137436
11
16.9483678
21
33.137436
0
LINE
8
DEFAULT_255_2_778
10
16.9483678
20
38.796336
11
16.9483678
21
38.796336
0
LINE
8
DEFAULT_255_2_778
10
16.9483678
20
30.308036
11
16.9483678
21
30.308036
0
LINE
8
DEFAULT_255_2_778
10
16.9483678
20
27.478536
11
16.9483678
21
27.478536
0
LINE
8
DEFAULT_255_2_778
10
16.9483678
20
24.649136
11
16.9483678
21
24.649136
0
LINE
8
DEFAULT_255_2_778
10
16.9483678
20
47.285036
11
16.9483678
21
47.285036
0
LINE
8
DEFAULT_255_2_778
10
16.9483678
20
44.455536
11
16.9483678
21
44.455536
0
LINE
8
DEFAULT_255_2_778
10
16.9483678
20
41.626036
11
16.9483678
21
41.626036
0
LINE
8
DEFAULT_255_2_778
10
20.4651678
20
17.440536
11
20.4651678
21
17.440536
0
LINE
8
DEFAULT_255_2_778
10
20.4651678
20
20.269936
11
20.4651678
21
20.269936
0
LINE
8
DEFAULT_255_2_778
10
20.4651678
20
14.611036
11
20.4651678
21
14.611036
0
LINE
8
DEFAULT_255_2_778
10
16.9483678
20
21.819936
11
16.9483678
21
21.819936
0
LINE
8
DEFAULT_255_2_778
10
16.9483678
20
18.990436
11
16.9483678
21
18.990436
0
LINE
8
DEFAULT_255_2_778
10
16.9483678
20
16.160936
11
16.9483678
21
16.160936
0
LINE
8
DEFAULT_255_2_778
10
20.4651678
20
23.099736
11
20.4651678
21
23.099736
0
LINE
8
DEFAULT_255_2_778
10
16.9483678
20
13.331536
11
16.9483678
21
13.331536
0
ARC
8
DEFAULT_255_2_778
10
19.2959728
20
52.167731
40
1.1066459
50
142.1362838
51
180.0876844
0
ARC
8
DEFAULT_255_2_778
10
19.3000044
20
52.1676408
40
1.1098867
50
93.8190313
51
142.2603535
0
ARC
8
DEFAULT_255_2_778
10
19.3007407
20
52.1499254
40
1.1276119
50
89.9955573
51
93.7964063
0
ARC
8
DEFAULT_255_2_778
10
19.3025431
20
52.1707211
40
1.1068177
50
52.1393332
51
90.0887766
0
ARC
8
DEFAULT_255_2_778
10
19.3025737
20
52.1668669
40
1.1098443
50
3.8188824
51
52.2626989
0
ARC
8
DEFAULT_255_2_778
10
19.2848162
20
52.1661249
40
1.1276119
50
359.9955573
51
3.7964063
0
ARC
8
DEFAULT_255_2_778
10
19.3056518
20
52.164318
40
1.1067777
50
322.1380142
51
0.0890108
0
ARC
8
DEFAULT_255_2_778
10
19.301706
20
52.1643893
40
1.109939
50
273.816665
51
322.2601249
0
ARC
8
DEFAULT_255_2_778
10
19.3009159
20
52.182397
40
1.1279595
50
269.9955417
51
273.7958177
0
ARC
8
DEFAULT_255_2_778
10
19.2991301
20
52.1610421
40
1.1066059
50
232.1349647
51
270.0879185
0
ARC
8
DEFAULT_255_2_778
10
19.2993222
20
52.1651654
40
1.1099814
50
183.8168141
51
232.2577796
0
ARC
8
DEFAULT_255_2_778
10
19.3172877
20
52.1659497
40
1.1279595
50
179.9955417
51
183.7958177
0
LINE
8
DEFAULT_255_2_778
10
18.1893282
20
52.1660375
11
18.1893282
21
52.1660375
0
LINE
8
DEFAULT_255_2_778
10
20.0176282
20
50.4054375
11
21.1841282
21
51.9064375
0
LINE
8
DEFAULT_255_2_778
10
21.1841282
20
51.9064375
11
20.4674282
21
53.6669375
0
LINE
8
DEFAULT_255_2_778
10
20.4674282
20
53.6669375
11
18.5843282
21
53.9265375
0
LINE
8
DEFAULT_255_2_778
10
18.5843282
20
53.9265375
11
17.4178282
21
52.4255375
0
LINE
8
DEFAULT_255_2_778
10
17.4178282
20
52.4255375
11
18.1346282
21
50.6650375
0
LINE
8
DEFAULT_255_2_778
10
18.1346282
20
50.6650375
11
20.0176282
21
50.4054375
0
ARC
8
DEFAULT_255_2_778
10
19.2961445
20
8.5289524
40
1.1068177
50
142.1393332
51
180.0887766
0
ARC
8
DEFAULT_255_2_778
10
19.2999987
20
8.528983
40
1.1098443
50
93.8188824
51
142.2626989
0
ARC
8
DEFAULT_255_2_778
10
19.3007407
20
8.5112254
40
1.1276119
50
89.9955573
51
93.7964063
0
ARC
8
DEFAULT_255_2_778
10
19.3025476
20
8.5320611
40
1.1067777
50
52.1380142
51
90.0890108
0
ARC
8
DEFAULT_255_2_778
10
19.3024763
20
8.5281152
40
1.109939
50
3.816665
51
52.2601249
0
ARC
8
DEFAULT_255_2_778
10
19.2844686
20
8.5273252
40
1.1279595
50
359.9955417
51
3.7958177
0
ARC
8
DEFAULT_255_2_778
10
19.3058235
20
8.5255394
40
1.1066059
50
322.1349647
51
0.0879185
0
ARC
8
DEFAULT_255_2_778
10
19.3017002
20
8.5257315
40
1.1099814
50
273.8168141
51
322.2577796
0
ARC
8
DEFAULT_255_2_778
10
19.3009159
20
8.543697
40
1.1279595
50
269.9955417
51
273.7958177
0
ARC
8
DEFAULT_255_2_778
10
19.2991346
20
8.522382
40
1.1066459
50
232.1362838
51
270.0876844
0
ARC
8
DEFAULT_255_2_778
10
19.2992248
20
8.5264137
40
1.1098867
50
183.8190313
51
232.2603535
0
ARC
8
DEFAULT_255_2_778
10
19.3169402
20
8.52715
40
1.1276119
50
179.9955573
51
183.7964063
0
LINE
8
DEFAULT_255_2_778
10
18.1893282
20
8.5272375
11
18.1893282
21
8.5272375
0
LINE
8
DEFAULT_255_2_778
10
20.0176282
20
6.7667375
11
21.1841282
21
8.2677375
0
LINE
8
DEFAULT_255_2_778
10
21.1841282
20
8.2677375
11
20.4674282
21
10.0282375
0
LINE
8
DEFAULT_255_2_778
10
20.4674282
20
10.0282375
11
18.5843282
21
10.2878375
0
LINE
8
DEFAULT_255_2_778
10
18.5843282
20
10.2878375
11
17.4178282
21
8.7868375
0
LINE
8
DEFAULT_255_2_778
10
17.4178282
20
8.7868375
11
18.1346282
21
7.0263375
0
LINE
8
DEFAULT_255_2_778
10
18.1346282
20
7.0263375
11
20.0176282
21
6.7667375
0
ENDSEC
0
EOF