0
SECTION
2
HEADER
9
$MEASUREMENT
70
1
0
ENDSEC
0
SECTION
2
TABLES
0
TABLE
2
LTYPE
0
LTYPE
72
65
70
64
2
CONTINUOUS
3
______
73
0
40
0
0
ENDTAB
0
TABLE
2
LAYER
0
LAYER
2
DEFAULT_255_2_778
70
0
62
255
6
CONTINUOUS
0
ENDTAB
0
ENDSEC
0
SECTION
2
ENTITIES
0
LINE
8
DEFAULT_255_2_778
10
3.2639921
20
113.0057901
11
33.4285921
21
113.0057901
0
LINE
8
DEFAULT_255_2_778
10
33.4285921
20
113.0057901
11
33.4285921
21
3.8259901
0
LINE
8
DEFAULT_255_2_778
10
33.4285921
20
3.8259901
11
3.2639921
21
3.8259901
0
LINE
8
DEFAULT_255_2_778
10
3.2639921
20
3.8259901
11
3.2639921
21
113.0057901
0
ARC
8
DEFAULT_255_2_778
10
33.0680583
20
146.6568399
40
3.201442
50
72.1148689
51
90.0583238
0
ARC
8
DEFAULT_255_2_778
10
33.0688562
20
146.6679315
40
3.1906423
50
15.4367011
51
72.0673344
0
ARC
8
DEFAULT_255_2_778
10
33.0872171
20
146.6828637
40
3.1689834
50
359.9550976
51
15.2648244
0
ARC
8
DEFAULT_255_2_778
10
33.0926343
20
3.0330845
40
3.1635667
50
341.9700677
51
0.056067
0
ARC
8
DEFAULT_255_2_778
10
33.0680922
20
3.0500483
40
3.1921655
50
285.2039311
51
341.816879
0
ARC
8
DEFAULT_255_2_778
10
33.0674032
20
3.066594
40
3.2083149
50
269.9535009
51
285.1383139
0
ARC
8
DEFAULT_255_2_778
10
3.4443609
20
3.0594888
40
3.2012102
50
252.1152887
51
270.0579641
0
ARC
8
DEFAULT_255_2_778
10
3.4436266
20
3.0487326
40
3.1907493
50
195.439388
51
252.0685214
0
ARC
8
DEFAULT_255_2_778
10
3.4250912
20
3.0336904
40
3.1688928
50
179.9549828
51
195.2664478
0
ARC
8
DEFAULT_255_2_778
10
3.4189345
20
146.683447
40
3.1627365
50
161.9660677
51
180.0555584
0
ARC
8
DEFAULT_255_2_778
10
3.4448084
20
146.6659922
40
3.1927545
50
105.1017479
51
161.8119628
0
ARC
8
DEFAULT_255_2_778
10
3.4450469
20
146.6506478
40
3.2076333
50
89.9544059
51
105.0344536
0
LINE
8
DEFAULT_255_2_778
10
36.2561995
20
146.6803802
11
36.2561995
21
3.0361802
0
LINE
8
DEFAULT_255_2_778
10
33.0647995
20
-0.1417198
11
3.4475995
21
-0.1417198
0
LINE
8
DEFAULT_255_2_778
10
0.2561995
20
3.0361802
11
0.2561995
21
146.6803802
0
LINE
8
DEFAULT_255_2_778
10
3.4475995
20
149.8582802
11
33.0644995
21
149.8582802
0
LINE
8
DEFAULT_255_2_778
10
36.2561995
20
116.3816271
11
0.2561995
21
116.3816271
0
LINE
8
DEFAULT_255_2_778
10
36.2561995
20
117.6363271
11
0.2561995
21
117.6363271
0
ARC
8
DEFAULT_255_2_778
10
2.1634606
20
120.3357904
40
0.516601
50
60.9007738
51
91.1607162
0
ARC
8
DEFAULT_255_2_778
10
2.196429
20
120.4044907
40
0.4405629
50
26.5896221
51
60.3020671
0
ARC
8
DEFAULT_255_2_778
10
2.0510185
20
120.3340249
40
0.6021379
50
359.1874039
51
26.392435
0
ARC
8
DEFAULT_255_2_778
10
2.0485405
20
120.2399026
40
0.6047034
50
333.8171975
51
1.2681232
0
ARC
8
DEFAULT_255_2_778
10
2.2032751
20
120.1673307
40
0.4338361
50
299.1349073
51
333.401293
0
ARC
8
DEFAULT_255_2_778
10
2.1530056
20
120.273928
40
0.5514787
50
269.3444325
51
298.3048002
0
ARC
8
DEFAULT_255_2_778
10
2.154219
20
120.2092495
40
0.3653489
50
267.7375038
51
304.7226819
0
ARC
8
DEFAULT_255_2_778
10
2.1806826
20
120.155145
40
0.30594
50
306.4210309
51
318.2400135
0
ARC
8
DEFAULT_255_2_778
10
2.1122181
20
120.2032818
40
0.3891908
50
319.6668314
51
354.6729948
0
ARC
8
DEFAULT_255_2_778
10
1.8156639
20
120.2538444
40
0.689536
50
352.7771113
51
0.1945185
0
ARC
8
DEFAULT_255_2_778
10
1.9566337
20
120.3348234
40
0.54871
50
358.6697936
51
20.484752
0
ARC
8
DEFAULT_255_2_778
10
2.1548455
20
120.4025267
40
0.3393909
50
21.4882143
51
40.0887413
0
ARC
8
DEFAULT_255_2_778
10
2.1740463
20
120.4080179
40
0.321269
50
41.5448495
51
91.654909
0
ARC
8
DEFAULT_255_2_778
10
2.152029
20
120.2110789
40
0.5182305
50
88.5914103
51
89.4508601
0
LINE
8
DEFAULT_255_2_778
10
2.1469958
20
119.7224854
11
1.8328958
21
119.7224854
0
LINE
8
DEFAULT_255_2_778
10
1.8328958
20
119.7224854
11
1.8328958
21
120.8522854
0
LINE
8
DEFAULT_255_2_778
10
1.8328958
20
120.8522854
11
2.1529958
21
120.8522854
0
LINE
8
DEFAULT_255_2_778
10
2.6530958
20
120.3254854
11
2.6530958
21
120.2532854
0
LINE
8
DEFAULT_255_2_778
10
2.1466958
20
119.7224854
11
2.1469958
21
119.7224854
0
LINE
8
DEFAULT_255_2_778
10
2.1569958
20
120.7294854
11
1.9823958
21
120.7294854
0
LINE
8
DEFAULT_255_2_778
10
1.9823958
20
120.7294854
11
1.9823958
21
119.8441854
0
LINE
8
DEFAULT_255_2_778
10
1.9823958
20
119.8441854
11
2.1397958
21
119.8441854
0
LINE
8
DEFAULT_255_2_778
10
2.5051958
20
120.2561854
11
2.5051958
21
120.3220854
0
LINE
8
DEFAULT_255_2_778
10
2.1569958
20
120.7292854
11
2.1569958
21
120.7294854
0
LINE
8
DEFAULT_255_2_778
10
3.4503573
20
120.8522854
11
3.4503573
21
120.1018854
0
LINE
8
DEFAULT_255_2_778
10
3.4503573
20
120.1018854
11
3.6077573
21
120.1018854
0
LINE
8
DEFAULT_255_2_778
10
3.6077573
20
120.1018854
11
3.6077573
21
119.9846854
0
LINE
8
DEFAULT_255_2_778
10
3.6077573
20
119.9846854
11
3.4503573
21
119.9846854
0
LINE
8
DEFAULT_255_2_778
10
3.4503573
20
119.9846854
11
3.4503573
21
119.7224854
0
LINE
8
DEFAULT_255_2_778
10
3.4503573
20
119.7224854
11
3.3053573
21
119.7224854
0
LINE
8
DEFAULT_255_2_778
10
3.3053573
20
119.7224854
11
3.3053573
21
119.9846854
0
LINE
8
DEFAULT_255_2_778
10
3.3053573
20
119.9846854
11
2.7888573
21
119.9846854
0
LINE
8
DEFAULT_255_2_778
10
2.7888573
20
119.9846854
11
2.7888573
21
120.0693854
0
LINE
8
DEFAULT_255_2_778
10
2.7888573
20
120.0693854
11
3.2968573
21
120.8522854
0
LINE
8
DEFAULT_255_2_778
10
3.2968573
20
120.8522854
11
3.4503573
21
120.8522854
0
LINE
8
DEFAULT_255_2_778
10
3.4503573
20
120.8522854
11
3.4503573
21
120.8522854
0
LINE
8
DEFAULT_255_2_778
10
3.2881573
20
120.6249854
11
2.9523573
21
120.1021854
0
LINE
8
DEFAULT_255_2_778
10
2.9523573
20
120.1021854
11
3.3053573
21
120.1021854
0
LINE
8
DEFAULT_255_2_778
10
3.3053573
20
120.1021854
11
3.3053573
21
120.6561854
0
LINE
8
DEFAULT_255_2_778
10
3.3053573
20
120.6561854
11
3.2881573
21
120.6252854
0
LINE
8
DEFAULT_255_2_778
10
3.2881573
20
120.6252854
11
3.2881573
21
120.6249854
0
LINE
8
DEFAULT_255_2_778
10
4.0527969
20
120.2612052
11
4.0527969
21
120.1440052
0
LINE
8
DEFAULT_255_2_778
10
4.0527969
20
120.1440052
11
3.6725969
21
120.1440052
0
LINE
8
DEFAULT_255_2_778
10
3.6725969
20
120.1440052
11
3.6725969
21
120.2612052
0
LINE
8
DEFAULT_255_2_778
10
3.6725969
20
120.2612052
11
4.0527969
21
120.2612052
0
LINE
8
DEFAULT_255_2_778
10
4.0527969
20
120.2612052
11
4.0527969
21
120.2612052
0
ARC
8
DEFAULT_255_2_778
10
4.5059964
20
120.5963965
40
0.2390325
50
267.6586574
51
309.1255963
0
ARC
8
DEFAULT_255_2_778
10
4.5369474
20
120.5431815
40
0.1784762
50
312.1990396
51
2.6597166
0
ARC
8
DEFAULT_255_2_778
10
4.4992916
20
120.5642398
40
0.2163173
50
356.6139944
51
34.6705992
0
ARC
8
DEFAULT_255_2_778
10
4.5408656
20
120.5694459
40
0.1802077
50
40.84043
51
91.2497039
0
ARC
8
DEFAULT_255_2_778
10
4.5167932
20
120.3828637
40
0.3672999
50
86.8564149
51
90.0408598
0
ARC
8
DEFAULT_255_2_778
10
4.5062511
20
120.5431779
40
0.2072408
50
87.1566718
51
132.0925807
0
ARC
8
DEFAULT_255_2_778
10
4.4967559
20
120.5642204
40
0.1853955
50
134.2747912
51
182.459795
0
ARC
8
DEFAULT_255_2_778
10
4.4547683
20
120.562386
40
0.2875022
50
131.0313238
51
181.2202277
0
ARC
8
DEFAULT_255_2_778
10
4.5032258
20
120.5082791
40
0.3601303
50
87.8826625
51
131.1958898
0
ARC
8
DEFAULT_255_2_778
10
4.5297215
20
120.4717574
40
0.3966255
50
62.1627031
51
91.9057925
0
ARC
8
DEFAULT_255_2_778
10
4.5751776
20
120.5756746
40
0.2836299
50
47.1052853
51
60.479795
0
ARC
8
DEFAULT_255_2_778
10
4.5570168
20
120.5667137
40
0.3026418
50
357.6153098
51
45.7410322
0
ARC
8
DEFAULT_255_2_778
10
4.3685021
20
120.5482927
40
0.4909289
50
359.9965957
51
0.6802499
0
ARC
8
DEFAULT_255_2_778
10
4.6117774
20
120.5517989
40
0.2476791
50
323.7556323
51
359.1821219
0
ARC
8
DEFAULT_255_2_778
10
4.5751501
20
120.5703221
40
0.2882488
50
291.5721537
51
325.090754
0
ARC
8
DEFAULT_255_2_778
10
4.6051353
20
120.0341551
40
0.278671
50
37.69833
51
74.1744866
0
ARC
8
DEFAULT_255_2_778
10
4.6063151
20
120.0463148
40
0.2704483
50
358.2092755
51
35.8125345
0
ARC
8
DEFAULT_255_2_778
10
4.569433
20
120.0235443
40
0.3075318
50
312.4325108
51
2.6687543
0
ARC
8
DEFAULT_255_2_778
10
4.5347434
20
120.0803899
40
0.3731118
50
268.0904083
51
310.4739903
0
ARC
8
DEFAULT_255_2_778
10
4.5173611
20
120.2692571
40
0.5617936
50
269.9969579
51
270.5047692
0
ARC
8
DEFAULT_255_2_778
10
4.5027974
20
120.1036175
40
0.3964205
50
235.9708777
51
272.1010855
0
ARC
8
DEFAULT_255_2_778
10
4.4730681
20
120.0440207
40
0.3305073
50
229.2968907
51
234.460255
0
ARC
8
DEFAULT_255_2_778
10
4.4422861
20
120.0103887
40
0.2849402
50
177.9334975
51
229.5790126
0
ARC
8
DEFAULT_255_2_778
10
4.4868812
20
120.0128024
40
0.1845174
50
177.5582336
51
226.9960457
0
ARC
8
DEFAULT_255_2_778
10
4.5062209
20
120.0469063
40
0.2228351
50
229.3409556
51
272.9351456
0
ARC
8
DEFAULT_255_2_778
10
4.5309899
20
120.0503531
40
0.226384
50
266.6170816
51
307.4000944
0
ARC
8
DEFAULT_255_2_778
10
4.5627569
20
119.9954424
40
0.1636689
50
310.2422248
51
314.4790619
0
ARC
8
DEFAULT_255_2_778
10
4.5247985
20
120.0205535
40
0.2083975
50
317.0889491
51
3.8272051
0
ARC
8
DEFAULT_255_2_778
10
4.5434984
20
120.0462016
40
0.1895965
50
356.4505031
51
47.400208
0
ARC
8
DEFAULT_255_2_778
10
4.518679
20
119.9917497
40
0.247178
50
51.7128498
51
88.7107062
0
ARC
8
DEFAULT_255_2_778
10
4.4903422
20
119.7755009
40
0.4646025
50
85.8158593
51
89.2490676
0
LINE
8
DEFAULT_255_2_778
10
4.3880313
20
120.2402635
11
4.3880313
21
120.3575635
0
LINE
8
DEFAULT_255_2_778
10
4.3880313
20
120.3575635
11
4.4962313
21
120.3575635
0
LINE
8
DEFAULT_255_2_778
10
4.3115313
20
120.5562635
11
4.1673313
21
120.5562635
0
LINE
8
DEFAULT_255_2_778
10
4.1575313
20
120.0206635
11
4.3025313
21
120.0206635
0
LINE
8
DEFAULT_255_2_778
10
4.4964313
20
120.2400635
11
4.3882313
21
120.2400635
0
LINE
8
DEFAULT_255_2_778
10
4.3882313
20
120.2400635
11
4.3880313
21
120.2402635
0
ARC
8
DEFAULT_255_2_778
10
4.5080351
20
121.125688
40
1.2915372
50
317.9389223
51
324.14781
0
ARC
8
DEFAULT_255_2_778
10
5.1514809
20
120.658811
40
0.496559
50
324.3271699
51
331.3666166
0
ARC
8
DEFAULT_255_2_778
10
5.3543714
20
120.5493782
40
0.2660431
50
331.1133044
51
359.7803597
0
ARC
8
DEFAULT_255_2_778
10
5.418639
20
120.5559742
40
0.2019172
50
357.8384105
51
42.8747704
0
ARC
8
DEFAULT_255_2_778
10
5.4318071
20
120.5617764
40
0.1883781
50
44.3067162
51
92.6149708
0
ARC
8
DEFAULT_255_2_778
10
5.409843
20
120.5266917
40
0.2236666
50
86.5731364
51
133.4535965
0
ARC
8
DEFAULT_255_2_778
10
5.4282765
20
120.5333867
40
0.2321822
50
137.8964882
51
183.4391719
0
ARC
8
DEFAULT_255_2_778
10
5.3849171
20
120.532766
40
0.3328707
50
134.1373055
51
182.2912146
0
ARC
8
DEFAULT_255_2_778
10
5.4006107
20
120.5007538
40
0.3669395
50
89.358112
51
132.4148057
0
ARC
8
DEFAULT_255_2_778
10
5.4229129
20
120.2933085
40
0.5746498
50
89.9900639
51
91.8140859
0
ARC
8
DEFAULT_255_2_778
10
5.4365018
20
120.4730607
40
0.395128
50
61.2950571
51
91.9564036
0
ARC
8
DEFAULT_255_2_778
10
5.4802324
20
120.5708563
40
0.2884757
50
48.0661859
51
59.5837609
0
ARC
8
DEFAULT_255_2_778
10
5.483695
20
120.5773138
40
0.2813632
50
357.6054552
51
47.7119564
0
ARC
8
DEFAULT_255_2_778
10
5.3859154
20
120.5783204
40
0.379112
50
331.1269887
51
358.0708853
0
ARC
8
DEFAULT_255_2_778
10
4.9187892
20
120.8179674
40
0.9040256
50
319.6075411
51
332.1223432
0
ARC
8
DEFAULT_255_2_778
10
4.4312953
20
121.2082592
40
1.528343
50
317.1242581
51
320.3067342
0
LINE
8
DEFAULT_255_2_778
10
5.8175125
20
119.8400583
11
5.8175125
21
119.7228583
0
LINE
8
DEFAULT_255_2_778
10
5.8175125
20
119.7228583
11
5.0743125
21
119.7228583
0
LINE
8
DEFAULT_255_2_778
10
5.0743125
20
119.7228583
11
5.0743125
21
119.8260583
0
LINE
8
DEFAULT_255_2_778
10
5.0743125
20
119.8260583
11
5.4669125
21
120.2604583
0
LINE
8
DEFAULT_255_2_778
10
5.1965125
20
120.5194583
11
5.0523125
21
120.5194583
0
LINE
8
DEFAULT_255_2_778
10
5.5513125
20
120.1683583
11
5.2473125
21
119.8403583
0
LINE
8
DEFAULT_255_2_778
10
5.2473125
20
119.8403583
11
5.8169125
21
119.8403583
0
LINE
8
DEFAULT_255_2_778
10
5.8169125
20
119.8403583
11
5.8175125
21
119.8400583
0
LINE
8
DEFAULT_255_2_778
10
6.7914531
20
120.8523531
11
6.7914531
21
120.7298531
0
LINE
8
DEFAULT_255_2_778
10
6.7914531
20
120.7298531
11
6.4268531
21
120.7298531
0
LINE
8
DEFAULT_255_2_778
10
6.4268531
20
120.7298531
11
6.4268531
21
119.7228531
0
LINE
8
DEFAULT_255_2_778
10
6.4268531
20
119.7228531
11
6.2781531
21
119.7228531
0
LINE
8
DEFAULT_255_2_778
10
6.2781531
20
119.7228531
11
6.2781531
21
120.7298531
0
LINE
8
DEFAULT_255_2_778
10
6.2781531
20
120.7298531
11
5.9143531
21
120.7298531
0
LINE
8
DEFAULT_255_2_778
10
5.9143531
20
120.7298531
11
5.9143531
21
120.8523531
0
LINE
8
DEFAULT_255_2_778
10
5.9143531
20
120.8523531
11
6.7914531
21
120.8523531
0
LINE
8
DEFAULT_255_2_778
10
6.7914531
20
120.8523531
11
6.7914531
21
120.8523531
0
ARC
8
DEFAULT_255_2_778
10
7.2902606
20
120.3357904
40
0.516601
50
60.9007738
51
91.1607162
0
ARC
8
DEFAULT_255_2_778
10
7.323229
20
120.4044907
40
0.4405629
50
26.5896221
51
60.3020671
0
ARC
8
DEFAULT_255_2_778
10
7.1778185
20
120.3340249
40
0.6021379
50
359.1874039
51
26.392435
0
ARC
8
DEFAULT_255_2_778
10
7.1753405
20
120.2399026
40
0.6047034
50
333.8171975
51
1.2681232
0
ARC
8
DEFAULT_255_2_778
10
7.3300751
20
120.1673307
40
0.4338361
50
299.1349073
51
333.401293
0
ARC
8
DEFAULT_255_2_778
10
7.2798056
20
120.273928
40
0.5514787
50
269.3444325
51
298.3048002
0
ARC
8
DEFAULT_255_2_778
10
7.281019
20
120.2092495
40
0.3653489
50
267.7375038
51
304.7226819
0
ARC
8
DEFAULT_255_2_778
10
7.3074826
20
120.155145
40
0.30594
50
306.4210309
51
318.2400135
0
ARC
8
DEFAULT_255_2_778
10
7.2390181
20
120.2032818
40
0.3891908
50
319.6668314
51
354.6729948
0
ARC
8
DEFAULT_255_2_778
10
6.9424639
20
120.2538444
40
0.689536
50
352.7771113
51
0.1945185
0
ARC
8
DEFAULT_255_2_778
10
7.0834337
20
120.3348234
40
0.54871
50
358.6697936
51
20.484752
0
ARC
8
DEFAULT_255_2_778
10
7.2816455
20
120.4025267
40
0.3393909
50
21.4882143
51
40.0887413
0
ARC
8
DEFAULT_255_2_778
10
7.3008463
20
120.4080179
40
0.321269
50
41.5448495
51
91.654909
0
ARC
8
DEFAULT_255_2_778
10
7.278829
20
120.2110789
40
0.5182305
50
88.5914103
51
89.4508601
0
LINE
8
DEFAULT_255_2_778
10
7.2737958
20
119.7224854
11
6.9596958
21
119.7224854
0
LINE
8
DEFAULT_255_2_778
10
6.9596958
20
119.7224854
11
6.9596958
21
120.8522854
0
LINE
8
DEFAULT_255_2_778
10
6.9596958
20
120.8522854
11
7.2797958
21
120.8522854
0
LINE
8
DEFAULT_255_2_778
10
7.7798958
20
120.3254854
11
7.7798958
21
120.2532854
0
LINE
8
DEFAULT_255_2_778
10
7.2734958
20
119.7224854
11
7.2737958
21
119.7224854
0
LINE
8
DEFAULT_255_2_778
10
7.2837958
20
120.7294854
11
7.1091958
21
120.7294854
0
LINE
8
DEFAULT_255_2_778
10
7.1091958
20
120.7294854
11
7.1091958
21
119.8441854
0
LINE
8
DEFAULT_255_2_778
10
7.1091958
20
119.8441854
11
7.2665958
21
119.8441854
0
LINE
8
DEFAULT_255_2_778
10
7.6319958
20
120.2561854
11
7.6319958
21
120.3220854
0
LINE
8
DEFAULT_255_2_778
10
7.2837958
20
120.7292854
11
7.2837958
21
120.7294854
0
LINE
8
DEFAULT_255_2_778
10
8.4424479
20
120.8578635
11
8.4424479
21
119.7228635
0
LINE
8
DEFAULT_255_2_778
10
8.4424479
20
119.7228635
11
8.2974479
21
119.7228635
0
LINE
8
DEFAULT_255_2_778
10
8.2974479
20
119.7228635
11
8.2974479
21
120.6795635
0
LINE
8
DEFAULT_255_2_778
10
8.2974479
20
120.6795635
11
8.0069479
21
120.5731635
0
LINE
8
DEFAULT_255_2_778
10
8.0069479
20
120.5731635
11
8.0069479
21
120.7036635
0
LINE
8
DEFAULT_255_2_778
10
8.0069479
20
120.7036635
11
8.4199479
21
120.8581635
0
LINE
8
DEFAULT_255_2_778
10
8.4199479
20
120.8581635
11
8.4424479
21
120.8581635
0
LINE
8
DEFAULT_255_2_778
10
8.4424479
20
120.8581635
11
8.4424479
21
120.8578635
0
ARC
8
DEFAULT_255_2_778
10
3.3546184
20
146.7475445
40
0.3670671
50
89.023513
51
119.9298836
0
ARC
8
DEFAULT_255_2_778
10
3.3752512
20
146.8008841
40
0.3140036
50
42.3606977
51
92.6243068
0
ARC
8
DEFAULT_255_2_778
10
3.3192223
20
146.7675378
40
0.3781003
50
1.7434394
51
40.3733835
0
ARC
8
DEFAULT_255_2_778
10
3.0870494
20
146.7372914
40
0.6115248
50
359.9500573
51
3.9147187
0
ARC
8
DEFAULT_255_2_778
10
3.2699243
20
146.7234108
40
0.4288574
50
332.2908736
51
1.7835346
0
ARC
8
DEFAULT_255_2_778
10
3.3733368
20
146.6787156
40
0.3166363
50
316.6994377
51
330.7497881
0
ARC
8
DEFAULT_255_2_778
10
3.3650113
20
146.6969763
40
0.3353047
50
270.0428124
51
315.404128
0
ARC
8
DEFAULT_255_2_778
10
3.339391
20
146.9068928
40
0.5458345
50
269.9772192
51
272.7166604
0
ARC
8
DEFAULT_255_2_778
10
3.324107
20
146.7207332
40
0.3599904
50
230.2000628
51
272.3987502
0
ARC
8
DEFAULT_255_2_778
10
3.3157588
20
146.6891116
40
0.3306415
50
182.6614846
51
227.8032393
0
ARC
8
DEFAULT_255_2_778
10
3.3483181
20
146.6915056
40
0.2272383
50
184.4793443
51
226.2130076
0
ARC
8
DEFAULT_255_2_778
10
3.328784
20
146.6944853
40
0.2164765
50
230.495185
51
272.7510182
0
ARC
8
DEFAULT_255_2_778
10
3.3487027
20
146.6724665
40
0.1944418
50
267.191074
51
319.6438783
0
ARC
8
DEFAULT_255_2_778
10
3.2822763
20
146.7125373
40
0.2712954
50
322.2801113
51
0.1066125
0
ARC
8
DEFAULT_255_2_778
10
3.0771681
20
146.7349324
40
0.4769058
50
357.3691627
51
0.0271432
0
ARC
8
DEFAULT_255_2_778
10
3.2925755
20
146.7477465
40
0.2618013
50
357.2439844
51
40.3233693
0
ARC
8
DEFAULT_255_2_778
10
3.3361323
20
146.7751735
40
0.2109709
50
42.2995503
51
92.4064531
0
ARC
8
DEFAULT_255_2_778
10
3.3143446
20
146.7432882
40
0.2430143
50
86.9501987
51
122.8335792
0
ARC
8
DEFAULT_255_2_778
10
3.2772742
20
146.8159792
40
0.1620471
50
125.7570427
51
127.2562587
0
LINE
8
DEFAULT_255_2_778
10
3.141274
20
146.9134583
11
3.025974
21
146.9428583
0
LINE
8
DEFAULT_255_2_778
10
3.025974
20
146.9428583
11
3.083674
21
147.5061583
0
LINE
8
DEFAULT_255_2_778
10
3.083674
20
147.5061583
11
3.664874
21
147.5061583
0
LINE
8
DEFAULT_255_2_778
10
3.664874
20
147.5061583
11
3.664874
21
147.3735583
0
LINE
8
DEFAULT_255_2_778
10
3.664874
20
147.3735583
11
3.205874
21
147.3735583
0
LINE
8
DEFAULT_255_2_778
10
3.205874
20
147.3735583
11
3.171474
21
147.0656583
0
LINE
8
DEFAULT_255_2_778
10
2.985474
20
146.6737583
11
3.121774
21
146.6737583
0
LINE
8
DEFAULT_255_2_778
10
3.179174
20
146.9449583
11
3.141074
21
146.9140583
0
LINE
8
DEFAULT_255_2_778
10
3.141074
20
146.9140583
11
3.141274
21
146.9134583
0
LINE
8
DEFAULT_255_2_778
10
4.1704969
20
146.9151052
11
4.1704969
21
146.7979052
0
LINE
8
DEFAULT_255_2_778
10
4.1704969
20
146.7979052
11
3.7902969
21
146.7979052
0
LINE
8
DEFAULT_255_2_778
10
3.7902969
20
146.7979052
11
3.7902969
21
146.9151052
0
LINE
8
DEFAULT_255_2_778
10
3.7902969
20
146.9151052
11
4.1704969
21
146.9151052
0
LINE
8
DEFAULT_255_2_778
10
4.1704969
20
146.9151052
11
4.1704969
21
146.9151052
0
ARC
8
DEFAULT_255_2_778
10
3.7299351
20
147.779488
40
1.2915372
50
317.9389223
51
324.14781
0
ARC
8
DEFAULT_255_2_778
10
4.3733809
20
147.312611
40
0.496559
50
324.3271699
51
331.3666166
0
ARC
8
DEFAULT_255_2_778
10
4.5762714
20
147.2031782
40
0.2660431
50
331.1133044
51
359.7803597
0
ARC
8
DEFAULT_255_2_778
10
4.640539
20
147.2097742
40
0.2019172
50
357.8384105
51
42.8747704
0
ARC
8
DEFAULT_255_2_778
10
4.6537071
20
147.2155764
40
0.1883781
50
44.3067162
51
92.6149708
0
ARC
8
DEFAULT_255_2_778
10
4.631743
20
147.1804917
40
0.2236666
50
86.5731364
51
133.4535965
0
ARC
8
DEFAULT_255_2_778
10
4.6501765
20
147.1871867
40
0.2321822
50
137.8964882
51
183.4391719
0
ARC
8
DEFAULT_255_2_778
10
4.6068171
20
147.186566
40
0.3328707
50
134.1373055
51
182.2912146
0
ARC
8
DEFAULT_255_2_778
10
4.6225107
20
147.1545538
40
0.3669395
50
89.358112
51
132.4148057
0
ARC
8
DEFAULT_255_2_778
10
4.6448129
20
146.9471085
40
0.5746498
50
89.9900639
51
91.8140859
0
ARC
8
DEFAULT_255_2_778
10
4.6584018
20
147.1268607
40
0.395128
50
61.2950571
51
91.9564036
0
ARC
8
DEFAULT_255_2_778
10
4.7021324
20
147.2246563
40
0.2884757
50
48.0661859
51
59.5837609
0
ARC
8
DEFAULT_255_2_778
10
4.705595
20
147.2311138
40
0.2813632
50
357.6054552
51
47.7119564
0
ARC
8
DEFAULT_255_2_778
10
4.6078154
20
147.2321204
40
0.379112
50
331.1269887
51
358.0708853
0
ARC
8
DEFAULT_255_2_778
10
4.1406892
20
147.4717674
40
0.9040256
50
319.6075411
51
332.1223432
0
ARC
8
DEFAULT_255_2_778
10
3.6531953
20
147.8620592
40
1.528343
50
317.1242581
51
320.3067342
0
LINE
8
DEFAULT_255_2_778
10
5.0394125
20
146.4938583
11
5.0394125
21
146.3766583
0
LINE
8
DEFAULT_255_2_778
10
5.0394125
20
146.3766583
11
4.2962125
21
146.3766583
0
LINE
8
DEFAULT_255_2_778
10
4.2962125
20
146.3766583
11
4.2962125
21
146.4798583
0
LINE
8
DEFAULT_255_2_778
10
4.2962125
20
146.4798583
11
4.6888125
21
146.9142583
0
LINE
8
DEFAULT_255_2_778
10
4.4184125
20
147.1732583
11
4.2742125
21
147.1732583
0
LINE
8
DEFAULT_255_2_778
10
4.7732125
20
146.8221583
11
4.4692125
21
146.4941583
0
LINE
8
DEFAULT_255_2_778
10
4.4692125
20
146.4941583
11
5.0388125
21
146.4941583
0
LINE
8
DEFAULT_255_2_778
10
5.0388125
20
146.4941583
11
5.0394125
21
146.4938583
0
LINE
8
DEFAULT_255_2_778
10
5.8006573
20
147.5061854
11
5.8006573
21
146.7557854
0
LINE
8
DEFAULT_255_2_778
10
5.8006573
20
146.7557854
11
5.9580573
21
146.7557854
0
LINE
8
DEFAULT_255_2_778
10
5.9580573
20
146.7557854
11
5.9580573
21
146.6385854
0
LINE
8
DEFAULT_255_2_778
10
5.9580573
20
146.6385854
11
5.8006573
21
146.6385854
0
LINE
8
DEFAULT_255_2_778
10
5.8006573
20
146.6385854
11
5.8006573
21
146.3763854
0
LINE
8
DEFAULT_255_2_778
10
5.8006573
20
146.3763854
11
5.6556573
21
146.3763854
0
LINE
8
DEFAULT_255_2_778
10
5.6556573
20
146.3763854
11
5.6556573
21
146.6385854
0
LINE
8
DEFAULT_255_2_778
10
5.6556573
20
146.6385854
11
5.1391573
21
146.6385854
0
LINE
8
DEFAULT_255_2_778
10
5.1391573
20
146.6385854
11
5.1391573
21
146.7232854
0
LINE
8
DEFAULT_255_2_778
10
5.1391573
20
146.7232854
11
5.6471573
21
147.5061854
0
LINE
8
DEFAULT_255_2_778
10
5.6471573
20
147.5061854
11
5.8006573
21
147.5061854
0
LINE
8
DEFAULT_255_2_778
10
5.8006573
20
147.5061854
11
5.8006573
21
147.5061854
0
LINE
8
DEFAULT_255_2_778
10
5.6384573
20
147.2788854
11
5.3026573
21
146.7560854
0
LINE
8
DEFAULT_255_2_778
10
5.3026573
20
146.7560854
11
5.6556573
21
146.7560854
0
LINE
8
DEFAULT_255_2_778
10
5.6556573
20
146.7560854
11
5.6556573
21
147.3098854
0
LINE
8
DEFAULT_255_2_778
10
5.6556573
20
147.3098854
11
5.6384573
21
147.2788854
0
LINE
8
DEFAULT_255_2_778
10
5.6384573
20
147.2788854
11
5.6384573
21
147.2788854
0
LINE
8
DEFAULT_255_2_778
10
6.1784313
20
147.5061854
11
6.5009313
21
146.5742854
0
LINE
8
DEFAULT_255_2_778
10
6.5009313
20
146.5742854
11
6.8250313
21
147.5061854
0
LINE
8
DEFAULT_255_2_778
10
6.8250313
20
147.5061854
11
6.9885313
21
147.5061854
0
LINE
8
DEFAULT_255_2_778
10
6.9885313
20
147.5061854
11
6.5678313
21
146.3763854
0
LINE
8
DEFAULT_255_2_778
10
6.5678313
20
146.3763854
11
6.4353313
21
146.3763854
0
LINE
8
DEFAULT_255_2_778
10
6.4353313
20
146.3763854
11
6.0154313
21
147.5061854
0
LINE
8
DEFAULT_255_2_778
10
6.0154313
20
147.5061854
11
6.1781313
21
147.5061854
0
LINE
8
DEFAULT_255_2_778
10
6.1781313
20
147.5061854
11
6.1784313
21
147.5061854
0
ARC
8
DEFAULT_255_2_778
10
7.4712606
20
146.9896904
40
0.516601
50
60.9007738
51
91.1607162
0
ARC
8
DEFAULT_255_2_778
10
7.504229
20
147.0583907
40
0.4405629
50
26.5896221
51
60.3020671
0
ARC
8
DEFAULT_255_2_778
10
7.3588185
20
146.9879249
40
0.6021379
50
359.1874039
51
26.392435
0
ARC
8
DEFAULT_255_2_778
10
7.3563405
20
146.8938026
40
0.6047034
50
333.8171975
51
1.2681232
0
ARC
8
DEFAULT_255_2_778
10
7.5110751
20
146.8212307
40
0.4338361
50
299.1349073
51
333.401293
0
ARC
8
DEFAULT_255_2_778
10
7.4608056
20
146.927828
40
0.5514787
50
269.3444325
51
298.3048002
0
ARC
8
DEFAULT_255_2_778
10
7.462019
20
146.8631495
40
0.3653489
50
267.7375038
51
304.7226819
0
ARC
8
DEFAULT_255_2_778
10
7.4884826
20
146.809045
40
0.30594
50
306.4210309
51
318.2400135
0
ARC
8
DEFAULT_255_2_778
10
7.4200181
20
146.8571818
40
0.3891908
50
319.6668314
51
354.6729948
0
ARC
8
DEFAULT_255_2_778
10
7.1234639
20
146.9077444
40
0.689536
50
352.7771113
51
0.1945185
0
ARC
8
DEFAULT_255_2_778
10
7.2644337
20
146.9887234
40
0.54871
50
358.6697936
51
20.484752
0
ARC
8
DEFAULT_255_2_778
10
7.4626455
20
147.0564267
40
0.3393909
50
21.4882143
51
40.0887413
0
ARC
8
DEFAULT_255_2_778
10
7.4818463
20
147.0619179
40
0.321269
50
41.5448495
51
91.654909
0
ARC
8
DEFAULT_255_2_778
10
7.459829
20
146.8649789
40
0.5182305
50
88.5914103
51
89.4508601
0
LINE
8
DEFAULT_255_2_778
10
7.4547958
20
146.3763854
11
7.1406958
21
146.3763854
0
LINE
8
DEFAULT_255_2_778
10
7.1406958
20
146.3763854
11
7.1406958
21
147.5061854
0
LINE
8
DEFAULT_255_2_778
10
7.1406958
20
147.5061854
11
7.4607958
21
147.5061854
0
LINE
8
DEFAULT_255_2_778
10
7.9608958
20
146.9793854
11
7.9608958
21
146.9071854
0
LINE
8
DEFAULT_255_2_778
10
7.4544958
20
146.3763854
11
7.4547958
21
146.3763854
0
LINE
8
DEFAULT_255_2_778
10
7.4647958
20
147.3833854
11
7.2901958
21
147.3833854
0
LINE
8
DEFAULT_255_2_778
10
7.2901958
20
147.3833854
11
7.2901958
21
146.4980854
0
LINE
8
DEFAULT_255_2_778
10
7.2901958
20
146.4980854
11
7.4475958
21
146.4980854
0
LINE
8
DEFAULT_255_2_778
10
7.8129958
20
146.9100854
11
7.8129958
21
146.9759854
0
LINE
8
DEFAULT_255_2_778
10
7.4647958
20
147.3831854
11
7.4647958
21
147.3833854
0
ARC
8
DEFAULT_255_2_778
10
8.5774697
20
146.7736526
40
0.4458648
50
323.2673495
51
355.0519713
0
ARC
8
DEFAULT_255_2_778
10
8.6553213
20
146.7267983
40
0.3555634
50
311.060041
51
321.8151593
0
ARC
8
DEFAULT_255_2_778
10
8.6223521
20
146.7796745
40
0.4172058
50
271.6099969
51
309.7041449
0
ARC
8
DEFAULT_255_2_778
10
8.5921513
20
147.0188405
40
0.6575449
50
269.9583125
51
273.6554421
0
ARC
8
DEFAULT_255_2_778
10
8.5768957
20
146.7617629
40
0.4007396
50
219.9023818
51
272.1132562
0
ARC
8
DEFAULT_255_2_778
10
8.6761257
20
146.8352748
40
0.5240696
50
185.5287863
51
219.1085929
0
ARC
8
DEFAULT_255_2_778
10
8.9843865
20
146.8866165
40
0.8361168
50
179.8438056
51
186.9956201
0
ARC
8
DEFAULT_255_2_778
10
8.7891489
20
147.011022
40
0.6410166
50
155.7111544
51
181.2001599
0
ARC
8
DEFAULT_255_2_778
10
8.5896407
20
147.1007806
40
0.4222473
50
122.1458531
51
155.6770069
0
ARC
8
DEFAULT_255_2_778
10
8.5957695
20
147.0748085
40
0.4475819
50
88.8217737
51
121.0410606
0
ARC
8
DEFAULT_255_2_778
10
8.6190321
20
147.0812272
40
0.4412927
50
59.684238
51
91.8257046
0
ARC
8
DEFAULT_255_2_778
10
8.6556736
20
147.161798
40
0.3533598
50
47.3738442
51
58.2185388
0
ARC
8
DEFAULT_255_2_778
10
8.6088103
20
147.1243921
40
0.4127203
50
5.3508346
51
46.1035379
0
ARC
8
DEFAULT_255_2_778
10
8.3967901
20
147.0803946
40
0.6283792
50
5.7816282
51
7.5427996
0
ARC
8
DEFAULT_255_2_778
10
8.4725871
20
147.0981565
40
0.4016756
50
6.5098119
51
29.0842325
0
ARC
8
DEFAULT_255_2_778
10
8.6425582
20
147.1860739
40
0.2104804
50
30.6607053
51
46.6762464
0
ARC
8
DEFAULT_255_2_778
10
8.6234235
20
147.148725
40
0.2510529
50
49.3486845
51
91.7359043
0
ARC
8
DEFAULT_255_2_778
10
8.6050367
20
146.9627208
40
0.4370748
50
88.5864792
51
90.0083576
0
ARC
8
DEFAULT_255_2_778
10
8.5936136
20
147.1316994
40
0.2683369
50
87.5738178
51
142.7302383
0
ARC
8
DEFAULT_255_2_778
10
8.7032387
20
147.059214
40
0.3995655
50
143.9781703
51
173.1420884
0
ARC
8
DEFAULT_255_2_778
10
9.0493323
20
146.9978256
40
0.7507697
50
171.644372
51
180.2999085
0
ARC
8
DEFAULT_255_2_778
10
8.8919389
20
146.8718996
40
0.5935039
50
178.7645824
51
199.2800727
0
ARC
8
DEFAULT_255_2_778
10
8.6764797
20
146.8033396
40
0.367547
50
200.2819764
51
215.1004573
0
ARC
8
DEFAULT_255_2_778
10
8.5820908
20
146.7330242
40
0.2499121
50
214.3545129
51
272.1973701
0
ARC
8
DEFAULT_255_2_778
10
8.6042843
20
146.8127638
40
0.3297093
50
267.8079004
51
295.9503658
0
ARC
8
DEFAULT_255_2_778
10
8.6548126
20
146.6918232
40
0.198993
50
298.1071816
51
310.0940555
0
ARC
8
DEFAULT_255_2_778
10
8.6096852
20
146.7247622
40
0.2536045
50
313.1019868
51
346.8798932
0
ARC
8
DEFAULT_255_2_778
10
8.3168525
20
146.8192596
40
0.5608263
50
344.2677374
51
351.3999551
0
LINE
8
DEFAULT_255_2_778
10
8.8713729
20
146.7351958
11
9.0216729
21
146.7351958
0
LINE
8
DEFAULT_255_2_778
10
8.1482729
20
146.8888958
11
8.1482729
21
146.9975958
0
LINE
8
DEFAULT_255_2_778
10
9.0219729
20
147.1436958
11
8.8716729
21
147.1436958
0
LINE
8
DEFAULT_255_2_778
10
8.2985729
20
146.9938958
11
8.2985729
21
146.8846958
0
LINE
8
DEFAULT_255_2_778
10
8.8713729
20
146.7353958
11
8.8713729
21
146.7351958
0
LINE
8
DEFAULT_255_2_778
10
24.2925958
20
142.3115854
11
24.1843958
21
142.6063854
0
LINE
8
DEFAULT_255_2_778
10
24.1843958
20
142.6063854
11
23.7091958
21
142.6063854
0
LINE
8
DEFAULT_255_2_778
10
23.7091958
20
142.6063854
11
23.6024958
21
142.3115854
0
LINE
8
DEFAULT_255_2_778
10
23.6024958
20
142.3115854
11
23.4482958
21
142.3115854
0
LINE
8
DEFAULT_255_2_778
10
23.4482958
20
142.3115854
11
23.8813958
21
143.4413854
0
LINE
8
DEFAULT_255_2_778
10
23.8813958
20
143.4413854
11
24.0123958
21
143.4413854
0
LINE
8
DEFAULT_255_2_778
10
24.0123958
20
143.4413854
11
24.4462958
21
142.3115854
0
LINE
8
DEFAULT_255_2_778
10
24.4462958
20
142.3115854
11
24.2927958
21
142.3115854
0
LINE
8
DEFAULT_255_2_778
10
24.2927958
20
142.3115854
11
24.2925958
21
142.3115854
0
LINE
8
DEFAULT_255_2_778
10
23.9464958
20
143.2574854
11
23.7540958
21
142.7290854
0
LINE
8
DEFAULT_255_2_778
10
23.7540958
20
142.7290854
11
24.1398958
21
142.7290854
0
LINE
8
DEFAULT_255_2_778
10
24.1398958
20
142.7290854
11
23.9467958
21
143.2574854
0
LINE
8
DEFAULT_255_2_778
10
23.9467958
20
143.2574854
11
23.9464958
21
143.2574854
0
LINE
8
DEFAULT_255_2_778
10
24.8762969
20
142.8503052
11
24.8762969
21
142.7331052
0
LINE
8
DEFAULT_255_2_778
10
24.8762969
20
142.7331052
11
24.4960969
21
142.7331052
0
LINE
8
DEFAULT_255_2_778
10
24.4960969
20
142.7331052
11
24.4960969
21
142.8503052
0
LINE
8
DEFAULT_255_2_778
10
24.4960969
20
142.8503052
11
24.8762969
21
142.8503052
0
LINE
8
DEFAULT_255_2_778
10
24.8762969
20
142.8503052
11
24.8762969
21
142.8503052
0
ARC
8
DEFAULT_255_2_778
10
25.4222842
20
142.858248
40
0.5832702
50
73.0526851
51
91.2224461
0
ARC
8
DEFAULT_255_2_778
10
25.5026639
20
143.1322906
40
0.2977133
50
51.5624697
51
72.4768146
0
ARC
8
DEFAULT_255_2_778
10
25.5129927
20
143.1625974
40
0.2677693
50
358.2424045
51
49.2616027
0
ARC
8
DEFAULT_255_2_778
10
25.3202249
20
143.140657
40
0.4606157
50
359.9910922
51
1.7078206
0
ARC
8
DEFAULT_255_2_778
10
25.5525189
20
143.1371349
40
0.2283478
50
323.2739849
51
0.865817
0
ARC
8
DEFAULT_255_2_778
10
25.5018392
20
143.1783344
40
0.2936172
50
292.1496112
51
322.7440493
0
ARC
8
DEFAULT_255_2_778
10
25.5462899
20
142.6504752
40
0.2643467
50
36.8433936
51
75.4857688
0
ARC
8
DEFAULT_255_2_778
10
25.532933
20
142.6449091
40
0.2783963
50
358.5543235
51
36.1117732
0
ARC
8
DEFAULT_255_2_778
10
25.5101786
20
142.6225044
40
0.3014547
50
312.115061
51
2.9246586
0
ARC
8
DEFAULT_255_2_778
10
25.479297
20
142.6816367
40
0.3664119
50
274.459541
51
309.4953436
0
ARC
8
DEFAULT_255_2_778
10
25.4344413
20
142.9622078
40
0.650025
50
269.8412847
51
276.478818
0
ARC
8
DEFAULT_255_2_778
10
25.4492032
20
142.6709773
40
0.2380672
50
266.782322
51
309.5025034
0
ARC
8
DEFAULT_255_2_778
10
25.4717853
20
142.6261144
40
0.1894127
50
312.8662119
51
2.9872567
0
ARC
8
DEFAULT_255_2_778
10
25.4571342
20
142.6494468
40
0.2042505
50
356.2211065
51
39.9886394
0
ARC
8
DEFAULT_255_2_778
10
25.4701179
20
142.6317136
40
0.2068644
50
46.0742141
51
88.8759085
0
ARC
8
DEFAULT_255_2_778
10
25.4389847
20
142.41158
40
0.428406
50
85.2881366
51
90.0995172
0
ARC
8
DEFAULT_255_2_778
10
25.4268271
20
143.1959638
40
0.2369919
50
267.052457
51
307.6347982
0
ARC
8
DEFAULT_255_2_778
10
25.4669717
20
143.133864
40
0.1634156
50
309.7840542
51
2.4274532
0
ARC
8
DEFAULT_255_2_778
10
25.4692184
20
143.1548433
40
0.1616348
50
355.0104942
51
48.1727734
0
ARC
8
DEFAULT_255_2_778
10
25.4985213
20
143.1767685
40
0.1259621
50
51.4558672
51
52.1906364
0
ARC
8
DEFAULT_255_2_778
10
25.4445194
20
143.0855685
40
0.2314994
50
55.4704019
51
88.3498731
0
ARC
8
DEFAULT_255_2_778
10
25.410863
20
142.8142854
40
0.504301
50
85.4138667
51
90.1161507
0
LINE
8
DEFAULT_255_2_778
10
25.4323406
20
142.3115854
11
25.0389406
21
142.3115854
0
LINE
8
DEFAULT_255_2_778
10
25.0389406
20
142.3115854
11
25.0389406
21
143.4413854
0
LINE
8
DEFAULT_255_2_778
10
25.0389406
20
143.4413854
11
25.4098406
21
143.4413854
0
LINE
8
DEFAULT_255_2_778
10
25.4326406
20
142.3121854
11
25.4323406
21
142.3115854
0
LINE
8
DEFAULT_255_2_778
10
25.4379406
20
142.8399854
11
25.1887406
21
142.8399854
0
LINE
8
DEFAULT_255_2_778
10
25.1887406
20
142.8399854
11
25.1887406
21
142.4332854
0
LINE
8
DEFAULT_255_2_778
10
25.1887406
20
142.4332854
11
25.4358406
21
142.4332854
0
LINE
8
DEFAULT_255_2_778
10
25.4382406
20
142.8399854
11
25.4379406
21
142.8399854
0
LINE
8
DEFAULT_255_2_778
10
25.1887406
20
143.3185854
11
25.1887406
21
142.9592854
0
LINE
8
DEFAULT_255_2_778
10
25.1887406
20
142.9592854
11
25.4146406
21
142.9592854
0
LINE
8
DEFAULT_255_2_778
10
25.4098406
20
143.3185854
11
25.1887406
21
143.3185854
0
LINE
8
DEFAULT_255_2_778
10
25.1887406
20
143.3185854
11
25.1887406
21
143.3185854
0
ARC
8
DEFAULT_255_2_778
10
26.8177697
20
142.7088526
40
0.4458648
50
323.2673495
51
355.0519713
0
ARC
8
DEFAULT_255_2_778
10
26.8956213
20
142.6619983
40
0.3555634
50
311.060041
51
321.8151593
0
ARC
8
DEFAULT_255_2_778
10
26.8626521
20
142.7148745
40
0.4172058
50
271.6099969
51
309.7041449
0
ARC
8
DEFAULT_255_2_778
10
26.8324513
20
142.9540405
40
0.6575449
50
269.9583125
51
273.6554421
0
ARC
8
DEFAULT_255_2_778
10
26.8171957
20
142.6969629
40
0.4007396
50
219.9023818
51
272.1132562
0
ARC
8
DEFAULT_255_2_778
10
26.9164257
20
142.7704748
40
0.5240696
50
185.5287863
51
219.1085929
0
ARC
8
DEFAULT_255_2_778
10
27.2246865
20
142.8218165
40
0.8361168
50
179.8438056
51
186.9956201
0
ARC
8
DEFAULT_255_2_778
10
27.0294489
20
142.946222
40
0.6410166
50
155.7111544
51
181.2001599
0
ARC
8
DEFAULT_255_2_778
10
26.8299407
20
143.0359806
40
0.4222473
50
122.1458531
51
155.6770069
0
ARC
8
DEFAULT_255_2_778
10
26.8360695
20
143.0100085
40
0.4475819
50
88.8217737
51
121.0410606
0
ARC
8
DEFAULT_255_2_778
10
26.8593321
20
143.0164272
40
0.4412927
50
59.684238
51
91.8257046
0
ARC
8
DEFAULT_255_2_778
10
26.8959736
20
143.096998
40
0.3533598
50
47.3738442
51
58.2185388
0
ARC
8
DEFAULT_255_2_778
10
26.8491103
20
143.0595921
40
0.4127203
50
5.3508346
51
46.1035379
0
ARC
8
DEFAULT_255_2_778
10
26.6370901
20
143.0155946
40
0.6283792
50
5.7816282
51
7.5427996
0
ARC
8
DEFAULT_255_2_778
10
26.7128871
20
143.0333565
40
0.4016756
50
6.5098119
51
29.0842325
0
ARC
8
DEFAULT_255_2_778
10
26.8828582
20
143.1212739
40
0.2104804
50
30.6607053
51
46.6762464
0
ARC
8
DEFAULT_255_2_778
10
26.8637235
20
143.083925
40
0.2510529
50
49.3486845
51
91.7359043
0
ARC
8
DEFAULT_255_2_778
10
26.8453367
20
142.8979208
40
0.4370748
50
88.5864792
51
90.0083576
0
ARC
8
DEFAULT_255_2_778
10
26.8339136
20
143.0668994
40
0.2683369
50
87.5738178
51
142.7302383
0
ARC
8
DEFAULT_255_2_778
10
26.9435387
20
142.994414
40
0.3995655
50
143.9781703
51
173.1420884
0
ARC
8
DEFAULT_255_2_778
10
27.2896323
20
142.9330256
40
0.7507697
50
171.644372
51
180.2999085
0
ARC
8
DEFAULT_255_2_778
10
27.1322389
20
142.8070996
40
0.5935039
50
178.7645824
51
199.2800727
0
ARC
8
DEFAULT_255_2_778
10
26.9167797
20
142.7385396
40
0.367547
50
200.2819764
51
215.1004573
0
ARC
8
DEFAULT_255_2_778
10
26.8223908
20
142.6682242
40
0.2499121
50
214.3545129
51
272.1973701
0
ARC
8
DEFAULT_255_2_778
10
26.8445843
20
142.7479638
40
0.3297093
50
267.8079004
51
295.9503658
0
ARC
8
DEFAULT_255_2_778
10
26.8951126
20
142.6270232
40
0.198993
50
298.1071816
51
310.0940555
0
ARC
8
DEFAULT_255_2_778
10
26.8499852
20
142.6599622
40
0.2536045
50
313.1019868
51
346.8798932
0
ARC
8
DEFAULT_255_2_778
10
26.5571525
20
142.7544596
40
0.5608263
50
344.2677374
51
351.3999551
0
LINE
8
DEFAULT_255_2_778
10
27.1116729
20
142.6703958
11
27.2619729
21
142.6703958
0
LINE
8
DEFAULT_255_2_778
10
26.3885729
20
142.8240958
11
26.3885729
21
142.9327958
0
LINE
8
DEFAULT_255_2_778
10
27.2622729
20
143.0788958
11
27.1119729
21
143.0788958
0
LINE
8
DEFAULT_255_2_778
10
26.5388729
20
142.9290958
11
26.5388729
21
142.8198958
0
LINE
8
DEFAULT_255_2_778
10
27.1116729
20
142.6705958
11
27.1116729
21
142.6703958
0
LINE
8
DEFAULT_255_2_778
10
27.7434969
20
142.8503052
11
27.7434969
21
142.7331052
0
LINE
8
DEFAULT_255_2_778
10
27.7434969
20
142.7331052
11
27.3632969
21
142.7331052
0
LINE
8
DEFAULT_255_2_778
10
27.3632969
20
142.7331052
11
27.3632969
21
142.8503052
0
LINE
8
DEFAULT_255_2_778
10
27.3632969
20
142.8503052
11
27.7434969
21
142.8503052
0
LINE
8
DEFAULT_255_2_778
10
27.7434969
20
142.8503052
11
27.7434969
21
142.8503052
0
ARC
8
DEFAULT_255_2_778
10
28.2370606
20
142.9248904
40
0.516601
50
60.9007738
51
91.1607162
0
ARC
8
DEFAULT_255_2_778
10
28.270029
20
142.9935907
40
0.4405629
50
26.5896221
51
60.3020671
0
ARC
8
DEFAULT_255_2_778
10
28.1246185
20
142.9231249
40
0.6021379
50
359.1874039
51
26.392435
0
ARC
8
DEFAULT_255_2_778
10
28.1221405
20
142.8290026
40
0.6047034
50
333.8171975
51
1.2681232
0
ARC
8
DEFAULT_255_2_778
10
28.2768751
20
142.7564307
40
0.4338361
50
299.1349073
51
333.401293
0
ARC
8
DEFAULT_255_2_778
10
28.2266056
20
142.863028
40
0.5514787
50
269.3444325
51
298.3048002
0
ARC
8
DEFAULT_255_2_778
10
28.227819
20
142.7983495
40
0.3653489
50
267.7375038
51
304.7226819
0
ARC
8
DEFAULT_255_2_778
10
28.2542826
20
142.744245
40
0.30594
50
306.4210309
51
318.2400135
0
ARC
8
DEFAULT_255_2_778
10
28.1858181
20
142.7923818
40
0.3891908
50
319.6668314
51
354.6729948
0
ARC
8
DEFAULT_255_2_778
10
27.8892639
20
142.8429444
40
0.689536
50
352.7771113
51
0.1945185
0
ARC
8
DEFAULT_255_2_778
10
28.0302337
20
142.9239234
40
0.54871
50
358.6697936
51
20.484752
0
ARC
8
DEFAULT_255_2_778
10
28.2284455
20
142.9916267
40
0.3393909
50
21.4882143
51
40.0887413
0
ARC
8
DEFAULT_255_2_778
10
28.2476463
20
142.9971179
40
0.321269
50
41.5448495
51
91.654909
0
ARC
8
DEFAULT_255_2_778
10
28.225629
20
142.8001789
40
0.5182305
50
88.5914103
51
89.4508601
0
LINE
8
DEFAULT_255_2_778
10
28.2205958
20
142.3115854
11
27.9064958
21
142.3115854
0
LINE
8
DEFAULT_255_2_778
10
27.9064958
20
142.3115854
11
27.9064958
21
143.4413854
0
LINE
8
DEFAULT_255_2_778
10
27.9064958
20
143.4413854
11
28.2265958
21
143.4413854
0
LINE
8
DEFAULT_255_2_778
10
28.7266958
20
142.9145854
11
28.7266958
21
142.8423854
0
LINE
8
DEFAULT_255_2_778
10
28.2202958
20
142.3115854
11
28.2205958
21
142.3115854
0
LINE
8
DEFAULT_255_2_778
10
28.2305958
20
143.3185854
11
28.0559958
21
143.3185854
0
LINE
8
DEFAULT_255_2_778
10
28.0559958
20
143.3185854
11
28.0559958
21
142.4332854
0
LINE
8
DEFAULT_255_2_778
10
28.0559958
20
142.4332854
11
28.2133958
21
142.4332854
0
LINE
8
DEFAULT_255_2_778
10
28.5787958
20
142.8452854
11
28.5787958
21
142.9111854
0
LINE
8
DEFAULT_255_2_778
10
28.2305958
20
143.3183854
11
28.2305958
21
143.3185854
0
ARC
8
DEFAULT_255_2_778
10
25.3159425
20
146.9610053
40
0.7151071
50
339.292418
51
1.0649268
0
ARC
8
DEFAULT_255_2_778
10
25.4777777
20
146.9101241
40
0.5458204
50
335.5945362
51
338.2814215
0
ARC
8
DEFAULT_255_2_778
10
25.5858154
20
146.8506657
40
0.4229758
50
302.9421256
51
336.8822171
0
ARC
8
DEFAULT_255_2_778
10
25.5855305
20
146.8697655
40
0.4392769
50
268.73413
51
301.618485
0
ARC
8
DEFAULT_255_2_778
10
25.5678523
20
146.864803
40
0.4342804
50
238.0788917
51
271.0520599
0
ARC
8
DEFAULT_255_2_778
10
25.5727389
20
146.8606037
40
0.4333467
50
204.1520443
51
237.2369053
0
ARC
8
DEFAULT_255_2_778
10
25.7886061
20
146.9576262
40
0.6700153
50
179.4125402
51
204.169599
0
ARC
8
DEFAULT_255_2_778
10
25.8063318
20
147.0596518
40
0.6878414
50
156.5029122
51
181.1375882
0
ARC
8
DEFAULT_255_2_778
10
25.5730687
20
147.1628432
40
0.4327807
50
123.1474641
51
156.7190058
0
ARC
8
DEFAULT_255_2_778
10
25.5668188
20
147.159138
40
0.4325265
50
88.9789892
51
122.1858642
0
ARC
8
DEFAULT_255_2_778
10
25.5831509
20
147.1495604
40
0.4421195
50
58.3679329
51
91.117798
0
ARC
8
DEFAULT_255_2_778
10
25.5857068
20
147.1703115
40
0.4232005
50
23.0480594
51
57.189034
0
ARC
8
DEFAULT_255_2_778
10
25.3385761
20
147.0633625
40
0.6924773
50
359.6500058
51
23.1853752
0
ARC
8
DEFAULT_255_2_778
10
25.0687042
20
147.0463115
40
0.9624218
50
359.9990636
51
0.7632888
0
ARC
8
DEFAULT_255_2_778
10
25.2136593
20
147.0598993
40
0.6686836
50
358.9285872
51
16.1728676
0
ARC
8
DEFAULT_255_2_778
10
25.5117223
20
147.1432364
40
0.3592163
50
16.6485522
51
36.2997161
0
ARC
8
DEFAULT_255_2_778
10
25.5867256
20
147.1960873
40
0.2674868
50
36.6870804
51
92.6140493
0
ARC
8
DEFAULT_255_2_778
10
25.5644362
20
147.1984376
40
0.2650503
50
87.8183633
51
143.5537033
0
ARC
8
DEFAULT_255_2_778
10
25.695696
20
147.1093845
40
0.4235887
50
144.4115425
51
173.3785171
0
ARC
8
DEFAULT_255_2_778
10
26.0263929
20
147.0508336
40
0.7590952
50
171.8666583
51
179.5046818
0
ARC
8
DEFAULT_255_2_778
10
25.8950468
20
146.9618172
40
0.6278448
50
178.8611515
51
197.9870346
0
ARC
8
DEFAULT_255_2_778
10
25.6512911
20
146.8879685
40
0.3732315
50
198.7596526
51
216.0745433
0
ARC
8
DEFAULT_255_2_778
10
25.5661404
20
146.8224807
40
0.2658614
50
215.4731069
51
272.0878276
0
ARC
8
DEFAULT_255_2_778
10
25.5887777
20
146.8212518
40
0.264773
50
267.1961919
51
322.9968392
0
ARC
8
DEFAULT_255_2_778
10
25.4647529
20
146.8995946
40
0.4111483
50
324.6806044
51
352.6236141
0
ARC
8
DEFAULT_255_2_778
10
25.0911233
20
146.9686756
40
0.7908217
50
351.1352899
51
359.602981
0
LINE
8
DEFAULT_255_2_778
10
26.0309261
20
147.0457958
11
26.0309261
21
146.9742958
0
LINE
8
DEFAULT_255_2_778
10
25.1186261
20
146.9644958
11
25.1186261
21
147.0459958
0
LINE
8
DEFAULT_255_2_778
10
26.0311261
20
147.0462958
11
26.0309261
21
147.0457958
0
LINE
8
DEFAULT_255_2_778
10
25.8822261
20
146.9634958
11
25.8822261
21
147.0473958
0
LINE
8
DEFAULT_255_2_778
10
25.2673261
20
147.0573958
11
25.2673261
21
146.9742958
0
LINE
8
DEFAULT_255_2_778
10
25.8819261
20
146.9631958
11
25.8822261
21
146.9634958
0
ARC
8
DEFAULT_255_2_778
10
26.6945646
20
146.7958269
40
0.3596193
50
315.9875893
51
1.8375447
0
ARC
8
DEFAULT_255_2_778
10
26.6741404
20
146.8329072
40
0.4002666
50
273.4099789
51
314.20133
0
ARC
8
DEFAULT_255_2_778
10
26.6377025
20
147.0415239
40
0.6111514
50
274.1282684
51
275.6572722
0
ARC
8
DEFAULT_255_2_778
10
26.6283765
20
146.9017921
40
0.4716305
50
242.9165995
51
271.6551525
0
ARC
8
DEFAULT_255_2_778
10
26.582422
20
146.7927352
40
0.3537179
50
227.8822921
51
241.5012452
0
ARC
8
DEFAULT_255_2_778
10
26.5877405
20
146.7892691
40
0.3547692
50
178.4386682
51
226.8696785
0
ARC
8
DEFAULT_255_2_778
10
26.7868318
20
146.8107882
40
0.5538556
50
180.520344
51
181.2262419
0
ARC
8
DEFAULT_255_2_778
10
26.6461021
20
146.7964579
40
0.2652782
50
176.9530958
51
218.5834841
0
ARC
8
DEFAULT_255_2_778
10
26.5984896
20
146.7690222
40
0.2111103
50
220.8223888
51
224.8797257
0
ARC
8
DEFAULT_255_2_778
10
26.6211407
20
146.8049718
40
0.2527057
50
227.0319852
51
271.2264046
0
ARC
8
DEFAULT_255_2_778
10
26.6418891
20
146.9951404
40
0.443082
50
268.0159925
51
270.0142073
0
ARC
8
DEFAULT_255_2_778
10
26.6552267
20
146.8380284
40
0.2862758
50
267.3516249
51
302.5123392
0
ARC
8
DEFAULT_255_2_778
10
26.6934297
20
146.7626351
40
0.2023358
50
304.8652723
51
314.9984994
0
ARC
8
DEFAULT_255_2_778
10
26.6513141
20
146.7916815
40
0.2528237
50
317.0935551
51
2.306366
0
ARC
8
DEFAULT_255_2_778
10
26.4691486
20
146.8094205
40
0.4348502
50
359.0032383
51
0.0049848
0
LINE
8
DEFAULT_255_2_778
10
26.903699
20
147.5754583
11
27.053999
21
147.5754583
0
LINE
8
DEFAULT_255_2_778
10
27.053999
20
147.5754583
11
27.053999
21
146.8073583
0
LINE
8
DEFAULT_255_2_778
10
26.681699
20
146.4319583
11
26.641999
21
146.4303583
0
LINE
8
DEFAULT_255_2_778
10
26.232999
20
146.8057583
11
26.232999
21
147.5754583
0
LINE
8
DEFAULT_255_2_778
10
26.232999
20
147.5754583
11
26.381199
21
147.5754583
0
LINE
8
DEFAULT_255_2_778
10
26.381199
20
147.5754583
11
26.381199
21
146.8105583
0
LINE
8
DEFAULT_255_2_778
10
26.903999
20
146.8094583
11
26.903999
21
147.5754583
0
LINE
8
DEFAULT_255_2_778
10
26.903999
20
147.5754583
11
26.903699
21
147.5754583
0
LINE
8
DEFAULT_255_2_778
10
28.0740208
20
147.5754531
11
28.0740208
21
147.4529531
0
LINE
8
DEFAULT_255_2_778
10
28.0740208
20
147.4529531
11
27.7094208
21
147.4529531
0
LINE
8
DEFAULT_255_2_778
10
27.7094208
20
147.4529531
11
27.7094208
21
146.4459531
0
LINE
8
DEFAULT_255_2_778
10
27.7094208
20
146.4459531
11
27.5607208
21
146.4459531
0
LINE
8
DEFAULT_255_2_778
10
27.5607208
20
146.4459531
11
27.5607208
21
147.4529531
0
LINE
8
DEFAULT_255_2_778
10
27.5607208
20
147.4529531
11
27.1969208
21
147.4529531
0
LINE
8
DEFAULT_255_2_778
10
27.1969208
20
147.4529531
11
27.1969208
21
147.5754531
0
LINE
8
DEFAULT_255_2_778
10
27.1969208
20
147.5754531
11
28.0743208
21
147.5754531
0
LINE
8
DEFAULT_255_2_778
10
28.0743208
20
147.5754531
11
28.0740208
21
147.5754531
0
ARC
8
DEFAULT_255_2_778
10
28.6738357
20
147.0829772
40
0.4929794
50
66.4803376
51
91.510017
0
ARC
8
DEFAULT_255_2_778
10
28.7312279
20
147.233447
40
0.33219
50
48.1996688
51
65.1999653
0
ARC
8
DEFAULT_255_2_778
10
28.7381944
20
147.2431691
40
0.3203016
50
357.7305362
51
47.9694764
0
ARC
8
DEFAULT_255_2_778
10
28.721771
20
147.2162142
40
0.3367764
50
324.2985776
51
2.428682
0
ARC
8
DEFAULT_255_2_778
10
28.7721555
20
147.1910066
40
0.2812921
50
310.5548572
51
322.4789099
0
ARC
8
DEFAULT_255_2_778
10
28.7162847
20
147.2717418
40
0.3790923
50
275.9004873
51
309.0368789
0
ARC
8
DEFAULT_255_2_778
10
28.6621073
20
147.5824999
40
0.6941205
50
269.7637199
51
277.7121589
0
ARC
8
DEFAULT_255_2_778
10
28.6736023
20
147.3110609
40
0.3012458
50
267.5728556
51
298.1910068
0
ARC
8
DEFAULT_255_2_778
10
28.7200369
20
147.2078991
40
0.1885466
50
300.564542
51
311.407976
0
ARC
8
DEFAULT_255_2_778
10
28.7038695
20
147.2155614
40
0.2051085
50
313.3799326
51
3.7245947
0
ARC
8
DEFAULT_255_2_778
10
28.6965813
20
147.2384079
40
0.2121773
50
357.4277144
51
45.7091881
0
ARC
8
DEFAULT_255_2_778
10
28.6776587
20
147.2007645
40
0.2526577
50
48.5998427
51
91.8857102
0
LINE
8
DEFAULT_255_2_778
10
28.6592448
20
146.8880854
11
28.3920448
21
146.8880854
0
LINE
8
DEFAULT_255_2_778
10
28.3920448
20
146.8880854
11
28.3920448
21
146.4459854
0
LINE
8
DEFAULT_255_2_778
10
28.3920448
20
146.4459854
11
28.2425448
21
146.4459854
0
LINE
8
DEFAULT_255_2_778
10
28.2425448
20
146.4459854
11
28.2425448
21
147.5757854
0
LINE
8
DEFAULT_255_2_778
10
28.2425448
20
147.5757854
11
28.6608448
21
147.5757854
0
LINE
8
DEFAULT_255_2_778
10
28.6592448
20
146.8883854
11
28.6592448
21
146.8880854
0
LINE
8
DEFAULT_255_2_778
10
28.3920448
20
147.4529854
11
28.3920448
21
147.0100854
0
LINE
8
DEFAULT_255_2_778
10
28.3920448
20
147.0100854
11
28.6608448
21
147.0100854
0
LINE
8
DEFAULT_255_2_778
10
28.6693448
20
147.4532854
11
28.3920448
21
147.4532854
0
LINE
8
DEFAULT_255_2_778
10
28.3920448
20
147.4532854
11
28.3920448
21
147.4529854
0
ARC
8
DEFAULT_255_2_778
10
29.6883646
20
146.7958269
40
0.3596193
50
315.9875893
51
1.8375447
0
ARC
8
DEFAULT_255_2_778
10
29.6679404
20
146.8329072
40
0.4002666
50
273.4099789
51
314.20133
0
ARC
8
DEFAULT_255_2_778
10
29.6315025
20
147.0415239
40
0.6111514
50
274.1282684
51
275.6572722
0
ARC
8
DEFAULT_255_2_778
10
29.6221765
20
146.9017921
40
0.4716305
50
242.9165995
51
271.6551525
0
ARC
8
DEFAULT_255_2_778
10
29.576222
20
146.7927352
40
0.3537179
50
227.8822921
51
241.5012452
0
ARC
8
DEFAULT_255_2_778
10
29.5815405
20
146.7892691
40
0.3547692
50
178.4386682
51
226.8696785
0
ARC
8
DEFAULT_255_2_778
10
29.7806318
20
146.8107882
40
0.5538556
50
180.520344
51
181.2262419
0
ARC
8
DEFAULT_255_2_778
10
29.6399021
20
146.7964579
40
0.2652782
50
176.9530958
51
218.5834841
0
ARC
8
DEFAULT_255_2_778
10
29.5922896
20
146.7690222
40
0.2111103
50
220.8223888
51
224.8797257
0
ARC
8
DEFAULT_255_2_778
10
29.6149407
20
146.8049718
40
0.2527057
50
227.0319852
51
271.2264046
0
ARC
8
DEFAULT_255_2_778
10
29.6356891
20
146.9951404
40
0.443082
50
268.0159925
51
270.0142073
0
ARC
8
DEFAULT_255_2_778
10
29.6490267
20
146.8380284
40
0.2862758
50
267.3516249
51
302.5123392
0
ARC
8
DEFAULT_255_2_778
10
29.6872297
20
146.7626351
40
0.2023358
50
304.8652723
51
314.9984994
0
ARC
8
DEFAULT_255_2_778
10
29.6451141
20
146.7916815
40
0.2528237
50
317.0935551
51
2.306366
0
ARC
8
DEFAULT_255_2_778
10
29.4629486
20
146.8094205
40
0.4348502
50
359.0032383
51
0.0049848
0
LINE
8
DEFAULT_255_2_778
10
29.897499
20
147.5754583
11
30.047799
21
147.5754583
0
LINE
8
DEFAULT_255_2_778
10
30.047799
20
147.5754583
11
30.047799
21
146.8073583
0
LINE
8
DEFAULT_255_2_778
10
29.675499
20
146.4319583
11
29.635799
21
146.4303583
0
LINE
8
DEFAULT_255_2_778
10
29.226799
20
146.8057583
11
29.226799
21
147.5754583
0
LINE
8
DEFAULT_255_2_778
10
29.226799
20
147.5754583
11
29.374999
21
147.5754583
0
LINE
8
DEFAULT_255_2_778
10
29.374999
20
147.5754583
11
29.374999
21
146.8105583
0
LINE
8
DEFAULT_255_2_778
10
29.897799
20
146.8094583
11
29.897799
21
147.5754583
0
LINE
8
DEFAULT_255_2_778
10
29.897799
20
147.5754583
11
29.897499
21
147.5754583
0
LINE
8
DEFAULT_255_2_778
10
31.0675208
20
147.5754531
11
31.0675208
21
147.4529531
0
LINE
8
DEFAULT_255_2_778
10
31.0675208
20
147.4529531
11
30.7029208
21
147.4529531
0
LINE
8
DEFAULT_255_2_778
10
30.7029208
20
147.4529531
11
30.7029208
21
146.4459531
0
LINE
8
DEFAULT_255_2_778
10
30.7029208
20
146.4459531
11
30.5542208
21
146.4459531
0
LINE
8
DEFAULT_255_2_778
10
30.5542208
20
146.4459531
11
30.5542208
21
147.4529531
0
LINE
8
DEFAULT_255_2_778
10
30.5542208
20
147.4529531
11
30.1904208
21
147.4529531
0
LINE
8
DEFAULT_255_2_778
10
30.1904208
20
147.4529531
11
30.1904208
21
147.5754531
0
LINE
8
DEFAULT_255_2_778
10
30.1904208
20
147.5754531
11
31.0678208
21
147.5754531
0
LINE
8
DEFAULT_255_2_778
10
31.0678208
20
147.5754531
11
31.0675208
21
147.5754531
0
LINE
8
DEFAULT_255_2_778
10
3.3698823
20
138.1465708
11
3.3698823
21
139.8980708
0
LINE
8
DEFAULT_255_2_778
10
3.3698823
20
139.8980708
11
7.4462823
21
139.8980708
0
LINE
8
DEFAULT_255_2_778
10
17.6377876
20
138.1465708
11
17.6377876
21
139.8980708
0
LINE
8
DEFAULT_255_2_778
10
17.6377876
20
139.8980708
11
13.7801876
21
139.8980708
0
LINE
8
DEFAULT_255_2_778
10
9.2845958
20
139.7805854
11
9.1763958
21
140.0753854
0
LINE
8
DEFAULT_255_2_778
10
9.1763958
20
140.0753854
11
8.7011958
21
140.0753854
0
LINE
8
DEFAULT_255_2_778
10
8.7011958
20
140.0753854
11
8.5945958
21
139.7805854
0
LINE
8
DEFAULT_255_2_778
10
8.5945958
20
139.7805854
11
8.4402958
21
139.7805854
0
LINE
8
DEFAULT_255_2_778
10
8.4402958
20
139.7805854
11
8.8733958
21
140.9103854
0
LINE
8
DEFAULT_255_2_778
10
8.8733958
20
140.9103854
11
9.0043958
21
140.9103854
0
LINE
8
DEFAULT_255_2_778
10
9.0043958
20
140.9103854
11
9.4382958
21
139.7805854
0
LINE
8
DEFAULT_255_2_778
10
9.4382958
20
139.7805854
11
9.2847958
21
139.7805854
0
LINE
8
DEFAULT_255_2_778
10
9.2847958
20
139.7805854
11
9.2845958
21
139.7805854
0
LINE
8
DEFAULT_255_2_778
10
8.9384958
20
140.7264854
11
8.7461958
21
140.1980854
0
LINE
8
DEFAULT_255_2_778
10
8.7461958
20
140.1980854
11
9.1318958
21
140.1980854
0
LINE
8
DEFAULT_255_2_778
10
9.1318958
20
140.1980854
11
8.9387958
21
140.7264854
0
LINE
8
DEFAULT_255_2_778
10
8.9387958
20
140.7264854
11
8.9384958
21
140.7264854
0
LINE
8
DEFAULT_255_2_778
10
10.07015
20
140.9104041
11
9.59705
21
139.6838041
0
LINE
8
DEFAULT_255_2_778
10
9.59705
20
139.6838041
11
9.47325
21
139.6838041
0
LINE
8
DEFAULT_255_2_778
10
9.47325
20
139.6838041
11
9.94715
21
140.9104041
0
LINE
8
DEFAULT_255_2_778
10
9.94715
20
140.9104041
11
10.07015
21
140.9104041
0
LINE
8
DEFAULT_255_2_778
10
10.07015
20
140.9104041
11
10.07015
21
140.9104041
0
ARC
8
DEFAULT_255_2_778
10
10.6387697
20
140.1778526
40
0.4458648
50
323.2673495
51
355.0519713
0
ARC
8
DEFAULT_255_2_778
10
10.7166213
20
140.1309983
40
0.3555634
50
311.060041
51
321.8151593
0
ARC
8
DEFAULT_255_2_778
10
10.6836521
20
140.1838745
40
0.4172058
50
271.6099969
51
309.7041449
0
ARC
8
DEFAULT_255_2_778
10
10.6534513
20
140.4230405
40
0.6575449
50
269.9583125
51
273.6554421
0
ARC
8
DEFAULT_255_2_778
10
10.6381957
20
140.1659629
40
0.4007396
50
219.9023818
51
272.1132562
0
ARC
8
DEFAULT_255_2_778
10
10.7374257
20
140.2394748
40
0.5240696
50
185.5287863
51
219.1085929
0
ARC
8
DEFAULT_255_2_778
10
11.0456865
20
140.2908165
40
0.8361168
50
179.8438056
51
186.9956201
0
ARC
8
DEFAULT_255_2_778
10
10.8504489
20
140.415222
40
0.6410166
50
155.7111544
51
181.2001599
0
ARC
8
DEFAULT_255_2_778
10
10.6509407
20
140.5049806
40
0.4222473
50
122.1458531
51
155.6770069
0
ARC
8
DEFAULT_255_2_778
10
10.6570695
20
140.4790085
40
0.4475819
50
88.8217737
51
121.0410606
0
ARC
8
DEFAULT_255_2_778
10
10.6803321
20
140.4854272
40
0.4412927
50
59.684238
51
91.8257046
0
ARC
8
DEFAULT_255_2_778
10
10.7169736
20
140.565998
40
0.3533598
50
47.3738442
51
58.2185388
0
ARC
8
DEFAULT_255_2_778
10
10.6701103
20
140.5285921
40
0.4127203
50
5.3508346
51
46.1035379
0
ARC
8
DEFAULT_255_2_778
10
10.4580901
20
140.4845946
40
0.6283792
50
5.7816282
51
7.5427996
0
ARC
8
DEFAULT_255_2_778
10
10.5338871
20
140.5023565
40
0.4016756
50
6.5098119
51
29.0842325
0
ARC
8
DEFAULT_255_2_778
10
10.7038582
20
140.5902739
40
0.2104804
50
30.6607053
51
46.6762464
0
ARC
8
DEFAULT_255_2_778
10
10.6847235
20
140.552925
40
0.2510529
50
49.3486845
51
91.7359043
0
ARC
8
DEFAULT_255_2_778
10
10.6663367
20
140.3669208
40
0.4370748
50
88.5864792
51
90.0083576
0
ARC
8
DEFAULT_255_2_778
10
10.6549136
20
140.5358994
40
0.2683369
50
87.5738178
51
142.7302383
0
ARC
8
DEFAULT_255_2_778
10
10.7645387
20
140.463414
40
0.3995655
50
143.9781703
51
173.1420884
0
ARC
8
DEFAULT_255_2_778
10
11.1106323
20
140.4020256
40
0.7507697
50
171.644372
51
180.2999085
0
ARC
8
DEFAULT_255_2_778
10
10.9532389
20
140.2760996
40
0.5935039
50
178.7645824
51
199.2800727
0
ARC
8
DEFAULT_255_2_778
10
10.7377797
20
140.2075396
40
0.367547
50
200.2819764
51
215.1004573
0
ARC
8
DEFAULT_255_2_778
10
10.6433908
20
140.1372242
40
0.2499121
50
214.3545129
51
272.1973701
0
ARC
8
DEFAULT_255_2_778
10
10.6655843
20
140.2169638
40
0.3297093
50
267.8079004
51
295.9503658
0
ARC
8
DEFAULT_255_2_778
10
10.7161126
20
140.0960232
40
0.198993
50
298.1071816
51
310.0940555
0
ARC
8
DEFAULT_255_2_778
10
10.6709852
20
140.1289622
40
0.2536045
50
313.1019868
51
346.8798932
0
ARC
8
DEFAULT_255_2_778
10
10.3781525
20
140.2234596
40
0.5608263
50
344.2677374
51
351.3999551
0
LINE
8
DEFAULT_255_2_778
10
10.9326729
20
140.1393958
11
11.0829729
21
140.1393958
0
LINE
8
DEFAULT_255_2_778
10
10.2095729
20
140.2930958
11
10.2095729
21
140.4017958
0
LINE
8
DEFAULT_255_2_778
10
11.0832729
20
140.5478958
11
10.9329729
21
140.5478958
0
LINE
8
DEFAULT_255_2_778
10
10.3598729
20
140.3980958
11
10.3598729
21
140.2888958
0
LINE
8
DEFAULT_255_2_778
10
10.9326729
20
140.1395958
11
10.9326729
21
140.1393958
0
ARC
8
DEFAULT_255_2_778
10
11.6193184
20
132.4788445
40
0.3670671
50
89.023513
51
119.9298836
0
ARC
8
DEFAULT_255_2_778
10
11.6399512
20
132.5321841
40
0.3140036
50
42.3606977
51
92.6243068
0
ARC
8
DEFAULT_255_2_778
10
11.5839223
20
132.4988378
40
0.3781003
50
1.7434394
51
40.3733835
0
ARC
8
DEFAULT_255_2_778
10
11.3517494
20
132.4685914
40
0.6115248
50
359.9500573
51
3.9147187
0
ARC
8
DEFAULT_255_2_778
10
11.5346243
20
132.4547108
40
0.4288574
50
332.2908736
51
1.7835346
0
ARC
8
DEFAULT_255_2_778
10
11.6380368
20
132.4100156
40
0.3166363
50
316.6994377
51
330.7497881
0
ARC
8
DEFAULT_255_2_778
10
11.6297113
20
132.4282763
40
0.3353047
50
270.0428124
51
315.404128
0
ARC
8
DEFAULT_255_2_778
10
11.604091
20
132.6381928
40
0.5458345
50
269.9772192
51
272.7166604
0
ARC
8
DEFAULT_255_2_778
10
11.588807
20
132.4520332
40
0.3599904
50
230.2000628
51
272.3987502
0
ARC
8
DEFAULT_255_2_778
10
11.5804588
20
132.4204116
40
0.3306415
50
182.6614846
51
227.8032393
0
ARC
8
DEFAULT_255_2_778
10
11.6130181
20
132.4228056
40
0.2272383
50
184.4793443
51
226.2130076
0
ARC
8
DEFAULT_255_2_778
10
11.593484
20
132.4257853
40
0.2164765
50
230.495185
51
272.7510182
0
ARC
8
DEFAULT_255_2_778
10
11.6134027
20
132.4037665
40
0.1944418
50
267.191074
51
319.6438783
0
ARC
8
DEFAULT_255_2_778
10
11.5469763
20
132.4438373
40
0.2712954
50
322.2801113
51
0.1066125
0
ARC
8
DEFAULT_255_2_778
10
11.3418681
20
132.4662324
40
0.4769058
50
357.3691627
51
0.0271432
0
ARC
8
DEFAULT_255_2_778
10
11.5572755
20
132.4790465
40
0.2618013
50
357.2439844
51
40.3233693
0
ARC
8
DEFAULT_255_2_778
10
11.6008323
20
132.5064735
40
0.2109709
50
42.2995503
51
92.4064531
0
ARC
8
DEFAULT_255_2_778
10
11.5790446
20
132.4745882
40
0.2430143
50
86.9501987
51
122.8335792
0
ARC
8
DEFAULT_255_2_778
10
11.5419742
20
132.5472792
40
0.1620471
50
125.7570427
51
127.2562587
0
LINE
8
DEFAULT_255_2_778
10
11.405974
20
132.6447583
11
11.290674
21
132.6741583
0
LINE
8
DEFAULT_255_2_778
10
11.290674
20
132.6741583
11
11.348374
21
133.2374583
0
LINE
8
DEFAULT_255_2_778
10
11.348374
20
133.2374583
11
11.929574
21
133.2374583
0
LINE
8
DEFAULT_255_2_778
10
11.929574
20
133.2374583
11
11.929574
21
133.1048583
0
LINE
8
DEFAULT_255_2_778
10
11.929574
20
133.1048583
11
11.470574
21
133.1048583
0
LINE
8
DEFAULT_255_2_778
10
11.470574
20
133.1048583
11
11.436174
21
132.7969583
0
LINE
8
DEFAULT_255_2_778
10
11.250174
20
132.4050583
11
11.386474
21
132.4050583
0
LINE
8
DEFAULT_255_2_778
10
11.443874
20
132.6762583
11
11.405774
21
132.6453583
0
LINE
8
DEFAULT_255_2_778
10
11.405774
20
132.6453583
11
11.405974
21
132.6447583
0
ARC
8
DEFAULT_255_2_778
10
2.9801351
20
130.195288
40
1.2915372
50
317.9389223
51
324.14781
0
ARC
8
DEFAULT_255_2_778
10
3.6235809
20
129.728411
40
0.496559
50
324.3271699
51
331.3666166
0
ARC
8
DEFAULT_255_2_778
10
3.8264714
20
129.6189782
40
0.2660431
50
331.1133044
51
359.7803597
0
ARC
8
DEFAULT_255_2_778
10
3.890739
20
129.6255742
40
0.2019172
50
357.8384105
51
42.8747704
0
ARC
8
DEFAULT_255_2_778
10
3.9039071
20
129.6313764
40
0.1883781
50
44.3067162
51
92.6149708
0
ARC
8
DEFAULT_255_2_778
10
3.881943
20
129.5962917
40
0.2236666
50
86.5731364
51
133.4535965
0
ARC
8
DEFAULT_255_2_778
10
3.9003765
20
129.6029867
40
0.2321822
50
137.8964882
51
183.4391719
0
ARC
8
DEFAULT_255_2_778
10
3.8570171
20
129.602366
40
0.3328707
50
134.1373055
51
182.2912146
0
ARC
8
DEFAULT_255_2_778
10
3.8727107
20
129.5703538
40
0.3669395
50
89.358112
51
132.4148057
0
ARC
8
DEFAULT_255_2_778
10
3.8950129
20
129.3629085
40
0.5746498
50
89.9900639
51
91.8140859
0
ARC
8
DEFAULT_255_2_778
10
3.9086018
20
129.5426607
40
0.395128
50
61.2950571
51
91.9564036
0
ARC
8
DEFAULT_255_2_778
10
3.9523324
20
129.6404563
40
0.2884757
50
48.0661859
51
59.5837609
0
ARC
8
DEFAULT_255_2_778
10
3.955795
20
129.6469138
40
0.2813632
50
357.6054552
51
47.7119564
0
ARC
8
DEFAULT_255_2_778
10
3.8580154
20
129.6479204
40
0.379112
50
331.1269887
51
358.0708853
0
ARC
8
DEFAULT_255_2_778
10
3.3908892
20
129.8875674
40
0.9040256
50
319.6075411
51
332.1223432
0
ARC
8
DEFAULT_255_2_778
10
2.9033953
20
130.2778592
40
1.528343
50
317.1242581
51
320.3067342
0
LINE
8
DEFAULT_255_2_778
10
4.2896125
20
128.9096583
11
4.2896125
21
128.7924583
0
LINE
8
DEFAULT_255_2_778
10
4.2896125
20
128.7924583
11
3.5464125
21
128.7924583
0
LINE
8
DEFAULT_255_2_778
10
3.5464125
20
128.7924583
11
3.5464125
21
128.8956583
0
LINE
8
DEFAULT_255_2_778
10
3.5464125
20
128.8956583
11
3.9390125
21
129.3300583
0
LINE
8
DEFAULT_255_2_778
10
3.6686125
20
129.5890583
11
3.5244125
21
129.5890583
0
LINE
8
DEFAULT_255_2_778
10
4.0234125
20
129.2379583
11
3.7194125
21
128.9099583
0
LINE
8
DEFAULT_255_2_778
10
3.7194125
20
128.9099583
11
4.2890125
21
128.9099583
0
LINE
8
DEFAULT_255_2_778
10
4.2890125
20
128.9099583
11
4.2896125
21
128.9096583
0
ARC
8
DEFAULT_255_2_778
10
3.8738964
20
126.0261965
40
0.2390325
50
267.6586574
51
309.1255963
0
ARC
8
DEFAULT_255_2_778
10
3.9048474
20
125.9729815
40
0.1784762
50
312.1990396
51
2.6597166
0
ARC
8
DEFAULT_255_2_778
10
3.8671916
20
125.9940398
40
0.2163173
50
356.6139944
51
34.6705992
0
ARC
8
DEFAULT_255_2_778
10
3.9087656
20
125.9992459
40
0.1802077
50
40.84043
51
91.2497039
0
ARC
8
DEFAULT_255_2_778
10
3.8846932
20
125.8126637
40
0.3672999
50
86.8564149
51
90.0408598
0
ARC
8
DEFAULT_255_2_778
10
3.8741511
20
125.9729779
40
0.2072408
50
87.1566718
51
132.0925807
0
ARC
8
DEFAULT_255_2_778
10
3.8646559
20
125.9940204
40
0.1853955
50
134.2747912
51
182.459795
0
ARC
8
DEFAULT_255_2_778
10
3.8226683
20
125.992186
40
0.2875022
50
131.0313238
51
181.2202277
0
ARC
8
DEFAULT_255_2_778
10
3.8711258
20
125.9380791
40
0.3601303
50
87.8826625
51
131.1958898
0
ARC
8
DEFAULT_255_2_778
10
3.8976215
20
125.9015574
40
0.3966255
50
62.1627031
51
91.9057925
0
ARC
8
DEFAULT_255_2_778
10
3.9430776
20
126.0054746
40
0.2836299
50
47.1052853
51
60.479795
0
ARC
8
DEFAULT_255_2_778
10
3.9249168
20
125.9965137
40
0.3026418
50
357.6153098
51
45.7410322
0
ARC
8
DEFAULT_255_2_778
10
3.7364021
20
125.9780927
40
0.4909289
50
359.9965957
51
0.6802499
0
ARC
8
DEFAULT_255_2_778
10
3.9796774
20
125.9815989
40
0.2476791
50
323.7556323
51
359.1821219
0
ARC
8
DEFAULT_255_2_778
10
3.9430501
20
126.0001221
40
0.2882488
50
291.5721537
51
325.090754
0
ARC
8
DEFAULT_255_2_778
10
3.9730353
20
125.4639551
40
0.278671
50
37.69833
51
74.1744866
0
ARC
8
DEFAULT_255_2_778
10
3.9742151
20
125.4761148
40
0.2704483
50
358.2092755
51
35.8125345
0
ARC
8
DEFAULT_255_2_778
10
3.937333
20
125.4533443
40
0.3075318
50
312.4325108
51
2.6687543
0
ARC
8
DEFAULT_255_2_778
10
3.9026434
20
125.5101899
40
0.3731118
50
268.0904083
51
310.4739903
0
ARC
8
DEFAULT_255_2_778
10
3.8852611
20
125.6990571
40
0.5617936
50
269.9969579
51
270.5047692
0
ARC
8
DEFAULT_255_2_778
10
3.8706974
20
125.5334175
40
0.3964205
50
235.9708777
51
272.1010855
0
ARC
8
DEFAULT_255_2_778
10
3.8409681
20
125.4738207
40
0.3305073
50
229.2968907
51
234.460255
0
ARC
8
DEFAULT_255_2_778
10
3.8101861
20
125.4401887
40
0.2849402
50
177.9334975
51
229.5790126
0
ARC
8
DEFAULT_255_2_778
10
3.8547812
20
125.4426024
40
0.1845174
50
177.5582336
51
226.9960457
0
ARC
8
DEFAULT_255_2_778
10
3.8741209
20
125.4767063
40
0.2228351
50
229.3409556
51
272.9351456
0
ARC
8
DEFAULT_255_2_778
10
3.8988899
20
125.4801531
40
0.226384
50
266.6170816
51
307.4000944
0
ARC
8
DEFAULT_255_2_778
10
3.9306569
20
125.4252424
40
0.1636689
50
310.2422248
51
314.4790619
0
ARC
8
DEFAULT_255_2_778
10
3.8926985
20
125.4503535
40
0.2083975
50
317.0889491
51
3.8272051
0
ARC
8
DEFAULT_255_2_778
10
3.9113984
20
125.4760016
40
0.1895965
50
356.4505031
51
47.400208
0
ARC
8
DEFAULT_255_2_778
10
3.886579
20
125.4215497
40
0.247178
50
51.7128498
51
88.7107062
0
ARC
8
DEFAULT_255_2_778
10
3.8582422
20
125.2053009
40
0.4646025
50
85.8158593
51
89.2490676
0
LINE
8
DEFAULT_255_2_778
10
3.7559313
20
125.6700635
11
3.7559313
21
125.7873635
0
LINE
8
DEFAULT_255_2_778
10
3.7559313
20
125.7873635
11
3.8641313
21
125.7873635
0
LINE
8
DEFAULT_255_2_778
10
3.6794313
20
125.9860635
11
3.5352313
21
125.9860635
0
LINE
8
DEFAULT_255_2_778
10
3.5254313
20
125.4504635
11
3.6704313
21
125.4504635
0
LINE
8
DEFAULT_255_2_778
10
3.8643313
20
125.6698635
11
3.7561313
21
125.6698635
0
LINE
8
DEFAULT_255_2_778
10
3.7561313
20
125.6698635
11
3.7559313
21
125.6700635
0
LINE
8
DEFAULT_255_2_778
10
11.9569188
20
126.1854854
11
11.9569188
21
126.1047854
0
LINE
8
DEFAULT_255_2_778
10
11.9569188
20
126.1047854
11
11.4870188
21
125.0556854
0
LINE
8
DEFAULT_255_2_778
10
11.4870188
20
125.0556854
11
11.3359188
21
125.0556854
0
LINE
8
DEFAULT_255_2_778
10
11.3359188
20
125.0556854
11
11.8042188
21
126.0674854
0
LINE
8
DEFAULT_255_2_778
10
11.8042188
20
126.0674854
11
11.1901188
21
126.0674854
0
LINE
8
DEFAULT_255_2_778
10
11.1901188
20
126.0674854
11
11.1901188
21
126.1854854
0
LINE
8
DEFAULT_255_2_778
10
11.1901188
20
126.1854854
11
11.9569188
21
126.1854854
0
LINE
8
DEFAULT_255_2_778
10
11.9569188
20
126.1854854
11
11.9569188
21
126.1854854
0
ARC
8
DEFAULT_255_2_778
10
11.7566185
20
129.30308
40
0.4011669
50
89.0139875
51
123.7801706
0
ARC
8
DEFAULT_255_2_778
10
11.7233999
20
129.3687711
40
0.3282172
50
125.3364859
51
133.970675
0
ARC
8
DEFAULT_255_2_778
10
11.7754476
20
129.3289868
40
0.3931091
50
135.4045207
51
173.4116982
0
ARC
8
DEFAULT_255_2_778
10
12.0071895
20
129.2786594
40
0.6295303
50
171.2809182
51
174.930482
0
ARC
8
DEFAULT_255_2_778
10
11.6100144
20
129.1284986
40
0.3085444
50
87.2492461
51
138.1666045
0
ARC
8
DEFAULT_255_2_778
10
11.6365396
20
129.1420295
40
0.2948909
50
40.3065162
51
92.2772981
0
ARC
8
DEFAULT_255_2_778
10
11.5543817
20
129.0836367
40
0.3954109
50
358.8478608
51
39.05795
0
ARC
8
DEFAULT_255_2_778
10
11.348263
20
129.0642139
40
0.601559
50
359.9974809
51
1.092731
0
ARC
8
DEFAULT_255_2_778
10
11.5209743
20
129.0502721
40
0.4290733
50
330.0188811
51
1.8584993
0
ARC
8
DEFAULT_255_2_778
10
11.6054536
20
129.0118742
40
0.3368294
50
317.6087935
51
328.4953202
0
ARC
8
DEFAULT_255_2_778
10
11.6130637
20
129.0088326
40
0.3291709
50
267.4505949
51
317.1067468
0
ARC
8
DEFAULT_255_2_778
10
11.589994
20
129.0043147
40
0.3244367
50
217.9964253
51
271.4885426
0
ARC
8
DEFAULT_255_2_778
10
11.7081278
20
129.0961429
40
0.4740627
50
181.5278073
51
217.9529716
0
ARC
8
DEFAULT_255_2_778
10
11.9503028
20
129.1251818
40
0.717281
50
179.9675972
51
183.331113
0
ARC
8
DEFAULT_255_2_778
10
12.2932067
20
129.1932878
40
1.0602608
50
167.0332303
51
180.6863328
0
ARC
8
DEFAULT_255_2_778
10
11.8136616
20
129.308393
40
0.5671345
50
142.0215885
51
167.4946115
0
ARC
8
DEFAULT_255_2_778
10
11.7170207
20
129.3653108
40
0.4561668
50
95.9325682
51
140.1869363
0
ARC
8
DEFAULT_255_2_778
10
11.7736299
20
129.0761402
40
0.7501049
50
90.7110019
51
97.9508868
0
ARC
8
DEFAULT_255_2_778
10
11.6001736
20
129.0866316
40
0.2302567
50
89.8386919
51
126.0954755
0
ARC
8
DEFAULT_255_2_778
10
11.5939479
20
129.0825533
40
0.2300046
50
124.2434684
51
159.8493547
0
ARC
8
DEFAULT_255_2_778
10
11.7754009
20
129.0960104
40
0.3975975
50
178.1007745
51
206.8124011
0
ARC
8
DEFAULT_255_2_778
10
11.6637646
20
129.0491582
40
0.2769613
50
208.5795391
51
216.5328867
0
ARC
8
DEFAULT_255_2_778
10
11.599723
20
128.9884475
40
0.1896627
50
213.311166
51
269.6975568
0
ARC
8
DEFAULT_255_2_778
10
11.6063016
20
128.9822207
40
0.1835898
50
267.6338052
51
322.4327573
0
ARC
8
DEFAULT_255_2_778
10
11.5133651
20
129.0434246
40
0.294683
50
324.017599
51
2.696384
0
ARC
8
DEFAULT_255_2_778
10
11.5132938
20
129.0712585
40
0.2947594
50
357.2832673
51
36.2102112
0
ARC
8
DEFAULT_255_2_778
10
11.6063477
20
129.1352737
40
0.1818917
50
37.2562409
51
91.6778686
0
LINE
8
DEFAULT_255_2_778
10
11.7643219
20
129.8258875
11
11.7899219
21
129.8258875
0
LINE
8
DEFAULT_255_2_778
10
11.7899219
20
129.8258875
11
11.7899219
21
129.7041875
0
LINE
8
DEFAULT_255_2_778
10
11.7899219
20
129.7041875
11
11.7635219
21
129.7041875
0
LINE
8
DEFAULT_255_2_778
10
11.2330219
20
129.1255875
11
11.2330219
21
129.1805875
0
LINE
8
DEFAULT_255_2_778
10
11.7643219
20
129.8261875
11
11.7643219
21
129.8258875
0
LINE
8
DEFAULT_255_2_778
10
11.3780219
20
129.1617875
11
11.3780219
21
129.1091875
0
LINE
8
DEFAULT_255_2_778
10
11.6010219
20
129.3170875
11
11.6008219
21
129.3168875
0
LINE
8
DEFAULT_255_2_778
10
4.1342479
20
133.4533635
11
4.1342479
21
132.3183635
0
LINE
8
DEFAULT_255_2_778
10
4.1342479
20
132.3183635
11
3.9892479
21
132.3183635
0
LINE
8
DEFAULT_255_2_778
10
3.9892479
20
132.3183635
11
3.9892479
21
133.2750635
0
LINE
8
DEFAULT_255_2_778
10
3.9892479
20
133.2750635
11
3.6987479
21
133.1686635
0
LINE
8
DEFAULT_255_2_778
10
3.6987479
20
133.1686635
11
3.6987479
21
133.2991635
0
LINE
8
DEFAULT_255_2_778
10
3.6987479
20
133.2991635
11
4.1117479
21
133.4536635
0
LINE
8
DEFAULT_255_2_778
10
4.1117479
20
133.4536635
11
4.1342479
21
133.4536635
0
LINE
8
DEFAULT_255_2_778
10
4.1342479
20
133.4536635
11
4.1342479
21
133.4533635
0
ARC
8
DEFAULT_255_2_778
10
3.3603419
20
136.655143
40
1.0115205
50
348.8531957
51
0.7017289
0
ARC
8
DEFAULT_255_2_778
10
3.9126814
20
136.5406753
40
0.4475057
50
326.369508
51
349.5609794
0
ARC
8
DEFAULT_255_2_778
10
4.0455995
20
136.4682669
40
0.2970311
50
270.0338382
51
323.798241
0
ARC
8
DEFAULT_255_2_778
10
4.0152302
20
136.6862898
40
0.5159588
50
269.9618255
51
273.3938901
0
ARC
8
DEFAULT_255_2_778
10
4.0011501
20
136.5213624
40
0.3512998
50
238.0735162
51
272.2409187
0
ARC
8
DEFAULT_255_2_778
10
3.9679712
20
136.4502693
40
0.2735779
50
215.8016672
51
236.0968711
0
ARC
8
DEFAULT_255_2_778
10
4.1214436
20
136.5476533
40
0.4551473
50
190.0314997
51
214.4425585
0
ARC
8
DEFAULT_255_2_778
10
4.6182202
20
136.6519951
40
0.9626411
50
180.2240215
51
190.9965475
0
ARC
8
DEFAULT_255_2_778
10
4.6427415
20
136.8519246
40
0.9872304
50
168.7166274
51
180.7076853
0
ARC
8
DEFAULT_255_2_778
10
4.1071899
20
136.9642041
40
0.4400937
50
146.0580946
51
169.4095666
0
ARC
8
DEFAULT_255_2_778
10
3.9803265
20
137.0326312
40
0.2969741
50
90.683831
51
143.3431084
0
ARC
8
DEFAULT_255_2_778
10
4.0128057
20
136.8100598
40
0.5207718
50
89.9471064
51
93.9665057
0
ARC
8
DEFAULT_255_2_778
10
4.0266726
20
136.9640153
40
0.3670601
50
60.694034
51
92.0899579
0
ARC
8
DEFAULT_255_2_778
10
4.0685024
20
137.0564411
40
0.266133
50
36.3363395
51
58.8069834
0
ARC
8
DEFAULT_255_2_778
10
3.9278238
20
136.967516
40
0.4323061
50
10.2119061
51
34.7826154
0
ARC
8
DEFAULT_255_2_778
10
3.3953313
20
136.8549592
40
0.9764556
50
359.9338147
51
11.1724149
0
ARC
8
DEFAULT_255_2_778
10
3.4095139
20
136.8761834
40
0.8181613
50
359.1559602
51
10.8280238
0
ARC
8
DEFAULT_255_2_778
10
3.905096
20
136.9730084
40
0.3132195
50
10.4621231
51
30.0239048
0
ARC
8
DEFAULT_255_2_778
10
4.0258499
20
137.0366545
40
0.1769023
50
31.7455299
51
93.975127
0
ARC
8
DEFAULT_255_2_778
10
4.001456
20
137.0384029
40
0.1751489
50
86.0286259
51
148.4565241
0
ARC
8
DEFAULT_255_2_778
10
4.1713298
20
136.9524693
40
0.3652132
50
150.9097357
51
173.5470526
0
ARC
8
DEFAULT_255_2_778
10
4.6747084
20
136.8729792
40
0.8746237
50
172.0786243
51
179.8852267
0
ARC
8
DEFAULT_255_2_778
10
4.6087783
20
136.6333602
40
0.8087761
50
179.1731681
51
191.1092606
0
ARC
8
DEFAULT_255_2_778
10
4.1385649
20
136.5394124
40
0.3292758
50
190.8332213
51
210.0287946
0
ARC
8
DEFAULT_255_2_778
10
4.0062284
20
136.4641419
40
0.1770375
50
210.3713932
51
272.9003908
0
ARC
8
DEFAULT_255_2_778
10
4.02536
20
136.4615142
40
0.1744799
50
266.6573063
51
328.2232447
0
ARC
8
DEFAULT_255_2_778
10
3.8680348
20
136.5454373
40
0.3526057
50
330.093159
51
352.701402
0
ARC
8
DEFAULT_255_2_778
10
3.3485567
20
136.6336478
40
0.8793439
50
351.3003089
51
359.6731338
0
LINE
8
DEFAULT_255_2_778
10
4.3717865
20
136.8538312
11
4.3717865
21
136.6675312
0
LINE
8
DEFAULT_255_2_778
10
3.6555865
20
136.6482312
11
3.6555865
21
136.8397312
0
LINE
8
DEFAULT_255_2_778
10
4.3717865
20
136.8538312
11
4.3717865
21
136.8538312
0
LINE
8
DEFAULT_255_2_778
10
4.2275865
20
136.6289312
11
4.2275865
21
136.8641312
0
LINE
8
DEFAULT_255_2_778
10
3.8000865
20
136.8747312
11
3.8000865
21
136.6450312
0
LINE
8
DEFAULT_255_2_778
10
4.2278865
20
136.6286312
11
4.2275865
21
136.6289312
0
LINE
8
DEFAULT_255_2_778
10
11.8331573
20
137.2186854
11
11.8331573
21
136.4682854
0
LINE
8
DEFAULT_255_2_778
10
11.8331573
20
136.4682854
11
11.9905573
21
136.4682854
0
LINE
8
DEFAULT_255_2_778
10
11.9905573
20
136.4682854
11
11.9905573
21
136.3510854
0
LINE
8
DEFAULT_255_2_778
10
11.9905573
20
136.3510854
11
11.8331573
21
136.3510854
0
LINE
8
DEFAULT_255_2_778
10
11.8331573
20
136.3510854
11
11.8331573
21
136.0888854
0
LINE
8
DEFAULT_255_2_778
10
11.8331573
20
136.0888854
11
11.6881573
21
136.0888854
0
LINE
8
DEFAULT_255_2_778
10
11.6881573
20
136.0888854
11
11.6881573
21
136.3510854
0
LINE
8
DEFAULT_255_2_778
10
11.6881573
20
136.3510854
11
11.1716573
21
136.3510854
0
LINE
8
DEFAULT_255_2_778
10
11.1716573
20
136.3510854
11
11.1716573
21
136.4357854
0
LINE
8
DEFAULT_255_2_778
10
11.1716573
20
136.4357854
11
11.6796573
21
137.2186854
0
LINE
8
DEFAULT_255_2_778
10
11.6796573
20
137.2186854
11
11.8331573
21
137.2186854
0
LINE
8
DEFAULT_255_2_778
10
11.8331573
20
137.2186854
11
11.8331573
21
137.2186854
0
LINE
8
DEFAULT_255_2_778
10
11.6709573
20
136.9913854
11
11.3351573
21
136.4685854
0
LINE
8
DEFAULT_255_2_778
10
11.3351573
20
136.4685854
11
11.6881573
21
136.4685854
0
LINE
8
DEFAULT_255_2_778
10
11.6881573
20
136.4685854
11
11.6881573
21
137.0225854
0
LINE
8
DEFAULT_255_2_778
10
11.6881573
20
137.0225854
11
11.6709573
21
136.9916854
0
LINE
8
DEFAULT_255_2_778
10
11.6709573
20
136.9916854
11
11.6709573
21
136.9913854
0
LINE
8
DEFAULT_255_2_778
10
19.4906157
20
138.1468708
11
19.4906157
21
139.8983708
0
LINE
8
DEFAULT_255_2_778
10
19.4906157
20
139.8983708
11
23.0760157
21
139.8983708
0
LINE
8
DEFAULT_255_2_778
10
33.110124
20
138.1468708
11
33.110124
21
139.8983708
0
LINE
8
DEFAULT_255_2_778
10
33.110124
20
139.8983708
11
29.387124
21
139.8983708
0
ARC
8
DEFAULT_255_2_778
10
27.8330184
20
132.4791445
40
0.3670671
50
89.023513
51
119.9298836
0
ARC
8
DEFAULT_255_2_778
10
27.8536512
20
132.5324841
40
0.3140036
50
42.3606977
51
92.6243068
0
ARC
8
DEFAULT_255_2_778
10
27.7976223
20
132.4991378
40
0.3781003
50
1.7434394
51
40.3733835
0
ARC
8
DEFAULT_255_2_778
10
27.5654494
20
132.4688914
40
0.6115248
50
359.9500573
51
3.9147187
0
ARC
8
DEFAULT_255_2_778
10
27.7483243
20
132.4550108
40
0.4288574
50
332.2908736
51
1.7835346
0
ARC
8
DEFAULT_255_2_778
10
27.8517368
20
132.4103156
40
0.3166363
50
316.6994377
51
330.7497881
0
ARC
8
DEFAULT_255_2_778
10
27.8434113
20
132.4285763
40
0.3353047
50
270.0428124
51
315.404128
0
ARC
8
DEFAULT_255_2_778
10
27.817791
20
132.6384928
40
0.5458345
50
269.9772192
51
272.7166604
0
ARC
8
DEFAULT_255_2_778
10
27.802507
20
132.4523332
40
0.3599904
50
230.2000628
51
272.3987502
0
ARC
8
DEFAULT_255_2_778
10
27.7941588
20
132.4207116
40
0.3306415
50
182.6614846
51
227.8032393
0
ARC
8
DEFAULT_255_2_778
10
27.8267181
20
132.4231056
40
0.2272383
50
184.4793443
51
226.2130076
0
ARC
8
DEFAULT_255_2_778
10
27.807184
20
132.4260853
40
0.2164765
50
230.495185
51
272.7510182
0
ARC
8
DEFAULT_255_2_778
10
27.8271027
20
132.4040665
40
0.1944418
50
267.191074
51
319.6438783
0
ARC
8
DEFAULT_255_2_778
10
27.7606763
20
132.4441373
40
0.2712954
50
322.2801113
51
0.1066125
0
ARC
8
DEFAULT_255_2_778
10
27.5555681
20
132.4665324
40
0.4769058
50
357.3691627
51
0.0271432
0
ARC
8
DEFAULT_255_2_778
10
27.7709755
20
132.4793465
40
0.2618013
50
357.2439844
51
40.3233693
0
ARC
8
DEFAULT_255_2_778
10
27.8145858
20
132.5068891
40
0.2108534
50
42.286122
51
92.395174
0
ARC
8
DEFAULT_255_2_778
10
27.7928866
20
132.4742143
40
0.2436851
50
86.9684813
51
122.6509518
0
ARC
8
DEFAULT_255_2_778
10
27.7552427
20
132.5481614
40
0.1613225
50
125.5648143
51
127.2594496
0
LINE
8
DEFAULT_255_2_778
10
27.619774
20
132.6450583
11
27.504374
21
132.6744583
0
LINE
8
DEFAULT_255_2_778
10
27.504374
20
132.6744583
11
27.562074
21
133.2377583
0
LINE
8
DEFAULT_255_2_778
10
27.562074
20
133.2377583
11
28.143374
21
133.2377583
0
LINE
8
DEFAULT_255_2_778
10
28.143374
20
133.2377583
11
28.143374
21
133.1051583
0
LINE
8
DEFAULT_255_2_778
10
28.143374
20
133.1051583
11
27.684274
21
133.1051583
0
LINE
8
DEFAULT_255_2_778
10
27.684274
20
133.1051583
11
27.649874
21
132.7972583
0
LINE
8
DEFAULT_255_2_778
10
27.463874
20
132.4053583
11
27.600174
21
132.4053583
0
LINE
8
DEFAULT_255_2_778
10
27.657574
20
132.6765583
11
27.619474
21
132.6456583
0
LINE
8
DEFAULT_255_2_778
10
27.619474
20
132.6456583
11
27.619774
21
132.6450583
0
ARC
8
DEFAULT_255_2_778
10
19.1935351
20
130.195288
40
1.2915372
50
317.9389223
51
324.14781
0
ARC
8
DEFAULT_255_2_778
10
19.8369809
20
129.728411
40
0.496559
50
324.3271699
51
331.3666166
0
ARC
8
DEFAULT_255_2_778
10
20.0398714
20
129.6189782
40
0.2660431
50
331.1133044
51
359.7803597
0
ARC
8
DEFAULT_255_2_778
10
20.104139
20
129.6255742
40
0.2019172
50
357.8384105
51
42.8747704
0
ARC
8
DEFAULT_255_2_778
10
20.1173071
20
129.6313764
40
0.1883781
50
44.3067162
51
92.6149708
0
ARC
8
DEFAULT_255_2_778
10
20.095343
20
129.5962917
40
0.2236666
50
86.5731364
51
133.4535965
0
ARC
8
DEFAULT_255_2_778
10
20.1137765
20
129.6029867
40
0.2321822
50
137.8964882
51
183.4391719
0
ARC
8
DEFAULT_255_2_778
10
20.0704171
20
129.602366
40
0.3328707
50
134.1373055
51
182.2912146
0
ARC
8
DEFAULT_255_2_778
10
20.0861107
20
129.5703538
40
0.3669395
50
89.358112
51
132.4148057
0
ARC
8
DEFAULT_255_2_778
10
20.1084129
20
129.3629085
40
0.5746498
50
89.9900639
51
91.8140859
0
ARC
8
DEFAULT_255_2_778
10
20.1220018
20
129.5426607
40
0.395128
50
61.2950571
51
91.9564036
0
ARC
8
DEFAULT_255_2_778
10
20.1657324
20
129.6404563
40
0.2884757
50
48.0661859
51
59.5837609
0
ARC
8
DEFAULT_255_2_778
10
20.169195
20
129.6469138
40
0.2813632
50
357.6054552
51
47.7119564
0
ARC
8
DEFAULT_255_2_778
10
20.0714154
20
129.6479204
40
0.379112
50
331.1269887
51
358.0708853
0
ARC
8
DEFAULT_255_2_778
10
19.6042892
20
129.8875674
40
0.9040256
50
319.6075411
51
332.1223432
0
ARC
8
DEFAULT_255_2_778
10
19.1167953
20
130.2778592
40
1.528343
50
317.1242581
51
320.3067342
0
LINE
8
DEFAULT_255_2_778
10
20.5030125
20
128.9096583
11
20.5030125
21
128.7924583
0
LINE
8
DEFAULT_255_2_778
10
20.5030125
20
128.7924583
11
19.7598125
21
128.7924583
0
LINE
8
DEFAULT_255_2_778
10
19.7598125
20
128.7924583
11
19.7598125
21
128.8956583
0
LINE
8
DEFAULT_255_2_778
10
19.7598125
20
128.8956583
11
20.1524125
21
129.3300583
0
LINE
8
DEFAULT_255_2_778
10
19.8820125
20
129.5890583
11
19.7378125
21
129.5890583
0
LINE
8
DEFAULT_255_2_778
10
20.2368125
20
129.2379583
11
19.9328125
21
128.9099583
0
LINE
8
DEFAULT_255_2_778
10
19.9328125
20
128.9099583
11
20.5024125
21
128.9099583
0
LINE
8
DEFAULT_255_2_778
10
20.5024125
20
128.9099583
11
20.5030125
21
128.9096583
0
ARC
8
DEFAULT_255_2_778
10
20.0872964
20
126.0261965
40
0.2390325
50
267.6586574
51
309.1255963
0
ARC
8
DEFAULT_255_2_778
10
20.1182474
20
125.9729815
40
0.1784762
50
312.1990396
51
2.6597166
0
ARC
8
DEFAULT_255_2_778
10
20.0805916
20
125.9940398
40
0.2163173
50
356.6139944
51
34.6705992
0
ARC
8
DEFAULT_255_2_778
10
20.1221656
20
125.9992459
40
0.1802077
50
40.84043
51
91.2497039
0
ARC
8
DEFAULT_255_2_778
10
20.0980932
20
125.8126637
40
0.3672999
50
86.8564149
51
90.0408598
0
ARC
8
DEFAULT_255_2_778
10
20.0875511
20
125.9729779
40
0.2072408
50
87.1566718
51
132.0925807
0
ARC
8
DEFAULT_255_2_778
10
20.0780559
20
125.9940204
40
0.1853955
50
134.2747912
51
182.459795
0
ARC
8
DEFAULT_255_2_778
10
20.0360683
20
125.992186
40
0.2875022
50
131.0313238
51
181.2202277
0
ARC
8
DEFAULT_255_2_778
10
20.0845258
20
125.9380791
40
0.3601303
50
87.8826625
51
131.1958898
0
ARC
8
DEFAULT_255_2_778
10
20.1110215
20
125.9015574
40
0.3966255
50
62.1627031
51
91.9057925
0
ARC
8
DEFAULT_255_2_778
10
20.1564776
20
126.0054746
40
0.2836299
50
47.1052853
51
60.479795
0
ARC
8
DEFAULT_255_2_778
10
20.1383168
20
125.9965137
40
0.3026418
50
357.6153098
51
45.7410322
0
ARC
8
DEFAULT_255_2_778
10
19.9498021
20
125.9780927
40
0.4909289
50
359.9965957
51
0.6802499
0
ARC
8
DEFAULT_255_2_778
10
20.1930774
20
125.9815989
40
0.2476791
50
323.7556323
51
359.1821219
0
ARC
8
DEFAULT_255_2_778
10
20.1564501
20
126.0001221
40
0.2882488
50
291.5721537
51
325.090754
0
ARC
8
DEFAULT_255_2_778
10
20.1864353
20
125.4639551
40
0.278671
50
37.69833
51
74.1744866
0
ARC
8
DEFAULT_255_2_778
10
20.1876151
20
125.4761148
40
0.2704483
50
358.2092755
51
35.8125345
0
ARC
8
DEFAULT_255_2_778
10
20.150733
20
125.4533443
40
0.3075318
50
312.4325108
51
2.6687543
0
ARC
8
DEFAULT_255_2_778
10
20.1160434
20
125.5101899
40
0.3731118
50
268.0904083
51
310.4739903
0
ARC
8
DEFAULT_255_2_778
10
20.0986611
20
125.6990571
40
0.5617936
50
269.9969579
51
270.5047692
0
ARC
8
DEFAULT_255_2_778
10
20.0840974
20
125.5334175
40
0.3964205
50
235.9708777
51
272.1010855
0
ARC
8
DEFAULT_255_2_778
10
20.0543681
20
125.4738207
40
0.3305073
50
229.2968907
51
234.460255
0
ARC
8
DEFAULT_255_2_778
10
20.0235861
20
125.4401887
40
0.2849402
50
177.9334975
51
229.5790126
0
ARC
8
DEFAULT_255_2_778
10
20.0681812
20
125.4426024
40
0.1845174
50
177.5582336
51
226.9960457
0
ARC
8
DEFAULT_255_2_778
10
20.0875209
20
125.4767063
40
0.2228351
50
229.3409556
51
272.9351456
0
ARC
8
DEFAULT_255_2_778
10
20.1122899
20
125.4801531
40
0.226384
50
266.6170816
51
307.4000944
0
ARC
8
DEFAULT_255_2_778
10
20.1440569
20
125.4252424
40
0.1636689
50
310.2422248
51
314.4790619
0
ARC
8
DEFAULT_255_2_778
10
20.1060985
20
125.4503535
40
0.2083975
50
317.0889491
51
3.8272051
0
ARC
8
DEFAULT_255_2_778
10
20.1247984
20
125.4760016
40
0.1895965
50
356.4505031
51
47.400208
0
ARC
8
DEFAULT_255_2_778
10
20.099979
20
125.4215497
40
0.247178
50
51.7128498
51
88.7107062
0
ARC
8
DEFAULT_255_2_778
10
20.0716422
20
125.2053009
40
0.4646025
50
85.8158593
51
89.2490676
0
LINE
8
DEFAULT_255_2_778
10
19.9693313
20
125.6700635
11
19.9693313
21
125.7873635
0
LINE
8
DEFAULT_255_2_778
10
19.9693313
20
125.7873635
11
20.0775313
21
125.7873635
0
LINE
8
DEFAULT_255_2_778
10
19.8928313
20
125.9860635
11
19.7486313
21
125.9860635
0
LINE
8
DEFAULT_255_2_778
10
19.7388313
20
125.4504635
11
19.8838313
21
125.4504635
0
LINE
8
DEFAULT_255_2_778
10
20.0777313
20
125.6698635
11
19.9695313
21
125.6698635
0
LINE
8
DEFAULT_255_2_778
10
19.9695313
20
125.6698635
11
19.9693313
21
125.6700635
0
LINE
8
DEFAULT_255_2_778
10
28.1706188
20
126.1854854
11
28.1706188
21
126.1047854
0
LINE
8
DEFAULT_255_2_778
10
28.1706188
20
126.1047854
11
27.7007188
21
125.0556854
0
LINE
8
DEFAULT_255_2_778
10
27.7007188
20
125.0556854
11
27.5496188
21
125.0556854
0
LINE
8
DEFAULT_255_2_778
10
27.5496188
20
125.0556854
11
28.0179188
21
126.0674854
0
LINE
8
DEFAULT_255_2_778
10
28.0179188
20
126.0674854
11
27.4038188
21
126.0674854
0
LINE
8
DEFAULT_255_2_778
10
27.4038188
20
126.0674854
11
27.4038188
21
126.1854854
0
LINE
8
DEFAULT_255_2_778
10
27.4038188
20
126.1854854
11
28.1706188
21
126.1854854
0
LINE
8
DEFAULT_255_2_778
10
28.1706188
20
126.1854854
11
28.1706188
21
126.1854854
0
ARC
8
DEFAULT_255_2_778
10
27.9703185
20
129.30338
40
0.4011669
50
89.0139875
51
123.7801706
0
ARC
8
DEFAULT_255_2_778
10
27.9370999
20
129.3690711
40
0.3282172
50
125.3364859
51
133.970675
0
ARC
8
DEFAULT_255_2_778
10
27.9891476
20
129.3292868
40
0.3931091
50
135.4045207
51
173.4116982
0
ARC
8
DEFAULT_255_2_778
10
28.2208895
20
129.2789594
40
0.6295303
50
171.2809182
51
174.930482
0
ARC
8
DEFAULT_255_2_778
10
27.8237144
20
129.1287986
40
0.3085444
50
87.2492461
51
138.1666045
0
ARC
8
DEFAULT_255_2_778
10
27.8502396
20
129.1423295
40
0.2948909
50
40.3065162
51
92.2772981
0
ARC
8
DEFAULT_255_2_778
10
27.7680817
20
129.0839367
40
0.3954109
50
358.8478608
51
39.05795
0
ARC
8
DEFAULT_255_2_778
10
27.561963
20
129.0645139
40
0.601559
50
359.9974809
51
1.092731
0
ARC
8
DEFAULT_255_2_778
10
27.7346743
20
129.0505721
40
0.4290733
50
330.0188811
51
1.8584993
0
ARC
8
DEFAULT_255_2_778
10
27.8191536
20
129.0121742
40
0.3368294
50
317.6087935
51
328.4953202
0
ARC
8
DEFAULT_255_2_778
10
27.8268444
20
129.0089356
40
0.3289777
50
267.435023
51
317.1223187
0
ARC
8
DEFAULT_255_2_778
10
27.8036581
20
129.0043336
40
0.3241566
50
217.9720493
51
271.4961696
0
ARC
8
DEFAULT_255_2_778
10
27.9215433
20
129.0964727
40
0.4737778
50
181.5323256
51
217.9844115
0
ARC
8
DEFAULT_255_2_778
10
28.1630638
20
129.1254752
40
0.716342
50
179.9670229
51
183.3349518
0
ARC
8
DEFAULT_255_2_778
10
28.5069067
20
129.1935878
40
1.0602608
50
167.0332303
51
180.6863328
0
ARC
8
DEFAULT_255_2_778
10
28.0273616
20
129.308693
40
0.5671345
50
142.0215885
51
167.4946115
0
ARC
8
DEFAULT_255_2_778
10
27.9307207
20
129.3656108
40
0.4561668
50
95.9325682
51
140.1869363
0
ARC
8
DEFAULT_255_2_778
10
27.9873299
20
129.0764402
40
0.7501049
50
90.7110019
51
97.9508868
0
ARC
8
DEFAULT_255_2_778
10
27.8138736
20
129.0869316
40
0.2302567
50
89.8386919
51
126.0954755
0
ARC
8
DEFAULT_255_2_778
10
27.8076479
20
129.0828533
40
0.2300046
50
124.2434684
51
159.8493547
0
ARC
8
DEFAULT_255_2_778
10
27.9891009
20
129.0963104
40
0.3975975
50
178.1007745
51
206.8124011
0
ARC
8
DEFAULT_255_2_778
10
27.8774646
20
129.0494582
40
0.2769613
50
208.5795391
51
216.5328867
0
ARC
8
DEFAULT_255_2_778
10
27.813423
20
128.9887475
40
0.1896627
50
213.311166
51
269.6975568
0
ARC
8
DEFAULT_255_2_778
10
27.8199676
20
128.9827972
40
0.1838646
50
267.6479563
51
322.3899254
0
ARC
8
DEFAULT_255_2_778
10
27.7266984
20
129.0437065
40
0.2950502
50
324.0736952
51
2.6965483
0
ARC
8
DEFAULT_255_2_778
10
27.7269938
20
129.0715585
40
0.2947594
50
357.2832673
51
36.2102112
0
ARC
8
DEFAULT_255_2_778
10
27.8200985
20
129.1356726
40
0.1817915
50
37.2411288
51
91.663272
0
LINE
8
DEFAULT_255_2_778
10
27.9780219
20
129.8261875
11
28.0036219
21
129.8261875
0
LINE
8
DEFAULT_255_2_778
10
28.0036219
20
129.8261875
11
28.0036219
21
129.7044875
0
LINE
8
DEFAULT_255_2_778
10
28.0036219
20
129.7044875
11
27.9772219
21
129.7044875
0
LINE
8
DEFAULT_255_2_778
10
27.4467219
20
129.1258875
11
27.4467219
21
129.1808875
0
LINE
8
DEFAULT_255_2_778
10
27.9780219
20
129.8264875
11
27.9780219
21
129.8261875
0
LINE
8
DEFAULT_255_2_778
10
27.5917219
20
129.1620875
11
27.5917219
21
129.1094875
0
LINE
8
DEFAULT_255_2_778
10
27.8148219
20
129.3173875
11
27.8145219
21
129.3171875
0
LINE
8
DEFAULT_255_2_778
10
20.3476479
20
133.4535635
11
20.3476479
21
132.3185635
0
LINE
8
DEFAULT_255_2_778
10
20.3476479
20
132.3185635
11
20.2026479
21
132.3185635
0
LINE
8
DEFAULT_255_2_778
10
20.2026479
20
132.3185635
11
20.2026479
21
133.2752635
0
LINE
8
DEFAULT_255_2_778
10
20.2026479
20
133.2752635
11
19.9121479
21
133.1688635
0
LINE
8
DEFAULT_255_2_778
10
19.9121479
20
133.1688635
11
19.9121479
21
133.2993635
0
LINE
8
DEFAULT_255_2_778
10
19.9121479
20
133.2993635
11
20.3251479
21
133.4538635
0
LINE
8
DEFAULT_255_2_778
10
20.3251479
20
133.4538635
11
20.3476479
21
133.4538635
0
LINE
8
DEFAULT_255_2_778
10
20.3476479
20
133.4538635
11
20.3476479
21
133.4535635
0
ARC
8
DEFAULT_255_2_778
10
19.5737419
20
136.655143
40
1.0115205
50
348.8531957
51
0.7017289
0
ARC
8
DEFAULT_255_2_778
10
20.1260814
20
136.5406753
40
0.4475057
50
326.369508
51
349.5609794
0
ARC
8
DEFAULT_255_2_778
10
20.2589995
20
136.4682669
40
0.2970311
50
270.0338382
51
323.798241
0
ARC
8
DEFAULT_255_2_778
10
20.2286302
20
136.6862898
40
0.5159588
50
269.9618255
51
273.3938901
0
ARC
8
DEFAULT_255_2_778
10
20.2145501
20
136.5213624
40
0.3512998
50
238.0735162
51
272.2409187
0
ARC
8
DEFAULT_255_2_778
10
20.1813712
20
136.4502693
40
0.2735779
50
215.8016672
51
236.0968711
0
ARC
8
DEFAULT_255_2_778
10
20.3348436
20
136.5476533
40
0.4551473
50
190.0314997
51
214.4425585
0
ARC
8
DEFAULT_255_2_778
10
20.8316202
20
136.6519951
40
0.9626411
50
180.2240215
51
190.9965475
0
ARC
8
DEFAULT_255_2_778
10
20.8561415
20
136.8519246
40
0.9872304
50
168.7166274
51
180.7076853
0
ARC
8
DEFAULT_255_2_778
10
20.3205899
20
136.9642041
40
0.4400937
50
146.0580946
51
169.4095666
0
ARC
8
DEFAULT_255_2_778
10
20.1937265
20
137.0326312
40
0.2969741
50
90.683831
51
143.3431084
0
ARC
8
DEFAULT_255_2_778
10
20.2262057
20
136.8100598
40
0.5207718
50
89.9471064
51
93.9665057
0
ARC
8
DEFAULT_255_2_778
10
20.2400726
20
136.9640153
40
0.3670601
50
60.694034
51
92.0899579
0
ARC
8
DEFAULT_255_2_778
10
20.2819024
20
137.0564411
40
0.266133
50
36.3363395
51
58.8069834
0
ARC
8
DEFAULT_255_2_778
10
20.1412238
20
136.967516
40
0.4323061
50
10.2119061
51
34.7826154
0
ARC
8
DEFAULT_255_2_778
10
19.6087313
20
136.8549592
40
0.9764556
50
359.9338147
51
11.1724149
0
ARC
8
DEFAULT_255_2_778
10
19.6229139
20
136.8761834
40
0.8181613
50
359.1559602
51
10.8280238
0
ARC
8
DEFAULT_255_2_778
10
20.118496
20
136.9730084
40
0.3132195
50
10.4621231
51
30.0239048
0
ARC
8
DEFAULT_255_2_778
10
20.2392499
20
137.0366545
40
0.1769023
50
31.7455299
51
93.975127
0
ARC
8
DEFAULT_255_2_778
10
20.214856
20
137.0384029
40
0.1751489
50
86.0286259
51
148.4565241
0
ARC
8
DEFAULT_255_2_778
10
20.3847298
20
136.9524693
40
0.3652132
50
150.9097357
51
173.5470526
0
ARC
8
DEFAULT_255_2_778
10
20.8881084
20
136.8729792
40
0.8746237
50
172.0786243
51
179.8852267
0
ARC
8
DEFAULT_255_2_778
10
20.8221783
20
136.6333602
40
0.8087761
50
179.1731681
51
191.1092606
0
ARC
8
DEFAULT_255_2_778
10
20.3519649
20
136.5394124
40
0.3292758
50
190.8332213
51
210.0287946
0
ARC
8
DEFAULT_255_2_778
10
20.2196284
20
136.4641419
40
0.1770375
50
210.3713932
51
272.9003908
0
ARC
8
DEFAULT_255_2_778
10
20.23876
20
136.4615142
40
0.1744799
50
266.6573063
51
328.2232447
0
ARC
8
DEFAULT_255_2_778
10
20.0814348
20
136.5454373
40
0.3526057
50
330.093159
51
352.701402
0
ARC
8
DEFAULT_255_2_778
10
19.5619567
20
136.6336478
40
0.8793439
50
351.3003089
51
359.6731338
0
LINE
8
DEFAULT_255_2_778
10
20.5851865
20
136.8538312
11
20.5851865
21
136.6675312
0
LINE
8
DEFAULT_255_2_778
10
19.8689865
20
136.6482312
11
19.8689865
21
136.8397312
0
LINE
8
DEFAULT_255_2_778
10
20.5851865
20
136.8538312
11
20.5851865
21
136.8538312
0
LINE
8
DEFAULT_255_2_778
10
20.4409865
20
136.6289312
11
20.4409865
21
136.8641312
0
LINE
8
DEFAULT_255_2_778
10
20.0134865
20
136.8747312
11
20.0134865
21
136.6450312
0
LINE
8
DEFAULT_255_2_778
10
20.4412865
20
136.6286312
11
20.4409865
21
136.6289312
0
LINE
8
DEFAULT_255_2_778
10
28.0465573
20
137.2186854
11
28.0465573
21
136.4682854
0
LINE
8
DEFAULT_255_2_778
10
28.0465573
20
136.4682854
11
28.2039573
21
136.4682854
0
LINE
8
DEFAULT_255_2_778
10
28.2039573
20
136.4682854
11
28.2039573
21
136.3510854
0
LINE
8
DEFAULT_255_2_778
10
28.2039573
20
136.3510854
11
28.0465573
21
136.3510854
0
LINE
8
DEFAULT_255_2_778
10
28.0465573
20
136.3510854
11
28.0465573
21
136.0888854
0
LINE
8
DEFAULT_255_2_778
10
28.0465573
20
136.0888854
11
27.9015573
21
136.0888854
0
LINE
8
DEFAULT_255_2_778
10
27.9015573
20
136.0888854
11
27.9015573
21
136.3510854
0
LINE
8
DEFAULT_255_2_778
10
27.9015573
20
136.3510854
11
27.3850573
21
136.3510854
0
LINE
8
DEFAULT_255_2_778
10
27.3850573
20
136.3510854
11
27.3850573
21
136.4357854
0
LINE
8
DEFAULT_255_2_778
10
27.3850573
20
136.4357854
11
27.8930573
21
137.2186854
0
LINE
8
DEFAULT_255_2_778
10
27.8930573
20
137.2186854
11
28.0465573
21
137.2186854
0
LINE
8
DEFAULT_255_2_778
10
28.0465573
20
137.2186854
11
28.0465573
21
137.2186854
0
LINE
8
DEFAULT_255_2_778
10
27.8843573
20
136.9913854
11
27.5485573
21
136.4685854
0
LINE
8
DEFAULT_255_2_778
10
27.5485573
20
136.4685854
11
27.9015573
21
136.4685854
0
LINE
8
DEFAULT_255_2_778
10
27.9015573
20
136.4685854
11
27.9015573
21
137.0225854
0
LINE
8
DEFAULT_255_2_778
10
27.9015573
20
137.0225854
11
27.8843573
21
136.9916854
0
LINE
8
DEFAULT_255_2_778
10
27.8843573
20
136.9916854
11
27.8843573
21
136.9913854
0
ARC
8
DEFAULT_255_2_778
10
24.6235842
20
140.143048
40
0.5832702
50
73.0526851
51
91.2224461
0
ARC
8
DEFAULT_255_2_778
10
24.7039639
20
140.4170906
40
0.2977133
50
51.5624697
51
72.4768146
0
ARC
8
DEFAULT_255_2_778
10
24.7142927
20
140.4473974
40
0.2677693
50
358.2424045
51
49.2616027
0
ARC
8
DEFAULT_255_2_778
10
24.5215249
20
140.425457
40
0.4606157
50
359.9910922
51
1.7078206
0
ARC
8
DEFAULT_255_2_778
10
24.7538189
20
140.4219349
40
0.2283478
50
323.2739849
51
0.865817
0
ARC
8
DEFAULT_255_2_778
10
24.7031392
20
140.4631344
40
0.2936172
50
292.1496112
51
322.7440493
0
ARC
8
DEFAULT_255_2_778
10
24.7475899
20
139.9352752
40
0.2643467
50
36.8433936
51
75.4857688
0
ARC
8
DEFAULT_255_2_778
10
24.734233
20
139.9297091
40
0.2783963
50
358.5543235
51
36.1117732
0
ARC
8
DEFAULT_255_2_778
10
24.7114786
20
139.9073044
40
0.3014547
50
312.115061
51
2.9246586
0
ARC
8
DEFAULT_255_2_778
10
24.680597
20
139.9664367
40
0.3664119
50
274.459541
51
309.4953436
0
ARC
8
DEFAULT_255_2_778
10
24.6357413
20
140.2470078
40
0.650025
50
269.8412847
51
276.478818
0
ARC
8
DEFAULT_255_2_778
10
24.6505032
20
139.9557773
40
0.2380672
50
266.782322
51
309.5025034
0
ARC
8
DEFAULT_255_2_778
10
24.6730853
20
139.9109144
40
0.1894127
50
312.8662119
51
2.9872567
0
ARC
8
DEFAULT_255_2_778
10
24.6584342
20
139.9342468
40
0.2042505
50
356.2211065
51
39.9886394
0
ARC
8
DEFAULT_255_2_778
10
24.6714179
20
139.9165136
40
0.2068644
50
46.0742141
51
88.8759085
0
ARC
8
DEFAULT_255_2_778
10
24.6402847
20
139.69638
40
0.428406
50
85.2881366
51
90.0995172
0
ARC
8
DEFAULT_255_2_778
10
24.6281271
20
140.4807638
40
0.2369919
50
267.052457
51
307.6347982
0
ARC
8
DEFAULT_255_2_778
10
24.6682717
20
140.418664
40
0.1634156
50
309.7840542
51
2.4274532
0
ARC
8
DEFAULT_255_2_778
10
24.6705184
20
140.4396433
40
0.1616348
50
355.0104942
51
48.1727734
0
ARC
8
DEFAULT_255_2_778
10
24.6998213
20
140.4615685
40
0.1259621
50
51.4558672
51
52.1906364
0
ARC
8
DEFAULT_255_2_778
10
24.6458194
20
140.3703685
40
0.2314994
50
55.4704019
51
88.3498731
0
ARC
8
DEFAULT_255_2_778
10
24.612163
20
140.0990854
40
0.504301
50
85.4138667
51
90.1161507
0
LINE
8
DEFAULT_255_2_778
10
24.6336406
20
139.5963854
11
24.2402406
21
139.5963854
0
LINE
8
DEFAULT_255_2_778
10
24.2402406
20
139.5963854
11
24.2402406
21
140.7261854
0
LINE
8
DEFAULT_255_2_778
10
24.2402406
20
140.7261854
11
24.6111406
21
140.7261854
0
LINE
8
DEFAULT_255_2_778
10
24.6339406
20
139.5969854
11
24.6336406
21
139.5963854
0
LINE
8
DEFAULT_255_2_778
10
24.6392406
20
140.1247854
11
24.3900406
21
140.1247854
0
LINE
8
DEFAULT_255_2_778
10
24.3900406
20
140.1247854
11
24.3900406
21
139.7180854
0
LINE
8
DEFAULT_255_2_778
10
24.3900406
20
139.7180854
11
24.6371406
21
139.7180854
0
LINE
8
DEFAULT_255_2_778
10
24.6395406
20
140.1247854
11
24.6392406
21
140.1247854
0
LINE
8
DEFAULT_255_2_778
10
24.3900406
20
140.6033854
11
24.3900406
21
140.2440854
0
LINE
8
DEFAULT_255_2_778
10
24.3900406
20
140.2440854
11
24.6159406
21
140.2440854
0
LINE
8
DEFAULT_255_2_778
10
24.6111406
20
140.6033854
11
24.3900406
21
140.6033854
0
LINE
8
DEFAULT_255_2_778
10
24.3900406
20
140.6033854
11
24.3900406
21
140.6033854
0
LINE
8
DEFAULT_255_2_778
10
25.71285
20
140.7262041
11
25.23975
21
139.4996041
0
LINE
8
DEFAULT_255_2_778
10
25.23975
20
139.4996041
11
25.11595
21
139.4996041
0
LINE
8
DEFAULT_255_2_778
10
25.11595
20
139.4996041
11
25.58985
21
140.7262041
0
LINE
8
DEFAULT_255_2_778
10
25.58985
20
140.7262041
11
25.71285
21
140.7262041
0
LINE
8
DEFAULT_255_2_778
10
25.71285
20
140.7262041
11
25.71285
21
140.7262041
0
ARC
8
DEFAULT_255_2_778
10
26.2217606
20
140.2096904
40
0.516601
50
60.9007738
51
91.1607162
0
ARC
8
DEFAULT_255_2_778
10
26.254729
20
140.2783907
40
0.4405629
50
26.5896221
51
60.3020671
0
ARC
8
DEFAULT_255_2_778
10
26.1093185
20
140.2079249
40
0.6021379
50
359.1874039
51
26.392435
0
ARC
8
DEFAULT_255_2_778
10
26.1068405
20
140.1138026
40
0.6047034
50
333.8171975
51
1.2681232
0
ARC
8
DEFAULT_255_2_778
10
26.2615751
20
140.0412307
40
0.4338361
50
299.1349073
51
333.401293
0
ARC
8
DEFAULT_255_2_778
10
26.2113056
20
140.147828
40
0.5514787
50
269.3444325
51
298.3048002
0
ARC
8
DEFAULT_255_2_778
10
26.212519
20
140.0831495
40
0.3653489
50
267.7375038
51
304.7226819
0
ARC
8
DEFAULT_255_2_778
10
26.2389826
20
140.029045
40
0.30594
50
306.4210309
51
318.2400135
0
ARC
8
DEFAULT_255_2_778
10
26.1705181
20
140.0771818
40
0.3891908
50
319.6668314
51
354.6729948
0
ARC
8
DEFAULT_255_2_778
10
25.8739639
20
140.1277444
40
0.689536
50
352.7771113
51
0.1945185
0
ARC
8
DEFAULT_255_2_778
10
26.0149337
20
140.2087234
40
0.54871
50
358.6697936
51
20.484752
0
ARC
8
DEFAULT_255_2_778
10
26.2131455
20
140.2764267
40
0.3393909
50
21.4882143
51
40.0887413
0
ARC
8
DEFAULT_255_2_778
10
26.2323463
20
140.2819179
40
0.321269
50
41.5448495
51
91.654909
0
ARC
8
DEFAULT_255_2_778
10
26.210329
20
140.0849789
40
0.5182305
50
88.5914103
51
89.4508601
0
LINE
8
DEFAULT_255_2_778
10
26.2052958
20
139.5963854
11
25.8911958
21
139.5963854
0
LINE
8
DEFAULT_255_2_778
10
25.8911958
20
139.5963854
11
25.8911958
21
140.7261854
0
LINE
8
DEFAULT_255_2_778
10
25.8911958
20
140.7261854
11
26.2112958
21
140.7261854
0
LINE
8
DEFAULT_255_2_778
10
26.7113958
20
140.1993854
11
26.7113958
21
140.1271854
0
LINE
8
DEFAULT_255_2_778
10
26.2049958
20
139.5963854
11
26.2052958
21
139.5963854
0
LINE
8
DEFAULT_255_2_778
10
26.2152958
20
140.6033854
11
26.0406958
21
140.6033854
0
LINE
8
DEFAULT_255_2_778
10
26.0406958
20
140.6033854
11
26.0406958
21
139.7180854
0
LINE
8
DEFAULT_255_2_778
10
26.0406958
20
139.7180854
11
26.1980958
21
139.7180854
0
LINE
8
DEFAULT_255_2_778
10
26.5634958
20
140.1300854
11
26.5634958
21
140.1959854
0
LINE
8
DEFAULT_255_2_778
10
26.2152958
20
140.6031854
11
26.2152958
21
140.6033854
0
ARC
8
DEFAULT_255_2_778
10
5.1922841
20
106.2282391
40
0.9095163
50
243.4850827
51
254.7698021
0
ARC
8
DEFAULT_255_2_778
10
4.9690423
20
105.7800299
40
0.4087887
50
228.4785689
51
243.4383373
0
ARC
8
DEFAULT_255_2_778
10
4.8536768
20
105.650792
40
0.2355524
50
179.0574789
51
228.649611
0
ARC
8
DEFAULT_255_2_778
10
4.8664755
20
105.6583839
40
0.248347
50
127.3649348
51
180.8576215
0
ARC
8
DEFAULT_255_2_778
10
4.9480209
20
105.5552519
40
0.3798104
50
89.660422
51
127.7000457
0
ARC
8
DEFAULT_255_2_778
10
4.9694512
20
105.3438369
40
0.5915298
50
89.9898204
51
91.8580373
0
ARC
8
DEFAULT_255_2_778
10
4.9772528
20
105.5102897
40
0.4251466
50
64.608485
51
91.0372988
0
ARC
8
DEFAULT_255_2_778
10
5.0265578
20
105.6126195
40
0.3115607
50
32.7283073
51
64.7303933
0
ARC
8
DEFAULT_255_2_778
10
5.0453866
20
105.6250987
40
0.2889742
50
359.6764044
51
32.6652308
0
ARC
8
DEFAULT_255_2_778
10
5.0113378
20
105.6332493
40
0.1862755
50
356.9896172
51
47.2187886
0
ARC
8
DEFAULT_255_2_778
10
4.9886241
20
105.5879646
40
0.2353614
50
50.6500378
51
91.3809442
0
ARC
8
DEFAULT_255_2_778
10
4.9696561
20
105.4004622
40
0.4230045
50
88.1987832
51
90.0135221
0
ARC
8
DEFAULT_255_2_778
10
4.9567574
20
105.5623295
40
0.2614506
50
87.1940704
51
120.6883099
0
ARC
8
DEFAULT_255_2_778
10
4.9160322
20
105.6469066
40
0.1681305
50
123.4645516
51
128.071149
0
ARC
8
DEFAULT_255_2_778
10
4.9032638
20
105.6632825
40
0.1473652
50
128.089075
51
182.6509434
0
ARC
8
DEFAULT_255_2_778
10
4.888077
20
105.6564462
40
0.1320208
50
179.9911253
51
233.6123154
0
ARC
8
DEFAULT_255_2_778
10
5.0279342
20
105.8428888
40
0.3650861
50
233.301321
51
250.5251799
0
ARC
8
DEFAULT_255_2_778
10
5.2495406
20
106.4000479
40
0.9645293
50
249.1483704
51
254.5292686
0
ARC
8
DEFAULT_255_2_778
10
4.729542
20
104.4860141
40
1.0189041
50
65.7196603
51
75.0580646
0
ARC
8
DEFAULT_255_2_778
10
4.936363
20
104.9578024
40
0.5038327
50
59.2649384
51
65.0971905
0
ARC
8
DEFAULT_255_2_778
10
5.0450662
20
105.124014
40
0.3055304
50
32.8098873
51
60.8571043
0
ARC
8
DEFAULT_255_2_778
10
5.078978
20
105.1592986
40
0.2581559
50
358.5945264
51
30.3054643
0
ARC
8
DEFAULT_255_2_778
10
5.0966845
20
105.1461839
40
0.2404675
50
306.3330835
51
1.6163179
0
ARC
8
DEFAULT_255_2_778
10
5.0115288
20
105.2665075
40
0.3878607
50
272.4475041
51
305.9358716
0
ARC
8
DEFAULT_255_2_778
10
4.9780544
20
105.5251055
40
0.6480396
50
269.9294376
51
274.4284412
0
ARC
8
DEFAULT_255_2_778
10
4.9731969
20
105.3626315
40
0.4855818
50
246.3692999
51
270.4789888
0
ARC
8
DEFAULT_255_2_778
10
4.9062333
20
105.2276865
40
0.335189
50
216.3177044
51
247.6099118
0
ARC
8
DEFAULT_255_2_778
10
4.8571711
20
105.1860591
40
0.2710402
50
179.2162214
51
215.3699047
0
ARC
8
DEFAULT_255_2_778
10
4.899898
20
105.182824
40
0.1767782
50
177.7492233
51
232.6118337
0
ARC
8
DEFAULT_255_2_778
10
4.9605029
20
105.276694
40
0.2882974
50
234.3701486
51
271.7655607
0
ARC
8
DEFAULT_255_2_778
10
4.9774161
20
105.4726742
40
0.4842075
50
269.0496874
51
270.0047522
0
ARC
8
DEFAULT_255_2_778
10
4.9897787
20
105.2914696
40
0.3032534
50
267.6711952
51
295.1178482
0
ARC
8
DEFAULT_255_2_778
10
5.0397029
20
105.1678059
40
0.170248
50
297.5719115
51
307.2936535
0
ARC
8
DEFAULT_255_2_778
10
5.0578624
20
105.1467321
40
0.1424901
50
306.6189149
51
2.1053033
0
ARC
8
DEFAULT_255_2_778
10
5.061069
20
105.1591793
40
0.139374
50
357.0335907
51
51.9060065
0
ARC
8
DEFAULT_255_2_778
10
4.9320577
20
104.968303
40
0.3695442
50
54.4231756
51
69.7812958
0
ARC
8
DEFAULT_255_2_778
10
4.6433842
20
104.2521741
40
1.1415519
50
68.6073421
51
74.2130417
0
LINE
8
DEFAULT_255_2_778
10
5.3343563
20
105.6234667
11
5.1973563
21
105.6234667
0
LINE
8
DEFAULT_255_2_778
10
4.5861563
20
105.1897667
11
4.7232563
21
105.1897667
0
LINE
8
DEFAULT_255_2_778
10
4.9539563
20
105.3506667
11
4.9533563
21
105.3506667
0
LINE
8
DEFAULT_255_2_778
10
6.0958521
20
105.4786469
11
6.0958521
21
105.3675469
0
LINE
8
DEFAULT_255_2_778
10
6.0958521
20
105.3675469
11
5.6479521
21
105.3675469
0
LINE
8
DEFAULT_255_2_778
10
5.6479521
20
105.3675469
11
5.6479521
21
105.0026469
0
LINE
8
DEFAULT_255_2_778
10
5.6479521
20
105.0026469
11
6.1683521
21
105.0026469
0
LINE
8
DEFAULT_255_2_778
10
6.1683521
20
105.0026469
11
6.1683521
21
104.8915469
0
LINE
8
DEFAULT_255_2_778
10
6.1683521
20
104.8915469
11
5.5116521
21
104.8915469
0
LINE
8
DEFAULT_255_2_778
10
5.5116521
20
104.8915469
11
5.5116521
21
105.9210469
0
LINE
8
DEFAULT_255_2_778
10
5.5116521
20
105.9210469
11
6.1612521
21
105.9210469
0
LINE
8
DEFAULT_255_2_778
10
6.1612521
20
105.9210469
11
6.1612521
21
105.8093469
0
LINE
8
DEFAULT_255_2_778
10
6.1612521
20
105.8093469
11
5.6479521
21
105.8093469
0
LINE
8
DEFAULT_255_2_778
10
5.6479521
20
105.8093469
11
5.6479521
21
105.4784469
0
LINE
8
DEFAULT_255_2_778
10
5.6479521
20
105.4784469
11
6.0958521
21
105.4784469
0
LINE
8
DEFAULT_255_2_778
10
6.0958521
20
105.4784469
11
6.0958521
21
105.4786469
0
LINE
8
DEFAULT_255_2_778
10
6.4750688
20
105.9213469
11
6.4750688
21
105.0029469
0
LINE
8
DEFAULT_255_2_778
10
6.4750688
20
105.0029469
11
6.9650688
21
105.0029469
0
LINE
8
DEFAULT_255_2_778
10
6.9650688
20
105.0029469
11
6.9650688
21
104.8918469
0
LINE
8
DEFAULT_255_2_778
10
6.9650688
20
104.8918469
11
6.3379688
21
104.8918469
0
LINE
8
DEFAULT_255_2_778
10
6.3379688
20
104.8918469
11
6.3379688
21
105.9213469
0
LINE
8
DEFAULT_255_2_778
10
6.3379688
20
105.9213469
11
6.4750688
21
105.9213469
0
LINE
8
DEFAULT_255_2_778
10
6.4750688
20
105.9213469
11
6.4750688
21
105.9213469
0
LINE
8
DEFAULT_255_2_778
10
7.7047521
20
105.4786469
11
7.7047521
21
105.3675469
0
LINE
8
DEFAULT_255_2_778
10
7.7047521
20
105.3675469
11
7.2568521
21
105.3675469
0
LINE
8
DEFAULT_255_2_778
10
7.2568521
20
105.3675469
11
7.2568521
21
105.0026469
0
LINE
8
DEFAULT_255_2_778
10
7.2568521
20
105.0026469
11
7.7772521
21
105.0026469
0
LINE
8
DEFAULT_255_2_778
10
7.7772521
20
105.0026469
11
7.7772521
21
104.8915469
0
LINE
8
DEFAULT_255_2_778
10
7.7772521
20
104.8915469
11
7.1205521
21
104.8915469
0
LINE
8
DEFAULT_255_2_778
10
7.1205521
20
104.8915469
11
7.1205521
21
105.9210469
0
LINE
8
DEFAULT_255_2_778
10
7.1205521
20
105.9210469
11
7.7701521
21
105.9210469
0
LINE
8
DEFAULT_255_2_778
10
7.7701521
20
105.9210469
11
7.7701521
21
105.8093469
0
LINE
8
DEFAULT_255_2_778
10
7.7701521
20
105.8093469
11
7.2568521
21
105.8093469
0
LINE
8
DEFAULT_255_2_778
10
7.2568521
20
105.8093469
11
7.2568521
21
105.4784469
0
LINE
8
DEFAULT_255_2_778
10
7.2568521
20
105.4784469
11
7.7047521
21
105.4784469
0
LINE
8
DEFAULT_255_2_778
10
7.7047521
20
105.4784469
11
7.7047521
21
105.4786469
0
ARC
8
DEFAULT_255_2_778
10
8.3137054
20
105.2496565
40
0.3947786
50
319.9748405
51
355.4399096
0
ARC
8
DEFAULT_255_2_778
10
8.3722096
20
105.2120147
40
0.3258887
50
311.0285366
51
318.4273541
0
ARC
8
DEFAULT_255_2_778
10
8.3419509
20
105.2617349
40
0.3833853
50
270.737512
51
309.562088
0
ARC
8
DEFAULT_255_2_778
10
8.3154339
20
105.4874939
40
0.6099241
50
269.971862
51
272.9558653
0
ARC
8
DEFAULT_255_2_778
10
8.3017599
20
105.2428568
40
0.3655318
50
219.9238681
51
272.096864
0
ARC
8
DEFAULT_255_2_778
10
8.3963111
20
105.3115286
40
0.482181
50
184.6027979
51
218.9713413
0
ARC
8
DEFAULT_255_2_778
10
8.683749
20
105.3565871
40
0.7726165
50
179.8752183
51
186.2231458
0
ARC
8
DEFAULT_255_2_778
10
8.4947025
20
105.4694411
40
0.583695
50
155.6967924
51
181.194831
0
ARC
8
DEFAULT_255_2_778
10
8.3124796
20
105.5518581
40
0.3837007
50
122.1083173
51
155.7142034
0
ARC
8
DEFAULT_255_2_778
10
8.3187963
20
105.5267846
40
0.4083745
50
88.8019965
51
120.9891122
0
ARC
8
DEFAULT_255_2_778
10
8.3415896
20
105.5413124
40
0.3940153
50
57.2287465
51
92.0733749
0
ARC
8
DEFAULT_255_2_778
10
8.3740858
20
105.6082114
40
0.3202976
50
47.2913053
51
55.6387275
0
ARC
8
DEFAULT_255_2_778
10
8.3291993
20
105.5714664
40
0.3778294
50
4.3493211
51
46.0689495
0
ARC
8
DEFAULT_255_2_778
10
8.130326
20
105.5323878
40
0.5795858
50
5.7116888
51
6.7110855
0
ARC
8
DEFAULT_255_2_778
10
8.2166312
20
105.5516494
40
0.355386
50
6.2063041
51
30.4498429
0
ARC
8
DEFAULT_255_2_778
10
8.3650851
20
105.6316223
40
0.1869849
50
32.3780511
51
46.8632925
0
ARC
8
DEFAULT_255_2_778
10
8.3423351
20
105.5910562
40
0.232409
50
49.6095808
51
92.9542217
0
ARC
8
DEFAULT_255_2_778
10
8.3270152
20
105.4064443
40
0.4167254
50
89.5405004
51
89.9973557
0
ARC
8
DEFAULT_255_2_778
10
8.3165788
20
105.5791757
40
0.244218
50
87.5462815
51
142.729253
0
ARC
8
DEFAULT_255_2_778
10
8.4230314
20
105.5103115
40
0.37076
50
144.2229863
51
174.3261738
0
ARC
8
DEFAULT_255_2_778
10
8.749371
20
105.4565084
40
0.7011429
50
172.5872887
51
180.2401369
0
ARC
8
DEFAULT_255_2_778
10
8.578462
20
105.3410676
40
0.5303797
50
178.6276756
51
200.4357909
0
ARC
8
DEFAULT_255_2_778
10
8.3881338
20
105.2775382
40
0.329921
50
201.6382344
51
215.1981478
0
ARC
8
DEFAULT_255_2_778
10
8.3064221
20
105.2157784
40
0.2275754
50
214.3499741
51
272.1939834
0
ARC
8
DEFAULT_255_2_778
10
8.3277039
20
105.2801565
40
0.2920573
50
267.5333602
51
298.0069382
0
ARC
8
DEFAULT_255_2_778
10
8.3735294
20
105.1775354
40
0.1801013
50
300.4667654
51
310.0989369
0
ARC
8
DEFAULT_255_2_778
10
8.3285438
20
105.2106424
40
0.2347668
50
313.2943848
51
347.3959789
0
ARC
8
DEFAULT_255_2_778
10
8.0540832
20
105.2978303
40
0.522247
50
344.6306221
51
351.2372872
0
LINE
8
DEFAULT_255_2_778
10
8.5702344
20
105.2182698
11
8.7072344
21
105.2182698
0
LINE
8
DEFAULT_255_2_778
10
7.9111344
20
105.3582698
11
7.9111344
21
105.4572698
0
LINE
8
DEFAULT_255_2_778
10
8.7070344
20
105.5900698
11
8.5699344
21
105.5900698
0
LINE
8
DEFAULT_255_2_778
10
8.0482344
20
105.4535698
11
8.0482344
21
105.3537698
0
LINE
8
DEFAULT_255_2_778
10
8.5702344
20
105.2182698
11
8.5702344
21
105.2182698
0
LINE
8
DEFAULT_255_2_778
10
9.5871146
20
105.9213146
11
9.5871146
21
105.8096146
0
LINE
8
DEFAULT_255_2_778
10
9.5871146
20
105.8096146
11
9.2548146
21
105.8096146
0
LINE
8
DEFAULT_255_2_778
10
9.2548146
20
105.8096146
11
9.2548146
21
104.8921146
0
LINE
8
DEFAULT_255_2_778
10
9.2548146
20
104.8921146
11
9.1190146
21
104.8921146
0
LINE
8
DEFAULT_255_2_778
10
9.1190146
20
104.8921146
11
9.1190146
21
105.8096146
0
LINE
8
DEFAULT_255_2_778
10
9.1190146
20
105.8096146
11
8.7875146
21
105.8096146
0
LINE
8
DEFAULT_255_2_778
10
8.7875146
20
105.8096146
11
8.7875146
21
105.9213146
0
LINE
8
DEFAULT_255_2_778
10
8.7875146
20
105.9213146
11
9.5871146
21
105.9213146
0
LINE
8
DEFAULT_255_2_778
10
9.5871146
20
105.9213146
11
9.5871146
21
105.9213146
0
ARC
8
DEFAULT_255_2_778
10
5.0143491
20
107.818737
40
0.4723035
50
60.9559645
51
91.1410458
0
ARC
8
DEFAULT_255_2_778
10
5.0454691
20
107.8835743
40
0.4005343
50
26.5567677
51
60.3450361
0
ARC
8
DEFAULT_255_2_778
10
4.9107717
20
107.8184857
40
0.5501237
50
359.2147966
51
26.3484727
0
ARC
8
DEFAULT_255_2_778
10
4.9085916
20
107.7329792
40
0.5523862
50
333.8750505
51
1.2621852
0
ARC
8
DEFAULT_255_2_778
10
5.0507532
20
107.667468
40
0.3959199
50
299.106743
51
333.3280482
0
ARC
8
DEFAULT_255_2_778
10
5.0056103
20
107.7613733
40
0.4999645
50
269.2932934
51
298.3919492
0
ARC
8
DEFAULT_255_2_778
10
5.007772
20
107.6964299
40
0.3244267
50
267.3626483
51
308.8510832
0
ARC
8
DEFAULT_255_2_778
10
5.0276112
20
107.6583216
40
0.2824302
50
310.5665618
51
318.1657761
0
ARC
8
DEFAULT_255_2_778
10
4.9644663
20
107.7010008
40
0.3580929
50
319.8167302
51
355.4930575
0
ARC
8
DEFAULT_255_2_778
10
4.6871061
20
107.7459301
40
0.6385403
50
353.4292431
51
0.1630128
0
ARC
8
DEFAULT_255_2_778
10
4.836617
20
107.8206529
40
0.4891944
50
358.4999488
51
21.9317916
0
ARC
8
DEFAULT_255_2_778
10
5.0099055
20
107.883233
40
0.3051461
50
23.1847743
51
40.238116
0
ARC
8
DEFAULT_255_2_778
10
5.0219331
20
107.8834325
40
0.2959337
50
41.7130384
51
92.6635416
0
LINE
8
DEFAULT_255_2_778
10
4.9991438
20
107.2614469
11
4.7131438
21
107.2614469
0
LINE
8
DEFAULT_255_2_778
10
4.7131438
20
107.2614469
11
4.7131438
21
108.2909469
0
LINE
8
DEFAULT_255_2_778
10
4.7131438
20
108.2909469
11
5.0049438
21
108.2909469
0
LINE
8
DEFAULT_255_2_778
10
5.4608438
20
107.8109469
11
5.4608438
21
107.7451469
0
LINE
8
DEFAULT_255_2_778
10
4.9994438
20
107.2614469
11
4.9991438
21
107.2614469
0
LINE
8
DEFAULT_255_2_778
10
5.0084438
20
108.1790469
11
4.8494438
21
108.1790469
0
LINE
8
DEFAULT_255_2_778
10
4.8494438
20
108.1790469
11
4.8494438
21
107.3723469
0
LINE
8
DEFAULT_255_2_778
10
4.8494438
20
107.3723469
11
4.9928438
21
107.3723469
0
LINE
8
DEFAULT_255_2_778
10
5.3256438
20
107.7477469
11
5.3256438
21
107.8078469
0
LINE
8
DEFAULT_255_2_778
10
5.0081438
20
108.1790469
11
5.0084438
21
108.1790469
0
LINE
8
DEFAULT_255_2_778
10
5.8130698
20
108.2909469
11
5.8130698
21
107.2614469
0
LINE
8
DEFAULT_255_2_778
10
5.8130698
20
107.2614469
11
5.6767698
21
107.2614469
0
LINE
8
DEFAULT_255_2_778
10
5.6767698
20
107.2614469
11
5.6767698
21
108.2909469
0
LINE
8
DEFAULT_255_2_778
10
5.6767698
20
108.2909469
11
5.8130698
21
108.2909469
0
LINE
8
DEFAULT_255_2_778
10
5.8130698
20
108.2909469
11
5.8130698
21
108.2909469
0
ARC
8
DEFAULT_255_2_778
10
6.6056841
20
108.5978391
40
0.9095163
50
243.4850827
51
254.7698021
0
ARC
8
DEFAULT_255_2_778
10
6.3824423
20
108.1496299
40
0.4087887
50
228.4785689
51
243.4383373
0
ARC
8
DEFAULT_255_2_778
10
6.2670768
20
108.020392
40
0.2355524
50
179.0574789
51
228.649611
0
ARC
8
DEFAULT_255_2_778
10
6.2798755
20
108.0279839
40
0.248347
50
127.3649348
51
180.8576215
0
ARC
8
DEFAULT_255_2_778
10
6.3614209
20
107.9248519
40
0.3798104
50
89.660422
51
127.7000457
0
ARC
8
DEFAULT_255_2_778
10
6.3828512
20
107.7134369
40
0.5915298
50
89.9898204
51
91.8580373
0
ARC
8
DEFAULT_255_2_778
10
6.3906528
20
107.8798897
40
0.4251466
50
64.608485
51
91.0372988
0
ARC
8
DEFAULT_255_2_778
10
6.4399578
20
107.9822195
40
0.3115607
50
32.7283073
51
64.7303933
0
ARC
8
DEFAULT_255_2_778
10
6.4587866
20
107.9946987
40
0.2889742
50
359.6764044
51
32.6652308
0
ARC
8
DEFAULT_255_2_778
10
6.4247378
20
108.0028493
40
0.1862755
50
356.9896172
51
47.2187886
0
ARC
8
DEFAULT_255_2_778
10
6.4020241
20
107.9575646
40
0.2353614
50
50.6500378
51
91.3809442
0
ARC
8
DEFAULT_255_2_778
10
6.3830561
20
107.7700622
40
0.4230045
50
88.1987832
51
90.0135221
0
ARC
8
DEFAULT_255_2_778
10
6.3701574
20
107.9319295
40
0.2614506
50
87.1940704
51
120.6883099
0
ARC
8
DEFAULT_255_2_778
10
6.3294322
20
108.0165066
40
0.1681305
50
123.4645516
51
128.071149
0
ARC
8
DEFAULT_255_2_778
10
6.3166638
20
108.0328825
40
0.1473652
50
128.089075
51
182.6509434
0
ARC
8
DEFAULT_255_2_778
10
6.301477
20
108.0260462
40
0.1320208
50
179.9911253
51
233.6123154
0
ARC
8
DEFAULT_255_2_778
10
6.4413342
20
108.2124888
40
0.3650861
50
233.301321
51
250.5251799
0
ARC
8
DEFAULT_255_2_778
10
6.6629406
20
108.7696479
40
0.9645293
50
249.1483704
51
254.5292686
0
ARC
8
DEFAULT_255_2_778
10
6.142942
20
106.8556141
40
1.0189041
50
65.7196603
51
75.0580646
0
ARC
8
DEFAULT_255_2_778
10
6.349763
20
107.3274024
40
0.5038327
50
59.2649384
51
65.0971905
0
ARC
8
DEFAULT_255_2_778
10
6.4584662
20
107.493614
40
0.3055304
50
32.8098873
51
60.8571043
0
ARC
8
DEFAULT_255_2_778
10
6.492378
20
107.5288986
40
0.2581559
50
358.5945264
51
30.3054643
0
ARC
8
DEFAULT_255_2_778
10
6.5100845
20
107.5157839
40
0.2404675
50
306.3330835
51
1.6163179
0
ARC
8
DEFAULT_255_2_778
10
6.4249288
20
107.6361075
40
0.3878607
50
272.4475041
51
305.9358716
0
ARC
8
DEFAULT_255_2_778
10
6.3914544
20
107.8947055
40
0.6480396
50
269.9294376
51
274.4284412
0
ARC
8
DEFAULT_255_2_778
10
6.3865969
20
107.7322315
40
0.4855818
50
246.3692999
51
270.4789888
0
ARC
8
DEFAULT_255_2_778
10
6.3196333
20
107.5972865
40
0.335189
50
216.3177044
51
247.6099118
0
ARC
8
DEFAULT_255_2_778
10
6.2705711
20
107.5556591
40
0.2710402
50
179.2162214
51
215.3699047
0
ARC
8
DEFAULT_255_2_778
10
6.313298
20
107.552424
40
0.1767782
50
177.7492233
51
232.6118337
0
ARC
8
DEFAULT_255_2_778
10
6.3739029
20
107.646294
40
0.2882974
50
234.3701486
51
271.7655607
0
ARC
8
DEFAULT_255_2_778
10
6.3908161
20
107.8422742
40
0.4842075
50
269.0496874
51
270.0047522
0
ARC
8
DEFAULT_255_2_778
10
6.4031787
20
107.6610696
40
0.3032534
50
267.6711952
51
295.1178482
0
ARC
8
DEFAULT_255_2_778
10
6.4531029
20
107.5374059
40
0.170248
50
297.5719115
51
307.2936535
0
ARC
8
DEFAULT_255_2_778
10
6.4712624
20
107.5163321
40
0.1424901
50
306.6189149
51
2.1053033
0
ARC
8
DEFAULT_255_2_778
10
6.474469
20
107.5287793
40
0.139374
50
357.0335907
51
51.9060065
0
ARC
8
DEFAULT_255_2_778
10
6.3454577
20
107.337903
40
0.3695442
50
54.4231756
51
69.7812958
0
ARC
8
DEFAULT_255_2_778
10
6.0567842
20
106.6217741
40
1.1415519
50
68.6073421
51
74.2130417
0
LINE
8
DEFAULT_255_2_778
10
6.7477563
20
107.9930667
11
6.6107563
21
107.9930667
0
LINE
8
DEFAULT_255_2_778
10
5.9995563
20
107.5593667
11
6.1366563
21
107.5593667
0
LINE
8
DEFAULT_255_2_778
10
6.3673563
20
107.7202667
11
6.3667563
21
107.7202667
0
ARC
8
DEFAULT_255_2_778
10
7.3195523
20
107.8527267
40
0.4384186
50
64.4528399
51
91.7242702
0
ARC
8
DEFAULT_255_2_778
10
7.3715537
20
107.980152
40
0.3011331
50
48.2021099
51
62.923792
0
ARC
8
DEFAULT_255_2_778
10
7.3772704
20
107.9879371
40
0.2915206
50
357.7214362
51
48.019902
0
ARC
8
DEFAULT_255_2_778
10
7.3720806
20
107.9612911
40
0.2968618
50
319.1397485
51
2.9070794
0
ARC
8
DEFAULT_255_2_778
10
7.4047157
20
107.9439303
40
0.2609514
50
310.5491909
51
317.3345577
0
ARC
8
DEFAULT_255_2_778
10
7.3538248
20
108.0196224
40
0.3517081
50
274.6988059
51
308.8321962
0
ARC
8
DEFAULT_255_2_778
10
7.3070028
20
108.3092279
40
0.6445842
50
269.8184541
51
276.7383977
0
ARC
8
DEFAULT_255_2_778
10
7.319107
20
108.0411667
40
0.2662252
50
267.2556863
51
300.5253257
0
ARC
8
DEFAULT_255_2_778
10
7.3609982
20
107.9544743
40
0.1704558
50
303.1977029
51
311.4169342
0
ARC
8
DEFAULT_255_2_778
10
7.3456815
20
107.9625905
40
0.186775
50
313.29378
51
3.7317698
0
ARC
8
DEFAULT_255_2_778
10
7.3389979
20
107.9833336
40
0.1932533
50
357.4533685
51
45.7863521
0
ARC
8
DEFAULT_255_2_778
10
7.3216944
20
107.9488362
40
0.2303405
50
48.6864627
51
91.9241418
0
LINE
8
DEFAULT_255_2_778
10
7.3047604
20
107.6644469
11
7.0613604
21
107.6644469
0
LINE
8
DEFAULT_255_2_778
10
7.0613604
20
107.6644469
11
7.0613604
21
107.2614469
0
LINE
8
DEFAULT_255_2_778
10
7.0613604
20
107.2614469
11
6.9250604
21
107.2614469
0
LINE
8
DEFAULT_255_2_778
10
6.9250604
20
107.2614469
11
6.9250604
21
108.2909469
0
LINE
8
DEFAULT_255_2_778
10
6.9250604
20
108.2909469
11
7.3063604
21
108.2909469
0
LINE
8
DEFAULT_255_2_778
10
7.3049604
20
107.6646469
11
7.3047604
21
107.6644469
0
LINE
8
DEFAULT_255_2_778
10
7.0613604
20
108.1790469
11
7.0613604
21
107.7752469
0
LINE
8
DEFAULT_255_2_778
10
7.0613604
20
107.7752469
11
7.3063604
21
107.7752469
0
LINE
8
DEFAULT_255_2_778
10
7.3139604
20
108.1790469
11
7.0613604
21
108.1790469
0
LINE
8
DEFAULT_255_2_778
10
7.0613604
20
108.1790469
11
7.0613604
21
108.1790469
0
LINE
8
DEFAULT_255_2_778
10
7.9791688
20
108.2909469
11
7.9791688
21
107.3725469
0
LINE
8
DEFAULT_255_2_778
10
7.9791688
20
107.3725469
11
8.4691688
21
107.3725469
0
LINE
8
DEFAULT_255_2_778
10
8.4691688
20
107.3725469
11
8.4691688
21
107.2614469
0
LINE
8
DEFAULT_255_2_778
10
8.4691688
20
107.2614469
11
7.8420688
21
107.2614469
0
LINE
8
DEFAULT_255_2_778
10
7.8420688
20
107.2614469
11
7.8420688
21
108.2909469
0
LINE
8
DEFAULT_255_2_778
10
7.8420688
20
108.2909469
11
7.9791688
21
108.2909469
0
LINE
8
DEFAULT_255_2_778
10
7.9791688
20
108.2909469
11
7.9791688
21
108.2909469
0
LINE
8
DEFAULT_255_2_778
10
9.3076813
20
107.2614469
11
9.2089813
21
107.5300469
0
LINE
8
DEFAULT_255_2_778
10
9.2089813
20
107.5300469
11
8.7758813
21
107.5300469
0
LINE
8
DEFAULT_255_2_778
10
8.7758813
20
107.5300469
11
8.6784813
21
107.2614469
0
LINE
8
DEFAULT_255_2_778
10
8.6784813
20
107.2614469
11
8.5379813
21
107.2614469
0
LINE
8
DEFAULT_255_2_778
10
8.5379813
20
107.2614469
11
8.9327813
21
108.2909469
0
LINE
8
DEFAULT_255_2_778
10
8.9327813
20
108.2909469
11
9.0520813
21
108.2909469
0
LINE
8
DEFAULT_255_2_778
10
9.0520813
20
108.2909469
11
9.4475813
21
107.2614469
0
LINE
8
DEFAULT_255_2_778
10
9.4475813
20
107.2614469
11
9.3076813
21
107.2614469
0
LINE
8
DEFAULT_255_2_778
10
9.3076813
20
107.2614469
11
9.3076813
21
107.2614469
0
LINE
8
DEFAULT_255_2_778
10
8.9925813
20
108.1232469
11
8.8170813
21
107.6416469
0
LINE
8
DEFAULT_255_2_778
10
8.8170813
20
107.6416469
11
9.1684813
21
107.6416469
0
LINE
8
DEFAULT_255_2_778
10
9.1684813
20
107.6416469
11
8.9922813
21
108.1232469
0
LINE
8
DEFAULT_255_2_778
10
8.9922813
20
108.1232469
11
8.9925813
21
108.1232469
0
LINE
8
DEFAULT_255_2_778
10
9.5666761
20
108.2909469
11
9.8349761
21
107.7742469
0
LINE
8
DEFAULT_255_2_778
10
9.8349761
20
107.7742469
11
10.1048761
21
108.2909469
0
LINE
8
DEFAULT_255_2_778
10
10.1048761
20
108.2909469
11
10.2595761
21
108.2909469
0
LINE
8
DEFAULT_255_2_778
10
10.2595761
20
108.2909469
11
9.9032761
21
107.6453469
0
LINE
8
DEFAULT_255_2_778
10
9.9032761
20
107.6453469
11
9.9032761
21
107.2614469
0
LINE
8
DEFAULT_255_2_778
10
9.9032761
20
107.2614469
11
9.7669761
21
107.2614469
0
LINE
8
DEFAULT_255_2_778
10
9.7669761
20
107.2614469
11
9.7669761
21
107.6453469
0
LINE
8
DEFAULT_255_2_778
10
9.7669761
20
107.6453469
11
9.4105761
21
108.2909469
0
LINE
8
DEFAULT_255_2_778
10
9.4105761
20
108.2909469
11
9.5666761
21
108.2909469
0
LINE
8
DEFAULT_255_2_778
10
9.5666761
20
108.2909469
11
9.5666761
21
108.2909469
0
ARC
8
DEFAULT_255_2_778
10
27.3307054
20
99.2084565
40
0.3947786
50
319.9748405
51
355.4399096
0
ARC
8
DEFAULT_255_2_778
10
27.3892096
20
99.1708147
40
0.3258887
50
311.0285366
51
318.4273541
0
ARC
8
DEFAULT_255_2_778
10
27.3589509
20
99.2205349
40
0.3833853
50
270.737512
51
309.562088
0
ARC
8
DEFAULT_255_2_778
10
27.3324339
20
99.4462939
40
0.6099241
50
269.971862
51
272.9558653
0
ARC
8
DEFAULT_255_2_778
10
27.3187599
20
99.2016568
40
0.3655318
50
219.9238681
51
272.096864
0
ARC
8
DEFAULT_255_2_778
10
27.4133111
20
99.2703286
40
0.482181
50
184.6027979
51
218.9713413
0
ARC
8
DEFAULT_255_2_778
10
27.700749
20
99.3153871
40
0.7726165
50
179.8752183
51
186.2231458
0
ARC
8
DEFAULT_255_2_778
10
27.5117025
20
99.4282411
40
0.583695
50
155.6967924
51
181.194831
0
ARC
8
DEFAULT_255_2_778
10
27.3294796
20
99.5106581
40
0.3837007
50
122.1083173
51
155.7142034
0
ARC
8
DEFAULT_255_2_778
10
27.3357963
20
99.4855846
40
0.4083745
50
88.8019965
51
120.9891122
0
ARC
8
DEFAULT_255_2_778
10
27.3585896
20
99.5001124
40
0.3940153
50
57.2287465
51
92.0733749
0
ARC
8
DEFAULT_255_2_778
10
27.3910858
20
99.5670114
40
0.3202976
50
47.2913053
51
55.6387275
0
ARC
8
DEFAULT_255_2_778
10
27.3461993
20
99.5302664
40
0.3778294
50
4.3493211
51
46.0689495
0
ARC
8
DEFAULT_255_2_778
10
27.147326
20
99.4911878
40
0.5795858
50
5.7116888
51
6.7110855
0
ARC
8
DEFAULT_255_2_778
10
27.2336312
20
99.5104494
40
0.355386
50
6.2063041
51
30.4498429
0
ARC
8
DEFAULT_255_2_778
10
27.3820851
20
99.5904223
40
0.1869849
50
32.3780511
51
46.8632925
0
ARC
8
DEFAULT_255_2_778
10
27.3593351
20
99.5498562
40
0.232409
50
49.6095808
51
92.9542217
0
ARC
8
DEFAULT_255_2_778
10
27.3440152
20
99.3652443
40
0.4167254
50
89.5405004
51
89.9973557
0
ARC
8
DEFAULT_255_2_778
10
27.3335788
20
99.5379757
40
0.244218
50
87.5462815
51
142.729253
0
ARC
8
DEFAULT_255_2_778
10
27.4400314
20
99.4691115
40
0.37076
50
144.2229863
51
174.3261738
0
ARC
8
DEFAULT_255_2_778
10
27.766371
20
99.4153084
40
0.7011429
50
172.5872887
51
180.2401369
0
ARC
8
DEFAULT_255_2_778
10
27.595462
20
99.2998676
40
0.5303797
50
178.6276756
51
200.4357909
0
ARC
8
DEFAULT_255_2_778
10
27.4051338
20
99.2363382
40
0.329921
50
201.6382344
51
215.1981478
0
ARC
8
DEFAULT_255_2_778
10
27.3234221
20
99.1745784
40
0.2275754
50
214.3499741
51
272.1939834
0
ARC
8
DEFAULT_255_2_778
10
27.3447039
20
99.2389565
40
0.2920573
50
267.5333602
51
298.0069382
0
ARC
8
DEFAULT_255_2_778
10
27.3905294
20
99.1363354
40
0.1801013
50
300.4667654
51
310.0989369
0
ARC
8
DEFAULT_255_2_778
10
27.3455438
20
99.1694424
40
0.2347668
50
313.2943848
51
347.3959789
0
ARC
8
DEFAULT_255_2_778
10
27.0710832
20
99.2566303
40
0.522247
50
344.6306221
51
351.2372872
0
LINE
8
DEFAULT_255_2_778
10
27.5872344
20
99.1770698
11
27.7242344
21
99.1770698
0
LINE
8
DEFAULT_255_2_778
10
26.9281344
20
99.3170698
11
26.9281344
21
99.4160698
0
LINE
8
DEFAULT_255_2_778
10
27.7240344
20
99.5488698
11
27.5869344
21
99.5488698
0
LINE
8
DEFAULT_255_2_778
10
27.0652344
20
99.4123698
11
27.0652344
21
99.3125698
0
LINE
8
DEFAULT_255_2_778
10
27.5872344
20
99.1770698
11
27.5872344
21
99.1770698
0
LINE
8
DEFAULT_255_2_778
10
28.1631979
20
99.3411135
11
28.1631979
21
99.2345135
0
LINE
8
DEFAULT_255_2_778
10
28.1631979
20
99.2345135
11
27.8165979
21
99.2345135
0
LINE
8
DEFAULT_255_2_778
10
27.8165979
20
99.2345135
11
27.8165979
21
99.3411135
0
LINE
8
DEFAULT_255_2_778
10
27.8165979
20
99.3411135
11
28.1631979
21
99.3411135
0
LINE
8
DEFAULT_255_2_778
10
28.1631979
20
99.3411135
11
28.1631979
21
99.3411135
0
ARC
8
DEFAULT_255_2_778
10
28.6128491
20
99.407937
40
0.4723035
50
60.9559645
51
91.1410458
0
ARC
8
DEFAULT_255_2_778
10
28.6439691
20
99.4727743
40
0.4005343
50
26.5567677
51
60.3450361
0
ARC
8
DEFAULT_255_2_778
10
28.5092717
20
99.4076857
40
0.5501237
50
359.2147966
51
26.3484727
0
ARC
8
DEFAULT_255_2_778
10
28.5070916
20
99.3221792
40
0.5523862
50
333.8750505
51
1.2621852
0
ARC
8
DEFAULT_255_2_778
10
28.6492532
20
99.256668
40
0.3959199
50
299.106743
51
333.3280482
0
ARC
8
DEFAULT_255_2_778
10
28.6041103
20
99.3505733
40
0.4999645
50
269.2932934
51
298.3919492
0
ARC
8
DEFAULT_255_2_778
10
28.606272
20
99.2856299
40
0.3244267
50
267.3626483
51
308.8510832
0
ARC
8
DEFAULT_255_2_778
10
28.6261112
20
99.2475216
40
0.2824302
50
310.5665618
51
318.1657761
0
ARC
8
DEFAULT_255_2_778
10
28.5629663
20
99.2902008
40
0.3580929
50
319.8167302
51
355.4930575
0
ARC
8
DEFAULT_255_2_778
10
28.2856061
20
99.3351301
40
0.6385403
50
353.4292431
51
0.1630128
0
ARC
8
DEFAULT_255_2_778
10
28.435117
20
99.4098529
40
0.4891944
50
358.4999488
51
21.9317916
0
ARC
8
DEFAULT_255_2_778
10
28.6084055
20
99.472433
40
0.3051461
50
23.1847743
51
40.238116
0
ARC
8
DEFAULT_255_2_778
10
28.6204331
20
99.4726325
40
0.2959337
50
41.7130384
51
92.6635416
0
LINE
8
DEFAULT_255_2_778
10
28.5976438
20
98.8506469
11
28.3116438
21
98.8506469
0
LINE
8
DEFAULT_255_2_778
10
28.3116438
20
98.8506469
11
28.3116438
21
99.8801469
0
LINE
8
DEFAULT_255_2_778
10
28.3116438
20
99.8801469
11
28.6034438
21
99.8801469
0
LINE
8
DEFAULT_255_2_778
10
29.0593438
20
99.4001469
11
29.0593438
21
99.3343469
0
LINE
8
DEFAULT_255_2_778
10
28.5979438
20
98.8506469
11
28.5976438
21
98.8506469
0
LINE
8
DEFAULT_255_2_778
10
28.6069438
20
99.7682469
11
28.4479438
21
99.7682469
0
LINE
8
DEFAULT_255_2_778
10
28.4479438
20
99.7682469
11
28.4479438
21
98.9615469
0
LINE
8
DEFAULT_255_2_778
10
28.4479438
20
98.9615469
11
28.5913438
21
98.9615469
0
LINE
8
DEFAULT_255_2_778
10
28.9241438
20
99.3369469
11
28.9241438
21
99.3970469
0
LINE
8
DEFAULT_255_2_778
10
28.6066438
20
99.7682469
11
28.6069438
21
99.7682469
0
LINE
8
DEFAULT_255_2_778
10
27.4681813
20
105.0167469
11
27.3694813
21
105.2853469
0
LINE
8
DEFAULT_255_2_778
10
27.3694813
20
105.2853469
11
26.9363813
21
105.2853469
0
LINE
8
DEFAULT_255_2_778
10
26.9363813
20
105.2853469
11
26.8389813
21
105.0167469
0
LINE
8
DEFAULT_255_2_778
10
26.8389813
20
105.0167469
11
26.6984813
21
105.0167469
0
LINE
8
DEFAULT_255_2_778
10
26.6984813
20
105.0167469
11
27.0932813
21
106.0462469
0
LINE
8
DEFAULT_255_2_778
10
27.0932813
20
106.0462469
11
27.2125813
21
106.0462469
0
LINE
8
DEFAULT_255_2_778
10
27.2125813
20
106.0462469
11
27.6080813
21
105.0167469
0
LINE
8
DEFAULT_255_2_778
10
27.6080813
20
105.0167469
11
27.4681813
21
105.0167469
0
LINE
8
DEFAULT_255_2_778
10
27.4681813
20
105.0167469
11
27.4681813
21
105.0167469
0
LINE
8
DEFAULT_255_2_778
10
27.1530813
20
105.8785469
11
26.9775813
21
105.3969469
0
LINE
8
DEFAULT_255_2_778
10
26.9775813
20
105.3969469
11
27.3289813
21
105.3969469
0
LINE
8
DEFAULT_255_2_778
10
27.3289813
20
105.3969469
11
27.1527813
21
105.8785469
0
LINE
8
DEFAULT_255_2_778
10
27.1527813
20
105.8785469
11
27.1530813
21
105.8785469
0
LINE
8
DEFAULT_255_2_778
10
27.9998847
20
105.5075135
11
27.9998847
21
105.4009135
0
LINE
8
DEFAULT_255_2_778
10
27.9998847
20
105.4009135
11
27.6532847
21
105.4009135
0
LINE
8
DEFAULT_255_2_778
10
27.6532847
20
105.4009135
11
27.6532847
21
105.5075135
0
LINE
8
DEFAULT_255_2_778
10
27.6532847
20
105.5075135
11
27.9998847
21
105.5075135
0
LINE
8
DEFAULT_255_2_778
10
27.9998847
20
105.5075135
11
27.9998847
21
105.5075135
0
ARC
8
DEFAULT_255_2_778
10
28.4986566
20
105.5282151
40
0.5181806
50
71.872945
51
91.3734344
0
ARC
8
DEFAULT_255_2_778
10
28.5729612
20
105.7683135
40
0.2669117
50
51.412506
51
70.9962649
0
ARC
8
DEFAULT_255_2_778
10
28.5779313
20
105.7905048
40
0.2466669
50
357.1350601
51
49.0992984
0
ARC
8
DEFAULT_255_2_778
10
28.3987785
20
105.7718782
40
0.425558
50
359.995775
51
0.8479353
0
ARC
8
DEFAULT_255_2_778
10
28.6170014
20
105.7685682
40
0.207361
50
323.1975154
51
0.9059699
0
ARC
8
DEFAULT_255_2_778
10
28.5704414
20
105.8054015
40
0.2667119
50
292.1351399
51
322.8536928
0
ARC
8
DEFAULT_255_2_778
10
28.6117537
20
105.3271125
40
0.238688
50
36.6965429
51
75.6437336
0
ARC
8
DEFAULT_255_2_778
10
28.5982175
20
105.3201779
40
0.253698
50
358.5700412
51
36.1254519
0
ARC
8
DEFAULT_255_2_778
10
28.5777029
20
105.2998927
40
0.2744885
50
312.0744524
51
2.913998
0
ARC
8
DEFAULT_255_2_778
10
28.5469211
20
105.3577633
40
0.3384462
50
273.3221452
51
309.3766091
0
ARC
8
DEFAULT_255_2_778
10
28.5080803
20
105.6199195
40
0.602874
50
269.8817866
51
275.5640495
0
ARC
8
DEFAULT_255_2_778
10
28.5219286
20
105.3447755
40
0.217271
50
266.7831716
51
309.4680614
0
ARC
8
DEFAULT_255_2_778
10
28.5425721
20
105.3036385
40
0.1726943
50
312.858244
51
2.9568897
0
ARC
8
DEFAULT_255_2_778
10
28.5543764
20
105.3328779
40
0.1619414
50
352.7877153
51
84.2542203
0
ARC
8
DEFAULT_255_2_778
10
28.5143473
20
105.1485265
40
0.3500273
50
80.7537259
51
90.3618899
0
ARC
8
DEFAULT_255_2_778
10
28.5014789
20
105.8245611
40
0.2174948
50
267.0897843
51
307.3855782
0
ARC
8
DEFAULT_255_2_778
10
28.5388603
20
105.7662978
40
0.1486119
50
309.5736955
51
2.4485721
0
ARC
8
DEFAULT_255_2_778
10
28.5421534
20
105.7857154
40
0.14577
50
354.8564271
51
49.1304426
0
ARC
8
DEFAULT_255_2_778
10
28.5157702
20
105.7174316
40
0.2160897
50
55.7018815
51
89.3618214
0
ARC
8
DEFAULT_255_2_778
10
28.4868981
20
105.4634156
40
0.4711318
50
86.1932784
51
90.0804645
0
LINE
8
DEFAULT_255_2_778
10
28.5068365
20
105.0167469
11
28.1483365
21
105.0167469
0
LINE
8
DEFAULT_255_2_778
10
28.1483365
20
105.0167469
11
28.1483365
21
106.0462469
0
LINE
8
DEFAULT_255_2_778
10
28.1483365
20
106.0462469
11
28.4862365
21
106.0462469
0
LINE
8
DEFAULT_255_2_778
10
28.5068365
20
105.0170469
11
28.5068365
21
105.0167469
0
LINE
8
DEFAULT_255_2_778
10
28.5118365
20
105.4982469
11
28.2846365
21
105.4982469
0
LINE
8
DEFAULT_255_2_778
10
28.2846365
20
105.4982469
11
28.2846365
21
105.1278469
0
LINE
8
DEFAULT_255_2_778
10
28.2846365
20
105.1278469
11
28.5097365
21
105.1278469
0
LINE
8
DEFAULT_255_2_778
10
28.5121365
20
105.4985469
11
28.5118365
21
105.4982469
0
LINE
8
DEFAULT_255_2_778
10
28.2846365
20
105.9345469
11
28.2846365
21
105.6073469
0
LINE
8
DEFAULT_255_2_778
10
28.2846365
20
105.6073469
11
28.4904365
21
105.6073469
0
LINE
8
DEFAULT_255_2_778
10
28.4862365
20
105.9345469
11
28.2846365
21
105.9345469
0
LINE
8
DEFAULT_255_2_778
10
28.2846365
20
105.9345469
11
28.2846365
21
105.9345469
0
ARC
8
DEFAULT_255_2_778
10
23.5088237
20
104.6904565
40
3.0744466
50
113.731851
51
127.8915403
0
ARC
8
DEFAULT_255_2_778
10
23.5071267
20
104.6903007
40
3.0739066
50
89.9838187
51
113.7017263
0
ARC
8
DEFAULT_255_2_778
10
23.508931
20
104.6907806
40
3.0734268
50
65.4793443
51
90.0174525
0
ARC
8
DEFAULT_255_2_778
10
23.5065647
20
104.6895295
40
3.0755476
50
52.1102265
51
65.4489106
0
ARC
8
DEFAULT_255_2_778
10
23.5070701
20
99.9588426
40
3.074375
50
293.7343909
51
307.8948443
0
ARC
8
DEFAULT_255_2_778
10
23.5088579
20
99.9587849
40
3.073603
50
269.9839113
51
293.7043142
0
ARC
8
DEFAULT_255_2_778
10
23.5070696
20
99.9583507
40
3.0731686
50
245.5511978
51
270.017251
0
ARC
8
DEFAULT_255_2_778
10
23.5094624
20
99.9596796
40
3.0753691
50
232.106754
51
245.520862
0
ARC
8
DEFAULT_255_2_778
10
23.4910561
20
105.3064866
40
1.4174643
50
150.0715689
51
180.1194186
0
ARC
8
DEFAULT_255_2_778
10
23.4987134
20
105.3006301
40
1.4270228
50
98.7707612
51
150.0211749
0
ARC
8
DEFAULT_255_2_778
10
23.5036206
20
105.2691004
40
1.458932
50
89.9774472
51
98.7724148
0
ARC
8
DEFAULT_255_2_778
10
23.5073698
20
105.2947828
40
1.4332529
50
60.9978033
51
90.1269226
0
ARC
8
DEFAULT_255_2_778
10
23.514014
20
105.3053609
40
1.4207801
50
6.9919601
51
61.02532
0
ARC
8
DEFAULT_255_2_778
10
23.4901506
20
105.303902
40
1.4446444
50
359.9853335
51
6.9341794
0
ARC
8
DEFAULT_255_2_778
10
23.5169522
20
105.3005976
40
1.4178457
50
330.0739232
51
0.1185892
0
ARC
8
DEFAULT_255_2_778
10
23.50944
20
105.3062743
40
1.4271887
50
278.7177288
51
330.0268674
0
ARC
8
DEFAULT_255_2_778
10
23.5047619
20
105.3370542
40
1.4583221
50
269.9777223
51
278.7161136
0
ARC
8
DEFAULT_255_2_778
10
23.5009882
20
105.3119618
40
1.4332332
50
240.9967831
51
270.1281894
0
ARC
8
DEFAULT_255_2_778
10
23.4945152
20
105.3014485
40
1.4209
50
187.1688232
51
241.0195167
0
ARC
8
DEFAULT_255_2_778
10
23.5190258
20
105.3031431
40
1.4454311
50
179.9845747
51
187.1142227
0
LINE
8
DEFAULT_255_2_778
10
25.3953948
20
107.1167322
11
25.3953948
21
97.5327322
0
LINE
8
DEFAULT_255_2_778
10
21.6205948
20
97.5327322
11
21.6205948
21
107.1167322
0
LINE
8
DEFAULT_255_2_778
10
22.0735948
20
105.3035322
11
22.0735948
21
105.3035322
0
ARC
8
DEFAULT_255_2_778
10
4.6648321
20
91.8296792
40
0.3352274
50
89.0271146
51
119.8411343
0
ARC
8
DEFAULT_255_2_778
10
4.683677
20
91.8791603
40
0.2860007
50
42.3856567
51
92.6359309
0
ARC
8
DEFAULT_255_2_778
10
4.6292876
20
91.8471995
40
0.3479644
50
0.6239574
51
40.2350481
0
ARC
8
DEFAULT_255_2_778
10
4.4086717
20
91.8209555
40
0.5693525
50
359.9700936
51
3.02375
0
ARC
8
DEFAULT_255_2_778
10
4.5969108
20
91.8070405
40
0.3813563
50
329.7675792
51
2.0464034
0
ARC
8
DEFAULT_255_2_778
10
4.682474
20
91.7672713
40
0.2875387
50
316.6962664
51
328.0294258
0
ARC
8
DEFAULT_255_2_778
10
4.6722282
20
91.7879783
40
0.3093016
50
268.6751335
51
315.2064067
0
ARC
8
DEFAULT_255_2_778
10
4.6508045
20
91.9853525
40
0.5067942
50
269.990894
51
271.6137714
0
ARC
8
DEFAULT_255_2_778
10
4.6367627
20
91.8054008
40
0.3271405
50
230.1468952
51
272.4459432
0
ARC
8
DEFAULT_255_2_778
10
4.6300023
20
91.777859
40
0.301922
50
182.733852
51
227.7817739
0
ARC
8
DEFAULT_255_2_778
10
4.6600866
20
91.7800932
40
0.2079291
50
184.588725
51
226.1442687
0
ARC
8
DEFAULT_255_2_778
10
4.6414973
20
91.7815995
40
0.1966673
50
230.3572772
51
272.7473434
0
ARC
8
DEFAULT_255_2_778
10
4.6595609
20
91.7622987
40
0.1773508
50
267.2085996
51
319.6017819
0
ARC
8
DEFAULT_255_2_778
10
4.5935378
20
91.8012048
40
0.2531884
50
322.5812217
51
1.7409098
0
ARC
8
DEFAULT_255_2_778
10
4.399901
20
91.8190072
40
0.4468229
50
358.7034175
51
0.0065548
0
ARC
8
DEFAULT_255_2_778
10
4.6080637
20
91.8305693
40
0.2389377
50
357.2386624
51
40.2517611
0
ARC
8
DEFAULT_255_2_778
10
4.6482909
20
91.8548192
40
0.1927122
50
42.4776615
51
92.4288541
0
ARC
8
DEFAULT_255_2_778
10
4.6276747
20
91.8304258
40
0.2172894
50
86.7155155
51
124.3327065
0
LINE
8
DEFAULT_255_2_778
10
4.470524
20
91.9817583
11
4.365424
21
92.0087583
0
LINE
8
DEFAULT_255_2_778
10
4.365424
20
92.0087583
11
4.418124
21
92.5220583
0
LINE
8
DEFAULT_255_2_778
10
4.418124
20
92.5220583
11
4.947824
21
92.5220583
0
LINE
8
DEFAULT_255_2_778
10
4.947824
20
92.5220583
11
4.947824
21
92.4011583
0
LINE
8
DEFAULT_255_2_778
10
4.947824
20
92.4011583
11
4.529224
21
92.4011583
0
LINE
8
DEFAULT_255_2_778
10
4.529224
20
92.4011583
11
4.498024
21
92.1204583
0
LINE
8
DEFAULT_255_2_778
10
4.328424
20
91.7634583
11
4.452824
21
91.7634583
0
LINE
8
DEFAULT_255_2_778
10
4.505124
20
92.0098583
11
4.470524
21
91.9815583
0
LINE
8
DEFAULT_255_2_778
10
4.470524
20
91.9815583
11
4.470524
21
91.9817583
0
LINE
8
DEFAULT_255_2_778
10
5.4084979
20
91.9831135
11
5.4084979
21
91.8765135
0
LINE
8
DEFAULT_255_2_778
10
5.4084979
20
91.8765135
11
5.0618979
21
91.8765135
0
LINE
8
DEFAULT_255_2_778
10
5.0618979
20
91.8765135
11
5.0618979
21
91.9831135
0
LINE
8
DEFAULT_255_2_778
10
5.0618979
20
91.9831135
11
5.4084979
21
91.9831135
0
LINE
8
DEFAULT_255_2_778
10
5.4084979
20
91.9831135
11
5.4084979
21
91.9831135
0
ARC
8
DEFAULT_255_2_778
10
5.0440876
20
92.7404818
40
1.1290939
50
317.8191631
51
324.7825602
0
ARC
8
DEFAULT_255_2_778
10
5.6161301
20
92.332558
40
0.4265239
50
325.235974
51
331.3910759
0
ARC
8
DEFAULT_255_2_778
10
5.7773901
20
92.245546
40
0.2432902
50
331.1962374
51
359.8304535
0
ARC
8
DEFAULT_255_2_778
10
5.8362699
20
92.2518527
40
0.1845431
50
357.8178613
51
42.7522268
0
ARC
8
DEFAULT_255_2_778
10
5.8488883
20
92.2568451
40
0.1719583
50
44.3850664
51
92.6028656
0
ARC
8
DEFAULT_255_2_778
10
5.828886
20
92.2251169
40
0.2038741
50
86.5712331
51
133.4493059
0
ARC
8
DEFAULT_255_2_778
10
5.8457467
20
92.2311316
40
0.2117372
50
137.8853454
51
183.3859608
0
ARC
8
DEFAULT_255_2_778
10
5.8052742
20
92.2307181
40
0.302337
50
133.9931914
51
182.2921678
0
ARC
8
DEFAULT_255_2_778
10
5.822356
20
92.1978814
40
0.3379887
50
88.4133065
51
132.2098126
0
ARC
8
DEFAULT_255_2_778
10
5.8412492
20
92.0047964
40
0.5310297
50
89.9967697
51
91.0287876
0
ARC
8
DEFAULT_255_2_778
10
5.8547554
20
92.1842461
40
0.3518381
50
59.0696355
51
92.1950924
0
ARC
8
DEFAULT_255_2_778
10
5.8937159
20
92.2659824
40
0.2618408
50
47.9535865
51
57.189196
0
ARC
8
DEFAULT_255_2_778
10
5.8966668
20
92.27047
40
0.2565333
50
357.6220335
51
47.7717444
0
ARC
8
DEFAULT_255_2_778
10
5.7997433
20
92.272865
40
0.3534764
50
329.9996412
51
357.8860046
0
ARC
8
DEFAULT_255_2_778
10
5.3368562
20
92.520326
40
0.8782461
50
318.5516155
51
331.1178642
0
ARC
8
DEFAULT_255_2_778
10
4.8999079
20
92.8804286
40
1.4442592
50
317.1343657
51
319.3180902
0
LINE
8
DEFAULT_255_2_778
10
6.2000792
20
91.599226
11
6.2000792
21
91.492526
0
LINE
8
DEFAULT_255_2_778
10
6.2000792
20
91.492526
11
5.5227792
21
91.492526
0
LINE
8
DEFAULT_255_2_778
10
5.5227792
20
91.492526
11
5.5227792
21
91.586526
0
LINE
8
DEFAULT_255_2_778
10
5.5227792
20
91.586526
11
5.8807792
21
91.982326
0
LINE
8
DEFAULT_255_2_778
10
5.6343792
20
92.218626
11
5.5031792
21
92.218626
0
LINE
8
DEFAULT_255_2_778
10
5.9584792
20
91.897926
11
5.6814792
21
91.598926
0
LINE
8
DEFAULT_255_2_778
10
5.6814792
20
91.598926
11
6.2005792
21
91.598926
0
LINE
8
DEFAULT_255_2_778
10
6.2005792
20
91.598926
11
6.2000792
21
91.599226
0
ARC
8
DEFAULT_255_2_778
10
6.8227451
20
92.0539305
40
0.3576442
50
88.7351727
51
127.1118987
0
ARC
8
DEFAULT_255_2_778
10
6.7949611
20
92.1048319
40
0.3004099
50
128.7439704
51
133.9838827
0
ARC
8
DEFAULT_255_2_778
10
6.8447405
20
92.067791
40
0.3617726
50
135.5828428
51
174.2682335
0
ARC
8
DEFAULT_255_2_778
10
7.0642853
20
92.0220496
40
0.5852636
50
171.9585567
51
174.8988959
0
ARC
8
DEFAULT_255_2_778
10
6.6909632
20
91.8865238
40
0.2812867
50
87.253924
51
138.1789662
0
ARC
8
DEFAULT_255_2_778
10
6.7150963
20
91.8996236
40
0.2680757
50
40.2370303
51
92.2782507
0
ARC
8
DEFAULT_255_2_778
10
6.6375945
20
91.8442317
40
0.3631028
50
357.8213046
51
39.0097137
0
ARC
8
DEFAULT_255_2_778
10
6.4306507
20
91.8280891
40
0.5697887
50
359.9998375
51
0.2351773
0
ARC
8
DEFAULT_255_2_778
10
6.6180736
20
91.8139189
40
0.3826284
50
327.1851823
51
2.1221213
0
ARC
8
DEFAULT_255_2_778
10
6.6857745
20
91.7807833
40
0.3079008
50
317.6812122
51
325.5398159
0
ARC
8
DEFAULT_255_2_778
10
6.6934594
20
91.7781522
40
0.3004645
50
267.4401227
51
317.0655713
0
ARC
8
DEFAULT_255_2_778
10
6.6722783
20
91.7737101
40
0.2958245
50
218.0233331
51
271.5033956
0
ARC
8
DEFAULT_255_2_778
10
6.7830724
20
91.8588156
40
0.4355288
50
180.5050136
51
217.8648645
0
ARC
8
DEFAULT_255_2_778
10
7.0101144
20
91.8836704
40
0.6631747
50
179.9812411
51
182.4797896
0
ARC
8
DEFAULT_255_2_778
10
7.2995198
20
91.9466634
40
0.9526619
50
166.3716915
51
180.7503589
0
ARC
8
DEFAULT_255_2_778
10
6.8720921
20
92.0530002
40
0.51222
50
141.9668892
51
166.6660315
0
ARC
8
DEFAULT_255_2_778
10
6.7896292
20
92.1002464
40
0.4183793
50
94.7020521
51
140.1050293
0
ARC
8
DEFAULT_255_2_778
10
6.8394904
20
91.8281307
40
0.6942071
50
90.6892457
51
96.9629991
0
ARC
8
DEFAULT_255_2_778
10
6.6814407
20
91.8477517
40
0.2110364
50
89.8645529
51
125.9520412
0
ARC
8
DEFAULT_255_2_778
10
6.6747598
20
91.8459636
40
0.2086615
50
124.1784552
51
159.9539673
0
ARC
8
DEFAULT_255_2_778
10
6.8334704
20
91.8560403
40
0.354978
50
177.861318
51
208.8956185
0
ARC
8
DEFAULT_255_2_778
10
6.7384202
20
91.8134458
40
0.2513277
50
210.8652674
51
216.4044356
0
ARC
8
DEFAULT_255_2_778
10
6.6802195
20
91.7587973
40
0.1723112
50
213.2630325
51
269.7739096
0
ARC
8
DEFAULT_255_2_778
10
6.6864471
20
91.7534964
40
0.1671517
50
267.6315877
51
322.4336966
0
ARC
8
DEFAULT_255_2_778
10
6.6009067
20
91.8093602
40
0.2691293
50
324.1097921
51
2.6892483
0
ARC
8
DEFAULT_255_2_778
10
6.601631
20
91.8347405
40
0.2684117
50
357.2766965
51
36.2321648
0
ARC
8
DEFAULT_255_2_778
10
6.6862423
20
91.8932675
40
0.1655926
50
37.2012408
51
91.6966143
0
LINE
8
DEFAULT_255_2_778
10
6.8311396
20
92.5225875
11
6.8546396
21
92.5225875
0
LINE
8
DEFAULT_255_2_778
10
6.8546396
20
92.5225875
11
6.8546396
21
92.4114875
0
LINE
8
DEFAULT_255_2_778
10
6.8546396
20
92.4114875
11
6.8306396
21
92.4114875
0
LINE
8
DEFAULT_255_2_778
10
6.3469396
20
91.8838875
11
6.3469396
21
91.9341875
0
LINE
8
DEFAULT_255_2_778
10
6.8311396
20
92.5222875
11
6.8311396
21
92.5225875
0
LINE
8
DEFAULT_255_2_778
10
6.4787396
20
91.9174875
11
6.4787396
21
91.8692875
0
LINE
8
DEFAULT_255_2_778
10
6.6813396
20
92.0587875
11
6.6819396
21
92.0587875
0
LINE
8
DEFAULT_255_2_778
10
7.2380906
20
92.5220469
11
7.5319906
21
91.6730469
0
LINE
8
DEFAULT_255_2_778
10
7.5319906
20
91.6730469
11
7.8272906
21
92.5220469
0
LINE
8
DEFAULT_255_2_778
10
7.8272906
20
92.5220469
11
7.9764906
21
92.5220469
0
LINE
8
DEFAULT_255_2_778
10
7.9764906
20
92.5220469
11
7.5930906
21
91.4925469
0
LINE
8
DEFAULT_255_2_778
10
7.5930906
20
91.4925469
11
7.4724906
21
91.4925469
0
LINE
8
DEFAULT_255_2_778
10
7.4724906
20
91.4925469
11
7.0898906
21
92.5220469
0
LINE
8
DEFAULT_255_2_778
10
7.0898906
20
92.5220469
11
7.2382906
21
92.5220469
0
LINE
8
DEFAULT_255_2_778
10
7.2382906
20
92.5220469
11
7.2380906
21
92.5220469
0
ARC
8
DEFAULT_255_2_778
10
8.4161491
20
92.049837
40
0.4723035
50
60.9559645
51
91.1410458
0
ARC
8
DEFAULT_255_2_778
10
8.4472691
20
92.1146743
40
0.4005343
50
26.5567677
51
60.3450361
0
ARC
8
DEFAULT_255_2_778
10
8.3125717
20
92.0495857
40
0.5501237
50
359.2147966
51
26.3484727
0
ARC
8
DEFAULT_255_2_778
10
8.3103916
20
91.9640792
40
0.5523862
50
333.8750505
51
1.2621852
0
ARC
8
DEFAULT_255_2_778
10
8.4525532
20
91.898568
40
0.3959199
50
299.106743
51
333.3280482
0
ARC
8
DEFAULT_255_2_778
10
8.4074103
20
91.9924733
40
0.4999645
50
269.2932934
51
298.3919492
0
ARC
8
DEFAULT_255_2_778
10
8.409572
20
91.9275299
40
0.3244267
50
267.3626483
51
308.8510832
0
ARC
8
DEFAULT_255_2_778
10
8.4294112
20
91.8894216
40
0.2824302
50
310.5665618
51
318.1657761
0
ARC
8
DEFAULT_255_2_778
10
8.3662663
20
91.9321008
40
0.3580929
50
319.8167302
51
355.4930575
0
ARC
8
DEFAULT_255_2_778
10
8.0889061
20
91.9770301
40
0.6385403
50
353.4292431
51
0.1630128
0
ARC
8
DEFAULT_255_2_778
10
8.238417
20
92.0517529
40
0.4891944
50
358.4999488
51
21.9317916
0
ARC
8
DEFAULT_255_2_778
10
8.4117055
20
92.114333
40
0.3051461
50
23.1847743
51
40.238116
0
ARC
8
DEFAULT_255_2_778
10
8.4237331
20
92.1145325
40
0.2959337
50
41.7130384
51
92.6635416
0
LINE
8
DEFAULT_255_2_778
10
8.4009438
20
91.4925469
11
8.1149438
21
91.4925469
0
LINE
8
DEFAULT_255_2_778
10
8.1149438
20
91.4925469
11
8.1149438
21
92.5220469
0
LINE
8
DEFAULT_255_2_778
10
8.1149438
20
92.5220469
11
8.4067438
21
92.5220469
0
LINE
8
DEFAULT_255_2_778
10
8.8626438
20
92.0420469
11
8.8626438
21
91.9762469
0
LINE
8
DEFAULT_255_2_778
10
8.4012438
20
91.4925469
11
8.4009438
21
91.4925469
0
LINE
8
DEFAULT_255_2_778
10
8.4102438
20
92.4101469
11
8.2512438
21
92.4101469
0
LINE
8
DEFAULT_255_2_778
10
8.2512438
20
92.4101469
11
8.2512438
21
91.6034469
0
LINE
8
DEFAULT_255_2_778
10
8.2512438
20
91.6034469
11
8.3946438
21
91.6034469
0
LINE
8
DEFAULT_255_2_778
10
8.7274438
20
91.9788469
11
8.7274438
21
92.0389469
0
LINE
8
DEFAULT_255_2_778
10
8.4099438
20
92.4101469
11
8.4102438
21
92.4101469
0
ARC
8
DEFAULT_255_2_778
10
9.4353054
20
91.8503565
40
0.3947786
50
319.9748405
51
355.4399096
0
ARC
8
DEFAULT_255_2_778
10
9.4938096
20
91.8127147
40
0.3258887
50
311.0285366
51
318.4273541
0
ARC
8
DEFAULT_255_2_778
10
9.4635509
20
91.8624349
40
0.3833853
50
270.737512
51
309.562088
0
ARC
8
DEFAULT_255_2_778
10
9.4370339
20
92.0881939
40
0.6099241
50
269.971862
51
272.9558653
0
ARC
8
DEFAULT_255_2_778
10
9.4233599
20
91.8435568
40
0.3655318
50
219.9238681
51
272.096864
0
ARC
8
DEFAULT_255_2_778
10
9.5179111
20
91.9122286
40
0.482181
50
184.6027979
51
218.9713413
0
ARC
8
DEFAULT_255_2_778
10
9.805349
20
91.9572871
40
0.7726165
50
179.8752183
51
186.2231458
0
ARC
8
DEFAULT_255_2_778
10
9.6163025
20
92.0701411
40
0.583695
50
155.6967924
51
181.194831
0
ARC
8
DEFAULT_255_2_778
10
9.4340796
20
92.1525581
40
0.3837007
50
122.1083173
51
155.7142034
0
ARC
8
DEFAULT_255_2_778
10
9.4403963
20
92.1274846
40
0.4083745
50
88.8019965
51
120.9891122
0
ARC
8
DEFAULT_255_2_778
10
9.4631896
20
92.1420124
40
0.3940153
50
57.2287465
51
92.0733749
0
ARC
8
DEFAULT_255_2_778
10
9.4956858
20
92.2089114
40
0.3202976
50
47.2913053
51
55.6387275
0
ARC
8
DEFAULT_255_2_778
10
9.4507993
20
92.1721664
40
0.3778294
50
4.3493211
51
46.0689495
0
ARC
8
DEFAULT_255_2_778
10
9.251926
20
92.1330878
40
0.5795858
50
5.7116888
51
6.7110855
0
ARC
8
DEFAULT_255_2_778
10
9.3382312
20
92.1523494
40
0.355386
50
6.2063041
51
30.4498429
0
ARC
8
DEFAULT_255_2_778
10
9.4866851
20
92.2323223
40
0.1869849
50
32.3780511
51
46.8632925
0
ARC
8
DEFAULT_255_2_778
10
9.4639351
20
92.1917562
40
0.232409
50
49.6095808
51
92.9542217
0
ARC
8
DEFAULT_255_2_778
10
9.4486152
20
92.0071443
40
0.4167254
50
89.5405004
51
89.9973557
0
ARC
8
DEFAULT_255_2_778
10
9.4381788
20
92.1798757
40
0.244218
50
87.5462815
51
142.729253
0
ARC
8
DEFAULT_255_2_778
10
9.5446314
20
92.1110115
40
0.37076
50
144.2229863
51
174.3261738
0
ARC
8
DEFAULT_255_2_778
10
9.870971
20
92.0572084
40
0.7011429
50
172.5872887
51
180.2401369
0
ARC
8
DEFAULT_255_2_778
10
9.700062
20
91.9417676
40
0.5303797
50
178.6276756
51
200.4357909
0
ARC
8
DEFAULT_255_2_778
10
9.5097338
20
91.8782382
40
0.329921
50
201.6382344
51
215.1981478
0
ARC
8
DEFAULT_255_2_778
10
9.4280221
20
91.8164784
40
0.2275754
50
214.3499741
51
272.1939834
0
ARC
8
DEFAULT_255_2_778
10
9.4493039
20
91.8808565
40
0.2920573
50
267.5333602
51
298.0069382
0
ARC
8
DEFAULT_255_2_778
10
9.4951294
20
91.7782354
40
0.1801013
50
300.4667654
51
310.0989369
0
ARC
8
DEFAULT_255_2_778
10
9.4501438
20
91.8113424
40
0.2347668
50
313.2943848
51
347.3959789
0
ARC
8
DEFAULT_255_2_778
10
9.1756832
20
91.8985303
40
0.522247
50
344.6306221
51
351.2372872
0
LINE
8
DEFAULT_255_2_778
10
9.6918344
20
91.8189698
11
9.8288344
21
91.8189698
0
LINE
8
DEFAULT_255_2_778
10
9.0327344
20
91.9589698
11
9.0327344
21
92.0579698
0
LINE
8
DEFAULT_255_2_778
10
9.8286344
20
92.1907698
11
9.6915344
21
92.1907698
0
LINE
8
DEFAULT_255_2_778
10
9.1698344
20
92.0542698
11
9.1698344
21
91.9544698
0
LINE
8
DEFAULT_255_2_778
10
9.6918344
20
91.8189698
11
9.6918344
21
91.8189698
0
ARC
8
DEFAULT_255_2_778
10
9.6449635
20
91.5451387
40
0.340627
50
322.6141039
51
357.3039925
0
ARC
8
DEFAULT_255_2_778
10
9.7927386
20
91.5480205
40
0.321092
50
332.9136306
51
359.4104568
0
ARC
8
DEFAULT_255_2_778
10
9.7753914
20
91.5445453
40
0.3351345
50
309.8666314
51
334.7933251
0
LINE
8
DEFAULT_255_2_778
10
9.9902135
20
91.2875167
11
9.9156135
21
91.3383167
0
LINE
8
DEFAULT_255_2_778
10
9.9852135
20
91.5291167
11
9.9852135
21
91.6471167
0
LINE
8
DEFAULT_255_2_778
10
9.9852135
20
91.6471167
11
10.1138135
21
91.6471167
0
LINE
8
DEFAULT_255_2_778
10
10.1138135
20
91.6471167
11
10.1138135
21
91.5447167
0
LINE
8
DEFAULT_255_2_778
10
9.9902135
20
91.2873167
11
9.9902135
21
91.2875167
0
ARC
8
DEFAULT_255_2_778
10
11.0273054
20
91.8503565
40
0.3947786
50
319.9748405
51
355.4399096
0
ARC
8
DEFAULT_255_2_778
10
11.0858096
20
91.8127147
40
0.3258887
50
311.0285366
51
318.4273541
0
ARC
8
DEFAULT_255_2_778
10
11.0555509
20
91.8624349
40
0.3833853
50
270.737512
51
309.562088
0
ARC
8
DEFAULT_255_2_778
10
11.0290339
20
92.0881939
40
0.6099241
50
269.971862
51
272.9558653
0
ARC
8
DEFAULT_255_2_778
10
11.0153599
20
91.8435568
40
0.3655318
50
219.9238681
51
272.096864
0
ARC
8
DEFAULT_255_2_778
10
11.1099111
20
91.9122286
40
0.482181
50
184.6027979
51
218.9713413
0
ARC
8
DEFAULT_255_2_778
10
11.397349
20
91.9572871
40
0.7726165
50
179.8752183
51
186.2231458
0
ARC
8
DEFAULT_255_2_778
10
11.2083025
20
92.0701411
40
0.583695
50
155.6967924
51
181.194831
0
ARC
8
DEFAULT_255_2_778
10
11.0260796
20
92.1525581
40
0.3837007
50
122.1083173
51
155.7142034
0
ARC
8
DEFAULT_255_2_778
10
11.0323963
20
92.1274846
40
0.4083745
50
88.8019965
51
120.9891122
0
ARC
8
DEFAULT_255_2_778
10
11.0551896
20
92.1420124
40
0.3940153
50
57.2287465
51
92.0733749
0
ARC
8
DEFAULT_255_2_778
10
11.0876858
20
92.2089114
40
0.3202976
50
47.2913053
51
55.6387275
0
ARC
8
DEFAULT_255_2_778
10
11.0427993
20
92.1721664
40
0.3778294
50
4.3493211
51
46.0689495
0
ARC
8
DEFAULT_255_2_778
10
10.843926
20
92.1330878
40
0.5795858
50
5.7116888
51
6.7110855
0
ARC
8
DEFAULT_255_2_778
10
10.9302312
20
92.1523494
40
0.355386
50
6.2063041
51
30.4498429
0
ARC
8
DEFAULT_255_2_778
10
11.0786851
20
92.2323223
40
0.1869849
50
32.3780511
51
46.8632925
0
ARC
8
DEFAULT_255_2_778
10
11.0559351
20
92.1917562
40
0.232409
50
49.6095808
51
92.9542217
0
ARC
8
DEFAULT_255_2_778
10
11.0406152
20
92.0071443
40
0.4167254
50
89.5405004
51
89.9973557
0
ARC
8
DEFAULT_255_2_778
10
11.0301788
20
92.1798757
40
0.244218
50
87.5462815
51
142.729253
0
ARC
8
DEFAULT_255_2_778
10
11.1366314
20
92.1110115
40
0.37076
50
144.2229863
51
174.3261738
0
ARC
8
DEFAULT_255_2_778
10
11.462971
20
92.0572084
40
0.7011429
50
172.5872887
51
180.2401369
0
ARC
8
DEFAULT_255_2_778
10
11.292062
20
91.9417676
40
0.5303797
50
178.6276756
51
200.4357909
0
ARC
8
DEFAULT_255_2_778
10
11.1017338
20
91.8782382
40
0.329921
50
201.6382344
51
215.1981478
0
ARC
8
DEFAULT_255_2_778
10
11.0200221
20
91.8164784
40
0.2275754
50
214.3499741
51
272.1939834
0
ARC
8
DEFAULT_255_2_778
10
11.0413039
20
91.8808565
40
0.2920573
50
267.5333602
51
298.0069382
0
ARC
8
DEFAULT_255_2_778
10
11.0871294
20
91.7782354
40
0.1801013
50
300.4667654
51
310.0989369
0
ARC
8
DEFAULT_255_2_778
10
11.0421438
20
91.8113424
40
0.2347668
50
313.2943848
51
347.3959789
0
ARC
8
DEFAULT_255_2_778
10
10.7676832
20
91.8985303
40
0.522247
50
344.6306221
51
351.2372872
0
LINE
8
DEFAULT_255_2_778
10
11.2838344
20
91.8189698
11
11.4208344
21
91.8189698
0
LINE
8
DEFAULT_255_2_778
10
10.6247344
20
91.9589698
11
10.6247344
21
92.0579698
0
LINE
8
DEFAULT_255_2_778
10
11.4206344
20
92.1907698
11
11.2835344
21
92.1907698
0
LINE
8
DEFAULT_255_2_778
10
10.7618344
20
92.0542698
11
10.7618344
21
91.9544698
0
LINE
8
DEFAULT_255_2_778
10
11.2838344
20
91.8189698
11
11.2838344
21
91.8189698
0
LINE
8
DEFAULT_255_2_778
10
11.7439688
20
92.5220469
11
11.7439688
21
91.6036469
0
LINE
8
DEFAULT_255_2_778
10
11.7439688
20
91.6036469
11
12.2339688
21
91.6036469
0
LINE
8
DEFAULT_255_2_778
10
12.2339688
20
91.6036469
11
12.2339688
21
91.4925469
0
LINE
8
DEFAULT_255_2_778
10
12.2339688
20
91.4925469
11
11.6068688
21
91.4925469
0
LINE
8
DEFAULT_255_2_778
10
11.6068688
20
91.4925469
11
11.6068688
21
92.5220469
0
LINE
8
DEFAULT_255_2_778
10
11.6068688
20
92.5220469
11
11.7439688
21
92.5220469
0
LINE
8
DEFAULT_255_2_778
10
11.7439688
20
92.5220469
11
11.7439688
21
92.5220469
0
LINE
8
DEFAULT_255_2_778
10
13.0723813
20
91.4925469
11
12.9736813
21
91.7611469
0
LINE
8
DEFAULT_255_2_778
10
12.9736813
20
91.7611469
11
12.5405813
21
91.7611469
0
LINE
8
DEFAULT_255_2_778
10
12.5405813
20
91.7611469
11
12.4431813
21
91.4925469
0
LINE
8
DEFAULT_255_2_778
10
12.4431813
20
91.4925469
11
12.3026813
21
91.4925469
0
LINE
8
DEFAULT_255_2_778
10
12.3026813
20
91.4925469
11
12.6974813
21
92.5220469
0
LINE
8
DEFAULT_255_2_778
10
12.6974813
20
92.5220469
11
12.8167813
21
92.5220469
0
LINE
8
DEFAULT_255_2_778
10
12.8167813
20
92.5220469
11
13.2122813
21
91.4925469
0
LINE
8
DEFAULT_255_2_778
10
13.2122813
20
91.4925469
11
13.0723813
21
91.4925469
0
LINE
8
DEFAULT_255_2_778
10
13.0723813
20
91.4925469
11
13.0723813
21
91.4925469
0
LINE
8
DEFAULT_255_2_778
10
12.7572813
20
92.3543469
11
12.5817813
21
91.8727469
0
LINE
8
DEFAULT_255_2_778
10
12.5817813
20
91.8727469
11
12.9331813
21
91.8727469
0
LINE
8
DEFAULT_255_2_778
10
12.9331813
20
91.8727469
11
12.7569813
21
92.3543469
0
LINE
8
DEFAULT_255_2_778
10
12.7569813
20
92.3543469
11
12.7572813
21
92.3543469
0
ARC
8
DEFAULT_255_2_778
10
13.8949841
20
92.8289391
40
0.9095163
50
243.4850827
51
254.7698021
0
ARC
8
DEFAULT_255_2_778
10
13.6717423
20
92.3807299
40
0.4087887
50
228.4785689
51
243.4383373
0
ARC
8
DEFAULT_255_2_778
10
13.5563768
20
92.251492
40
0.2355524
50
179.0574789
51
228.649611
0
ARC
8
DEFAULT_255_2_778
10
13.5691755
20
92.2590839
40
0.248347
50
127.3649348
51
180.8576215
0
ARC
8
DEFAULT_255_2_778
10
13.6507209
20
92.1559519
40
0.3798104
50
89.660422
51
127.7000457
0
ARC
8
DEFAULT_255_2_778
10
13.6721512
20
91.9445369
40
0.5915298
50
89.9898204
51
91.8580373
0
ARC
8
DEFAULT_255_2_778
10
13.6799528
20
92.1109897
40
0.4251466
50
64.608485
51
91.0372988
0
ARC
8
DEFAULT_255_2_778
10
13.7292578
20
92.2133195
40
0.3115607
50
32.7283073
51
64.7303933
0
ARC
8
DEFAULT_255_2_778
10
13.7480866
20
92.2257987
40
0.2889742
50
359.6764044
51
32.6652308
0
ARC
8
DEFAULT_255_2_778
10
13.7140378
20
92.2339493
40
0.1862755
50
356.9896172
51
47.2187886
0
ARC
8
DEFAULT_255_2_778
10
13.6913241
20
92.1886646
40
0.2353614
50
50.6500378
51
91.3809442
0
ARC
8
DEFAULT_255_2_778
10
13.6723561
20
92.0011622
40
0.4230045
50
88.1987832
51
90.0135221
0
ARC
8
DEFAULT_255_2_778
10
13.6594574
20
92.1630295
40
0.2614506
50
87.1940704
51
120.6883099
0
ARC
8
DEFAULT_255_2_778
10
13.6187322
20
92.2476066
40
0.1681305
50
123.4645516
51
128.071149
0
ARC
8
DEFAULT_255_2_778
10
13.6059638
20
92.2639825
40
0.1473652
50
128.089075
51
182.6509434
0
ARC
8
DEFAULT_255_2_778
10
13.590777
20
92.2571462
40
0.1320208
50
179.9911253
51
233.6123154
0
ARC
8
DEFAULT_255_2_778
10
13.7306342
20
92.4435888
40
0.3650861
50
233.301321
51
250.5251799
0
ARC
8
DEFAULT_255_2_778
10
13.9522406
20
93.0007479
40
0.9645293
50
249.1483704
51
254.5292686
0
ARC
8
DEFAULT_255_2_778
10
13.432242
20
91.0867141
40
1.0189041
50
65.7196603
51
75.0580646
0
ARC
8
DEFAULT_255_2_778
10
13.639063
20
91.5585024
40
0.5038327
50
59.2649384
51
65.0971905
0
ARC
8
DEFAULT_255_2_778
10
13.7477662
20
91.724714
40
0.3055304
50
32.8098873
51
60.8571043
0
ARC
8
DEFAULT_255_2_778
10
13.781678
20
91.7599986
40
0.2581559
50
358.5945264
51
30.3054643
0
ARC
8
DEFAULT_255_2_778
10
13.7993845
20
91.7468839
40
0.2404675
50
306.3330835
51
1.6163179
0
ARC
8
DEFAULT_255_2_778
10
13.7142288
20
91.8672075
40
0.3878607
50
272.4475041
51
305.9358716
0
ARC
8
DEFAULT_255_2_778
10
13.6807544
20
92.1258055
40
0.6480396
50
269.9294376
51
274.4284412
0
ARC
8
DEFAULT_255_2_778
10
13.6758969
20
91.9633315
40
0.4855818
50
246.3692999
51
270.4789888
0
ARC
8
DEFAULT_255_2_778
10
13.6089333
20
91.8283865
40
0.335189
50
216.3177044
51
247.6099118
0
ARC
8
DEFAULT_255_2_778
10
13.5598711
20
91.7867591
40
0.2710402
50
179.2162214
51
215.3699047
0
ARC
8
DEFAULT_255_2_778
10
13.602598
20
91.783524
40
0.1767782
50
177.7492233
51
232.6118337
0
ARC
8
DEFAULT_255_2_778
10
13.6632029
20
91.877394
40
0.2882974
50
234.3701486
51
271.7655607
0
ARC
8
DEFAULT_255_2_778
10
13.6801161
20
92.0733742
40
0.4842075
50
269.0496874
51
270.0047522
0
ARC
8
DEFAULT_255_2_778
10
13.6924787
20
91.8921696
40
0.3032534
50
267.6711952
51
295.1178482
0
ARC
8
DEFAULT_255_2_778
10
13.7424029
20
91.7685059
40
0.170248
50
297.5719115
51
307.2936535
0
ARC
8
DEFAULT_255_2_778
10
13.7605624
20
91.7474321
40
0.1424901
50
306.6189149
51
2.1053033
0
ARC
8
DEFAULT_255_2_778
10
13.763769
20
91.7598793
40
0.139374
50
357.0335907
51
51.9060065
0
ARC
8
DEFAULT_255_2_778
10
13.6347577
20
91.569003
40
0.3695442
50
54.4231756
51
69.7812958
0
ARC
8
DEFAULT_255_2_778
10
13.3460842
20
90.8528741
40
1.1415519
50
68.6073421
51
74.2130417
0
LINE
8
DEFAULT_255_2_778
10
14.0370563
20
92.2241667
11
13.9000563
21
92.2241667
0
LINE
8
DEFAULT_255_2_778
10
13.2888563
20
91.7904667
11
13.4259563
21
91.7904667
0
LINE
8
DEFAULT_255_2_778
10
13.6566563
20
91.9513667
11
13.6560563
21
91.9513667
0
ARC
8
DEFAULT_255_2_778
10
14.7574841
20
92.8289391
40
0.9095163
50
243.4850827
51
254.7698021
0
ARC
8
DEFAULT_255_2_778
10
14.5342423
20
92.3807299
40
0.4087887
50
228.4785689
51
243.4383373
0
ARC
8
DEFAULT_255_2_778
10
14.4188768
20
92.251492
40
0.2355524
50
179.0574789
51
228.649611
0
ARC
8
DEFAULT_255_2_778
10
14.4316755
20
92.2590839
40
0.248347
50
127.3649348
51
180.8576215
0
ARC
8
DEFAULT_255_2_778
10
14.5132209
20
92.1559519
40
0.3798104
50
89.660422
51
127.7000457
0
ARC
8
DEFAULT_255_2_778
10
14.5346512
20
91.9445369
40
0.5915298
50
89.9898204
51
91.8580373
0
ARC
8
DEFAULT_255_2_778
10
14.5424528
20
92.1109897
40
0.4251466
50
64.608485
51
91.0372988
0
ARC
8
DEFAULT_255_2_778
10
14.5917578
20
92.2133195
40
0.3115607
50
32.7283073
51
64.7303933
0
ARC
8
DEFAULT_255_2_778
10
14.6105866
20
92.2257987
40
0.2889742
50
359.6764044
51
32.6652308
0
ARC
8
DEFAULT_255_2_778
10
14.5765378
20
92.2339493
40
0.1862755
50
356.9896172
51
47.2187886
0
ARC
8
DEFAULT_255_2_778
10
14.5538241
20
92.1886646
40
0.2353614
50
50.6500378
51
91.3809442
0
ARC
8
DEFAULT_255_2_778
10
14.5348561
20
92.0011622
40
0.4230045
50
88.1987832
51
90.0135221
0
ARC
8
DEFAULT_255_2_778
10
14.5219574
20
92.1630295
40
0.2614506
50
87.1940704
51
120.6883099
0
ARC
8
DEFAULT_255_2_778
10
14.4812322
20
92.2476066
40
0.1681305
50
123.4645516
51
128.071149
0
ARC
8
DEFAULT_255_2_778
10
14.4684638
20
92.2639825
40
0.1473652
50
128.089075
51
182.6509434
0
ARC
8
DEFAULT_255_2_778
10
14.453277
20
92.2571462
40
0.1320208
50
179.9911253
51
233.6123154
0
ARC
8
DEFAULT_255_2_778
10
14.5931342
20
92.4435888
40
0.3650861
50
233.301321
51
250.5251799
0
ARC
8
DEFAULT_255_2_778
10
14.8147406
20
93.0007479
40
0.9645293
50
249.1483704
51
254.5292686
0
ARC
8
DEFAULT_255_2_778
10
14.294742
20
91.0867141
40
1.0189041
50
65.7196603
51
75.0580646
0
ARC
8
DEFAULT_255_2_778
10
14.501563
20
91.5585024
40
0.5038327
50
59.2649384
51
65.0971905
0
ARC
8
DEFAULT_255_2_778
10
14.6102662
20
91.724714
40
0.3055304
50
32.8098873
51
60.8571043
0
ARC
8
DEFAULT_255_2_778
10
14.644178
20
91.7599986
40
0.2581559
50
358.5945264
51
30.3054643
0
ARC
8
DEFAULT_255_2_778
10
14.6618845
20
91.7468839
40
0.2404675
50
306.3330835
51
1.6163179
0
ARC
8
DEFAULT_255_2_778
10
14.5767288
20
91.8672075
40
0.3878607
50
272.4475041
51
305.9358716
0
ARC
8
DEFAULT_255_2_778
10
14.5432544
20
92.1258055
40
0.6480396
50
269.9294376
51
274.4284412
0
ARC
8
DEFAULT_255_2_778
10
14.5383969
20
91.9633315
40
0.4855818
50
246.3692999
51
270.4789888
0
ARC
8
DEFAULT_255_2_778
10
14.4714333
20
91.8283865
40
0.335189
50
216.3177044
51
247.6099118
0
ARC
8
DEFAULT_255_2_778
10
14.4223711
20
91.7867591
40
0.2710402
50
179.2162214
51
215.3699047
0
ARC
8
DEFAULT_255_2_778
10
14.465098
20
91.783524
40
0.1767782
50
177.7492233
51
232.6118337
0
ARC
8
DEFAULT_255_2_778
10
14.5257029
20
91.877394
40
0.2882974
50
234.3701486
51
271.7655607
0
ARC
8
DEFAULT_255_2_778
10
14.5426161
20
92.0733742
40
0.4842075
50
269.0496874
51
270.0047522
0
ARC
8
DEFAULT_255_2_778
10
14.5549787
20
91.8921696
40
0.3032534
50
267.6711952
51
295.1178482
0
ARC
8
DEFAULT_255_2_778
10
14.6049029
20
91.7685059
40
0.170248
50
297.5719115
51
307.2936535
0
ARC
8
DEFAULT_255_2_778
10
14.6230624
20
91.7474321
40
0.1424901
50
306.6189149
51
2.1053033
0
ARC
8
DEFAULT_255_2_778
10
14.626269
20
91.7598793
40
0.139374
50
357.0335907
51
51.9060065
0
ARC
8
DEFAULT_255_2_778
10
14.4972577
20
91.569003
40
0.3695442
50
54.4231756
51
69.7812958
0
ARC
8
DEFAULT_255_2_778
10
14.2085842
20
90.8528741
40
1.1415519
50
68.6073421
51
74.2130417
0
LINE
8
DEFAULT_255_2_778
10
14.8995563
20
92.2241667
11
14.7625563
21
92.2241667
0
LINE
8
DEFAULT_255_2_778
10
14.1513563
20
91.7904667
11
14.2884563
21
91.7904667
0
LINE
8
DEFAULT_255_2_778
10
14.5191563
20
91.9513667
11
14.5185563
21
91.9513667
0
ARC
8
DEFAULT_255_2_778
10
14.5640876
20
92.7404818
40
1.1290939
50
317.8191631
51
324.7825602
0
ARC
8
DEFAULT_255_2_778
10
15.1361301
20
92.332558
40
0.4265239
50
325.235974
51
331.3910759
0
ARC
8
DEFAULT_255_2_778
10
15.2973901
20
92.245546
40
0.2432902
50
331.1962374
51
359.8304535
0
ARC
8
DEFAULT_255_2_778
10
15.3562699
20
92.2518527
40
0.1845431
50
357.8178613
51
42.7522268
0
ARC
8
DEFAULT_255_2_778
10
15.3688883
20
92.2568451
40
0.1719583
50
44.3850664
51
92.6028656
0
ARC
8
DEFAULT_255_2_778
10
15.348886
20
92.2251169
40
0.2038741
50
86.5712331
51
133.4493059
0
ARC
8
DEFAULT_255_2_778
10
15.3657467
20
92.2311316
40
0.2117372
50
137.8853454
51
183.3859608
0
ARC
8
DEFAULT_255_2_778
10
15.3252742
20
92.2307181
40
0.302337
50
133.9931914
51
182.2921678
0
ARC
8
DEFAULT_255_2_778
10
15.342356
20
92.1978814
40
0.3379887
50
88.4133065
51
132.2098126
0
ARC
8
DEFAULT_255_2_778
10
15.3612492
20
92.0047964
40
0.5310297
50
89.9967697
51
91.0287876
0
ARC
8
DEFAULT_255_2_778
10
15.3747554
20
92.1842461
40
0.3518381
50
59.0696355
51
92.1950924
0
ARC
8
DEFAULT_255_2_778
10
15.4137159
20
92.2659824
40
0.2618408
50
47.9535865
51
57.189196
0
ARC
8
DEFAULT_255_2_778
10
15.4166668
20
92.27047
40
0.2565333
50
357.6220335
51
47.7717444
0
ARC
8
DEFAULT_255_2_778
10
15.3197433
20
92.272865
40
0.3534764
50
329.9996412
51
357.8860046
0
ARC
8
DEFAULT_255_2_778
10
14.8568562
20
92.520326
40
0.8782461
50
318.5516155
51
331.1178642
0
ARC
8
DEFAULT_255_2_778
10
14.4199079
20
92.8804286
40
1.4442592
50
317.1343657
51
319.3180902
0
LINE
8
DEFAULT_255_2_778
10
15.7200792
20
91.599226
11
15.7200792
21
91.492526
0
LINE
8
DEFAULT_255_2_778
10
15.7200792
20
91.492526
11
15.0427792
21
91.492526
0
LINE
8
DEFAULT_255_2_778
10
15.0427792
20
91.492526
11
15.0427792
21
91.586526
0
LINE
8
DEFAULT_255_2_778
10
15.0427792
20
91.586526
11
15.4007792
21
91.982326
0
LINE
8
DEFAULT_255_2_778
10
15.1543792
20
92.218626
11
15.0231792
21
92.218626
0
LINE
8
DEFAULT_255_2_778
10
15.4784792
20
91.897926
11
15.2014792
21
91.598926
0
LINE
8
DEFAULT_255_2_778
10
15.2014792
20
91.598926
11
15.7205792
21
91.598926
0
LINE
8
DEFAULT_255_2_778
10
15.7205792
20
91.598926
11
15.7200792
21
91.599226
0
ARC
8
DEFAULT_255_2_778
10
4.1804922
20
89.3292016
40
0.902928
50
348.1640717
51
0.7805548
0
ARC
8
DEFAULT_255_2_778
10
4.6704677
20
89.2230719
40
0.4016158
50
326.2596032
51
348.6454974
0
ARC
8
DEFAULT_255_2_778
10
4.7844143
20
89.1617703
40
0.2730911
50
268.8067979
51
323.675332
0
ARC
8
DEFAULT_255_2_778
10
4.7583088
20
89.3663856
40
0.4780834
50
269.9793432
51
272.4478125
0
ARC
8
DEFAULT_255_2_778
10
4.744156
20
89.2000815
40
0.3120927
50
234.9903617
51
272.5674792
0
ARC
8
DEFAULT_255_2_778
10
4.7168634
20
89.1448457
40
0.2513669
50
215.857521
51
232.8619874
0
ARC
8
DEFAULT_255_2_778
10
4.8575681
20
89.2335898
40
0.4175205
50
189.4162838
51
214.4170325
0
ARC
8
DEFAULT_255_2_778
10
5.3149134
20
89.3265934
40
0.8840813
50
180.1809031
51
190.5132892
0
ARC
8
DEFAULT_255_2_778
10
5.3111846
20
89.5107522
40
0.8804348
50
167.9249794
51
180.8037309
0
ARC
8
DEFAULT_255_2_778
10
4.8346678
20
89.6157708
40
0.3925036
50
145.903813
51
168.3645808
0
ARC
8
DEFAULT_255_2_778
10
4.7285605
20
89.6720495
40
0.273391
50
89.4708712
51
143.2039446
0
ARC
8
DEFAULT_255_2_778
10
4.756578
20
89.4632769
40
0.4828254
50
89.9693331
51
93.0265786
0
ARC
8
DEFAULT_255_2_778
10
4.7702031
20
89.6189037
40
0.3274712
50
58.4841175
51
92.3393351
0
ARC
8
DEFAULT_255_2_778
10
4.8067778
20
89.695492
40
0.2432225
50
36.3640766
51
56.3975351
0
ARC
8
DEFAULT_255_2_778
10
4.6739588
20
89.6124548
40
0.3995877
50
9.4588048
51
34.6599186
0
ARC
8
DEFAULT_255_2_778
10
4.179683
20
89.5118629
40
0.9038535
50
359.9707884
51
10.5996443
0
ARC
8
DEFAULT_255_2_778
10
4.2255923
20
89.5324299
40
0.7265438
50
359.0514313
51
11.5461816
0
ARC
8
DEFAULT_255_2_778
10
4.6648024
20
89.6226023
40
0.2781734
50
11.4563015
51
30.1935474
0
ARC
8
DEFAULT_255_2_778
10
4.768063
20
89.6773261
40
0.1614667
50
31.8376385
51
93.986913
0
ARC
8
DEFAULT_255_2_778
10
4.7457115
20
89.6796069
40
0.1591844
50
85.9924871
51
148.5331133
0
ARC
8
DEFAULT_255_2_778
10
4.9081369
20
89.5979907
40
0.340666
50
151.0858907
51
174.1903915
0
ARC
8
DEFAULT_255_2_778
10
5.3786056
20
89.5266229
40
0.8162771
50
172.5491605
51
179.7487718
0
ARC
8
DEFAULT_255_2_778
10
5.2787433
20
89.3090377
40
0.7165051
50
179.0512185
51
191.9421298
0
ARC
8
DEFAULT_255_2_778
10
4.8614426
20
89.2208574
40
0.2899894
50
191.9574431
51
210.2880253
0
ARC
8
DEFAULT_255_2_778
10
4.7502527
20
89.1559202
40
0.161226
50
210.2897829
51
272.9095449
0
ARC
8
DEFAULT_255_2_778
10
4.7678696
20
89.1533605
40
0.158739
50
266.5931597
51
328.2382046
0
ARC
8
DEFAULT_255_2_778
10
4.6146639
20
89.2338817
40
0.3316106
50
330.3436881
51
353.6081526
0
ARC
8
DEFAULT_255_2_778
10
4.1231402
20
89.31295
40
0.8292246
50
351.9595314
51
359.5268294
0
LINE
8
DEFAULT_255_2_778
10
5.0833365
20
89.5111021
11
5.0833365
21
89.3415021
0
LINE
8
DEFAULT_255_2_778
10
4.4308365
20
89.3238021
11
4.4308365
21
89.4984021
0
LINE
8
DEFAULT_255_2_778
10
5.0835365
20
89.5114021
11
5.0833365
21
89.5111021
0
LINE
8
DEFAULT_255_2_778
10
4.9520365
20
89.3061021
11
4.9520365
21
89.5204021
0
LINE
8
DEFAULT_255_2_778
10
4.5623365
20
89.5302021
11
4.5623365
21
89.3209021
0
LINE
8
DEFAULT_255_2_778
10
4.9523365
20
89.3061021
11
4.9520365
21
89.3061021
0
ARC
8
DEFAULT_255_2_778
10
5.3502258
20
88.9734914
40
0.0822609
50
139.0365395
51
181.8611504
0
ARC
8
DEFAULT_255_2_778
10
5.3428417
20
88.9738786
40
0.0765663
50
85.605574
51
135.6308023
0
ARC
8
DEFAULT_255_2_778
10
5.3543232
20
88.9712658
40
0.0791534
50
45.1887577
51
94.0677439
0
ARC
8
DEFAULT_255_2_778
10
5.350662
20
88.97331
40
0.0803849
50
358.2247751
51
42.3093609
0
ARC
8
DEFAULT_255_2_778
10
5.3549599
20
88.9687259
40
0.0760773
50
316.4605795
51
1.5771577
0
ARC
8
DEFAULT_255_2_778
10
5.3545094
20
88.9751778
40
0.0809661
50
265.8913455
51
313.3690045
0
ARC
8
DEFAULT_255_2_778
10
5.3426554
20
88.9724645
40
0.078279
50
225.8268779
51
274.4348156
0
ARC
8
DEFAULT_255_2_778
10
5.3457546
20
88.9685367
40
0.0777798
50
178.3179222
51
222.1707668
0
LINE
8
DEFAULT_255_2_778
10
5.2680083
20
88.9708198
11
5.2680083
21
88.9708198
0
ARC
8
DEFAULT_255_2_778
10
5.1554876
20
90.1501818
40
1.1290939
50
317.8191631
51
324.7825602
0
ARC
8
DEFAULT_255_2_778
10
5.7275301
20
89.742258
40
0.4265239
50
325.235974
51
331.3910759
0
ARC
8
DEFAULT_255_2_778
10
5.8887901
20
89.655246
40
0.2432902
50
331.1962374
51
359.8304535
0
ARC
8
DEFAULT_255_2_778
10
5.9476699
20
89.6615527
40
0.1845431
50
357.8178613
51
42.7522268
0
ARC
8
DEFAULT_255_2_778
10
5.9602883
20
89.6665451
40
0.1719583
50
44.3850664
51
92.6028656
0
ARC
8
DEFAULT_255_2_778
10
5.940286
20
89.6348169
40
0.2038741
50
86.5712331
51
133.4493059
0
ARC
8
DEFAULT_255_2_778
10
5.9571467
20
89.6408316
40
0.2117372
50
137.8853454
51
183.3859608
0
ARC
8
DEFAULT_255_2_778
10
5.9166742
20
89.6404181
40
0.302337
50
133.9931914
51
182.2921678
0
ARC
8
DEFAULT_255_2_778
10
5.933756
20
89.6075814
40
0.3379887
50
88.4133065
51
132.2098126
0
ARC
8
DEFAULT_255_2_778
10
5.9526492
20
89.4144964
40
0.5310297
50
89.9967697
51
91.0287876
0
ARC
8
DEFAULT_255_2_778
10
5.9661554
20
89.5939461
40
0.3518381
50
59.0696355
51
92.1950924
0
ARC
8
DEFAULT_255_2_778
10
6.0051159
20
89.6756824
40
0.2618408
50
47.9535865
51
57.189196
0
ARC
8
DEFAULT_255_2_778
10
6.0080668
20
89.68017
40
0.2565333
50
357.6220335
51
47.7717444
0
ARC
8
DEFAULT_255_2_778
10
5.9111433
20
89.682565
40
0.3534764
50
329.9996412
51
357.8860046
0
ARC
8
DEFAULT_255_2_778
10
5.4482562
20
89.930026
40
0.8782461
50
318.5516155
51
331.1178642
0
ARC
8
DEFAULT_255_2_778
10
5.0113079
20
90.2901286
40
1.4442592
50
317.1343657
51
319.3180902
0
LINE
8
DEFAULT_255_2_778
10
6.3114792
20
89.008926
11
6.3114792
21
88.902226
0
LINE
8
DEFAULT_255_2_778
10
6.3114792
20
88.902226
11
5.6341792
21
88.902226
0
LINE
8
DEFAULT_255_2_778
10
5.6341792
20
88.902226
11
5.6341792
21
88.996226
0
LINE
8
DEFAULT_255_2_778
10
5.6341792
20
88.996226
11
5.9921792
21
89.392026
0
LINE
8
DEFAULT_255_2_778
10
5.7457792
20
89.628326
11
5.6145792
21
89.628326
0
LINE
8
DEFAULT_255_2_778
10
6.0698792
20
89.307626
11
5.7928792
21
89.008626
0
LINE
8
DEFAULT_255_2_778
10
5.7928792
20
89.008626
11
6.3119792
21
89.008626
0
LINE
8
DEFAULT_255_2_778
10
6.3119792
20
89.008626
11
6.3114792
21
89.008926
0
ARC
8
DEFAULT_255_2_778
10
6.8071396
20
89.3978006
40
0.2839254
50
87.5507563
51
139.4279798
0
ARC
8
DEFAULT_255_2_778
10
6.8331958
20
89.4356331
40
0.2462275
50
51.0882036
51
93.2415082
0
ARC
8
DEFAULT_255_2_778
10
6.848046
20
89.4710209
40
0.2096361
50
24.6536181
51
48.1699687
0
ARC
8
DEFAULT_255_2_778
10
7.2787061
20
89.3899384
40
0.2933696
50
118.5776581
51
144.9383776
0
ARC
8
DEFAULT_255_2_778
10
7.2760669
20
89.385707
40
0.2958549
50
88.5462182
51
117.736795
0
ARC
8
DEFAULT_255_2_778
10
7.2966313
20
89.3993328
40
0.2824359
50
58.8001835
51
92.6499957
0
ARC
8
DEFAULT_255_2_778
10
7.3109463
20
89.4580275
40
0.2255472
50
4.8204326
51
54.1818178
0
ARC
8
DEFAULT_255_2_778
10
7.0725633
20
89.4093493
40
0.4680445
50
0.6999111
51
8.3082352
0
ARC
8
DEFAULT_255_2_778
10
7.229002
20
89.4199209
40
0.1807076
50
356.0163006
51
36.044296
0
ARC
8
DEFAULT_255_2_778
10
7.2894469
20
89.4544067
40
0.1118066
50
39.9843433
51
42.6563053
0
ARC
8
DEFAULT_255_2_778
10
7.2696163
20
89.4203186
40
0.1499405
50
47.1057287
51
91.1164286
0
ARC
8
DEFAULT_255_2_778
10
7.2456568
20
89.222709
40
0.3481579
50
86.5357012
51
90.0631744
0
ARC
8
DEFAULT_255_2_778
10
7.2394026
20
89.3955289
40
0.175436
50
88.0824392
51
131.2311834
0
ARC
8
DEFAULT_255_2_778
10
7.2440806
20
89.3978202
40
0.1768676
50
132.8603153
51
175.8672338
0
ARC
8
DEFAULT_255_2_778
10
6.7634368
20
89.4172069
40
0.1727291
50
355.6703006
51
40.2284753
0
ARC
8
DEFAULT_255_2_778
10
6.7844802
20
89.4070624
40
0.1646032
50
47.6760546
51
94.4625098
0
ARC
8
DEFAULT_255_2_778
10
6.7580422
20
89.3957534
40
0.1759421
50
85.5566931
51
158.0336414
0
LINE
8
DEFAULT_255_2_778
10
6.4636729
20
89.6674667
11
6.5880729
21
89.6674667
0
LINE
8
DEFAULT_255_2_778
10
6.5880729
20
89.6674667
11
6.5914729
21
89.5824667
0
LINE
8
DEFAULT_255_2_778
10
7.5405729
20
89.4150667
11
7.5405729
21
88.9025667
0
LINE
8
DEFAULT_255_2_778
10
7.5405729
20
88.9025667
11
7.4092729
21
88.9025667
0
LINE
8
DEFAULT_255_2_778
10
7.4092729
20
88.9025667
11
7.4092729
21
89.4073667
0
LINE
8
DEFAULT_255_2_778
10
7.0676729
20
89.4105667
11
7.0676729
21
88.9027667
0
LINE
8
DEFAULT_255_2_778
10
7.0676729
20
88.9027667
11
6.9356729
21
88.9027667
0
LINE
8
DEFAULT_255_2_778
10
6.9356729
20
88.9027667
11
6.9356729
21
89.4041667
0
LINE
8
DEFAULT_255_2_778
10
6.5948729
20
89.4615667
11
6.5948729
21
88.9030667
0
LINE
8
DEFAULT_255_2_778
10
6.5948729
20
88.9030667
11
6.4636729
21
88.9030667
0
LINE
8
DEFAULT_255_2_778
10
6.4636729
20
88.9030667
11
6.4636729
21
89.6679667
0
LINE
8
DEFAULT_255_2_778
10
6.4636729
20
89.6679667
11
6.4636729
21
89.6674667
0
LINE
8
DEFAULT_255_2_778
10
8.4289813
20
88.9022469
11
8.3302813
21
89.1708469
0
LINE
8
DEFAULT_255_2_778
10
8.3302813
20
89.1708469
11
7.8971813
21
89.1708469
0
LINE
8
DEFAULT_255_2_778
10
7.8971813
20
89.1708469
11
7.7997813
21
88.9022469
0
LINE
8
DEFAULT_255_2_778
10
7.7997813
20
88.9022469
11
7.6592813
21
88.9022469
0
LINE
8
DEFAULT_255_2_778
10
7.6592813
20
88.9022469
11
8.0540813
21
89.9317469
0
LINE
8
DEFAULT_255_2_778
10
8.0540813
20
89.9317469
11
8.1733813
21
89.9317469
0
LINE
8
DEFAULT_255_2_778
10
8.1733813
20
89.9317469
11
8.5688813
21
88.9022469
0
LINE
8
DEFAULT_255_2_778
10
8.5688813
20
88.9022469
11
8.4289813
21
88.9022469
0
LINE
8
DEFAULT_255_2_778
10
8.4289813
20
88.9022469
11
8.4289813
21
88.9022469
0
LINE
8
DEFAULT_255_2_778
10
8.1138813
20
89.7640469
11
7.9383813
21
89.2824469
0
LINE
8
DEFAULT_255_2_778
10
7.9383813
20
89.2824469
11
8.2897813
21
89.2824469
0
LINE
8
DEFAULT_255_2_778
10
8.2897813
20
89.2824469
11
8.1135813
21
89.7640469
0
LINE
8
DEFAULT_255_2_778
10
8.1135813
20
89.7640469
11
8.1138813
21
89.7640469
0
LINE
8
DEFAULT_255_2_778
10
14.0232314
20
78.6713447
11
5.3793314
21
78.6713447
0
LINE
8
DEFAULT_255_2_778
10
14.0232314
20
82.3260447
11
5.3793314
21
82.3260447
0
LINE
8
DEFAULT_255_2_778
10
14.0232314
20
71.3619447
11
5.3793314
21
71.3619447
0
LINE
8
DEFAULT_255_2_778
10
14.0232314
20
75.0166447
11
5.3793314
21
75.0166447
0
LINE
8
DEFAULT_255_2_778
10
14.0232314
20
64.0528447
11
5.3793314
21
64.0528447
0
LINE
8
DEFAULT_255_2_778
10
14.0232314
20
67.7075447
11
5.3793314
21
67.7075447
0
LINE
8
DEFAULT_255_2_778
10
14.0232314
20
56.7435447
11
5.3793314
21
56.7435447
0
LINE
8
DEFAULT_255_2_778
10
14.0232314
20
60.3982447
11
5.3793314
21
60.3982447
0
LINE
8
DEFAULT_255_2_778
10
14.0232314
20
42.1247447
11
5.3793314
21
42.1247447
0
LINE
8
DEFAULT_255_2_778
10
14.0232314
20
45.7794447
11
5.3793314
21
45.7794447
0
LINE
8
DEFAULT_255_2_778
10
14.0232314
20
34.8153447
11
5.3793314
21
34.8153447
0
LINE
8
DEFAULT_255_2_778
10
14.0232314
20
38.4700447
11
5.3793314
21
38.4700447
0
LINE
8
DEFAULT_255_2_778
10
14.0232314
20
27.5062447
11
5.3793314
21
27.5062447
0
LINE
8
DEFAULT_255_2_778
10
14.0232314
20
31.1609447
11
5.3793314
21
31.1609447
0
LINE
8
DEFAULT_255_2_778
10
14.0232314
20
20.1968447
11
5.3793314
21
20.1968447
0
LINE
8
DEFAULT_255_2_778
10
14.0232314
20
23.8515447
11
5.3793314
21
23.8515447
0
LINE
8
DEFAULT_255_2_778
10
14.0232314
20
12.8874447
11
5.3793314
21
12.8874447
0
LINE
8
DEFAULT_255_2_778
10
14.0232314
20
16.5421447
11
5.3793314
21
16.5421447
0
LINE
8
DEFAULT_255_2_778
10
14.0232314
20
85.9808
11
5.3793314
21
85.9808
0
LINE
8
DEFAULT_255_2_778
10
9.7767314
20
85.9807302
11
9.7767314
21
12.8874302
0
LINE
8
DEFAULT_255_2_778
10
14.0230314
20
49.4341302
11
5.3791314
21
49.4341302
0
LINE
8
DEFAULT_255_2_778
10
14.0230314
20
53.0888302
11
5.3791314
21
53.0888302
0
LINE
8
DEFAULT_255_2_778
10
10.8657906
20
15.3639469
11
11.1596906
21
14.5149469
0
LINE
8
DEFAULT_255_2_778
10
11.1596906
20
14.5149469
11
11.4549906
21
15.3639469
0
LINE
8
DEFAULT_255_2_778
10
11.4549906
20
15.3639469
11
11.6041906
21
15.3639469
0
LINE
8
DEFAULT_255_2_778
10
11.6041906
20
15.3639469
11
11.2207906
21
14.3344469
0
LINE
8
DEFAULT_255_2_778
10
11.2207906
20
14.3344469
11
11.1001906
21
14.3344469
0
LINE
8
DEFAULT_255_2_778
10
11.1001906
20
14.3344469
11
10.7175906
21
15.3639469
0
LINE
8
DEFAULT_255_2_778
10
10.7175906
20
15.3639469
11
10.8659906
21
15.3639469
0
LINE
8
DEFAULT_255_2_778
10
10.8659906
20
15.3639469
11
10.8657906
21
15.3639469
0
LINE
8
DEFAULT_255_2_778
10
11.8889698
20
15.3639469
11
11.8889698
21
14.3344469
0
LINE
8
DEFAULT_255_2_778
10
11.8889698
20
14.3344469
11
11.7526698
21
14.3344469
0
LINE
8
DEFAULT_255_2_778
10
11.7526698
20
14.3344469
11
11.7526698
21
15.3639469
0
LINE
8
DEFAULT_255_2_778
10
11.7526698
20
15.3639469
11
11.8889698
21
15.3639469
0
LINE
8
DEFAULT_255_2_778
10
11.8889698
20
15.3639469
11
11.8889698
21
15.3639469
0
LINE
8
DEFAULT_255_2_778
10
12.1863906
20
15.3639469
11
12.4802906
21
14.5149469
0
LINE
8
DEFAULT_255_2_778
10
12.4802906
20
14.5149469
11
12.7755906
21
15.3639469
0
LINE
8
DEFAULT_255_2_778
10
12.7755906
20
15.3639469
11
12.9247906
21
15.3639469
0
LINE
8
DEFAULT_255_2_778
10
12.9247906
20
15.3639469
11
12.5413906
21
14.3344469
0
LINE
8
DEFAULT_255_2_778
10
12.5413906
20
14.3344469
11
12.4207906
21
14.3344469
0
LINE
8
DEFAULT_255_2_778
10
12.4207906
20
14.3344469
11
12.0381906
21
15.3639469
0
LINE
8
DEFAULT_255_2_778
10
12.0381906
20
15.3639469
11
12.1865906
21
15.3639469
0
LINE
8
DEFAULT_255_2_778
10
12.1865906
20
15.3639469
11
12.1863906
21
15.3639469
0
LINE
8
DEFAULT_255_2_778
10
10.7133906
20
33.6374469
11
11.0072906
21
32.7884469
0
LINE
8
DEFAULT_255_2_778
10
11.0072906
20
32.7884469
11
11.3025906
21
33.6374469
0
LINE
8
DEFAULT_255_2_778
10
11.3025906
20
33.6374469
11
11.4517906
21
33.6374469
0
LINE
8
DEFAULT_255_2_778
10
11.4517906
20
33.6374469
11
11.0683906
21
32.6079469
0
LINE
8
DEFAULT_255_2_778
10
11.0683906
20
32.6079469
11
10.9477906
21
32.6079469
0
LINE
8
DEFAULT_255_2_778
10
10.9477906
20
32.6079469
11
10.5651906
21
33.6374469
0
LINE
8
DEFAULT_255_2_778
10
10.5651906
20
33.6374469
11
10.7135906
21
33.6374469
0
LINE
8
DEFAULT_255_2_778
10
10.7135906
20
33.6374469
11
10.7133906
21
33.6374469
0
LINE
8
DEFAULT_255_2_778
10
11.7365698
20
33.6374469
11
11.7365698
21
32.6079469
0
LINE
8
DEFAULT_255_2_778
10
11.7365698
20
32.6079469
11
11.6002698
21
32.6079469
0
LINE
8
DEFAULT_255_2_778
10
11.6002698
20
32.6079469
11
11.6002698
21
33.6374469
0
LINE
8
DEFAULT_255_2_778
10
11.6002698
20
33.6374469
11
11.7365698
21
33.6374469
0
LINE
8
DEFAULT_255_2_778
10
11.7365698
20
33.6374469
11
11.7365698
21
33.6374469
0
LINE
8
DEFAULT_255_2_778
10
12.1318698
20
33.6374469
11
12.1318698
21
32.6079469
0
LINE
8
DEFAULT_255_2_778
10
12.1318698
20
32.6079469
11
11.9955698
21
32.6079469
0
LINE
8
DEFAULT_255_2_778
10
11.9955698
20
32.6079469
11
11.9955698
21
33.6374469
0
LINE
8
DEFAULT_255_2_778
10
11.9955698
20
33.6374469
11
12.1318698
21
33.6374469
0
LINE
8
DEFAULT_255_2_778
10
12.1318698
20
33.6374469
11
12.1318698
21
33.6374469
0
LINE
8
DEFAULT_255_2_778
10
12.5273698
20
33.6374469
11
12.5273698
21
32.6079469
0
LINE
8
DEFAULT_255_2_778
10
12.5273698
20
32.6079469
11
12.3910698
21
32.6079469
0
LINE
8
DEFAULT_255_2_778
10
12.3910698
20
32.6079469
11
12.3910698
21
33.6374469
0
LINE
8
DEFAULT_255_2_778
10
12.3910698
20
33.6374469
11
12.5273698
21
33.6374469
0
LINE
8
DEFAULT_255_2_778
10
12.5273698
20
33.6374469
11
12.5273698
21
33.6374469
0
LINE
8
DEFAULT_255_2_778
10
11.1703906
20
51.9106469
11
11.4642906
21
51.0616469
0
LINE
8
DEFAULT_255_2_778
10
11.4642906
20
51.0616469
11
11.7595906
21
51.9106469
0
LINE
8
DEFAULT_255_2_778
10
11.7595906
20
51.9106469
11
11.9087906
21
51.9106469
0
LINE
8
DEFAULT_255_2_778
10
11.9087906
20
51.9106469
11
11.5253906
21
50.8811469
0
LINE
8
DEFAULT_255_2_778
10
11.5253906
20
50.8811469
11
11.4047906
21
50.8811469
0
LINE
8
DEFAULT_255_2_778
10
11.4047906
20
50.8811469
11
11.0221906
21
51.9106469
0
LINE
8
DEFAULT_255_2_778
10
11.0221906
20
51.9106469
11
11.1705906
21
51.9106469
0
LINE
8
DEFAULT_255_2_778
10
11.1705906
20
51.9106469
11
11.1703906
21
51.9106469
0
LINE
8
DEFAULT_255_2_778
10
12.1934698
20
51.9106469
11
12.1934698
21
50.8811469
0
LINE
8
DEFAULT_255_2_778
10
12.1934698
20
50.8811469
11
12.0571698
21
50.8811469
0
LINE
8
DEFAULT_255_2_778
10
12.0571698
20
50.8811469
11
12.0571698
21
51.9106469
0
LINE
8
DEFAULT_255_2_778
10
12.0571698
20
51.9106469
11
12.1934698
21
51.9106469
0
LINE
8
DEFAULT_255_2_778
10
12.1934698
20
51.9106469
11
12.1934698
21
51.9106469
0
LINE
8
DEFAULT_255_2_778
10
12.5887698
20
51.9106469
11
12.5887698
21
50.8811469
0
LINE
8
DEFAULT_255_2_778
10
12.5887698
20
50.8811469
11
12.4524698
21
50.8811469
0
LINE
8
DEFAULT_255_2_778
10
12.4524698
20
50.8811469
11
12.4524698
21
51.9106469
0
LINE
8
DEFAULT_255_2_778
10
12.4524698
20
51.9106469
11
12.5887698
21
51.9106469
0
LINE
8
DEFAULT_255_2_778
10
12.5887698
20
51.9106469
11
12.5887698
21
51.9106469
0
LINE
8
DEFAULT_255_2_778
10
11.1703906
20
70.1840469
11
11.4642906
21
69.3350469
0
LINE
8
DEFAULT_255_2_778
10
11.4642906
20
69.3350469
11
11.7595906
21
70.1840469
0
LINE
8
DEFAULT_255_2_778
10
11.7595906
20
70.1840469
11
11.9087906
21
70.1840469
0
LINE
8
DEFAULT_255_2_778
10
11.9087906
20
70.1840469
11
11.5253906
21
69.1545469
0
LINE
8
DEFAULT_255_2_778
10
11.5253906
20
69.1545469
11
11.4047906
21
69.1545469
0
LINE
8
DEFAULT_255_2_778
10
11.4047906
20
69.1545469
11
11.0221906
21
70.1840469
0
LINE
8
DEFAULT_255_2_778
10
11.0221906
20
70.1840469
11
11.1705906
21
70.1840469
0
LINE
8
DEFAULT_255_2_778
10
11.1705906
20
70.1840469
11
11.1703906
21
70.1840469
0
LINE
8
DEFAULT_255_2_778
10
12.1934698
20
70.1840469
11
12.1934698
21
69.1545469
0
LINE
8
DEFAULT_255_2_778
10
12.1934698
20
69.1545469
11
12.0571698
21
69.1545469
0
LINE
8
DEFAULT_255_2_778
10
12.0571698
20
69.1545469
11
12.0571698
21
70.1840469
0
LINE
8
DEFAULT_255_2_778
10
12.0571698
20
70.1840469
11
12.1934698
21
70.1840469
0
LINE
8
DEFAULT_255_2_778
10
12.1934698
20
70.1840469
11
12.1934698
21
70.1840469
0
ARC
8
DEFAULT_255_2_778
10
11.4484491
20
18.546437
40
0.4723035
50
60.9559645
51
91.1410458
0
ARC
8
DEFAULT_255_2_778
10
11.4795691
20
18.6112743
40
0.4005343
50
26.5567677
51
60.3450361
0
ARC
8
DEFAULT_255_2_778
10
11.3448717
20
18.5461857
40
0.5501237
50
359.2147966
51
26.3484727
0
ARC
8
DEFAULT_255_2_778
10
11.3426916
20
18.4606792
40
0.5523862
50
333.8750505
51
1.2621852
0
ARC
8
DEFAULT_255_2_778
10
11.4848532
20
18.395168
40
0.3959199
50
299.106743
51
333.3280482
0
ARC
8
DEFAULT_255_2_778
10
11.4397103
20
18.4890733
40
0.4999645
50
269.2932934
51
298.3919492
0
ARC
8
DEFAULT_255_2_778
10
11.441872
20
18.4241299
40
0.3244267
50
267.3626483
51
308.8510832
0
ARC
8
DEFAULT_255_2_778
10
11.4617112
20
18.3860216
40
0.2824302
50
310.5665618
51
318.1657761
0
ARC
8
DEFAULT_255_2_778
10
11.3985663
20
18.4287008
40
0.3580929
50
319.8167302
51
355.4930575
0
ARC
8
DEFAULT_255_2_778
10
11.1212061
20
18.4736301
40
0.6385403
50
353.4292431
51
0.1630128
0
ARC
8
DEFAULT_255_2_778
10
11.270717
20
18.5483529
40
0.4891944
50
358.4999488
51
21.9317916
0
ARC
8
DEFAULT_255_2_778
10
11.4440055
20
18.610933
40
0.3051461
50
23.1847743
51
40.238116
0
ARC
8
DEFAULT_255_2_778
10
11.4560331
20
18.6111325
40
0.2959337
50
41.7130384
51
92.6635416
0
LINE
8
DEFAULT_255_2_778
10
11.4332438
20
17.9891469
11
11.1472438
21
17.9891469
0
LINE
8
DEFAULT_255_2_778
10
11.1472438
20
17.9891469
11
11.1472438
21
19.0186469
0
LINE
8
DEFAULT_255_2_778
10
11.1472438
20
19.0186469
11
11.4390438
21
19.0186469
0
LINE
8
DEFAULT_255_2_778
10
11.8949438
20
18.5386469
11
11.8949438
21
18.4728469
0
LINE
8
DEFAULT_255_2_778
10
11.4335438
20
17.9891469
11
11.4332438
21
17.9891469
0
LINE
8
DEFAULT_255_2_778
10
11.4425438
20
18.9067469
11
11.2835438
21
18.9067469
0
LINE
8
DEFAULT_255_2_778
10
11.2835438
20
18.9067469
11
11.2835438
21
18.1000469
0
LINE
8
DEFAULT_255_2_778
10
11.2835438
20
18.1000469
11
11.4269438
21
18.1000469
0
LINE
8
DEFAULT_255_2_778
10
11.7597438
20
18.4754469
11
11.7597438
21
18.5355469
0
LINE
8
DEFAULT_255_2_778
10
11.4422438
20
18.9067469
11
11.4425438
21
18.9067469
0
LINE
8
DEFAULT_255_2_778
10
12.7343177
20
19.0186601
11
12.7343177
21
18.9450601
0
LINE
8
DEFAULT_255_2_778
10
12.7343177
20
18.9450601
11
12.3062177
21
17.9891601
0
LINE
8
DEFAULT_255_2_778
10
12.3062177
20
17.9891601
11
12.1683177
21
17.9891601
0
LINE
8
DEFAULT_255_2_778
10
12.1683177
20
17.9891601
11
12.5951177
21
18.9112601
0
LINE
8
DEFAULT_255_2_778
10
12.5951177
20
18.9112601
11
12.0355177
21
18.9112601
0
LINE
8
DEFAULT_255_2_778
10
12.0355177
20
18.9112601
11
12.0355177
21
19.0186601
0
LINE
8
DEFAULT_255_2_778
10
12.0355177
20
19.0186601
11
12.7343177
21
19.0186601
0
LINE
8
DEFAULT_255_2_778
10
12.7343177
20
19.0186601
11
12.7343177
21
19.0186601
0
ARC
8
DEFAULT_255_2_778
10
11.4484491
20
22.201137
40
0.4723035
50
60.9559645
51
91.1410458
0
ARC
8
DEFAULT_255_2_778
10
11.4795691
20
22.2659743
40
0.4005343
50
26.5567677
51
60.3450361
0
ARC
8
DEFAULT_255_2_778
10
11.3448717
20
22.2008857
40
0.5501237
50
359.2147966
51
26.3484727
0
ARC
8
DEFAULT_255_2_778
10
11.3426916
20
22.1153792
40
0.5523862
50
333.8750505
51
1.2621852
0
ARC
8
DEFAULT_255_2_778
10
11.4848532
20
22.049868
40
0.3959199
50
299.106743
51
333.3280482
0
ARC
8
DEFAULT_255_2_778
10
11.4397103
20
22.1437733
40
0.4999645
50
269.2932934
51
298.3919492
0
ARC
8
DEFAULT_255_2_778
10
11.441872
20
22.0788299
40
0.3244267
50
267.3626483
51
308.8510832
0
ARC
8
DEFAULT_255_2_778
10
11.4617112
20
22.0407216
40
0.2824302
50
310.5665618
51
318.1657761
0
ARC
8
DEFAULT_255_2_778
10
11.3985663
20
22.0834008
40
0.3580929
50
319.8167302
51
355.4930575
0
ARC
8
DEFAULT_255_2_778
10
11.1212061
20
22.1283301
40
0.6385403
50
353.4292431
51
0.1630128
0
ARC
8
DEFAULT_255_2_778
10
11.270717
20
22.2030529
40
0.4891944
50
358.4999488
51
21.9317916
0
ARC
8
DEFAULT_255_2_778
10
11.4440055
20
22.265633
40
0.3051461
50
23.1847743
51
40.238116
0
ARC
8
DEFAULT_255_2_778
10
11.4560331
20
22.2658325
40
0.2959337
50
41.7130384
51
92.6635416
0
LINE
8
DEFAULT_255_2_778
10
11.4332438
20
21.6438469
11
11.1472438
21
21.6438469
0
LINE
8
DEFAULT_255_2_778
10
11.1472438
20
21.6438469
11
11.1472438
21
22.6733469
0
LINE
8
DEFAULT_255_2_778
10
11.1472438
20
22.6733469
11
11.4390438
21
22.6733469
0
LINE
8
DEFAULT_255_2_778
10
11.8949438
20
22.1933469
11
11.8949438
21
22.1275469
0
LINE
8
DEFAULT_255_2_778
10
11.4335438
20
21.6438469
11
11.4332438
21
21.6438469
0
LINE
8
DEFAULT_255_2_778
10
11.4425438
20
22.5614469
11
11.2835438
21
22.5614469
0
LINE
8
DEFAULT_255_2_778
10
11.2835438
20
22.5614469
11
11.2835438
21
21.7547469
0
LINE
8
DEFAULT_255_2_778
10
11.2835438
20
21.7547469
11
11.4269438
21
21.7547469
0
LINE
8
DEFAULT_255_2_778
10
11.7597438
20
22.1301469
11
11.7597438
21
22.1902469
0
LINE
8
DEFAULT_255_2_778
10
11.4422438
20
22.5614469
11
11.4425438
21
22.5614469
0
ARC
8
DEFAULT_255_2_778
10
12.5504451
20
22.2055305
40
0.3576442
50
88.7351727
51
127.1118987
0
ARC
8
DEFAULT_255_2_778
10
12.5226611
20
22.2564319
40
0.3004099
50
128.7439704
51
133.9838827
0
ARC
8
DEFAULT_255_2_778
10
12.5724405
20
22.219391
40
0.3617726
50
135.5828428
51
174.2682335
0
ARC
8
DEFAULT_255_2_778
10
12.7919853
20
22.1736496
40
0.5852636
50
171.9585567
51
174.8988959
0
ARC
8
DEFAULT_255_2_778
10
12.4186632
20
22.0381238
40
0.2812867
50
87.253924
51
138.1789662
0
ARC
8
DEFAULT_255_2_778
10
12.4427963
20
22.0512236
40
0.2680757
50
40.2370303
51
92.2782507
0
ARC
8
DEFAULT_255_2_778
10
12.3652945
20
21.9958317
40
0.3631028
50
357.8213046
51
39.0097137
0
ARC
8
DEFAULT_255_2_778
10
12.1583507
20
21.9796891
40
0.5697887
50
359.9998375
51
0.2351773
0
ARC
8
DEFAULT_255_2_778
10
12.3457736
20
21.9655189
40
0.3826284
50
327.1851823
51
2.1221213
0
ARC
8
DEFAULT_255_2_778
10
12.4134745
20
21.9323833
40
0.3079008
50
317.6812122
51
325.5398159
0
ARC
8
DEFAULT_255_2_778
10
12.4211594
20
21.9297522
40
0.3004645
50
267.4401227
51
317.0655713
0
ARC
8
DEFAULT_255_2_778
10
12.3999783
20
21.9253101
40
0.2958245
50
218.0233331
51
271.5033956
0
ARC
8
DEFAULT_255_2_778
10
12.5107724
20
22.0104156
40
0.4355288
50
180.5050136
51
217.8648645
0
ARC
8
DEFAULT_255_2_778
10
12.7378144
20
22.0352704
40
0.6631747
50
179.9812411
51
182.4797896
0
ARC
8
DEFAULT_255_2_778
10
13.0272198
20
22.0982634
40
0.9526619
50
166.3716915
51
180.7503589
0
ARC
8
DEFAULT_255_2_778
10
12.5997921
20
22.2046002
40
0.51222
50
141.9668892
51
166.6660315
0
ARC
8
DEFAULT_255_2_778
10
12.5173292
20
22.2518464
40
0.4183793
50
94.7020521
51
140.1050293
0
ARC
8
DEFAULT_255_2_778
10
12.5671904
20
21.9797307
40
0.6942071
50
90.6892457
51
96.9629991
0
ARC
8
DEFAULT_255_2_778
10
12.4091407
20
21.9993517
40
0.2110364
50
89.8645529
51
125.9520412
0
ARC
8
DEFAULT_255_2_778
10
12.4024598
20
21.9975636
40
0.2086615
50
124.1784552
51
159.9539673
0
ARC
8
DEFAULT_255_2_778
10
12.5611704
20
22.0076403
40
0.354978
50
177.861318
51
208.8956185
0
ARC
8
DEFAULT_255_2_778
10
12.4661202
20
21.9650458
40
0.2513277
50
210.8652674
51
216.4044356
0
ARC
8
DEFAULT_255_2_778
10
12.4079195
20
21.9103973
40
0.1723112
50
213.2630325
51
269.7739096
0
ARC
8
DEFAULT_255_2_778
10
12.4141471
20
21.9050964
40
0.1671517
50
267.6315877
51
322.4336966
0
ARC
8
DEFAULT_255_2_778
10
12.3286067
20
21.9609602
40
0.2691293
50
324.1097921
51
2.6892483
0
ARC
8
DEFAULT_255_2_778
10
12.329331
20
21.9863405
40
0.2684117
50
357.2766965
51
36.2321648
0
ARC
8
DEFAULT_255_2_778
10
12.4139423
20
22.0448675
40
0.1655926
50
37.2012408
51
91.6966143
0
LINE
8
DEFAULT_255_2_778
10
12.5588396
20
22.6741875
11
12.5823396
21
22.6741875
0
LINE
8
DEFAULT_255_2_778
10
12.5823396
20
22.6741875
11
12.5823396
21
22.5630875
0
LINE
8
DEFAULT_255_2_778
10
12.5823396
20
22.5630875
11
12.5583396
21
22.5630875
0
LINE
8
DEFAULT_255_2_778
10
12.0746396
20
22.0354875
11
12.0746396
21
22.0857875
0
LINE
8
DEFAULT_255_2_778
10
12.5588396
20
22.6738875
11
12.5588396
21
22.6741875
0
LINE
8
DEFAULT_255_2_778
10
12.2064396
20
22.0690875
11
12.2064396
21
22.0208875
0
LINE
8
DEFAULT_255_2_778
10
12.4090396
20
22.2103875
11
12.4096396
21
22.2103875
0
ARC
8
DEFAULT_255_2_778
10
11.4484491
20
25.855837
40
0.4723035
50
60.9559645
51
91.1410458
0
ARC
8
DEFAULT_255_2_778
10
11.4795691
20
25.9206743
40
0.4005343
50
26.5567677
51
60.3450361
0
ARC
8
DEFAULT_255_2_778
10
11.3448717
20
25.8555857
40
0.5501237
50
359.2147966
51
26.3484727
0
ARC
8
DEFAULT_255_2_778
10
11.3426916
20
25.7700792
40
0.5523862
50
333.8750505
51
1.2621852
0
ARC
8
DEFAULT_255_2_778
10
11.4848532
20
25.704568
40
0.3959199
50
299.106743
51
333.3280482
0
ARC
8
DEFAULT_255_2_778
10
11.4397103
20
25.7984733
40
0.4999645
50
269.2932934
51
298.3919492
0
ARC
8
DEFAULT_255_2_778
10
11.441872
20
25.7335299
40
0.3244267
50
267.3626483
51
308.8510832
0
ARC
8
DEFAULT_255_2_778
10
11.4617112
20
25.6954216
40
0.2824302
50
310.5665618
51
318.1657761
0
ARC
8
DEFAULT_255_2_778
10
11.3985663
20
25.7381008
40
0.3580929
50
319.8167302
51
355.4930575
0
ARC
8
DEFAULT_255_2_778
10
11.1212061
20
25.7830301
40
0.6385403
50
353.4292431
51
0.1630128
0
ARC
8
DEFAULT_255_2_778
10
11.270717
20
25.8577529
40
0.4891944
50
358.4999488
51
21.9317916
0
ARC
8
DEFAULT_255_2_778
10
11.4440055
20
25.920333
40
0.3051461
50
23.1847743
51
40.238116
0
ARC
8
DEFAULT_255_2_778
10
11.4560331
20
25.9205325
40
0.2959337
50
41.7130384
51
92.6635416
0
LINE
8
DEFAULT_255_2_778
10
11.4332438
20
25.2985469
11
11.1472438
21
25.2985469
0
LINE
8
DEFAULT_255_2_778
10
11.1472438
20
25.2985469
11
11.1472438
21
26.3280469
0
LINE
8
DEFAULT_255_2_778
10
11.1472438
20
26.3280469
11
11.4390438
21
26.3280469
0
LINE
8
DEFAULT_255_2_778
10
11.8949438
20
25.8480469
11
11.8949438
21
25.7822469
0
LINE
8
DEFAULT_255_2_778
10
11.4335438
20
25.2985469
11
11.4332438
21
25.2985469
0
LINE
8
DEFAULT_255_2_778
10
11.4425438
20
26.2161469
11
11.2835438
21
26.2161469
0
LINE
8
DEFAULT_255_2_778
10
11.2835438
20
26.2161469
11
11.2835438
21
25.4094469
0
LINE
8
DEFAULT_255_2_778
10
11.2835438
20
25.4094469
11
11.4269438
21
25.4094469
0
LINE
8
DEFAULT_255_2_778
10
11.7597438
20
25.7848469
11
11.7597438
21
25.8449469
0
LINE
8
DEFAULT_255_2_778
10
11.4422438
20
26.2161469
11
11.4425438
21
26.2161469
0
ARC
8
DEFAULT_255_2_778
10
12.4269321
20
25.6356792
40
0.3352274
50
89.0271146
51
119.8411343
0
ARC
8
DEFAULT_255_2_778
10
12.445777
20
25.6851603
40
0.2860007
50
42.3856567
51
92.6359309
0
ARC
8
DEFAULT_255_2_778
10
12.3913876
20
25.6531995
40
0.3479644
50
0.6239574
51
40.2350481
0
ARC
8
DEFAULT_255_2_778
10
12.1707717
20
25.6269555
40
0.5693525
50
359.9700936
51
3.02375
0
ARC
8
DEFAULT_255_2_778
10
12.3590108
20
25.6130405
40
0.3813563
50
329.7675792
51
2.0464034
0
ARC
8
DEFAULT_255_2_778
10
12.444574
20
25.5732713
40
0.2875387
50
316.6962664
51
328.0294258
0
ARC
8
DEFAULT_255_2_778
10
12.4343282
20
25.5939783
40
0.3093016
50
268.6751335
51
315.2064067
0
ARC
8
DEFAULT_255_2_778
10
12.4129045
20
25.7913525
40
0.5067942
50
269.990894
51
271.6137714
0
ARC
8
DEFAULT_255_2_778
10
12.3988627
20
25.6114008
40
0.3271405
50
230.1468952
51
272.4459432
0
ARC
8
DEFAULT_255_2_778
10
12.3921023
20
25.583859
40
0.301922
50
182.733852
51
227.7817739
0
ARC
8
DEFAULT_255_2_778
10
12.4221866
20
25.5860932
40
0.2079291
50
184.588725
51
226.1442687
0
ARC
8
DEFAULT_255_2_778
10
12.4035973
20
25.5875995
40
0.1966673
50
230.3572772
51
272.7473434
0
ARC
8
DEFAULT_255_2_778
10
12.4216609
20
25.5682987
40
0.1773508
50
267.2085996
51
319.6017819
0
ARC
8
DEFAULT_255_2_778
10
12.3556378
20
25.6072048
40
0.2531884
50
322.5812217
51
1.7409098
0
ARC
8
DEFAULT_255_2_778
10
12.162001
20
25.6250072
40
0.4468229
50
358.7034175
51
0.0065548
0
ARC
8
DEFAULT_255_2_778
10
12.3701637
20
25.6365693
40
0.2389377
50
357.2386624
51
40.2517611
0
ARC
8
DEFAULT_255_2_778
10
12.4103909
20
25.6608192
40
0.1927122
50
42.4776615
51
92.4288541
0
ARC
8
DEFAULT_255_2_778
10
12.3897747
20
25.6364258
40
0.2172894
50
86.7155155
51
124.3327065
0
LINE
8
DEFAULT_255_2_778
10
12.232324
20
25.7877583
11
12.127324
21
25.8147583
0
LINE
8
DEFAULT_255_2_778
10
12.127324
20
25.8147583
11
12.179924
21
26.3280583
0
LINE
8
DEFAULT_255_2_778
10
12.179924
20
26.3280583
11
12.709624
21
26.3280583
0
LINE
8
DEFAULT_255_2_778
10
12.709624
20
26.3280583
11
12.709624
21
26.2071583
0
LINE
8
DEFAULT_255_2_778
10
12.709624
20
26.2071583
11
12.291324
21
26.2071583
0
LINE
8
DEFAULT_255_2_778
10
12.291324
20
26.2071583
11
12.260124
21
25.9264583
0
LINE
8
DEFAULT_255_2_778
10
12.090524
20
25.5694583
11
12.214924
21
25.5694583
0
LINE
8
DEFAULT_255_2_778
10
12.267224
20
25.8158583
11
12.232624
21
25.7875583
0
LINE
8
DEFAULT_255_2_778
10
12.232624
20
25.7875583
11
12.232324
21
25.7877583
0
ARC
8
DEFAULT_255_2_778
10
11.4484491
20
29.510537
40
0.4723035
50
60.9559645
51
91.1410458
0
ARC
8
DEFAULT_255_2_778
10
11.4795691
20
29.5753743
40
0.4005343
50
26.5567677
51
60.3450361
0
ARC
8
DEFAULT_255_2_778
10
11.3448717
20
29.5102857
40
0.5501237
50
359.2147966
51
26.3484727
0
ARC
8
DEFAULT_255_2_778
10
11.3426916
20
29.4247792
40
0.5523862
50
333.8750505
51
1.2621852
0
ARC
8
DEFAULT_255_2_778
10
11.4848532
20
29.359268
40
0.3959199
50
299.106743
51
333.3280482
0
ARC
8
DEFAULT_255_2_778
10
11.4397103
20
29.4531733
40
0.4999645
50
269.2932934
51
298.3919492
0
ARC
8
DEFAULT_255_2_778
10
11.441872
20
29.3882299
40
0.3244267
50
267.3626483
51
308.8510832
0
ARC
8
DEFAULT_255_2_778
10
11.4617112
20
29.3501216
40
0.2824302
50
310.5665618
51
318.1657761
0
ARC
8
DEFAULT_255_2_778
10
11.3985663
20
29.3928008
40
0.3580929
50
319.8167302
51
355.4930575
0
ARC
8
DEFAULT_255_2_778
10
11.1212061
20
29.4377301
40
0.6385403
50
353.4292431
51
0.1630128
0
ARC
8
DEFAULT_255_2_778
10
11.270717
20
29.5124529
40
0.4891944
50
358.4999488
51
21.9317916
0
ARC
8
DEFAULT_255_2_778
10
11.4440055
20
29.575033
40
0.3051461
50
23.1847743
51
40.238116
0
ARC
8
DEFAULT_255_2_778
10
11.4560331
20
29.5752325
40
0.2959337
50
41.7130384
51
92.6635416
0
LINE
8
DEFAULT_255_2_778
10
11.4332438
20
28.9532469
11
11.1472438
21
28.9532469
0
LINE
8
DEFAULT_255_2_778
10
11.1472438
20
28.9532469
11
11.1472438
21
29.9827469
0
LINE
8
DEFAULT_255_2_778
10
11.1472438
20
29.9827469
11
11.4390438
21
29.9827469
0
LINE
8
DEFAULT_255_2_778
10
11.8949438
20
29.5027469
11
11.8949438
21
29.4369469
0
LINE
8
DEFAULT_255_2_778
10
11.4335438
20
28.9532469
11
11.4332438
21
28.9532469
0
LINE
8
DEFAULT_255_2_778
10
11.4425438
20
29.8708469
11
11.2835438
21
29.8708469
0
LINE
8
DEFAULT_255_2_778
10
11.2835438
20
29.8708469
11
11.2835438
21
29.0641469
0
LINE
8
DEFAULT_255_2_778
10
11.2835438
20
29.0641469
11
11.4269438
21
29.0641469
0
LINE
8
DEFAULT_255_2_778
10
11.7597438
20
29.4395469
11
11.7597438
21
29.4996469
0
LINE
8
DEFAULT_255_2_778
10
11.4422438
20
29.8708469
11
11.4425438
21
29.8708469
0
LINE
8
DEFAULT_255_2_778
10
12.6212375
20
29.9827146
11
12.6212375
21
29.2990146
0
LINE
8
DEFAULT_255_2_778
10
12.6212375
20
29.2990146
11
12.7646375
21
29.2990146
0
LINE
8
DEFAULT_255_2_778
10
12.7646375
20
29.2990146
11
12.7646375
21
29.1924146
0
LINE
8
DEFAULT_255_2_778
10
12.7646375
20
29.1924146
11
12.6212375
21
29.1924146
0
LINE
8
DEFAULT_255_2_778
10
12.6212375
20
29.1924146
11
12.6212375
21
28.9535146
0
LINE
8
DEFAULT_255_2_778
10
12.6212375
20
28.9535146
11
12.4892375
21
28.9535146
0
LINE
8
DEFAULT_255_2_778
10
12.4892375
20
28.9535146
11
12.4892375
21
29.1924146
0
LINE
8
DEFAULT_255_2_778
10
12.4892375
20
29.1924146
11
12.0185375
21
29.1924146
0
LINE
8
DEFAULT_255_2_778
10
12.0185375
20
29.1924146
11
12.0185375
21
29.2694146
0
LINE
8
DEFAULT_255_2_778
10
12.0185375
20
29.2694146
11
12.4815375
21
29.9827146
0
LINE
8
DEFAULT_255_2_778
10
12.4815375
20
29.9827146
11
12.6215375
21
29.9827146
0
LINE
8
DEFAULT_255_2_778
10
12.6215375
20
29.9827146
11
12.6212375
21
29.9827146
0
LINE
8
DEFAULT_255_2_778
10
12.4736375
20
29.7755146
11
12.1675375
21
29.2990146
0
LINE
8
DEFAULT_255_2_778
10
12.1675375
20
29.2990146
11
12.4892375
21
29.2990146
0
LINE
8
DEFAULT_255_2_778
10
12.4892375
20
29.2990146
11
12.4892375
21
29.8038146
0
LINE
8
DEFAULT_255_2_778
10
12.4892375
20
29.8038146
11
12.4736375
21
29.7755146
0
LINE
8
DEFAULT_255_2_778
10
12.4736375
20
29.7755146
11
12.4736375
21
29.7755146
0
ARC
8
DEFAULT_255_2_778
10
11.5141054
20
36.6204565
40
0.3947786
50
319.9748405
51
355.4399096
0
ARC
8
DEFAULT_255_2_778
10
11.5726096
20
36.5828147
40
0.3258887
50
311.0285366
51
318.4273541
0
ARC
8
DEFAULT_255_2_778
10
11.5423509
20
36.6325349
40
0.3833853
50
270.737512
51
309.562088
0
ARC
8
DEFAULT_255_2_778
10
11.5158339
20
36.8582939
40
0.6099241
50
269.971862
51
272.9558653
0
ARC
8
DEFAULT_255_2_778
10
11.5021599
20
36.6136568
40
0.3655318
50
219.9238681
51
272.096864
0
ARC
8
DEFAULT_255_2_778
10
11.5967111
20
36.6823286
40
0.482181
50
184.6027979
51
218.9713413
0
ARC
8
DEFAULT_255_2_778
10
11.884149
20
36.7273871
40
0.7726165
50
179.8752183
51
186.2231458
0
ARC
8
DEFAULT_255_2_778
10
11.6951025
20
36.8402411
40
0.583695
50
155.6967924
51
181.194831
0
ARC
8
DEFAULT_255_2_778
10
11.5128796
20
36.9226581
40
0.3837007
50
122.1083173
51
155.7142034
0
ARC
8
DEFAULT_255_2_778
10
11.5191963
20
36.8975846
40
0.4083745
50
88.8019965
51
120.9891122
0
ARC
8
DEFAULT_255_2_778
10
11.5419896
20
36.9121124
40
0.3940153
50
57.2287465
51
92.0733749
0
ARC
8
DEFAULT_255_2_778
10
11.5744858
20
36.9790114
40
0.3202976
50
47.2913053
51
55.6387275
0
ARC
8
DEFAULT_255_2_778
10
11.5295993
20
36.9422664
40
0.3778294
50
4.3493211
51
46.0689495
0
ARC
8
DEFAULT_255_2_778
10
11.330726
20
36.9031878
40
0.5795858
50
5.7116888
51
6.7110855
0
ARC
8
DEFAULT_255_2_778
10
11.4170312
20
36.9224494
40
0.355386
50
6.2063041
51
30.4498429
0
ARC
8
DEFAULT_255_2_778
10
11.5654851
20
37.0024223
40
0.1869849
50
32.3780511
51
46.8632925
0
ARC
8
DEFAULT_255_2_778
10
11.5427351
20
36.9618562
40
0.232409
50
49.6095808
51
92.9542217
0
ARC
8
DEFAULT_255_2_778
10
11.5274152
20
36.7772443
40
0.4167254
50
89.5405004
51
89.9973557
0
ARC
8
DEFAULT_255_2_778
10
11.5169788
20
36.9499757
40
0.244218
50
87.5462815
51
142.729253
0
ARC
8
DEFAULT_255_2_778
10
11.6234314
20
36.8811115
40
0.37076
50
144.2229863
51
174.3261738
0
ARC
8
DEFAULT_255_2_778
10
11.949771
20
36.8273084
40
0.7011429
50
172.5872887
51
180.2401369
0
ARC
8
DEFAULT_255_2_778
10
11.778862
20
36.7118676
40
0.5303797
50
178.6276756
51
200.4357909
0
ARC
8
DEFAULT_255_2_778
10
11.5885338
20
36.6483382
40
0.329921
50
201.6382344
51
215.1981478
0
ARC
8
DEFAULT_255_2_778
10
11.5068221
20
36.5865784
40
0.2275754
50
214.3499741
51
272.1939834
0
ARC
8
DEFAULT_255_2_778
10
11.5281039
20
36.6509565
40
0.2920573
50
267.5333602
51
298.0069382
0
ARC
8
DEFAULT_255_2_778
10
11.5739294
20
36.5483354
40
0.1801013
50
300.4667654
51
310.0989369
0
ARC
8
DEFAULT_255_2_778
10
11.5289438
20
36.5814424
40
0.2347668
50
313.2943848
51
347.3959789
0
ARC
8
DEFAULT_255_2_778
10
11.2544832
20
36.6686303
40
0.522247
50
344.6306221
51
351.2372872
0
LINE
8
DEFAULT_255_2_778
10
11.7706344
20
36.5890698
11
11.9076344
21
36.5890698
0
LINE
8
DEFAULT_255_2_778
10
11.1115344
20
36.7290698
11
11.1115344
21
36.8280698
0
LINE
8
DEFAULT_255_2_778
10
11.9074344
20
36.9608698
11
11.7703344
21
36.9608698
0
LINE
8
DEFAULT_255_2_778
10
11.2486344
20
36.8243698
11
11.2486344
21
36.7245698
0
LINE
8
DEFAULT_255_2_778
10
11.7706344
20
36.5890698
11
11.7706344
21
36.5890698
0
LINE
8
DEFAULT_255_2_778
10
12.7271177
20
37.2921469
11
12.7271177
21
37.2185469
0
LINE
8
DEFAULT_255_2_778
10
12.7271177
20
37.2185469
11
12.2990177
21
36.2626469
0
LINE
8
DEFAULT_255_2_778
10
12.2990177
20
36.2626469
11
12.1611177
21
36.2626469
0
LINE
8
DEFAULT_255_2_778
10
12.1611177
20
36.2626469
11
12.5879177
21
37.1847469
0
LINE
8
DEFAULT_255_2_778
10
12.5879177
20
37.1847469
11
12.0283177
21
37.1847469
0
LINE
8
DEFAULT_255_2_778
10
12.0283177
20
37.1847469
11
12.0283177
21
37.2921469
0
LINE
8
DEFAULT_255_2_778
10
12.0283177
20
37.2921469
11
12.7271177
21
37.2921469
0
LINE
8
DEFAULT_255_2_778
10
12.7271177
20
37.2921469
11
12.7271177
21
37.2921469
0
ARC
8
DEFAULT_255_2_778
10
11.5141054
20
40.2751565
40
0.3947786
50
319.9748405
51
355.4399096
0
ARC
8
DEFAULT_255_2_778
10
11.5726096
20
40.2375147
40
0.3258887
50
311.0285366
51
318.4273541
0
ARC
8
DEFAULT_255_2_778
10
11.5423509
20
40.2872349
40
0.3833853
50
270.737512
51
309.562088
0
ARC
8
DEFAULT_255_2_778
10
11.5158339
20
40.5129939
40
0.6099241
50
269.971862
51
272.9558653
0
ARC
8
DEFAULT_255_2_778
10
11.5021599
20
40.2683568
40
0.3655318
50
219.9238681
51
272.096864
0
ARC
8
DEFAULT_255_2_778
10
11.5967111
20
40.3370286
40
0.482181
50
184.6027979
51
218.9713413
0
ARC
8
DEFAULT_255_2_778
10
11.884149
20
40.3820871
40
0.7726165
50
179.8752183
51
186.2231458
0
ARC
8
DEFAULT_255_2_778
10
11.6951025
20
40.4949411
40
0.583695
50
155.6967924
51
181.194831
0
ARC
8
DEFAULT_255_2_778
10
11.5128796
20
40.5773581
40
0.3837007
50
122.1083173
51
155.7142034
0
ARC
8
DEFAULT_255_2_778
10
11.5191963
20
40.5522846
40
0.4083745
50
88.8019965
51
120.9891122
0
ARC
8
DEFAULT_255_2_778
10
11.5419896
20
40.5668124
40
0.3940153
50
57.2287465
51
92.0733749
0
ARC
8
DEFAULT_255_2_778
10
11.5744858
20
40.6337114
40
0.3202976
50
47.2913053
51
55.6387275
0
ARC
8
DEFAULT_255_2_778
10
11.5295993
20
40.5969664
40
0.3778294
50
4.3493211
51
46.0689495
0
ARC
8
DEFAULT_255_2_778
10
11.330726
20
40.5578878
40
0.5795858
50
5.7116888
51
6.7110855
0
ARC
8
DEFAULT_255_2_778
10
11.4170312
20
40.5771494
40
0.355386
50
6.2063041
51
30.4498429
0
ARC
8
DEFAULT_255_2_778
10
11.5654851
20
40.6571223
40
0.1869849
50
32.3780511
51
46.8632925
0
ARC
8
DEFAULT_255_2_778
10
11.5427351
20
40.6165562
40
0.232409
50
49.6095808
51
92.9542217
0
ARC
8
DEFAULT_255_2_778
10
11.5274152
20
40.4319443
40
0.4167254
50
89.5405004
51
89.9973557
0
ARC
8
DEFAULT_255_2_778
10
11.5169788
20
40.6046757
40
0.244218
50
87.5462815
51
142.729253
0
ARC
8
DEFAULT_255_2_778
10
11.6234314
20
40.5358115
40
0.37076
50
144.2229863
51
174.3261738
0
ARC
8
DEFAULT_255_2_778
10
11.949771
20
40.4820084
40
0.7011429
50
172.5872887
51
180.2401369
0
ARC
8
DEFAULT_255_2_778
10
11.778862
20
40.3665676
40
0.5303797
50
178.6276756
51
200.4357909
0
ARC
8
DEFAULT_255_2_778
10
11.5885338
20
40.3030382
40
0.329921
50
201.6382344
51
215.1981478
0
ARC
8
DEFAULT_255_2_778
10
11.5068221
20
40.2412784
40
0.2275754
50
214.3499741
51
272.1939834
0
ARC
8
DEFAULT_255_2_778
10
11.5281039
20
40.3056565
40
0.2920573
50
267.5333602
51
298.0069382
0
ARC
8
DEFAULT_255_2_778
10
11.5739294
20
40.2030354
40
0.1801013
50
300.4667654
51
310.0989369
0
ARC
8
DEFAULT_255_2_778
10
11.5289438
20
40.2361424
40
0.2347668
50
313.2943848
51
347.3959789
0
ARC
8
DEFAULT_255_2_778
10
11.2544832
20
40.3233303
40
0.522247
50
344.6306221
51
351.2372872
0
LINE
8
DEFAULT_255_2_778
10
11.7706344
20
40.2437698
11
11.9076344
21
40.2437698
0
LINE
8
DEFAULT_255_2_778
10
11.1115344
20
40.3837698
11
11.1115344
21
40.4827698
0
LINE
8
DEFAULT_255_2_778
10
11.9074344
20
40.6155698
11
11.7703344
21
40.6155698
0
LINE
8
DEFAULT_255_2_778
10
11.2486344
20
40.4790698
11
11.2486344
21
40.3792698
0
LINE
8
DEFAULT_255_2_778
10
11.7706344
20
40.2437698
11
11.7706344
21
40.2437698
0
ARC
8
DEFAULT_255_2_778
10
12.5433451
20
40.4787305
40
0.3576442
50
88.7351727
51
127.1118987
0
ARC
8
DEFAULT_255_2_778
10
12.5155611
20
40.5296319
40
0.3004099
50
128.7439704
51
133.9838827
0
ARC
8
DEFAULT_255_2_778
10
12.5653405
20
40.492591
40
0.3617726
50
135.5828428
51
174.2682335
0
ARC
8
DEFAULT_255_2_778
10
12.7848853
20
40.4468496
40
0.5852636
50
171.9585567
51
174.8988959
0
ARC
8
DEFAULT_255_2_778
10
12.4115632
20
40.3113238
40
0.2812867
50
87.253924
51
138.1789662
0
ARC
8
DEFAULT_255_2_778
10
12.4356963
20
40.3244236
40
0.2680757
50
40.2370303
51
92.2782507
0
ARC
8
DEFAULT_255_2_778
10
12.3581945
20
40.2690317
40
0.3631028
50
357.8213046
51
39.0097137
0
ARC
8
DEFAULT_255_2_778
10
12.1512507
20
40.2528891
40
0.5697887
50
359.9998375
51
0.2351773
0
ARC
8
DEFAULT_255_2_778
10
12.3386736
20
40.2387189
40
0.3826284
50
327.1851823
51
2.1221213
0
ARC
8
DEFAULT_255_2_778
10
12.4063745
20
40.2055833
40
0.3079008
50
317.6812122
51
325.5398159
0
ARC
8
DEFAULT_255_2_778
10
12.4140594
20
40.2029522
40
0.3004645
50
267.4401227
51
317.0655713
0
ARC
8
DEFAULT_255_2_778
10
12.3928783
20
40.1985101
40
0.2958245
50
218.0233331
51
271.5033956
0
ARC
8
DEFAULT_255_2_778
10
12.5036724
20
40.2836156
40
0.4355288
50
180.5050136
51
217.8648645
0
ARC
8
DEFAULT_255_2_778
10
12.7307144
20
40.3084704
40
0.6631747
50
179.9812411
51
182.4797896
0
ARC
8
DEFAULT_255_2_778
10
13.0201198
20
40.3714634
40
0.9526619
50
166.3716915
51
180.7503589
0
ARC
8
DEFAULT_255_2_778
10
12.5926921
20
40.4778002
40
0.51222
50
141.9668892
51
166.6660315
0
ARC
8
DEFAULT_255_2_778
10
12.5102292
20
40.5250464
40
0.4183793
50
94.7020521
51
140.1050293
0
ARC
8
DEFAULT_255_2_778
10
12.5600904
20
40.2529307
40
0.6942071
50
90.6892457
51
96.9629991
0
ARC
8
DEFAULT_255_2_778
10
12.4020407
20
40.2725517
40
0.2110364
50
89.8645529
51
125.9520412
0
ARC
8
DEFAULT_255_2_778
10
12.3953598
20
40.2707636
40
0.2086615
50
124.1784552
51
159.9539673
0
ARC
8
DEFAULT_255_2_778
10
12.5540704
20
40.2808403
40
0.354978
50
177.861318
51
208.8956185
0
ARC
8
DEFAULT_255_2_778
10
12.4590202
20
40.2382458
40
0.2513277
50
210.8652674
51
216.4044356
0
ARC
8
DEFAULT_255_2_778
10
12.4008195
20
40.1835973
40
0.1723112
50
213.2630325
51
269.7739096
0
ARC
8
DEFAULT_255_2_778
10
12.4070471
20
40.1782964
40
0.1671517
50
267.6315877
51
322.4336966
0
ARC
8
DEFAULT_255_2_778
10
12.3215067
20
40.2341602
40
0.2691293
50
324.1097921
51
2.6892483
0
ARC
8
DEFAULT_255_2_778
10
12.322231
20
40.2595405
40
0.2684117
50
357.2766965
51
36.2321648
0
ARC
8
DEFAULT_255_2_778
10
12.4068423
20
40.3180675
40
0.1655926
50
37.2012408
51
91.6966143
0
LINE
8
DEFAULT_255_2_778
10
12.5517396
20
40.9473875
11
12.5752396
21
40.9473875
0
LINE
8
DEFAULT_255_2_778
10
12.5752396
20
40.9473875
11
12.5752396
21
40.8362875
0
LINE
8
DEFAULT_255_2_778
10
12.5752396
20
40.8362875
11
12.5512396
21
40.8362875
0
LINE
8
DEFAULT_255_2_778
10
12.0675396
20
40.3086875
11
12.0675396
21
40.3589875
0
LINE
8
DEFAULT_255_2_778
10
12.5517396
20
40.9470875
11
12.5517396
21
40.9473875
0
LINE
8
DEFAULT_255_2_778
10
12.1993396
20
40.3422875
11
12.1993396
21
40.2940875
0
LINE
8
DEFAULT_255_2_778
10
12.4019396
20
40.4835875
11
12.4025396
21
40.4835875
0
ARC
8
DEFAULT_255_2_778
10
11.5141054
20
43.9298565
40
0.3947786
50
319.9748405
51
355.4399096
0
ARC
8
DEFAULT_255_2_778
10
11.5726096
20
43.8922147
40
0.3258887
50
311.0285366
51
318.4273541
0
ARC
8
DEFAULT_255_2_778
10
11.5423509
20
43.9419349
40
0.3833853
50
270.737512
51
309.562088
0
ARC
8
DEFAULT_255_2_778
10
11.5158339
20
44.1676939
40
0.6099241
50
269.971862
51
272.9558653
0
ARC
8
DEFAULT_255_2_778
10
11.5021599
20
43.9230568
40
0.3655318
50
219.9238681
51
272.096864
0
ARC
8
DEFAULT_255_2_778
10
11.5967111
20
43.9917286
40
0.482181
50
184.6027979
51
218.9713413
0
ARC
8
DEFAULT_255_2_778
10
11.884149
20
44.0367871
40
0.7726165
50
179.8752183
51
186.2231458
0
ARC
8
DEFAULT_255_2_778
10
11.6951025
20
44.1496411
40
0.583695
50
155.6967924
51
181.194831
0
ARC
8
DEFAULT_255_2_778
10
11.5128796
20
44.2320581
40
0.3837007
50
122.1083173
51
155.7142034
0
ARC
8
DEFAULT_255_2_778
10
11.5191963
20
44.2069846
40
0.4083745
50
88.8019965
51
120.9891122
0
ARC
8
DEFAULT_255_2_778
10
11.5419896
20
44.2215124
40
0.3940153
50
57.2287465
51
92.0733749
0
ARC
8
DEFAULT_255_2_778
10
11.5744858
20
44.2884114
40
0.3202976
50
47.2913053
51
55.6387275
0
ARC
8
DEFAULT_255_2_778
10
11.5295993
20
44.2516664
40
0.3778294
50
4.3493211
51
46.0689495
0
ARC
8
DEFAULT_255_2_778
10
11.330726
20
44.2125878
40
0.5795858
50
5.7116888
51
6.7110855
0
ARC
8
DEFAULT_255_2_778
10
11.4170312
20
44.2318494
40
0.355386
50
6.2063041
51
30.4498429
0
ARC
8
DEFAULT_255_2_778
10
11.5654851
20
44.3118223
40
0.1869849
50
32.3780511
51
46.8632925
0
ARC
8
DEFAULT_255_2_778
10
11.5427351
20
44.2712562
40
0.232409
50
49.6095808
51
92.9542217
0
ARC
8
DEFAULT_255_2_778
10
11.5274152
20
44.0866443
40
0.4167254
50
89.5405004
51
89.9973557
0
ARC
8
DEFAULT_255_2_778
10
11.5169788
20
44.2593757
40
0.244218
50
87.5462815
51
142.729253
0
ARC
8
DEFAULT_255_2_778
10
11.6234314
20
44.1905115
40
0.37076
50
144.2229863
51
174.3261738
0
ARC
8
DEFAULT_255_2_778
10
11.949771
20
44.1367084
40
0.7011429
50
172.5872887
51
180.2401369
0
ARC
8
DEFAULT_255_2_778
10
11.778862
20
44.0212676
40
0.5303797
50
178.6276756
51
200.4357909
0
ARC
8
DEFAULT_255_2_778
10
11.5885338
20
43.9577382
40
0.329921
50
201.6382344
51
215.1981478
0
ARC
8
DEFAULT_255_2_778
10
11.5068221
20
43.8959784
40
0.2275754
50
214.3499741
51
272.1939834
0
ARC
8
DEFAULT_255_2_778
10
11.5281039
20
43.9603565
40
0.2920573
50
267.5333602
51
298.0069382
0
ARC
8
DEFAULT_255_2_778
10
11.5739294
20
43.8577354
40
0.1801013
50
300.4667654
51
310.0989369
0
ARC
8
DEFAULT_255_2_778
10
11.5289438
20
43.8908424
40
0.2347668
50
313.2943848
51
347.3959789
0
ARC
8
DEFAULT_255_2_778
10
11.2544832
20
43.9780303
40
0.522247
50
344.6306221
51
351.2372872
0
LINE
8
DEFAULT_255_2_778
10
11.7706344
20
43.8984698
11
11.9076344
21
43.8984698
0
LINE
8
DEFAULT_255_2_778
10
11.1115344
20
44.0384698
11
11.1115344
21
44.1374698
0
LINE
8
DEFAULT_255_2_778
10
11.9074344
20
44.2702698
11
11.7703344
21
44.2702698
0
LINE
8
DEFAULT_255_2_778
10
11.2486344
20
44.1337698
11
11.2486344
21
44.0339698
0
LINE
8
DEFAULT_255_2_778
10
11.7706344
20
43.8984698
11
11.7706344
21
43.8984698
0
ARC
8
DEFAULT_255_2_778
10
12.4198321
20
43.9091792
40
0.3352274
50
89.0271146
51
119.8411343
0
ARC
8
DEFAULT_255_2_778
10
12.438677
20
43.9586603
40
0.2860007
50
42.3856567
51
92.6359309
0
ARC
8
DEFAULT_255_2_778
10
12.3842876
20
43.9266995
40
0.3479644
50
0.6239574
51
40.2350481
0
ARC
8
DEFAULT_255_2_778
10
12.1636717
20
43.9004555
40
0.5693525
50
359.9700936
51
3.02375
0
ARC
8
DEFAULT_255_2_778
10
12.3519108
20
43.8865405
40
0.3813563
50
329.7675792
51
2.0464034
0
ARC
8
DEFAULT_255_2_778
10
12.437474
20
43.8467713
40
0.2875387
50
316.6962664
51
328.0294258
0
ARC
8
DEFAULT_255_2_778
10
12.4272282
20
43.8674783
40
0.3093016
50
268.6751335
51
315.2064067
0
ARC
8
DEFAULT_255_2_778
10
12.4058045
20
44.0648525
40
0.5067942
50
269.990894
51
271.6137714
0
ARC
8
DEFAULT_255_2_778
10
12.3917627
20
43.8849008
40
0.3271405
50
230.1468952
51
272.4459432
0
ARC
8
DEFAULT_255_2_778
10
12.3850023
20
43.857359
40
0.301922
50
182.733852
51
227.7817739
0
ARC
8
DEFAULT_255_2_778
10
12.4150866
20
43.8595932
40
0.2079291
50
184.588725
51
226.1442687
0
ARC
8
DEFAULT_255_2_778
10
12.3964973
20
43.8610995
40
0.1966673
50
230.3572772
51
272.7473434
0
ARC
8
DEFAULT_255_2_778
10
12.4145609
20
43.8417987
40
0.1773508
50
267.2085996
51
319.6017819
0
ARC
8
DEFAULT_255_2_778
10
12.3485378
20
43.8807048
40
0.2531884
50
322.5812217
51
1.7409098
0
ARC
8
DEFAULT_255_2_778
10
12.154901
20
43.8985072
40
0.4468229
50
358.7034175
51
0.0065548
0
ARC
8
DEFAULT_255_2_778
10
12.3630637
20
43.9100693
40
0.2389377
50
357.2386624
51
40.2517611
0
ARC
8
DEFAULT_255_2_778
10
12.4032909
20
43.9343192
40
0.1927122
50
42.4776615
51
92.4288541
0
ARC
8
DEFAULT_255_2_778
10
12.3826747
20
43.9099258
40
0.2172894
50
86.7155155
51
124.3327065
0
LINE
8
DEFAULT_255_2_778
10
12.225224
20
44.0612583
11
12.120224
21
44.0882583
0
LINE
8
DEFAULT_255_2_778
10
12.120224
20
44.0882583
11
12.172824
21
44.6015583
0
LINE
8
DEFAULT_255_2_778
10
12.172824
20
44.6015583
11
12.702524
21
44.6015583
0
LINE
8
DEFAULT_255_2_778
10
12.702524
20
44.6015583
11
12.702524
21
44.4806583
0
LINE
8
DEFAULT_255_2_778
10
12.702524
20
44.4806583
11
12.284224
21
44.4806583
0
LINE
8
DEFAULT_255_2_778
10
12.284224
20
44.4806583
11
12.253024
21
44.1999583
0
LINE
8
DEFAULT_255_2_778
10
12.083424
20
43.8429583
11
12.207824
21
43.8429583
0
LINE
8
DEFAULT_255_2_778
10
12.260124
20
44.0893583
11
12.225524
21
44.0610583
0
LINE
8
DEFAULT_255_2_778
10
12.225524
20
44.0610583
11
12.225224
21
44.0612583
0
ARC
8
DEFAULT_255_2_778
10
11.5141054
20
47.5845565
40
0.3947786
50
319.9748405
51
355.4399096
0
ARC
8
DEFAULT_255_2_778
10
11.5726096
20
47.5469147
40
0.3258887
50
311.0285366
51
318.4273541
0
ARC
8
DEFAULT_255_2_778
10
11.5423509
20
47.5966349
40
0.3833853
50
270.737512
51
309.562088
0
ARC
8
DEFAULT_255_2_778
10
11.5158339
20
47.8223939
40
0.6099241
50
269.971862
51
272.9558653
0
ARC
8
DEFAULT_255_2_778
10
11.5021599
20
47.5777568
40
0.3655318
50
219.9238681
51
272.096864
0
ARC
8
DEFAULT_255_2_778
10
11.5967111
20
47.6464286
40
0.482181
50
184.6027979
51
218.9713413
0
ARC
8
DEFAULT_255_2_778
10
11.884149
20
47.6914871
40
0.7726165
50
179.8752183
51
186.2231458
0
ARC
8
DEFAULT_255_2_778
10
11.6951025
20
47.8043411
40
0.583695
50
155.6967924
51
181.194831
0
ARC
8
DEFAULT_255_2_778
10
11.5128796
20
47.8867581
40
0.3837007
50
122.1083173
51
155.7142034
0
ARC
8
DEFAULT_255_2_778
10
11.5191963
20
47.8616846
40
0.4083745
50
88.8019965
51
120.9891122
0
ARC
8
DEFAULT_255_2_778
10
11.5419896
20
47.8762124
40
0.3940153
50
57.2287465
51
92.0733749
0
ARC
8
DEFAULT_255_2_778
10
11.5744858
20
47.9431114
40
0.3202976
50
47.2913053
51
55.6387275
0
ARC
8
DEFAULT_255_2_778
10
11.5295993
20
47.9063664
40
0.3778294
50
4.3493211
51
46.0689495
0
ARC
8
DEFAULT_255_2_778
10
11.330726
20
47.8672878
40
0.5795858
50
5.7116888
51
6.7110855
0
ARC
8
DEFAULT_255_2_778
10
11.4170312
20
47.8865494
40
0.355386
50
6.2063041
51
30.4498429
0
ARC
8
DEFAULT_255_2_778
10
11.5654851
20
47.9665223
40
0.1869849
50
32.3780511
51
46.8632925
0
ARC
8
DEFAULT_255_2_778
10
11.5427351
20
47.9259562
40
0.232409
50
49.6095808
51
92.9542217
0
ARC
8
DEFAULT_255_2_778
10
11.5274152
20
47.7413443
40
0.4167254
50
89.5405004
51
89.9973557
0
ARC
8
DEFAULT_255_2_778
10
11.5169788
20
47.9140757
40
0.244218
50
87.5462815
51
142.729253
0
ARC
8
DEFAULT_255_2_778
10
11.6234314
20
47.8452115
40
0.37076
50
144.2229863
51
174.3261738
0
ARC
8
DEFAULT_255_2_778
10
11.949771
20
47.7914084
40
0.7011429
50
172.5872887
51
180.2401369
0
ARC
8
DEFAULT_255_2_778
10
11.778862
20
47.6759676
40
0.5303797
50
178.6276756
51
200.4357909
0
ARC
8
DEFAULT_255_2_778
10
11.5885338
20
47.6124382
40
0.329921
50
201.6382344
51
215.1981478
0
ARC
8
DEFAULT_255_2_778
10
11.5068221
20
47.5506784
40
0.2275754
50
214.3499741
51
272.1939834
0
ARC
8
DEFAULT_255_2_778
10
11.5281039
20
47.6150565
40
0.2920573
50
267.5333602
51
298.0069382
0
ARC
8
DEFAULT_255_2_778
10
11.5739294
20
47.5124354
40
0.1801013
50
300.4667654
51
310.0989369
0
ARC
8
DEFAULT_255_2_778
10
11.5289438
20
47.5455424
40
0.2347668
50
313.2943848
51
347.3959789
0
ARC
8
DEFAULT_255_2_778
10
11.2544832
20
47.6327303
40
0.522247
50
344.6306221
51
351.2372872
0
LINE
8
DEFAULT_255_2_778
10
11.7706344
20
47.5531698
11
11.9076344
21
47.5531698
0
LINE
8
DEFAULT_255_2_778
10
11.1115344
20
47.6931698
11
11.1115344
21
47.7921698
0
LINE
8
DEFAULT_255_2_778
10
11.9074344
20
47.9249698
11
11.7703344
21
47.9249698
0
LINE
8
DEFAULT_255_2_778
10
11.2486344
20
47.7884698
11
11.2486344
21
47.6886698
0
LINE
8
DEFAULT_255_2_778
10
11.7706344
20
47.5531698
11
11.7706344
21
47.5531698
0
LINE
8
DEFAULT_255_2_778
10
12.6141375
20
48.2562146
11
12.6141375
21
47.5725146
0
LINE
8
DEFAULT_255_2_778
10
12.6141375
20
47.5725146
11
12.7575375
21
47.5725146
0
LINE
8
DEFAULT_255_2_778
10
12.7575375
20
47.5725146
11
12.7575375
21
47.4659146
0
LINE
8
DEFAULT_255_2_778
10
12.7575375
20
47.4659146
11
12.6141375
21
47.4659146
0
LINE
8
DEFAULT_255_2_778
10
12.6141375
20
47.4659146
11
12.6141375
21
47.2270146
0
LINE
8
DEFAULT_255_2_778
10
12.6141375
20
47.2270146
11
12.4821375
21
47.2270146
0
LINE
8
DEFAULT_255_2_778
10
12.4821375
20
47.2270146
11
12.4821375
21
47.4659146
0
LINE
8
DEFAULT_255_2_778
10
12.4821375
20
47.4659146
11
12.0114375
21
47.4659146
0
LINE
8
DEFAULT_255_2_778
10
12.0114375
20
47.4659146
11
12.0114375
21
47.5429146
0
LINE
8
DEFAULT_255_2_778
10
12.0114375
20
47.5429146
11
12.4744375
21
48.2562146
0
LINE
8
DEFAULT_255_2_778
10
12.4744375
20
48.2562146
11
12.6144375
21
48.2562146
0
LINE
8
DEFAULT_255_2_778
10
12.6144375
20
48.2562146
11
12.6141375
21
48.2562146
0
LINE
8
DEFAULT_255_2_778
10
12.4665375
20
48.0490146
11
12.1604375
21
47.5725146
0
LINE
8
DEFAULT_255_2_778
10
12.1604375
20
47.5725146
11
12.4821375
21
47.5725146
0
LINE
8
DEFAULT_255_2_778
10
12.4821375
20
47.5725146
11
12.4821375
21
48.0773146
0
LINE
8
DEFAULT_255_2_778
10
12.4821375
20
48.0773146
11
12.4665375
21
48.0490146
0
LINE
8
DEFAULT_255_2_778
10
12.4665375
20
48.0490146
11
12.4665375
21
48.0490146
0
ARC
8
DEFAULT_255_2_778
10
11.4976566
20
55.0473151
40
0.5181806
50
71.872945
51
91.3734344
0
ARC
8
DEFAULT_255_2_778
10
11.5719612
20
55.2874135
40
0.2669117
50
51.412506
51
70.9962649
0
ARC
8
DEFAULT_255_2_778
10
11.5769313
20
55.3096048
40
0.2466669
50
357.1350601
51
49.0992984
0
ARC
8
DEFAULT_255_2_778
10
11.3977785
20
55.2909782
40
0.425558
50
359.995775
51
0.8479353
0
ARC
8
DEFAULT_255_2_778
10
11.6160014
20
55.2876682
40
0.207361
50
323.1975154
51
0.9059699
0
ARC
8
DEFAULT_255_2_778
10
11.5694414
20
55.3245015
40
0.2667119
50
292.1351399
51
322.8536928
0
ARC
8
DEFAULT_255_2_778
10
11.6107537
20
54.8462125
40
0.238688
50
36.6965429
51
75.6437336
0
ARC
8
DEFAULT_255_2_778
10
11.5972175
20
54.8392779
40
0.253698
50
358.5700412
51
36.1254519
0
ARC
8
DEFAULT_255_2_778
10
11.5767029
20
54.8189927
40
0.2744885
50
312.0744524
51
2.913998
0
ARC
8
DEFAULT_255_2_778
10
11.5459211
20
54.8768633
40
0.3384462
50
273.3221452
51
309.3766091
0
ARC
8
DEFAULT_255_2_778
10
11.5070803
20
55.1390195
40
0.602874
50
269.8817866
51
275.5640495
0
ARC
8
DEFAULT_255_2_778
10
11.5209286
20
54.8638755
40
0.217271
50
266.7831716
51
309.4680614
0
ARC
8
DEFAULT_255_2_778
10
11.5415721
20
54.8227385
40
0.1726943
50
312.858244
51
2.9568897
0
ARC
8
DEFAULT_255_2_778
10
11.5533764
20
54.8519779
40
0.1619414
50
352.7877153
51
84.2542203
0
ARC
8
DEFAULT_255_2_778
10
11.5133473
20
54.6676265
40
0.3500273
50
80.7537259
51
90.3618899
0
ARC
8
DEFAULT_255_2_778
10
11.5004789
20
55.3436611
40
0.2174948
50
267.0897843
51
307.3855782
0
ARC
8
DEFAULT_255_2_778
10
11.5378603
20
55.2853978
40
0.1486119
50
309.5736955
51
2.4485721
0
ARC
8
DEFAULT_255_2_778
10
11.5411534
20
55.3048154
40
0.14577
50
354.8564271
51
49.1304426
0
ARC
8
DEFAULT_255_2_778
10
11.5147702
20
55.2365316
40
0.2160897
50
55.7018815
51
89.3618214
0
ARC
8
DEFAULT_255_2_778
10
11.4858981
20
54.9825156
40
0.4711318
50
86.1932784
51
90.0804645
0
LINE
8
DEFAULT_255_2_778
10
11.5058365
20
54.5358469
11
11.1473365
21
54.5358469
0
LINE
8
DEFAULT_255_2_778
10
11.1473365
20
54.5358469
11
11.1473365
21
55.5653469
0
LINE
8
DEFAULT_255_2_778
10
11.1473365
20
55.5653469
11
11.4852365
21
55.5653469
0
LINE
8
DEFAULT_255_2_778
10
11.5058365
20
54.5361469
11
11.5058365
21
54.5358469
0
LINE
8
DEFAULT_255_2_778
10
11.5108365
20
55.0173469
11
11.2836365
21
55.0173469
0
LINE
8
DEFAULT_255_2_778
10
11.2836365
20
55.0173469
11
11.2836365
21
54.6469469
0
LINE
8
DEFAULT_255_2_778
10
11.2836365
20
54.6469469
11
11.5087365
21
54.6469469
0
LINE
8
DEFAULT_255_2_778
10
11.5111365
20
55.0176469
11
11.5108365
21
55.0173469
0
LINE
8
DEFAULT_255_2_778
10
11.2836365
20
55.4536469
11
11.2836365
21
55.1264469
0
LINE
8
DEFAULT_255_2_778
10
11.2836365
20
55.1264469
11
11.4894365
21
55.1264469
0
LINE
8
DEFAULT_255_2_778
10
11.4852365
20
55.4536469
11
11.2836365
21
55.4536469
0
LINE
8
DEFAULT_255_2_778
10
11.2836365
20
55.4536469
11
11.2836365
21
55.4536469
0
LINE
8
DEFAULT_255_2_778
10
12.6861177
20
55.5653469
11
12.6861177
21
55.4917469
0
LINE
8
DEFAULT_255_2_778
10
12.6861177
20
55.4917469
11
12.2580177
21
54.5358469
0
LINE
8
DEFAULT_255_2_778
10
12.2580177
20
54.5358469
11
12.1201177
21
54.5358469
0
LINE
8
DEFAULT_255_2_778
10
12.1201177
20
54.5358469
11
12.5469177
21
55.4579469
0
LINE
8
DEFAULT_255_2_778
10
12.5469177
20
55.4579469
11
11.9873177
21
55.4579469
0
LINE
8
DEFAULT_255_2_778
10
11.9873177
20
55.4579469
11
11.9873177
21
55.5653469
0
LINE
8
DEFAULT_255_2_778
10
11.9873177
20
55.5653469
11
12.6861177
21
55.5653469
0
LINE
8
DEFAULT_255_2_778
10
12.6861177
20
55.5653469
11
12.6861177
21
55.5653469
0
ARC
8
DEFAULT_255_2_778
10
11.4976566
20
58.7020151
40
0.5181806
50
71.872945
51
91.3734344
0
ARC
8
DEFAULT_255_2_778
10
11.5719612
20
58.9421135
40
0.2669117
50
51.412506
51
70.9962649
0
ARC
8
DEFAULT_255_2_778
10
11.5769313
20
58.9643048
40
0.2466669
50
357.1350601
51
49.0992984
0
ARC
8
DEFAULT_255_2_778
10
11.3977785
20
58.9456782
40
0.425558
50
359.995775
51
0.8479353
0
ARC
8
DEFAULT_255_2_778
10
11.6160014
20
58.9423682
40
0.207361
50
323.1975154
51
0.9059699
0
ARC
8
DEFAULT_255_2_778
10
11.5694414
20
58.9792015
40
0.2667119
50
292.1351399
51
322.8536928
0
ARC
8
DEFAULT_255_2_778
10
11.6107537
20
58.5009125
40
0.238688
50
36.6965429
51
75.6437336
0
ARC
8
DEFAULT_255_2_778
10
11.5972175
20
58.4939779
40
0.253698
50
358.5700412
51
36.1254519
0
ARC
8
DEFAULT_255_2_778
10
11.5767029
20
58.4736927
40
0.2744885
50
312.0744524
51
2.913998
0
ARC
8
DEFAULT_255_2_778
10
11.5459211
20
58.5315633
40
0.3384462
50
273.3221452
51
309.3766091
0
ARC
8
DEFAULT_255_2_778
10
11.5070803
20
58.7937195
40
0.602874
50
269.8817866
51
275.5640495
0
ARC
8
DEFAULT_255_2_778
10
11.5209286
20
58.5185755
40
0.217271
50
266.7831716
51
309.4680614
0
ARC
8
DEFAULT_255_2_778
10
11.5415721
20
58.4774385
40
0.1726943
50
312.858244
51
2.9568897
0
ARC
8
DEFAULT_255_2_778
10
11.5533764
20
58.5066779
40
0.1619414
50
352.7877153
51
84.2542203
0
ARC
8
DEFAULT_255_2_778
10
11.5133473
20
58.3223265
40
0.3500273
50
80.7537259
51
90.3618899
0
ARC
8
DEFAULT_255_2_778
10
11.5004789
20
58.9983611
40
0.2174948
50
267.0897843
51
307.3855782
0
ARC
8
DEFAULT_255_2_778
10
11.5378603
20
58.9400978
40
0.1486119
50
309.5736955
51
2.4485721
0
ARC
8
DEFAULT_255_2_778
10
11.5411534
20
58.9595154
40
0.14577
50
354.8564271
51
49.1304426
0
ARC
8
DEFAULT_255_2_778
10
11.5147702
20
58.8912316
40
0.2160897
50
55.7018815
51
89.3618214
0
ARC
8
DEFAULT_255_2_778
10
11.4858981
20
58.6372156
40
0.4711318
50
86.1932784
51
90.0804645
0
LINE
8
DEFAULT_255_2_778
10
11.5058365
20
58.1905469
11
11.1473365
21
58.1905469
0
LINE
8
DEFAULT_255_2_778
10
11.1473365
20
58.1905469
11
11.1473365
21
59.2200469
0
LINE
8
DEFAULT_255_2_778
10
11.1473365
20
59.2200469
11
11.4852365
21
59.2200469
0
LINE
8
DEFAULT_255_2_778
10
11.5058365
20
58.1908469
11
11.5058365
21
58.1905469
0
LINE
8
DEFAULT_255_2_778
10
11.5108365
20
58.6720469
11
11.2836365
21
58.6720469
0
LINE
8
DEFAULT_255_2_778
10
11.2836365
20
58.6720469
11
11.2836365
21
58.3016469
0
LINE
8
DEFAULT_255_2_778
10
11.2836365
20
58.3016469
11
11.5087365
21
58.3016469
0
LINE
8
DEFAULT_255_2_778
10
11.5111365
20
58.6723469
11
11.5108365
21
58.6720469
0
LINE
8
DEFAULT_255_2_778
10
11.2836365
20
59.1083469
11
11.2836365
21
58.7811469
0
LINE
8
DEFAULT_255_2_778
10
11.2836365
20
58.7811469
11
11.4894365
21
58.7811469
0
LINE
8
DEFAULT_255_2_778
10
11.4852365
20
59.1083469
11
11.2836365
21
59.1083469
0
LINE
8
DEFAULT_255_2_778
10
11.2836365
20
59.1083469
11
11.2836365
21
59.1083469
0
ARC
8
DEFAULT_255_2_778
10
12.5020451
20
58.7521305
40
0.3576442
50
88.7351727
51
127.1118987
0
ARC
8
DEFAULT_255_2_778
10
12.4742611
20
58.8030319
40
0.3004099
50
128.7439704
51
133.9838827
0
ARC
8
DEFAULT_255_2_778
10
12.5240405
20
58.765991
40
0.3617726
50
135.5828428
51
174.2682335
0
ARC
8
DEFAULT_255_2_778
10
12.7435853
20
58.7202496
40
0.5852636
50
171.9585567
51
174.8988959
0
ARC
8
DEFAULT_255_2_778
10
12.3702632
20
58.5847238
40
0.2812867
50
87.253924
51
138.1789662
0
ARC
8
DEFAULT_255_2_778
10
12.3943963
20
58.5978236
40
0.2680757
50
40.2370303
51
92.2782507
0
ARC
8
DEFAULT_255_2_778
10
12.3168945
20
58.5424317
40
0.3631028
50
357.8213046
51
39.0097137
0
ARC
8
DEFAULT_255_2_778
10
12.1099507
20
58.5262891
40
0.5697887
50
359.9998375
51
0.2351773
0
ARC
8
DEFAULT_255_2_778
10
12.2973736
20
58.5121189
40
0.3826284
50
327.1851823
51
2.1221213
0
ARC
8
DEFAULT_255_2_778
10
12.3650745
20
58.4789833
40
0.3079008
50
317.6812122
51
325.5398159
0
ARC
8
DEFAULT_255_2_778
10
12.3727594
20
58.4763522
40
0.3004645
50
267.4401227
51
317.0655713
0
ARC
8
DEFAULT_255_2_778
10
12.3515783
20
58.4719101
40
0.2958245
50
218.0233331
51
271.5033956
0
ARC
8
DEFAULT_255_2_778
10
12.4623724
20
58.5570156
40
0.4355288
50
180.5050136
51
217.8648645
0
ARC
8
DEFAULT_255_2_778
10
12.6894144
20
58.5818704
40
0.6631747
50
179.9812411
51
182.4797896
0
ARC
8
DEFAULT_255_2_778
10
12.9788198
20
58.6448634
40
0.9526619
50
166.3716915
51
180.7503589
0
ARC
8
DEFAULT_255_2_778
10
12.5513921
20
58.7512002
40
0.51222
50
141.9668892
51
166.6660315
0
ARC
8
DEFAULT_255_2_778
10
12.4689292
20
58.7984464
40
0.4183793
50
94.7020521
51
140.1050293
0
ARC
8
DEFAULT_255_2_778
10
12.5187904
20
58.5263307
40
0.6942071
50
90.6892457
51
96.9629991
0
ARC
8
DEFAULT_255_2_778
10
12.3607407
20
58.5459517
40
0.2110364
50
89.8645529
51
125.9520412
0
ARC
8
DEFAULT_255_2_778
10
12.3540598
20
58.5441636
40
0.2086615
50
124.1784552
51
159.9539673
0
ARC
8
DEFAULT_255_2_778
10
12.5127704
20
58.5542403
40
0.354978
50
177.861318
51
208.8956185
0
ARC
8
DEFAULT_255_2_778
10
12.4177202
20
58.5116458
40
0.2513277
50
210.8652674
51
216.4044356
0
ARC
8
DEFAULT_255_2_778
10
12.3595195
20
58.4569973
40
0.1723112
50
213.2630325
51
269.7739096
0
ARC
8
DEFAULT_255_2_778
10
12.3657471
20
58.4516964
40
0.1671517
50
267.6315877
51
322.4336966
0
ARC
8
DEFAULT_255_2_778
10
12.2802067
20
58.5075602
40
0.2691293
50
324.1097921
51
2.6892483
0
ARC
8
DEFAULT_255_2_778
10
12.280931
20
58.5329405
40
0.2684117
50
357.2766965
51
36.2321648
0
ARC
8
DEFAULT_255_2_778
10
12.3655423
20
58.5914675
40
0.1655926
50
37.2012408
51
91.6966143
0
LINE
8
DEFAULT_255_2_778
10
12.5104396
20
59.2207875
11
12.5339396
21
59.2207875
0
LINE
8
DEFAULT_255_2_778
10
12.5339396
20
59.2207875
11
12.5339396
21
59.1096875
0
LINE
8
DEFAULT_255_2_778
10
12.5339396
20
59.1096875
11
12.5099396
21
59.1096875
0
LINE
8
DEFAULT_255_2_778
10
12.0262396
20
58.5820875
11
12.0262396
21
58.6323875
0
LINE
8
DEFAULT_255_2_778
10
12.5104396
20
59.2204875
11
12.5104396
21
59.2207875
0
LINE
8
DEFAULT_255_2_778
10
12.1580396
20
58.6156875
11
12.1580396
21
58.5674875
0
LINE
8
DEFAULT_255_2_778
10
12.3606396
20
58.7569875
11
12.3612396
21
58.7569875
0
ARC
8
DEFAULT_255_2_778
10
11.4976566
20
62.3566151
40
0.5181806
50
71.872945
51
91.3734344
0
ARC
8
DEFAULT_255_2_778
10
11.5719612
20
62.5967135
40
0.2669117
50
51.412506
51
70.9962649
0
ARC
8
DEFAULT_255_2_778
10
11.5769313
20
62.6189048
40
0.2466669
50
357.1350601
51
49.0992984
0
ARC
8
DEFAULT_255_2_778
10
11.3977785
20
62.6002782
40
0.425558
50
359.995775
51
0.8479353
0
ARC
8
DEFAULT_255_2_778
10
11.6160014
20
62.5969682
40
0.207361
50
323.1975154
51
0.9059699
0
ARC
8
DEFAULT_255_2_778
10
11.5694414
20
62.6338015
40
0.2667119
50
292.1351399
51
322.8536928
0
ARC
8
DEFAULT_255_2_778
10
11.6107537
20
62.1555125
40
0.238688
50
36.6965429
51
75.6437336
0
ARC
8
DEFAULT_255_2_778
10
11.5972175
20
62.1485779
40
0.253698
50
358.5700412
51
36.1254519
0
ARC
8
DEFAULT_255_2_778
10
11.5767029
20
62.1282927
40
0.2744885
50
312.0744524
51
2.913998
0
ARC
8
DEFAULT_255_2_778
10
11.5459211
20
62.1861633
40
0.3384462
50
273.3221452
51
309.3766091
0
ARC
8
DEFAULT_255_2_778
10
11.5070803
20
62.4483195
40
0.602874
50
269.8817866
51
275.5640495
0
ARC
8
DEFAULT_255_2_778
10
11.5209286
20
62.1731755
40
0.217271
50
266.7831716
51
309.4680614
0
ARC
8
DEFAULT_255_2_778
10
11.5415721
20
62.1320385
40
0.1726943
50
312.858244
51
2.9568897
0
ARC
8
DEFAULT_255_2_778
10
11.5533764
20
62.1612779
40
0.1619414
50
352.7877153
51
84.2542203
0
ARC
8
DEFAULT_255_2_778
10
11.5133473
20
61.9769265
40
0.3500273
50
80.7537259
51
90.3618899
0
ARC
8
DEFAULT_255_2_778
10
11.5004789
20
62.6529611
40
0.2174948
50
267.0897843
51
307.3855782
0
ARC
8
DEFAULT_255_2_778
10
11.5378603
20
62.5946978
40
0.1486119
50
309.5736955
51
2.4485721
0
ARC
8
DEFAULT_255_2_778
10
11.5411534
20
62.6141154
40
0.14577
50
354.8564271
51
49.1304426
0
ARC
8
DEFAULT_255_2_778
10
11.5147702
20
62.5458316
40
0.2160897
50
55.7018815
51
89.3618214
0
ARC
8
DEFAULT_255_2_778
10
11.4858981
20
62.2918156
40
0.4711318
50
86.1932784
51
90.0804645
0
LINE
8
DEFAULT_255_2_778
10
11.5058365
20
61.8451469
11
11.1473365
21
61.8451469
0
LINE
8
DEFAULT_255_2_778
10
11.1473365
20
61.8451469
11
11.1473365
21
62.8746469
0
LINE
8
DEFAULT_255_2_778
10
11.1473365
20
62.8746469
11
11.4852365
21
62.8746469
0
LINE
8
DEFAULT_255_2_778
10
11.5058365
20
61.8454469
11
11.5058365
21
61.8451469
0
LINE
8
DEFAULT_255_2_778
10
11.5108365
20
62.3266469
11
11.2836365
21
62.3266469
0
LINE
8
DEFAULT_255_2_778
10
11.2836365
20
62.3266469
11
11.2836365
21
61.9562469
0
LINE
8
DEFAULT_255_2_778
10
11.2836365
20
61.9562469
11
11.5087365
21
61.9562469
0
LINE
8
DEFAULT_255_2_778
10
11.5111365
20
62.3269469
11
11.5108365
21
62.3266469
0
LINE
8
DEFAULT_255_2_778
10
11.2836365
20
62.7629469
11
11.2836365
21
62.4357469
0
LINE
8
DEFAULT_255_2_778
10
11.2836365
20
62.4357469
11
11.4894365
21
62.4357469
0
LINE
8
DEFAULT_255_2_778
10
11.4852365
20
62.7629469
11
11.2836365
21
62.7629469
0
LINE
8
DEFAULT_255_2_778
10
11.2836365
20
62.7629469
11
11.2836365
21
62.7629469
0
ARC
8
DEFAULT_255_2_778
10
12.3785321
20
62.1822792
40
0.3352274
50
89.0271146
51
119.8411343
0
ARC
8
DEFAULT_255_2_778
10
12.397377
20
62.2317603
40
0.2860007
50
42.3856567
51
92.6359309
0
ARC
8
DEFAULT_255_2_778
10
12.3429876
20
62.1997995
40
0.3479644
50
0.6239574
51
40.2350481
0
ARC
8
DEFAULT_255_2_778
10
12.1223717
20
62.1735555
40
0.5693525
50
359.9700936
51
3.02375
0
ARC
8
DEFAULT_255_2_778
10
12.3106108
20
62.1596405
40
0.3813563
50
329.7675792
51
2.0464034
0
ARC
8
DEFAULT_255_2_778
10
12.396174
20
62.1198713
40
0.2875387
50
316.6962664
51
328.0294258
0
ARC
8
DEFAULT_255_2_778
10
12.3859282
20
62.1405783
40
0.3093016
50
268.6751335
51
315.2064067
0
ARC
8
DEFAULT_255_2_778
10
12.3645045
20
62.3379525
40
0.5067942
50
269.990894
51
271.6137714
0
ARC
8
DEFAULT_255_2_778
10
12.3504627
20
62.1580008
40
0.3271405
50
230.1468952
51
272.4459432
0
ARC
8
DEFAULT_255_2_778
10
12.3437023
20
62.130459
40
0.301922
50
182.733852
51
227.7817739
0
ARC
8
DEFAULT_255_2_778
10
12.3737866
20
62.1326932
40
0.2079291
50
184.588725
51
226.1442687
0
ARC
8
DEFAULT_255_2_778
10
12.3551973
20
62.1341995
40
0.1966673
50
230.3572772
51
272.7473434
0
ARC
8
DEFAULT_255_2_778
10
12.3732609
20
62.1148987
40
0.1773508
50
267.2085996
51
319.6017819
0
ARC
8
DEFAULT_255_2_778
10
12.3072378
20
62.1538048
40
0.2531884
50
322.5812217
51
1.7409098
0
ARC
8
DEFAULT_255_2_778
10
12.113601
20
62.1716072
40
0.4468229
50
358.7034175
51
0.0065548
0
ARC
8
DEFAULT_255_2_778
10
12.3217637
20
62.1831693
40
0.2389377
50
357.2386624
51
40.2517611
0
ARC
8
DEFAULT_255_2_778
10
12.3619909
20
62.2074192
40
0.1927122
50
42.4776615
51
92.4288541
0
ARC
8
DEFAULT_255_2_778
10
12.3413747
20
62.1830258
40
0.2172894
50
86.7155155
51
124.3327065
0
LINE
8
DEFAULT_255_2_778
10
12.183924
20
62.3343583
11
12.078924
21
62.3613583
0
LINE
8
DEFAULT_255_2_778
10
12.078924
20
62.3613583
11
12.131524
21
62.8746583
0
LINE
8
DEFAULT_255_2_778
10
12.131524
20
62.8746583
11
12.661224
21
62.8746583
0
LINE
8
DEFAULT_255_2_778
10
12.661224
20
62.8746583
11
12.661224
21
62.7537583
0
LINE
8
DEFAULT_255_2_778
10
12.661224
20
62.7537583
11
12.242924
21
62.7537583
0
LINE
8
DEFAULT_255_2_778
10
12.242924
20
62.7537583
11
12.211724
21
62.4730583
0
LINE
8
DEFAULT_255_2_778
10
12.042124
20
62.1160583
11
12.166524
21
62.1160583
0
LINE
8
DEFAULT_255_2_778
10
12.218824
20
62.3624583
11
12.184224
21
62.3341583
0
LINE
8
DEFAULT_255_2_778
10
12.184224
20
62.3341583
11
12.183924
21
62.3343583
0
ARC
8
DEFAULT_255_2_778
10
11.4976566
20
66.0113151
40
0.5181806
50
71.872945
51
91.3734344
0
ARC
8
DEFAULT_255_2_778
10
11.5719612
20
66.2514135
40
0.2669117
50
51.412506
51
70.9962649
0
ARC
8
DEFAULT_255_2_778
10
11.5769313
20
66.2736048
40
0.2466669
50
357.1350601
51
49.0992984
0
ARC
8
DEFAULT_255_2_778
10
11.3977785
20
66.2549782
40
0.425558
50
359.995775
51
0.8479353
0
ARC
8
DEFAULT_255_2_778
10
11.6160014
20
66.2516682
40
0.207361
50
323.1975154
51
0.9059699
0
ARC
8
DEFAULT_255_2_778
10
11.5694414
20
66.2885015
40
0.2667119
50
292.1351399
51
322.8536928
0
ARC
8
DEFAULT_255_2_778
10
11.6107537
20
65.8102125
40
0.238688
50
36.6965429
51
75.6437336
0
ARC
8
DEFAULT_255_2_778
10
11.5972175
20
65.8032779
40
0.253698
50
358.5700412
51
36.1254519
0
ARC
8
DEFAULT_255_2_778
10
11.5767029
20
65.7829927
40
0.2744885
50
312.0744524
51
2.913998
0
ARC
8
DEFAULT_255_2_778
10
11.5459211
20
65.8408633
40
0.3384462
50
273.3221452
51
309.3766091
0
ARC
8
DEFAULT_255_2_778
10
11.5070803
20
66.1030195
40
0.602874
50
269.8817866
51
275.5640495
0
ARC
8
DEFAULT_255_2_778
10
11.5209286
20
65.8278755
40
0.217271
50
266.7831716
51
309.4680614
0
ARC
8
DEFAULT_255_2_778
10
11.5415721
20
65.7867385
40
0.1726943
50
312.858244
51
2.9568897
0
ARC
8
DEFAULT_255_2_778
10
11.5533764
20
65.8159779
40
0.1619414
50
352.7877153
51
84.2542203
0
ARC
8
DEFAULT_255_2_778
10
11.5133473
20
65.6316265
40
0.3500273
50
80.7537259
51
90.3618899
0
ARC
8
DEFAULT_255_2_778
10
11.5004789
20
66.3076611
40
0.2174948
50
267.0897843
51
307.3855782
0
ARC
8
DEFAULT_255_2_778
10
11.5378603
20
66.2493978
40
0.1486119
50
309.5736955
51
2.4485721
0
ARC
8
DEFAULT_255_2_778
10
11.5411534
20
66.2688154
40
0.14577
50
354.8564271
51
49.1304426
0
ARC
8
DEFAULT_255_2_778
10
11.5147702
20
66.2005316
40
0.2160897
50
55.7018815
51
89.3618214
0
ARC
8
DEFAULT_255_2_778
10
11.4858981
20
65.9465156
40
0.4711318
50
86.1932784
51
90.0804645
0
LINE
8
DEFAULT_255_2_778
10
11.5058365
20
65.4998469
11
11.1473365
21
65.4998469
0
LINE
8
DEFAULT_255_2_778
10
11.1473365
20
65.4998469
11
11.1473365
21
66.5293469
0
LINE
8
DEFAULT_255_2_778
10
11.1473365
20
66.5293469
11
11.4852365
21
66.5293469
0
LINE
8
DEFAULT_255_2_778
10
11.5058365
20
65.5001469
11
11.5058365
21
65.4998469
0
LINE
8
DEFAULT_255_2_778
10
11.5108365
20
65.9813469
11
11.2836365
21
65.9813469
0
LINE
8
DEFAULT_255_2_778
10
11.2836365
20
65.9813469
11
11.2836365
21
65.6109469
0
LINE
8
DEFAULT_255_2_778
10
11.2836365
20
65.6109469
11
11.5087365
21
65.6109469
0
LINE
8
DEFAULT_255_2_778
10
11.5111365
20
65.9816469
11
11.5108365
21
65.9813469
0
LINE
8
DEFAULT_255_2_778
10
11.2836365
20
66.4176469
11
11.2836365
21
66.0904469
0
LINE
8
DEFAULT_255_2_778
10
11.2836365
20
66.0904469
11
11.4894365
21
66.0904469
0
LINE
8
DEFAULT_255_2_778
10
11.4852365
20
66.4176469
11
11.2836365
21
66.4176469
0
LINE
8
DEFAULT_255_2_778
10
11.2836365
20
66.4176469
11
11.2836365
21
66.4176469
0
LINE
8
DEFAULT_255_2_778
10
12.5728375
20
66.5294146
11
12.5728375
21
65.8457146
0
LINE
8
DEFAULT_255_2_778
10
12.5728375
20
65.8457146
11
12.7162375
21
65.8457146
0
LINE
8
DEFAULT_255_2_778
10
12.7162375
20
65.8457146
11
12.7162375
21
65.7391146
0
LINE
8
DEFAULT_255_2_778
10
12.7162375
20
65.7391146
11
12.5728375
21
65.7391146
0
LINE
8
DEFAULT_255_2_778
10
12.5728375
20
65.7391146
11
12.5728375
21
65.5002146
0
LINE
8
DEFAULT_255_2_778
10
12.5728375
20
65.5002146
11
12.4408375
21
65.5002146
0
LINE
8
DEFAULT_255_2_778
10
12.4408375
20
65.5002146
11
12.4408375
21
65.7391146
0
LINE
8
DEFAULT_255_2_778
10
12.4408375
20
65.7391146
11
11.9701375
21
65.7391146
0
LINE
8
DEFAULT_255_2_778
10
11.9701375
20
65.7391146
11
11.9701375
21
65.8161146
0
LINE
8
DEFAULT_255_2_778
10
11.9701375
20
65.8161146
11
12.4331375
21
66.5294146
0
LINE
8
DEFAULT_255_2_778
10
12.4331375
20
66.5294146
11
12.5731375
21
66.5294146
0
LINE
8
DEFAULT_255_2_778
10
12.5731375
20
66.5294146
11
12.5728375
21
66.5294146
0
LINE
8
DEFAULT_255_2_778
10
12.4252375
20
66.3222146
11
12.1191375
21
65.8457146
0
LINE
8
DEFAULT_255_2_778
10
12.1191375
20
65.8457146
11
12.4408375
21
65.8457146
0
LINE
8
DEFAULT_255_2_778
10
12.4408375
20
65.8457146
11
12.4408375
21
66.3505146
0
LINE
8
DEFAULT_255_2_778
10
12.4408375
20
66.3505146
11
12.4252375
21
66.3222146
0
LINE
8
DEFAULT_255_2_778
10
12.4252375
20
66.3222146
11
12.4252375
21
66.3222146
0
LINE
8
DEFAULT_255_2_778
10
11.8166813
20
72.8092469
11
11.7179813
21
73.0778469
0
LINE
8
DEFAULT_255_2_778
10
11.7179813
20
73.0778469
11
11.2848813
21
73.0778469
0
LINE
8
DEFAULT_255_2_778
10
11.2848813
20
73.0778469
11
11.1874813
21
72.8092469
0
LINE
8
DEFAULT_255_2_778
10
11.1874813
20
72.8092469
11
11.0469813
21
72.8092469
0
LINE
8
DEFAULT_255_2_778
10
11.0469813
20
72.8092469
11
11.4417813
21
73.8387469
0
LINE
8
DEFAULT_255_2_778
10
11.4417813
20
73.8387469
11
11.5610813
21
73.8387469
0
LINE
8
DEFAULT_255_2_778
10
11.5610813
20
73.8387469
11
11.9565813
21
72.8092469
0
LINE
8
DEFAULT_255_2_778
10
11.9565813
20
72.8092469
11
11.8166813
21
72.8092469
0
LINE
8
DEFAULT_255_2_778
10
11.8166813
20
72.8092469
11
11.8166813
21
72.8092469
0
LINE
8
DEFAULT_255_2_778
10
11.5015813
20
73.6710469
11
11.3260813
21
73.1894469
0
LINE
8
DEFAULT_255_2_778
10
11.3260813
20
73.1894469
11
11.6774813
21
73.1894469
0
LINE
8
DEFAULT_255_2_778
10
11.6774813
20
73.1894469
11
11.5012813
21
73.6710469
0
LINE
8
DEFAULT_255_2_778
10
11.5012813
20
73.6710469
11
11.5015813
21
73.6710469
0
LINE
8
DEFAULT_255_2_778
10
12.7293177
20
73.8387469
11
12.7293177
21
73.7651469
0
LINE
8
DEFAULT_255_2_778
10
12.7293177
20
73.7651469
11
12.3012177
21
72.8092469
0
LINE
8
DEFAULT_255_2_778
10
12.3012177
20
72.8092469
11
12.1633177
21
72.8092469
0
LINE
8
DEFAULT_255_2_778
10
12.1633177
20
72.8092469
11
12.5901177
21
73.7313469
0
LINE
8
DEFAULT_255_2_778
10
12.5901177
20
73.7313469
11
12.0305177
21
73.7313469
0
LINE
8
DEFAULT_255_2_778
10
12.0305177
20
73.7313469
11
12.0305177
21
73.8387469
0
LINE
8
DEFAULT_255_2_778
10
12.0305177
20
73.8387469
11
12.7293177
21
73.8387469
0
LINE
8
DEFAULT_255_2_778
10
12.7293177
20
73.8387469
11
12.7293177
21
73.8387469
0
LINE
8
DEFAULT_255_2_778
10
11.8166813
20
76.4636469
11
11.7179813
21
76.7322469
0
LINE
8
DEFAULT_255_2_778
10
11.7179813
20
76.7322469
11
11.2848813
21
76.7322469
0
LINE
8
DEFAULT_255_2_778
10
11.2848813
20
76.7322469
11
11.1874813
21
76.4636469
0
LINE
8
DEFAULT_255_2_778
10
11.1874813
20
76.4636469
11
11.0469813
21
76.4636469
0
LINE
8
DEFAULT_255_2_778
10
11.0469813
20
76.4636469
11
11.4417813
21
77.4931469
0
LINE
8
DEFAULT_255_2_778
10
11.4417813
20
77.4931469
11
11.5610813
21
77.4931469
0
LINE
8
DEFAULT_255_2_778
10
11.5610813
20
77.4931469
11
11.9565813
21
76.4636469
0
LINE
8
DEFAULT_255_2_778
10
11.9565813
20
76.4636469
11
11.8166813
21
76.4636469
0
LINE
8
DEFAULT_255_2_778
10
11.8166813
20
76.4636469
11
11.8166813
21
76.4636469
0
LINE
8
DEFAULT_255_2_778
10
11.5015813
20
77.3254469
11
11.3260813
21
76.8438469
0
LINE
8
DEFAULT_255_2_778
10
11.3260813
20
76.8438469
11
11.6774813
21
76.8438469
0
LINE
8
DEFAULT_255_2_778
10
11.6774813
20
76.8438469
11
11.5012813
21
77.3254469
0
LINE
8
DEFAULT_255_2_778
10
11.5012813
20
77.3254469
11
11.5015813
21
77.3254469
0
ARC
8
DEFAULT_255_2_778
10
12.5451451
20
77.0253305
40
0.3576442
50
88.7351727
51
127.1118987
0
ARC
8
DEFAULT_255_2_778
10
12.5173611
20
77.0762319
40
0.3004099
50
128.7439704
51
133.9838827
0
ARC
8
DEFAULT_255_2_778
10
12.5671405
20
77.039191
40
0.3617726
50
135.5828428
51
174.2682335
0
ARC
8
DEFAULT_255_2_778
10
12.7866853
20
76.9934496
40
0.5852636
50
171.9585567
51
174.8988959
0
ARC
8
DEFAULT_255_2_778
10
12.4133632
20
76.8579238
40
0.2812867
50
87.253924
51
138.1789662
0
ARC
8
DEFAULT_255_2_778
10
12.4374963
20
76.8710236
40
0.2680757
50
40.2370303
51
92.2782507
0
ARC
8
DEFAULT_255_2_778
10
12.3599945
20
76.8156317
40
0.3631028
50
357.8213046
51
39.0097137
0
ARC
8
DEFAULT_255_2_778
10
12.1530507
20
76.7994891
40
0.5697887
50
359.9998375
51
0.2351773
0
ARC
8
DEFAULT_255_2_778
10
12.3404736
20
76.7853189
40
0.3826284
50
327.1851823
51
2.1221213
0
ARC
8
DEFAULT_255_2_778
10
12.4081745
20
76.7521833
40
0.3079008
50
317.6812122
51
325.5398159
0
ARC
8
DEFAULT_255_2_778
10
12.4158594
20
76.7495522
40
0.3004645
50
267.4401227
51
317.0655713
0
ARC
8
DEFAULT_255_2_778
10
12.3946783
20
76.7451101
40
0.2958245
50
218.0233331
51
271.5033956
0
ARC
8
DEFAULT_255_2_778
10
12.5054724
20
76.8302156
40
0.4355288
50
180.5050136
51
217.8648645
0
ARC
8
DEFAULT_255_2_778
10
12.7325144
20
76.8550704
40
0.6631747
50
179.9812411
51
182.4797896
0
ARC
8
DEFAULT_255_2_778
10
13.0219198
20
76.9180634
40
0.9526619
50
166.3716915
51
180.7503589
0
ARC
8
DEFAULT_255_2_778
10
12.5944921
20
77.0244002
40
0.51222
50
141.9668892
51
166.6660315
0
ARC
8
DEFAULT_255_2_778
10
12.5120292
20
77.0716464
40
0.4183793
50
94.7020521
51
140.1050293
0
ARC
8
DEFAULT_255_2_778
10
12.5618904
20
76.7995307
40
0.6942071
50
90.6892457
51
96.9629991
0
ARC
8
DEFAULT_255_2_778
10
12.4038407
20
76.8191517
40
0.2110364
50
89.8645529
51
125.9520412
0
ARC
8
DEFAULT_255_2_778
10
12.3971598
20
76.8173636
40
0.2086615
50
124.1784552
51
159.9539673
0
ARC
8
DEFAULT_255_2_778
10
12.5558704
20
76.8274403
40
0.354978
50
177.861318
51
208.8956185
0
ARC
8
DEFAULT_255_2_778
10
12.4608202
20
76.7848458
40
0.2513277
50
210.8652674
51
216.4044356
0
ARC
8
DEFAULT_255_2_778
10
12.4026195
20
76.7301973
40
0.1723112
50
213.2630325
51
269.7739096
0
ARC
8
DEFAULT_255_2_778
10
12.4088471
20
76.7248964
40
0.1671517
50
267.6315877
51
322.4336966
0
ARC
8
DEFAULT_255_2_778
10
12.3233067
20
76.7807602
40
0.2691293
50
324.1097921
51
2.6892483
0
ARC
8
DEFAULT_255_2_778
10
12.324031
20
76.8061405
40
0.2684117
50
357.2766965
51
36.2321648
0
ARC
8
DEFAULT_255_2_778
10
12.4086423
20
76.8646675
40
0.1655926
50
37.2012408
51
91.6966143
0
LINE
8
DEFAULT_255_2_778
10
12.5535396
20
77.4939875
11
12.5770396
21
77.4939875
0
LINE
8
DEFAULT_255_2_778
10
12.5770396
20
77.4939875
11
12.5770396
21
77.3828875
0
LINE
8
DEFAULT_255_2_778
10
12.5770396
20
77.3828875
11
12.5530396
21
77.3828875
0
LINE
8
DEFAULT_255_2_778
10
12.0693396
20
76.8552875
11
12.0693396
21
76.9055875
0
LINE
8
DEFAULT_255_2_778
10
12.5535396
20
77.4936875
11
12.5535396
21
77.4939875
0
LINE
8
DEFAULT_255_2_778
10
12.2011396
20
76.8888875
11
12.2011396
21
76.8406875
0
LINE
8
DEFAULT_255_2_778
10
12.4037396
20
77.0301875
11
12.4043396
21
77.0301875
0
LINE
8
DEFAULT_255_2_778
10
11.8166813
20
80.1186469
11
11.7179813
21
80.3872469
0
LINE
8
DEFAULT_255_2_778
10
11.7179813
20
80.3872469
11
11.2848813
21
80.3872469
0
LINE
8
DEFAULT_255_2_778
10
11.2848813
20
80.3872469
11
11.1874813
21
80.1186469
0
LINE
8
DEFAULT_255_2_778
10
11.1874813
20
80.1186469
11
11.0469813
21
80.1186469
0
LINE
8
DEFAULT_255_2_778
10
11.0469813
20
80.1186469
11
11.4417813
21
81.1481469
0
LINE
8
DEFAULT_255_2_778
10
11.4417813
20
81.1481469
11
11.5610813
21
81.1481469
0
LINE
8
DEFAULT_255_2_778
10
11.5610813
20
81.1481469
11
11.9565813
21
80.1186469
0
LINE
8
DEFAULT_255_2_778
10
11.9565813
20
80.1186469
11
11.8166813
21
80.1186469
0
LINE
8
DEFAULT_255_2_778
10
11.8166813
20
80.1186469
11
11.8166813
21
80.1186469
0
LINE
8
DEFAULT_255_2_778
10
11.5015813
20
80.9804469
11
11.3260813
21
80.4988469
0
LINE
8
DEFAULT_255_2_778
10
11.3260813
20
80.4988469
11
11.6774813
21
80.4988469
0
LINE
8
DEFAULT_255_2_778
10
11.6774813
20
80.4988469
11
11.5012813
21
80.9804469
0
LINE
8
DEFAULT_255_2_778
10
11.5012813
20
80.9804469
11
11.5015813
21
80.9804469
0
ARC
8
DEFAULT_255_2_778
10
12.4216321
20
80.4557792
40
0.3352274
50
89.0271146
51
119.8411343
0
ARC
8
DEFAULT_255_2_778
10
12.440477
20
80.5052603
40
0.2860007
50
42.3856567
51
92.6359309
0
ARC
8
DEFAULT_255_2_778
10
12.3860876
20
80.4732995
40
0.3479644
50
0.6239574
51
40.2350481
0
ARC
8
DEFAULT_255_2_778
10
12.1654717
20
80.4470555
40
0.5693525
50
359.9700936
51
3.02375
0
ARC
8
DEFAULT_255_2_778
10
12.3537108
20
80.4331405
40
0.3813563
50
329.7675792
51
2.0464034
0
ARC
8
DEFAULT_255_2_778
10
12.439274
20
80.3933713
40
0.2875387
50
316.6962664
51
328.0294258
0
ARC
8
DEFAULT_255_2_778
10
12.4290282
20
80.4140783
40
0.3093016
50
268.6751335
51
315.2064067
0
ARC
8
DEFAULT_255_2_778
10
12.4076045
20
80.6114525
40
0.5067942
50
269.990894
51
271.6137714
0
ARC
8
DEFAULT_255_2_778
10
12.3935627
20
80.4315008
40
0.3271405
50
230.1468952
51
272.4459432
0
ARC
8
DEFAULT_255_2_778
10
12.3868023
20
80.403959
40
0.301922
50
182.733852
51
227.7817739
0
ARC
8
DEFAULT_255_2_778
10
12.4168866
20
80.4061932
40
0.2079291
50
184.588725
51
226.1442687
0
ARC
8
DEFAULT_255_2_778
10
12.3982973
20
80.4076995
40
0.1966673
50
230.3572772
51
272.7473434
0
ARC
8
DEFAULT_255_2_778
10
12.4163609
20
80.3883987
40
0.1773508
50
267.2085996
51
319.6017819
0
ARC
8
DEFAULT_255_2_778
10
12.3503378
20
80.4273048
40
0.2531884
50
322.5812217
51
1.7409098
0
ARC
8
DEFAULT_255_2_778
10
12.156701
20
80.4451072
40
0.4468229
50
358.7034175
51
0.0065548
0
ARC
8
DEFAULT_255_2_778
10
12.3648637
20
80.4566693
40
0.2389377
50
357.2386624
51
40.2517611
0
ARC
8
DEFAULT_255_2_778
10
12.4050909
20
80.4809192
40
0.1927122
50
42.4776615
51
92.4288541
0
ARC
8
DEFAULT_255_2_778
10
12.3844747
20
80.4565258
40
0.2172894
50
86.7155155
51
124.3327065
0
LINE
8
DEFAULT_255_2_778
10
12.227024
20
80.6078583
11
12.122024
21
80.6348583
0
LINE
8
DEFAULT_255_2_778
10
12.122024
20
80.6348583
11
12.174624
21
81.1481583
0
LINE
8
DEFAULT_255_2_778
10
12.174624
20
81.1481583
11
12.704324
21
81.1481583
0
LINE
8
DEFAULT_255_2_778
10
12.704324
20
81.1481583
11
12.704324
21
81.0272583
0
LINE
8
DEFAULT_255_2_778
10
12.704324
20
81.0272583
11
12.286024
21
81.0272583
0
LINE
8
DEFAULT_255_2_778
10
12.286024
20
81.0272583
11
12.254824
21
80.7465583
0
LINE
8
DEFAULT_255_2_778
10
12.085224
20
80.3895583
11
12.209624
21
80.3895583
0
LINE
8
DEFAULT_255_2_778
10
12.261924
20
80.6359583
11
12.227324
21
80.6076583
0
LINE
8
DEFAULT_255_2_778
10
12.227324
20
80.6076583
11
12.227024
21
80.6078583
0
LINE
8
DEFAULT_255_2_778
10
11.8166813
20
83.7730469
11
11.7179813
21
84.0416469
0
LINE
8
DEFAULT_255_2_778
10
11.7179813
20
84.0416469
11
11.2848813
21
84.0416469
0
LINE
8
DEFAULT_255_2_778
10
11.2848813
20
84.0416469
11
11.1874813
21
83.7730469
0
LINE
8
DEFAULT_255_2_778
10
11.1874813
20
83.7730469
11
11.0469813
21
83.7730469
0
LINE
8
DEFAULT_255_2_778
10
11.0469813
20
83.7730469
11
11.4417813
21
84.8025469
0
LINE
8
DEFAULT_255_2_778
10
11.4417813
20
84.8025469
11
11.5610813
21
84.8025469
0
LINE
8
DEFAULT_255_2_778
10
11.5610813
20
84.8025469
11
11.9565813
21
83.7730469
0
LINE
8
DEFAULT_255_2_778
10
11.9565813
20
83.7730469
11
11.8166813
21
83.7730469
0
LINE
8
DEFAULT_255_2_778
10
11.8166813
20
83.7730469
11
11.8166813
21
83.7730469
0
LINE
8
DEFAULT_255_2_778
10
11.5015813
20
84.6348469
11
11.3260813
21
84.1532469
0
LINE
8
DEFAULT_255_2_778
10
11.3260813
20
84.1532469
11
11.6774813
21
84.1532469
0
LINE
8
DEFAULT_255_2_778
10
11.6774813
20
84.1532469
11
11.5012813
21
84.6348469
0
LINE
8
DEFAULT_255_2_778
10
11.5012813
20
84.6348469
11
11.5015813
21
84.6348469
0
LINE
8
DEFAULT_255_2_778
10
12.6159375
20
84.8026146
11
12.6159375
21
84.1189146
0
LINE
8
DEFAULT_255_2_778
10
12.6159375
20
84.1189146
11
12.7593375
21
84.1189146
0
LINE
8
DEFAULT_255_2_778
10
12.7593375
20
84.1189146
11
12.7593375
21
84.0123146
0
LINE
8
DEFAULT_255_2_778
10
12.7593375
20
84.0123146
11
12.6159375
21
84.0123146
0
LINE
8
DEFAULT_255_2_778
10
12.6159375
20
84.0123146
11
12.6159375
21
83.7734146
0
LINE
8
DEFAULT_255_2_778
10
12.6159375
20
83.7734146
11
12.4839375
21
83.7734146
0
LINE
8
DEFAULT_255_2_778
10
12.4839375
20
83.7734146
11
12.4839375
21
84.0123146
0
LINE
8
DEFAULT_255_2_778
10
12.4839375
20
84.0123146
11
12.0132375
21
84.0123146
0
LINE
8
DEFAULT_255_2_778
10
12.0132375
20
84.0123146
11
12.0132375
21
84.0893146
0
LINE
8
DEFAULT_255_2_778
10
12.0132375
20
84.0893146
11
12.4762375
21
84.8026146
0
LINE
8
DEFAULT_255_2_778
10
12.4762375
20
84.8026146
11
12.6162375
21
84.8026146
0
LINE
8
DEFAULT_255_2_778
10
12.6162375
20
84.8026146
11
12.6159375
21
84.8026146
0
LINE
8
DEFAULT_255_2_778
10
12.4683375
20
84.5954146
11
12.1624375
21
84.1189146
0
LINE
8
DEFAULT_255_2_778
10
12.1624375
20
84.1189146
11
12.4842375
21
84.1189146
0
LINE
8
DEFAULT_255_2_778
10
12.4842375
20
84.1189146
11
12.4842375
21
84.6237146
0
LINE
8
DEFAULT_255_2_778
10
12.4842375
20
84.6237146
11
12.4685375
21
84.5954146
0
LINE
8
DEFAULT_255_2_778
10
12.4685375
20
84.5954146
11
12.4683375
21
84.5954146
0
ARC
8
DEFAULT_255_2_778
10
6.8550491
20
18.546737
40
0.4723035
50
60.9559645
51
91.1410458
0
ARC
8
DEFAULT_255_2_778
10
6.8861691
20
18.6115743
40
0.4005343
50
26.5567677
51
60.3450361
0
ARC
8
DEFAULT_255_2_778
10
6.7514717
20
18.5464857
40
0.5501237
50
359.2147966
51
26.3484727
0
ARC
8
DEFAULT_255_2_778
10
6.7492916
20
18.4609792
40
0.5523862
50
333.8750505
51
1.2621852
0
ARC
8
DEFAULT_255_2_778
10
6.8914532
20
18.395468
40
0.3959199
50
299.106743
51
333.3280482
0
ARC
8
DEFAULT_255_2_778
10
6.8463103
20
18.4893733
40
0.4999645
50
269.2932934
51
298.3919492
0
ARC
8
DEFAULT_255_2_778
10
6.848472
20
18.4244299
40
0.3244267
50
267.3626483
51
308.8510832
0
ARC
8
DEFAULT_255_2_778
10
6.8683112
20
18.3863216
40
0.2824302
50
310.5665618
51
318.1657761
0
ARC
8
DEFAULT_255_2_778
10
6.8051663
20
18.4290008
40
0.3580929
50
319.8167302
51
355.4930575
0
ARC
8
DEFAULT_255_2_778
10
6.5278061
20
18.4739301
40
0.6385403
50
353.4292431
51
0.1630128
0
ARC
8
DEFAULT_255_2_778
10
6.677317
20
18.5486529
40
0.4891944
50
358.4999488
51
21.9317916
0
ARC
8
DEFAULT_255_2_778
10
6.8506055
20
18.611233
40
0.3051461
50
23.1847743
51
40.238116
0
ARC
8
DEFAULT_255_2_778
10
6.8626331
20
18.6114325
40
0.2959337
50
41.7130384
51
92.6635416
0
LINE
8
DEFAULT_255_2_778
10
6.8398438
20
17.9894469
11
6.5538438
21
17.9894469
0
LINE
8
DEFAULT_255_2_778
10
6.5538438
20
17.9894469
11
6.5538438
21
19.0189469
0
LINE
8
DEFAULT_255_2_778
10
6.5538438
20
19.0189469
11
6.8456438
21
19.0189469
0
LINE
8
DEFAULT_255_2_778
10
7.3015438
20
18.5389469
11
7.3015438
21
18.4731469
0
LINE
8
DEFAULT_255_2_778
10
6.8401438
20
17.9894469
11
6.8398438
21
17.9894469
0
LINE
8
DEFAULT_255_2_778
10
6.8491438
20
18.9070469
11
6.6901438
21
18.9070469
0
LINE
8
DEFAULT_255_2_778
10
6.6901438
20
18.9070469
11
6.6901438
21
18.1003469
0
LINE
8
DEFAULT_255_2_778
10
6.6901438
20
18.1003469
11
6.8335438
21
18.1003469
0
LINE
8
DEFAULT_255_2_778
10
7.1663438
20
18.4757469
11
7.1663438
21
18.5358469
0
LINE
8
DEFAULT_255_2_778
10
6.8488438
20
18.9070469
11
6.8491438
21
18.9070469
0
ARC
8
DEFAULT_255_2_778
10
7.7718999
20
18.7849069
40
0.2175864
50
267.6593566
51
309.1635388
0
ARC
8
DEFAULT_255_2_778
10
7.7997417
20
18.7368043
40
0.1629445
50
312.2563768
51
2.6373461
0
ARC
8
DEFAULT_255_2_778
10
7.772552
20
18.7571965
40
0.1903987
50
356.11677
51
37.9242232
0
ARC
8
DEFAULT_255_2_778
10
7.7995585
20
18.7516703
40
0.1737603
50
44.8517708
51
93.0160622
0
ARC
8
DEFAULT_255_2_778
10
7.7815763
20
18.5770429
40
0.3482591
50
88.5455325
51
90.0103172
0
ARC
8
DEFAULT_255_2_778
10
7.7720731
20
18.7365547
40
0.1889833
50
87.1366488
51
132.0428448
0
ARC
8
DEFAULT_255_2_778
10
7.763855
20
18.7558324
40
0.1693002
50
134.3471156
51
182.4815539
0
ARC
8
DEFAULT_255_2_778
10
7.7257223
20
18.7541519
40
0.2622696
50
131.1287609
51
181.2343633
0
ARC
8
DEFAULT_255_2_778
10
7.7691742
20
18.7052468
40
0.3276877
50
87.841974
51
131.2270215
0
ARC
8
DEFAULT_255_2_778
10
7.7949403
20
18.679784
40
0.3531734
50
59.7154655
51
92.1787647
0
ARC
8
DEFAULT_255_2_778
10
7.8357586
20
18.766638
40
0.2577296
50
47.1869983
51
57.8139
0
ARC
8
DEFAULT_255_2_778
10
7.8167697
20
18.7571561
40
0.2776911
50
356.7477407
51
45.6422696
0
ARC
8
DEFAULT_255_2_778
10
7.868439
20
18.7446797
40
0.2255984
50
323.7250828
51
359.1675518
0
ARC
8
DEFAULT_255_2_778
10
7.8356529
20
18.7606841
40
0.2615799
50
291.4979474
51
325.148026
0
ARC
8
DEFAULT_255_2_778
10
7.8614163
20
18.2717555
40
0.2553562
50
37.7537362
51
74.0673159
0
ARC
8
DEFAULT_255_2_778
10
7.8638629
20
18.2838063
40
0.2461744
50
358.183303
51
35.8844566
0
ARC
8
DEFAULT_255_2_778
10
7.8298523
20
18.2629472
40
0.2803654
50
312.4582043
51
2.6688701
0
ARC
8
DEFAULT_255_2_778
10
7.79778
20
18.3157393
40
0.3411745
50
267.4521542
51
310.4466776
0
ARC
8
DEFAULT_255_2_778
10
7.7672787
20
18.3247358
40
0.3501697
50
230.8064905
51
272.5099358
0
LINE
8
DEFAULT_255_2_778
10
7.5459919
20
18.0533486
11
7.5458136
21
18.0535021
0
ARC
8
DEFAULT_255_2_778
10
7.7140984
20
18.2513652
40
0.2597491
50
177.9620906
51
229.6184609
0
ARC
8
DEFAULT_255_2_778
10
7.7545714
20
18.2533965
40
0.1682123
50
177.5449134
51
226.9359846
0
ARC
8
DEFAULT_255_2_778
10
7.7719361
20
18.2845414
40
0.2030048
50
229.3582333
51
272.9301833
0
ARC
8
DEFAULT_255_2_778
10
7.7959679
20
18.2803758
40
0.1990426
50
266.0664226
51
311.3322838
0
ARC
8
DEFAULT_255_2_778
10
7.8336625
20
18.2267189
40
0.1340477
50
314.3820421
51
314.6174458
0
ARC
8
DEFAULT_255_2_778
10
7.7893276
20
18.2606652
40
0.1895077
50
316.9507022
51
3.8234643
0
ARC
8
DEFAULT_255_2_778
10
7.805651
20
18.2840597
40
0.1730972
50
356.4368833
51
47.2661907
0
ARC
8
DEFAULT_255_2_778
10
7.781919
20
18.2314706
40
0.2285592
50
51.847315
51
89.8606456
0
ARC
8
DEFAULT_255_2_778
10
7.7577332
20
18.0285789
40
0.4321591
50
86.7179477
51
89.2601367
0
LINE
8
DEFAULT_255_2_778
10
7.6643136
20
18.4609021
11
7.6643136
21
18.5675021
0
LINE
8
DEFAULT_255_2_778
10
7.6643136
20
18.5675021
11
7.7630136
21
18.5675021
0
LINE
8
DEFAULT_255_2_778
10
7.5947136
20
18.7485021
11
7.4635136
21
18.7485021
0
LINE
8
DEFAULT_255_2_778
10
7.4545136
20
18.2606021
11
7.5865136
21
18.2606021
0
LINE
8
DEFAULT_255_2_778
10
7.7633136
20
18.4607021
11
7.6646136
21
18.4607021
0
LINE
8
DEFAULT_255_2_778
10
7.6646136
20
18.4607021
11
7.6643136
21
18.4609021
0
ARC
8
DEFAULT_255_2_778
10
6.6527054
20
14.6925565
40
0.3947786
50
319.9748405
51
355.4399096
0
ARC
8
DEFAULT_255_2_778
10
6.7112096
20
14.6549147
40
0.3258887
50
311.0285366
51
318.4273541
0
ARC
8
DEFAULT_255_2_778
10
6.6809509
20
14.7046349
40
0.3833853
50
270.737512
51
309.562088
0
ARC
8
DEFAULT_255_2_778
10
6.6544339
20
14.9303939
40
0.6099241
50
269.971862
51
272.9558653
0
ARC
8
DEFAULT_255_2_778
10
6.6407332
20
14.6858763
40
0.3656522
50
219.9529344
51
272.100369
0
ARC
8
DEFAULT_255_2_778
10
6.7357501
20
14.7544901
40
0.4826238
50
184.6063752
51
218.9534647
0
ARC
8
DEFAULT_255_2_778
10
7.022859
20
14.799489
40
0.7727265
50
179.8753763
51
186.2227052
0
ARC
8
DEFAULT_255_2_778
10
6.8330366
20
14.9123821
40
0.5830301
50
155.6824878
51
181.200223
0
ARC
8
DEFAULT_255_2_778
10
6.6532266
20
14.9933299
40
0.3858397
50
122.2153375
51
155.6411206
0
ARC
8
DEFAULT_255_2_778
10
6.6576348
20
14.9702474
40
0.4078089
50
88.8198062
51
121.0103838
0
ARC
8
DEFAULT_255_2_778
10
6.6802605
20
14.9840458
40
0.3941808
50
57.2971524
51
92.0682739
0
ARC
8
DEFAULT_255_2_778
10
6.7128254
20
15.051206
40
0.3201955
50
47.2597426
51
55.7074876
0
ARC
8
DEFAULT_255_2_778
10
6.6686706
20
15.0147158
40
0.3770401
50
4.3051868
51
46.0950378
0
ARC
8
DEFAULT_255_2_778
10
6.4714239
20
14.9759024
40
0.5771388
50
5.6746711
51
6.6782296
0
ARC
8
DEFAULT_255_2_778
10
6.5547792
20
14.9944788
40
0.3559425
50
6.2079989
51
30.4103945
0
ARC
8
DEFAULT_255_2_778
10
6.7037752
20
15.0746412
40
0.1869733
50
32.3372012
51
46.8138254
0
ARC
8
DEFAULT_255_2_778
10
6.6810552
20
15.033721
40
0.23264
50
49.6321372
51
92.9323383
0
ARC
8
DEFAULT_255_2_778
10
6.6658152
20
14.8500822
40
0.4159876
50
89.5401114
51
89.9973533
0
ARC
8
DEFAULT_255_2_778
10
6.6553788
20
15.0220757
40
0.244218
50
87.5462815
51
142.729253
0
ARC
8
DEFAULT_255_2_778
10
6.7615062
20
14.9531567
40
0.3705283
50
144.1867052
51
174.3221241
0
ARC
8
DEFAULT_255_2_778
10
7.0878602
20
14.8993104
40
0.7009319
50
172.5812269
51
180.2403738
0
ARC
8
DEFAULT_255_2_778
10
6.9164875
20
14.7839727
40
0.5297053
50
178.6264813
51
200.4635682
0
ARC
8
DEFAULT_255_2_778
10
6.7266873
20
14.720541
40
0.3297788
50
201.6672468
51
215.237427
0
ARC
8
DEFAULT_255_2_778
10
6.6451401
20
14.6585156
40
0.2274159
50
214.3277601
51
272.2161974
0
ARC
8
DEFAULT_255_2_778
10
6.6665276
20
14.7226847
40
0.2916869
50
267.525551
51
298.0256597
0
ARC
8
DEFAULT_255_2_778
10
6.712439
20
14.6199628
40
0.179605
50
300.4948892
51
310.1448657
0
ARC
8
DEFAULT_255_2_778
10
6.6672438
20
14.6535424
40
0.2347668
50
313.2943848
51
347.3959789
0
ARC
8
DEFAULT_255_2_778
10
6.3927832
20
14.7407303
40
0.522247
50
344.6306221
51
351.2372872
0
LINE
8
DEFAULT_255_2_778
10
6.9092344
20
14.6611698
11
7.0462344
21
14.6611698
0
LINE
8
DEFAULT_255_2_778
10
6.2501344
20
14.8011698
11
6.2501344
21
14.9001698
0
LINE
8
DEFAULT_255_2_778
10
7.0457344
20
15.0329698
11
6.9086344
21
15.0329698
0
LINE
8
DEFAULT_255_2_778
10
6.3869344
20
14.8963698
11
6.3869344
21
14.7966698
0
LINE
8
DEFAULT_255_2_778
10
6.9089344
20
14.6611698
11
6.9092344
21
14.6611698
0
LINE
8
DEFAULT_255_2_778
10
7.3785698
20
15.3642469
11
7.3785698
21
14.3347469
0
LINE
8
DEFAULT_255_2_778
10
7.3785698
20
14.3347469
11
7.2422698
21
14.3347469
0
LINE
8
DEFAULT_255_2_778
10
7.2422698
20
14.3347469
11
7.2422698
21
15.3642469
0
LINE
8
DEFAULT_255_2_778
10
7.2422698
20
15.3642469
11
7.3785698
21
15.3642469
0
LINE
8
DEFAULT_255_2_778
10
7.3785698
20
15.3642469
11
7.3785698
21
15.3642469
0
LINE
8
DEFAULT_255_2_778
10
7.6762906
20
15.3642469
11
7.9701906
21
14.5152469
0
LINE
8
DEFAULT_255_2_778
10
7.9701906
20
14.5152469
11
8.2654906
21
15.3642469
0
LINE
8
DEFAULT_255_2_778
10
8.2654906
20
15.3642469
11
8.4146906
21
15.3642469
0
LINE
8
DEFAULT_255_2_778
10
8.4146906
20
15.3642469
11
8.0312906
21
14.3347469
0
LINE
8
DEFAULT_255_2_778
10
8.0312906
20
14.3347469
11
7.9106906
21
14.3347469
0
LINE
8
DEFAULT_255_2_778
10
7.9106906
20
14.3347469
11
7.5280906
21
15.3642469
0
LINE
8
DEFAULT_255_2_778
10
7.5280906
20
15.3642469
11
7.6764906
21
15.3642469
0
LINE
8
DEFAULT_255_2_778
10
7.6764906
20
15.3642469
11
7.6762906
21
15.3642469
0
ARC
8
DEFAULT_255_2_778
10
6.8550491
20
22.201437
40
0.4723035
50
60.9559645
51
91.1410458
0
ARC
8
DEFAULT_255_2_778
10
6.8861691
20
22.2662743
40
0.4005343
50
26.5567677
51
60.3450361
0
ARC
8
DEFAULT_255_2_778
10
6.7514717
20
22.2011857
40
0.5501237
50
359.2147966
51
26.3484727
0
ARC
8
DEFAULT_255_2_778
10
6.7492916
20
22.1156792
40
0.5523862
50
333.8750505
51
1.2621852
0
ARC
8
DEFAULT_255_2_778
10
6.8914532
20
22.050168
40
0.3959199
50
299.106743
51
333.3280482
0
ARC
8
DEFAULT_255_2_778
10
6.8463103
20
22.1440733
40
0.4999645
50
269.2932934
51
298.3919492
0
ARC
8
DEFAULT_255_2_778
10
6.848472
20
22.0791299
40
0.3244267
50
267.3626483
51
308.8510832
0
ARC
8
DEFAULT_255_2_778
10
6.8683112
20
22.0410216
40
0.2824302
50
310.5665618
51
318.1657761
0
ARC
8
DEFAULT_255_2_778
10
6.8051663
20
22.0837008
40
0.3580929
50
319.8167302
51
355.4930575
0
ARC
8
DEFAULT_255_2_778
10
6.5278061
20
22.1286301
40
0.6385403
50
353.4292431
51
0.1630128
0
ARC
8
DEFAULT_255_2_778
10
6.677317
20
22.2033529
40
0.4891944
50
358.4999488
51
21.9317916
0
ARC
8
DEFAULT_255_2_778
10
6.8506055
20
22.265933
40
0.3051461
50
23.1847743
51
40.238116
0
ARC
8
DEFAULT_255_2_778
10
6.8626331
20
22.2661325
40
0.2959337
50
41.7130384
51
92.6635416
0
LINE
8
DEFAULT_255_2_778
10
6.8398438
20
21.6441469
11
6.5538438
21
21.6441469
0
LINE
8
DEFAULT_255_2_778
10
6.5538438
20
21.6441469
11
6.5538438
21
22.6736469
0
LINE
8
DEFAULT_255_2_778
10
6.5538438
20
22.6736469
11
6.8456438
21
22.6736469
0
LINE
8
DEFAULT_255_2_778
10
7.3015438
20
22.1936469
11
7.3015438
21
22.1278469
0
LINE
8
DEFAULT_255_2_778
10
6.8401438
20
21.6441469
11
6.8398438
21
21.6441469
0
LINE
8
DEFAULT_255_2_778
10
6.8491438
20
22.5617469
11
6.6901438
21
22.5617469
0
LINE
8
DEFAULT_255_2_778
10
6.6901438
20
22.5617469
11
6.6901438
21
21.7550469
0
LINE
8
DEFAULT_255_2_778
10
6.6901438
20
21.7550469
11
6.8335438
21
21.7550469
0
LINE
8
DEFAULT_255_2_778
10
7.1663438
20
22.1304469
11
7.1663438
21
22.1905469
0
LINE
8
DEFAULT_255_2_778
10
6.8488438
20
22.5617469
11
6.8491438
21
22.5617469
0
ARC
8
DEFAULT_255_2_778
10
6.9945876
20
22.8920818
40
1.1290939
50
317.8191631
51
324.7825602
0
ARC
8
DEFAULT_255_2_778
10
7.5666301
20
22.484158
40
0.4265239
50
325.235974
51
331.3910759
0
ARC
8
DEFAULT_255_2_778
10
7.7278901
20
22.397146
40
0.2432902
50
331.1962374
51
359.8304535
0
ARC
8
DEFAULT_255_2_778
10
7.7867699
20
22.4034527
40
0.1845431
50
357.8178613
51
42.7522268
0
ARC
8
DEFAULT_255_2_778
10
7.7993883
20
22.4084451
40
0.1719583
50
44.3850664
51
92.6028656
0
ARC
8
DEFAULT_255_2_778
10
7.779386
20
22.3767169
40
0.2038741
50
86.5712331
51
133.4493059
0
ARC
8
DEFAULT_255_2_778
10
7.7962467
20
22.3827316
40
0.2117372
50
137.8853454
51
183.3859608
0
ARC
8
DEFAULT_255_2_778
10
7.7557742
20
22.3823181
40
0.302337
50
133.9931914
51
182.2921678
0
ARC
8
DEFAULT_255_2_778
10
7.772856
20
22.3494814
40
0.3379887
50
88.4133065
51
132.2098126
0
ARC
8
DEFAULT_255_2_778
10
7.7917492
20
22.1563964
40
0.5310297
50
89.9967697
51
91.0287876
0
ARC
8
DEFAULT_255_2_778
10
7.8052554
20
22.3358461
40
0.3518381
50
59.0696355
51
92.1950924
0
ARC
8
DEFAULT_255_2_778
10
7.8442159
20
22.4175824
40
0.2618408
50
47.9535865
51
57.189196
0
ARC
8
DEFAULT_255_2_778
10
7.8471668
20
22.42207
40
0.2565333
50
357.6220335
51
47.7717444
0
ARC
8
DEFAULT_255_2_778
10
7.7502433
20
22.424465
40
0.3534764
50
329.9996412
51
357.8860046
0
ARC
8
DEFAULT_255_2_778
10
7.2873562
20
22.671926
40
0.8782461
50
318.5516155
51
331.1178642
0
ARC
8
DEFAULT_255_2_778
10
6.8504079
20
23.0320286
40
1.4442592
50
317.1343657
51
319.3180902
0
LINE
8
DEFAULT_255_2_778
10
8.1505792
20
21.750826
11
8.1505792
21
21.644126
0
LINE
8
DEFAULT_255_2_778
10
8.1505792
20
21.644126
11
7.4732792
21
21.644126
0
LINE
8
DEFAULT_255_2_778
10
7.4732792
20
21.644126
11
7.4732792
21
21.738126
0
LINE
8
DEFAULT_255_2_778
10
7.4732792
20
21.738126
11
7.8312792
21
22.133926
0
LINE
8
DEFAULT_255_2_778
10
7.5848792
20
22.370226
11
7.4536792
21
22.370226
0
LINE
8
DEFAULT_255_2_778
10
7.9089792
20
22.049526
11
7.6319792
21
21.750526
0
LINE
8
DEFAULT_255_2_778
10
7.6319792
20
21.750526
11
8.1510792
21
21.750526
0
LINE
8
DEFAULT_255_2_778
10
8.1510792
20
21.750526
11
8.1505792
21
21.750826
0
ARC
8
DEFAULT_255_2_778
10
6.8550491
20
29.510837
40
0.4723035
50
60.9559645
51
91.1410458
0
ARC
8
DEFAULT_255_2_778
10
6.8861691
20
29.5756743
40
0.4005343
50
26.5567677
51
60.3450361
0
ARC
8
DEFAULT_255_2_778
10
6.7514717
20
29.5105857
40
0.5501237
50
359.2147966
51
26.3484727
0
ARC
8
DEFAULT_255_2_778
10
6.7492916
20
29.4250792
40
0.5523862
50
333.8750505
51
1.2621852
0
ARC
8
DEFAULT_255_2_778
10
6.8914532
20
29.359568
40
0.3959199
50
299.106743
51
333.3280482
0
ARC
8
DEFAULT_255_2_778
10
6.8463103
20
29.4534733
40
0.4999645
50
269.2932934
51
298.3919492
0
ARC
8
DEFAULT_255_2_778
10
6.848472
20
29.3885299
40
0.3244267
50
267.3626483
51
308.8510832
0
ARC
8
DEFAULT_255_2_778
10
6.8683112
20
29.3504216
40
0.2824302
50
310.5665618
51
318.1657761
0
ARC
8
DEFAULT_255_2_778
10
6.8051663
20
29.3931008
40
0.3580929
50
319.8167302
51
355.4930575
0
ARC
8
DEFAULT_255_2_778
10
6.5278061
20
29.4380301
40
0.6385403
50
353.4292431
51
0.1630128
0
ARC
8
DEFAULT_255_2_778
10
6.677317
20
29.5127529
40
0.4891944
50
358.4999488
51
21.9317916
0
ARC
8
DEFAULT_255_2_778
10
6.8506055
20
29.575333
40
0.3051461
50
23.1847743
51
40.238116
0
ARC
8
DEFAULT_255_2_778
10
6.8626331
20
29.5755325
40
0.2959337
50
41.7130384
51
92.6635416
0
LINE
8
DEFAULT_255_2_778
10
6.8398438
20
28.9535469
11
6.5538438
21
28.9535469
0
LINE
8
DEFAULT_255_2_778
10
6.5538438
20
28.9535469
11
6.5538438
21
29.9830469
0
LINE
8
DEFAULT_255_2_778
10
6.5538438
20
29.9830469
11
6.8456438
21
29.9830469
0
LINE
8
DEFAULT_255_2_778
10
7.3015438
20
29.5030469
11
7.3015438
21
29.4372469
0
LINE
8
DEFAULT_255_2_778
10
6.8401438
20
28.9535469
11
6.8398438
21
28.9535469
0
LINE
8
DEFAULT_255_2_778
10
6.8491438
20
29.8711469
11
6.6901438
21
29.8711469
0
LINE
8
DEFAULT_255_2_778
10
6.6901438
20
29.8711469
11
6.6901438
21
29.0644469
0
LINE
8
DEFAULT_255_2_778
10
6.6901438
20
29.0644469
11
6.8335438
21
29.0644469
0
LINE
8
DEFAULT_255_2_778
10
7.1663438
20
29.4398469
11
7.1663438
21
29.4999469
0
LINE
8
DEFAULT_255_2_778
10
6.8488438
20
29.8711469
11
6.8491438
21
29.8711469
0
ARC
8
DEFAULT_255_2_778
10
7.2186922
20
29.3804016
40
0.902928
50
348.1640717
51
0.7805548
0
ARC
8
DEFAULT_255_2_778
10
7.7086677
20
29.2742719
40
0.4016158
50
326.2596032
51
348.6454974
0
ARC
8
DEFAULT_255_2_778
10
7.8226143
20
29.2129703
40
0.2730911
50
268.8067979
51
323.675332
0
ARC
8
DEFAULT_255_2_778
10
7.7965088
20
29.4175856
40
0.4780834
50
269.9793432
51
272.4478125
0
ARC
8
DEFAULT_255_2_778
10
7.782356
20
29.2512815
40
0.3120927
50
234.9903617
51
272.5674792
0
ARC
8
DEFAULT_255_2_778
10
7.7550634
20
29.1960457
40
0.2513669
50
215.857521
51
232.8619874
0
ARC
8
DEFAULT_255_2_778
10
7.8957681
20
29.2847898
40
0.4175205
50
189.4162838
51
214.4170325
0
ARC
8
DEFAULT_255_2_778
10
8.3531134
20
29.3777934
40
0.8840813
50
180.1809031
51
190.5132892
0
ARC
8
DEFAULT_255_2_778
10
8.3493846
20
29.5619522
40
0.8804348
50
167.9249794
51
180.8037309
0
ARC
8
DEFAULT_255_2_778
10
7.8728678
20
29.6669708
40
0.3925036
50
145.903813
51
168.3645808
0
ARC
8
DEFAULT_255_2_778
10
7.7667605
20
29.7232495
40
0.273391
50
89.4708712
51
143.2039446
0
ARC
8
DEFAULT_255_2_778
10
7.794778
20
29.5144769
40
0.4828254
50
89.9693331
51
93.0265786
0
ARC
8
DEFAULT_255_2_778
10
7.8084031
20
29.6701037
40
0.3274712
50
58.4841175
51
92.3393351
0
ARC
8
DEFAULT_255_2_778
10
7.8449778
20
29.746692
40
0.2432225
50
36.3640766
51
56.3975351
0
ARC
8
DEFAULT_255_2_778
10
7.7121588
20
29.6636548
40
0.3995877
50
9.4588048
51
34.6599186
0
ARC
8
DEFAULT_255_2_778
10
7.217883
20
29.5630629
40
0.9038535
50
359.9707884
51
10.5996443
0
ARC
8
DEFAULT_255_2_778
10
7.2637923
20
29.5836299
40
0.7265438
50
359.0514313
51
11.5461816
0
ARC
8
DEFAULT_255_2_778
10
7.7030024
20
29.6738023
40
0.2781734
50
11.4563015
51
30.1935474
0
ARC
8
DEFAULT_255_2_778
10
7.806263
20
29.7285261
40
0.1614667
50
31.8376385
51
93.986913
0
ARC
8
DEFAULT_255_2_778
10
7.7839115
20
29.7308069
40
0.1591844
50
85.9924871
51
148.5331133
0
ARC
8
DEFAULT_255_2_778
10
7.9463369
20
29.6491907
40
0.340666
50
151.0858907
51
174.1903915
0
ARC
8
DEFAULT_255_2_778
10
8.4168056
20
29.5778229
40
0.8162771
50
172.5491605
51
179.7487718
0
ARC
8
DEFAULT_255_2_778
10
8.3169433
20
29.3602377
40
0.7165051
50
179.0512185
51
191.9421298
0
ARC
8
DEFAULT_255_2_778
10
7.8996426
20
29.2720574
40
0.2899894
50
191.9574431
51
210.2880253
0
ARC
8
DEFAULT_255_2_778
10
7.7884527
20
29.2071202
40
0.161226
50
210.2897829
51
272.9095449
0
ARC
8
DEFAULT_255_2_778
10
7.8060696
20
29.2045605
40
0.158739
50
266.5931597
51
328.2382046
0
ARC
8
DEFAULT_255_2_778
10
7.6528639
20
29.2850817
40
0.3316106
50
330.3436881
51
353.6081526
0
ARC
8
DEFAULT_255_2_778
10
7.1613402
20
29.36415
40
0.8292246
50
351.9595314
51
359.5268294
0
LINE
8
DEFAULT_255_2_778
10
8.1215365
20
29.5623021
11
8.1215365
21
29.3927021
0
LINE
8
DEFAULT_255_2_778
10
7.4690365
20
29.3750021
11
7.4690365
21
29.5496021
0
LINE
8
DEFAULT_255_2_778
10
8.1217365
20
29.5626021
11
8.1215365
21
29.5623021
0
LINE
8
DEFAULT_255_2_778
10
7.9902365
20
29.3573021
11
7.9902365
21
29.5716021
0
LINE
8
DEFAULT_255_2_778
10
7.6005365
20
29.5814021
11
7.6005365
21
29.3721021
0
LINE
8
DEFAULT_255_2_778
10
7.9905365
20
29.3573021
11
7.9902365
21
29.3573021
0
ARC
8
DEFAULT_255_2_778
10
6.8550491
20
25.855837
40
0.4723035
50
60.9559645
51
91.1410458
0
ARC
8
DEFAULT_255_2_778
10
6.8861691
20
25.9206743
40
0.4005343
50
26.5567677
51
60.3450361
0
ARC
8
DEFAULT_255_2_778
10
6.7514717
20
25.8555857
40
0.5501237
50
359.2147966
51
26.3484727
0
ARC
8
DEFAULT_255_2_778
10
6.7492916
20
25.7700792
40
0.5523862
50
333.8750505
51
1.2621852
0
ARC
8
DEFAULT_255_2_778
10
6.8914532
20
25.704568
40
0.3959199
50
299.106743
51
333.3280482
0
ARC
8
DEFAULT_255_2_778
10
6.8463103
20
25.7984733
40
0.4999645
50
269.2932934
51
298.3919492
0
ARC
8
DEFAULT_255_2_778
10
6.848472
20
25.7335299
40
0.3244267
50
267.3626483
51
308.8510832
0
ARC
8
DEFAULT_255_2_778
10
6.8683112
20
25.6954216
40
0.2824302
50
310.5665618
51
318.1657761
0
ARC
8
DEFAULT_255_2_778
10
6.8051663
20
25.7381008
40
0.3580929
50
319.8167302
51
355.4930575
0
ARC
8
DEFAULT_255_2_778
10
6.5278061
20
25.7830301
40
0.6385403
50
353.4292431
51
0.1630128
0
ARC
8
DEFAULT_255_2_778
10
6.677317
20
25.8577529
40
0.4891944
50
358.4999488
51
21.9317916
0
ARC
8
DEFAULT_255_2_778
10
6.8506055
20
25.920333
40
0.3051461
50
23.1847743
51
40.238116
0
ARC
8
DEFAULT_255_2_778
10
6.8626331
20
25.9205325
40
0.2959337
50
41.7130384
51
92.6635416
0
LINE
8
DEFAULT_255_2_778
10
6.8398438
20
25.2985469
11
6.5538438
21
25.2985469
0
LINE
8
DEFAULT_255_2_778
10
6.5538438
20
25.2985469
11
6.5538438
21
26.3280469
0
LINE
8
DEFAULT_255_2_778
10
6.5538438
20
26.3280469
11
6.8456438
21
26.3280469
0
LINE
8
DEFAULT_255_2_778
10
7.3015438
20
25.8480469
11
7.3015438
21
25.7822469
0
LINE
8
DEFAULT_255_2_778
10
6.8401438
20
25.2985469
11
6.8398438
21
25.2985469
0
LINE
8
DEFAULT_255_2_778
10
6.8491438
20
26.2161469
11
6.6901438
21
26.2161469
0
LINE
8
DEFAULT_255_2_778
10
6.6901438
20
26.2161469
11
6.6901438
21
25.4094469
0
LINE
8
DEFAULT_255_2_778
10
6.6901438
20
25.4094469
11
6.8335438
21
25.4094469
0
LINE
8
DEFAULT_255_2_778
10
7.1663438
20
25.7848469
11
7.1663438
21
25.8449469
0
LINE
8
DEFAULT_255_2_778
10
6.8488438
20
26.2161469
11
6.8491438
21
26.2161469
0
LINE
8
DEFAULT_255_2_778
10
7.9051625
20
26.3330604
11
7.9051625
21
25.2988604
0
LINE
8
DEFAULT_255_2_778
10
7.9051625
20
25.2988604
11
7.7730625
21
25.2988604
0
LINE
8
DEFAULT_255_2_778
10
7.7730625
20
25.2988604
11
7.7730625
21
26.1706604
0
LINE
8
DEFAULT_255_2_778
10
7.7730625
20
26.1706604
11
7.5082625
21
26.0737604
0
LINE
8
DEFAULT_255_2_778
10
7.5082625
20
26.0737604
11
7.5082625
21
26.1925604
0
LINE
8
DEFAULT_255_2_778
10
7.5082625
20
26.1925604
11
7.8844625
21
26.3333604
0
LINE
8
DEFAULT_255_2_778
10
7.8844625
20
26.3333604
11
7.9051625
21
26.3333604
0
LINE
8
DEFAULT_255_2_778
10
7.9051625
20
26.3333604
11
7.9051625
21
26.3330604
0
ARC
8
DEFAULT_255_2_778
10
6.7665054
20
32.9657565
40
0.3947786
50
319.9748405
51
355.4399096
0
ARC
8
DEFAULT_255_2_778
10
6.8250096
20
32.9281147
40
0.3258887
50
311.0285366
51
318.4273541
0
ARC
8
DEFAULT_255_2_778
10
6.7947509
20
32.9778349
40
0.3833853
50
270.737512
51
309.562088
0
ARC
8
DEFAULT_255_2_778
10
6.7682339
20
33.2035939
40
0.6099241
50
269.971862
51
272.9558653
0
ARC
8
DEFAULT_255_2_778
10
6.7545599
20
32.9589568
40
0.3655318
50
219.9238681
51
272.096864
0
ARC
8
DEFAULT_255_2_778
10
6.8491111
20
33.0276286
40
0.482181
50
184.6027979
51
218.9713413
0
ARC
8
DEFAULT_255_2_778
10
7.136549
20
33.0726871
40
0.7726165
50
179.8752183
51
186.2231458
0
ARC
8
DEFAULT_255_2_778
10
6.9475025
20
33.1855411
40
0.583695
50
155.6967924
51
181.194831
0
ARC
8
DEFAULT_255_2_778
10
6.7670442
20
33.2664193
40
0.3859426
50
122.2087987
51
155.613722
0
ARC
8
DEFAULT_255_2_778
10
6.7714348
20
33.2434474
40
0.4078089
50
88.8198062
51
121.0103838
0
ARC
8
DEFAULT_255_2_778
10
6.7940722
20
33.2569255
40
0.3945013
50
57.3290424
51
92.0682878
0
ARC
8
DEFAULT_255_2_778
10
6.8267881
20
33.3244222
40
0.3201466
50
47.291314
51
55.736768
0
ARC
8
DEFAULT_255_2_778
10
6.7820679
20
33.2878379
40
0.3774475
50
4.3123967
51
46.0697223
0
ARC
8
DEFAULT_255_2_778
10
6.5852184
20
33.2491018
40
0.5771443
50
5.6746723
51
6.6782308
0
ARC
8
DEFAULT_255_2_778
10
6.6685792
20
33.2676788
40
0.3559425
50
6.2079989
51
30.4103945
0
ARC
8
DEFAULT_255_2_778
10
6.8175752
20
33.3478412
40
0.1869733
50
32.3372012
51
46.8138254
0
ARC
8
DEFAULT_255_2_778
10
6.7948552
20
33.306921
40
0.23264
50
49.6321372
51
92.9323383
0
ARC
8
DEFAULT_255_2_778
10
6.7796152
20
33.1232822
40
0.4159876
50
89.5401114
51
89.9973533
0
ARC
8
DEFAULT_255_2_778
10
6.7691788
20
33.2952757
40
0.244218
50
87.5462815
51
142.729253
0
ARC
8
DEFAULT_255_2_778
10
6.8752381
20
33.226372
40
0.3704641
50
144.1824714
51
174.3154945
0
ARC
8
DEFAULT_255_2_778
10
7.2009736
20
33.1726066
40
0.7002454
50
172.5775904
51
180.2403018
0
ARC
8
DEFAULT_255_2_778
10
7.0302875
20
33.0571727
40
0.5297053
50
178.6264813
51
200.4635682
0
ARC
8
DEFAULT_255_2_778
10
6.8404873
20
32.993741
40
0.3297788
50
201.6672468
51
215.237427
0
ARC
8
DEFAULT_255_2_778
10
6.7589401
20
32.9317156
40
0.2274159
50
214.3277601
51
272.2161974
0
ARC
8
DEFAULT_255_2_778
10
6.7803276
20
32.9958847
40
0.2916869
50
267.525551
51
298.0256597
0
ARC
8
DEFAULT_255_2_778
10
6.826239
20
32.8931628
40
0.179605
50
300.4948892
51
310.1448657
0
ARC
8
DEFAULT_255_2_778
10
6.7810438
20
32.9267424
40
0.2347668
50
313.2943848
51
347.3959789
0
ARC
8
DEFAULT_255_2_778
10
6.5065832
20
33.0139303
40
0.522247
50
344.6306221
51
351.2372872
0
LINE
8
DEFAULT_255_2_778
10
7.0230344
20
32.9343698
11
7.1600344
21
32.9343698
0
LINE
8
DEFAULT_255_2_778
10
6.3639344
20
33.0743698
11
6.3639344
21
33.1733698
0
LINE
8
DEFAULT_255_2_778
10
7.1595344
20
33.3061698
11
7.0224344
21
33.3061698
0
LINE
8
DEFAULT_255_2_778
10
6.5007344
20
33.1696698
11
6.5007344
21
33.0698698
0
LINE
8
DEFAULT_255_2_778
10
7.0227344
20
32.9343698
11
7.0230344
21
32.9343698
0
LINE
8
DEFAULT_255_2_778
10
7.4923698
20
33.6374469
11
7.4923698
21
32.6079469
0
LINE
8
DEFAULT_255_2_778
10
7.4923698
20
32.6079469
11
7.3560698
21
32.6079469
0
LINE
8
DEFAULT_255_2_778
10
7.3560698
20
32.6079469
11
7.3560698
21
33.6374469
0
LINE
8
DEFAULT_255_2_778
10
7.3560698
20
33.6374469
11
7.4923698
21
33.6374469
0
LINE
8
DEFAULT_255_2_778
10
7.4923698
20
33.6374469
11
7.4923698
21
33.6374469
0
LINE
8
DEFAULT_255_2_778
10
7.8879698
20
33.6374469
11
7.8879698
21
32.6079469
0
LINE
8
DEFAULT_255_2_778
10
7.8879698
20
32.6079469
11
7.7516698
21
32.6079469
0
LINE
8
DEFAULT_255_2_778
10
7.7516698
20
32.6079469
11
7.7516698
21
33.6374469
0
LINE
8
DEFAULT_255_2_778
10
7.7516698
20
33.6374469
11
7.8879698
21
33.6374469
0
LINE
8
DEFAULT_255_2_778
10
7.8879698
20
33.6374469
11
7.8879698
21
33.6374469
0
LINE
8
DEFAULT_255_2_778
10
8.2831698
20
33.6374469
11
8.2831698
21
32.6079469
0
LINE
8
DEFAULT_255_2_778
10
8.2831698
20
32.6079469
11
8.1468698
21
32.6079469
0
LINE
8
DEFAULT_255_2_778
10
8.1468698
20
32.6079469
11
8.1468698
21
33.6374469
0
LINE
8
DEFAULT_255_2_778
10
8.1468698
20
33.6374469
11
8.2831698
21
33.6374469
0
LINE
8
DEFAULT_255_2_778
10
8.2831698
20
33.6374469
11
8.2831698
21
33.6374469
0
ARC
8
DEFAULT_255_2_778
10
6.9207054
20
36.6204565
40
0.3947786
50
319.9748405
51
355.4399096
0
ARC
8
DEFAULT_255_2_778
10
6.9792096
20
36.5828147
40
0.3258887
50
311.0285366
51
318.4273541
0
ARC
8
DEFAULT_255_2_778
10
6.9489509
20
36.6325349
40
0.3833853
50
270.737512
51
309.562088
0
ARC
8
DEFAULT_255_2_778
10
6.9224339
20
36.8582939
40
0.6099241
50
269.971862
51
272.9558653
0
ARC
8
DEFAULT_255_2_778
10
6.9087599
20
36.6136568
40
0.3655318
50
219.9238681
51
272.096864
0
ARC
8
DEFAULT_255_2_778
10
7.0033111
20
36.6823286
40
0.482181
50
184.6027979
51
218.9713413
0
ARC
8
DEFAULT_255_2_778
10
7.290749
20
36.7273871
40
0.7726165
50
179.8752183
51
186.2231458
0
ARC
8
DEFAULT_255_2_778
10
7.1017025
20
36.8402411
40
0.583695
50
155.6967924
51
181.194831
0
ARC
8
DEFAULT_255_2_778
10
6.9194796
20
36.9226581
40
0.3837007
50
122.1083173
51
155.7142034
0
ARC
8
DEFAULT_255_2_778
10
6.9257963
20
36.8975846
40
0.4083745
50
88.8019965
51
120.9891122
0
ARC
8
DEFAULT_255_2_778
10
6.9485896
20
36.9121124
40
0.3940153
50
57.2287465
51
92.0733749
0
ARC
8
DEFAULT_255_2_778
10
6.9810858
20
36.9790114
40
0.3202976
50
47.2913053
51
55.6387275
0
ARC
8
DEFAULT_255_2_778
10
6.9361993
20
36.9422664
40
0.3778294
50
4.3493211
51
46.0689495
0
ARC
8
DEFAULT_255_2_778
10
6.737326
20
36.9031878
40
0.5795858
50
5.7116888
51
6.7110855
0
ARC
8
DEFAULT_255_2_778
10
6.8236312
20
36.9224494
40
0.355386
50
6.2063041
51
30.4498429
0
ARC
8
DEFAULT_255_2_778
10
6.9720851
20
37.0024223
40
0.1869849
50
32.3780511
51
46.8632925
0
ARC
8
DEFAULT_255_2_778
10
6.9493351
20
36.9618562
40
0.232409
50
49.6095808
51
92.9542217
0
ARC
8
DEFAULT_255_2_778
10
6.9340152
20
36.7772443
40
0.4167254
50
89.5405004
51
89.9973557
0
ARC
8
DEFAULT_255_2_778
10
6.9235788
20
36.9499757
40
0.244218
50
87.5462815
51
142.729253
0
ARC
8
DEFAULT_255_2_778
10
7.0300314
20
36.8811115
40
0.37076
50
144.2229863
51
174.3261738
0
ARC
8
DEFAULT_255_2_778
10
7.356371
20
36.8273084
40
0.7011429
50
172.5872887
51
180.2401369
0
ARC
8
DEFAULT_255_2_778
10
7.185462
20
36.7118676
40
0.5303797
50
178.6276756
51
200.4357909
0
ARC
8
DEFAULT_255_2_778
10
6.9951338
20
36.6483382
40
0.329921
50
201.6382344
51
215.1981478
0
ARC
8
DEFAULT_255_2_778
10
6.9134221
20
36.5865784
40
0.2275754
50
214.3499741
51
272.1939834
0
ARC
8
DEFAULT_255_2_778
10
6.9347039
20
36.6509565
40
0.2920573
50
267.5333602
51
298.0069382
0
ARC
8
DEFAULT_255_2_778
10
6.9805294
20
36.5483354
40
0.1801013
50
300.4667654
51
310.0989369
0
ARC
8
DEFAULT_255_2_778
10
6.9355438
20
36.5814424
40
0.2347668
50
313.2943848
51
347.3959789
0
ARC
8
DEFAULT_255_2_778
10
6.6610832
20
36.6686303
40
0.522247
50
344.6306221
51
351.2372872
0
LINE
8
DEFAULT_255_2_778
10
7.1772344
20
36.5890698
11
7.3142344
21
36.5890698
0
LINE
8
DEFAULT_255_2_778
10
6.5181344
20
36.7290698
11
6.5181344
21
36.8280698
0
LINE
8
DEFAULT_255_2_778
10
7.3140344
20
36.9608698
11
7.1769344
21
36.9608698
0
LINE
8
DEFAULT_255_2_778
10
6.6552344
20
36.8243698
11
6.6552344
21
36.7245698
0
LINE
8
DEFAULT_255_2_778
10
7.1772344
20
36.5890698
11
7.1772344
21
36.5890698
0
ARC
8
DEFAULT_255_2_778
10
7.7649443
20
37.0578185
40
0.2172084
50
267.590761
51
309.1616069
0
ARC
8
DEFAULT_255_2_778
10
7.7925417
20
37.0100043
40
0.1629445
50
312.2563768
51
2.6373461
0
ARC
8
DEFAULT_255_2_778
10
7.765352
20
37.0303965
40
0.1903987
50
356.11677
51
37.9242232
0
ARC
8
DEFAULT_255_2_778
10
7.7923585
20
37.0248703
40
0.1737603
50
44.8517708
51
93.0160622
0
ARC
8
DEFAULT_255_2_778
10
7.7743763
20
36.8502429
40
0.3482591
50
88.5455325
51
90.0103172
0
ARC
8
DEFAULT_255_2_778
10
7.7648731
20
37.0097547
40
0.1889833
50
87.1366488
51
132.0428448
0
ARC
8
DEFAULT_255_2_778
10
7.756655
20
37.0290324
40
0.1693002
50
134.3471156
51
182.4815539
0
ARC
8
DEFAULT_255_2_778
10
7.7183254
20
37.0274388
40
0.2620747
50
131.1088404
51
181.2542838
0
ARC
8
DEFAULT_255_2_778
10
7.7619742
20
36.9784468
40
0.3276877
50
87.841974
51
131.2270215
0
ARC
8
DEFAULT_255_2_778
10
7.7877403
20
36.952984
40
0.3531734
50
59.7154655
51
92.1787647
0
ARC
8
DEFAULT_255_2_778
10
7.8285586
20
37.039838
40
0.2577296
50
47.1869983
51
57.8139
0
ARC
8
DEFAULT_255_2_778
10
7.8095697
20
37.0303561
40
0.2776911
50
356.7477407
51
45.6422696
0
ARC
8
DEFAULT_255_2_778
10
7.861239
20
37.0178797
40
0.2255984
50
323.7250828
51
359.1675518
0
ARC
8
DEFAULT_255_2_778
10
7.8284529
20
37.0338841
40
0.2615799
50
291.4979474
51
325.148026
0
ARC
8
DEFAULT_255_2_778
10
7.8542163
20
36.5449555
40
0.2553562
50
37.7537362
51
74.0673159
0
ARC
8
DEFAULT_255_2_778
10
7.8566629
20
36.5570063
40
0.2461744
50
358.183303
51
35.8844566
0
ARC
8
DEFAULT_255_2_778
10
7.8226523
20
36.5361472
40
0.2803654
50
312.4582043
51
2.6688701
0
ARC
8
DEFAULT_255_2_778
10
7.79058
20
36.5889393
40
0.3411745
50
267.4521542
51
310.4466776
0
ARC
8
DEFAULT_255_2_778
10
7.7600787
20
36.5979358
40
0.3501697
50
230.8064905
51
272.5099358
0
LINE
8
DEFAULT_255_2_778
10
7.5387919
20
36.3265486
11
7.5386136
21
36.3267021
0
ARC
8
DEFAULT_255_2_778
10
7.7070869
20
36.5246483
40
0.2599346
50
177.9818792
51
229.5986722
0
ARC
8
DEFAULT_255_2_778
10
7.7473714
20
36.5265965
40
0.1682123
50
177.5449134
51
226.9359846
0
ARC
8
DEFAULT_255_2_778
10
7.7647361
20
36.5577414
40
0.2030048
50
229.3582333
51
272.9301833
0
ARC
8
DEFAULT_255_2_778
10
7.7887679
20
36.5535758
40
0.1990426
50
266.0664226
51
311.3322838
0
ARC
8
DEFAULT_255_2_778
10
7.8264625
20
36.4999189
40
0.1340477
50
314.3820421
51
314.6174458
0
ARC
8
DEFAULT_255_2_778
10
7.7821276
20
36.5338652
40
0.1895077
50
316.9507022
51
3.8234643
0
ARC
8
DEFAULT_255_2_778
10
7.798451
20
36.5572597
40
0.1730972
50
356.4368833
51
47.2661907
0
ARC
8
DEFAULT_255_2_778
10
7.774719
20
36.5046706
40
0.2285592
50
51.847315
51
89.8606456
0
ARC
8
DEFAULT_255_2_778
10
7.7505332
20
36.3017789
40
0.4321591
50
86.7179477
51
89.2601367
0
LINE
8
DEFAULT_255_2_778
10
7.6571136
20
36.7341021
11
7.6571136
21
36.8408021
0
LINE
8
DEFAULT_255_2_778
10
7.6571136
20
36.8408021
11
7.7558136
21
36.8408021
0
LINE
8
DEFAULT_255_2_778
10
7.5875136
20
37.0217021
11
7.4563136
21
37.0217021
0
LINE
8
DEFAULT_255_2_778
10
7.4473136
20
36.5338021
11
7.5793136
21
36.5338021
0
LINE
8
DEFAULT_255_2_778
10
7.7561136
20
36.7339021
11
7.6574136
21
36.7339021
0
LINE
8
DEFAULT_255_2_778
10
7.6574136
20
36.7339021
11
7.6571136
21
36.7341021
0
ARC
8
DEFAULT_255_2_778
10
6.9958054
20
51.2392565
40
0.3947786
50
319.9748405
51
355.4399096
0
ARC
8
DEFAULT_255_2_778
10
7.0543096
20
51.2016147
40
0.3258887
50
311.0285366
51
318.4273541
0
ARC
8
DEFAULT_255_2_778
10
7.0240509
20
51.2513349
40
0.3833853
50
270.737512
51
309.562088
0
ARC
8
DEFAULT_255_2_778
10
6.9975339
20
51.4770939
40
0.6099241
50
269.971862
51
272.9558653
0
ARC
8
DEFAULT_255_2_778
10
6.9838599
20
51.2324568
40
0.3655318
50
219.9238681
51
272.096864
0
ARC
8
DEFAULT_255_2_778
10
7.0784111
20
51.3011286
40
0.482181
50
184.6027979
51
218.9713413
0
ARC
8
DEFAULT_255_2_778
10
7.365849
20
51.3461871
40
0.7726165
50
179.8752183
51
186.2231458
0
ARC
8
DEFAULT_255_2_778
10
7.1768025
20
51.4590411
40
0.583695
50
155.6967924
51
181.194831
0
ARC
8
DEFAULT_255_2_778
10
6.9963442
20
51.5399193
40
0.3859426
50
122.2087987
51
155.613722
0
ARC
8
DEFAULT_255_2_778
10
7.0007348
20
51.5169474
40
0.4078089
50
88.8198062
51
121.0103838
0
ARC
8
DEFAULT_255_2_778
10
7.0233722
20
51.5304255
40
0.3945013
50
57.3290424
51
92.0682878
0
ARC
8
DEFAULT_255_2_778
10
7.0560881
20
51.5979222
40
0.3201466
50
47.291314
51
55.736768
0
ARC
8
DEFAULT_255_2_778
10
7.0113679
20
51.5613379
40
0.3774475
50
4.3123967
51
46.0697223
0
ARC
8
DEFAULT_255_2_778
10
6.8145184
20
51.5226018
40
0.5771443
50
5.6746723
51
6.6782308
0
ARC
8
DEFAULT_255_2_778
10
6.8978792
20
51.5411788
40
0.3559425
50
6.2079989
51
30.4103945
0
ARC
8
DEFAULT_255_2_778
10
7.0468752
20
51.6213412
40
0.1869733
50
32.3372012
51
46.8138254
0
ARC
8
DEFAULT_255_2_778
10
7.0241552
20
51.580421
40
0.23264
50
49.6321372
51
92.9323383
0
ARC
8
DEFAULT_255_2_778
10
7.0089152
20
51.3967822
40
0.4159876
50
89.5401114
51
89.9973533
0
ARC
8
DEFAULT_255_2_778
10
6.9984788
20
51.5687757
40
0.244218
50
87.5462815
51
142.729253
0
ARC
8
DEFAULT_255_2_778
10
7.1045381
20
51.499872
40
0.3704641
50
144.1824714
51
174.3154945
0
ARC
8
DEFAULT_255_2_778
10
7.4302736
20
51.4461066
40
0.7002454
50
172.5775904
51
180.2403018
0
ARC
8
DEFAULT_255_2_778
10
7.2595875
20
51.3306727
40
0.5297053
50
178.6264813
51
200.4635682
0
ARC
8
DEFAULT_255_2_778
10
7.0697873
20
51.267241
40
0.3297788
50
201.6672468
51
215.237427
0
ARC
8
DEFAULT_255_2_778
10
6.9882401
20
51.2052156
40
0.2274159
50
214.3277601
51
272.2161974
0
ARC
8
DEFAULT_255_2_778
10
7.0096276
20
51.2693847
40
0.2916869
50
267.525551
51
298.0256597
0
ARC
8
DEFAULT_255_2_778
10
7.055539
20
51.1666628
40
0.179605
50
300.4948892
51
310.1448657
0
ARC
8
DEFAULT_255_2_778
10
7.0103438
20
51.2002424
40
0.2347668
50
313.2943848
51
347.3959789
0
ARC
8
DEFAULT_255_2_778
10
6.7358832
20
51.2874303
40
0.522247
50
344.6306221
51
351.2372872
0
LINE
8
DEFAULT_255_2_778
10
7.2523344
20
51.2078698
11
7.3893344
21
51.2078698
0
LINE
8
DEFAULT_255_2_778
10
6.5932344
20
51.3478698
11
6.5932344
21
51.4468698
0
LINE
8
DEFAULT_255_2_778
10
7.3888344
20
51.5796698
11
7.2517344
21
51.5796698
0
LINE
8
DEFAULT_255_2_778
10
6.7300344
20
51.4431698
11
6.7300344
21
51.3433698
0
LINE
8
DEFAULT_255_2_778
10
7.2520344
20
51.2078698
11
7.2523344
21
51.2078698
0
LINE
8
DEFAULT_255_2_778
10
7.7217698
20
51.9108469
11
7.7217698
21
50.8813469
0
LINE
8
DEFAULT_255_2_778
10
7.7217698
20
50.8813469
11
7.5854698
21
50.8813469
0
LINE
8
DEFAULT_255_2_778
10
7.5854698
20
50.8813469
11
7.5854698
21
51.9108469
0
LINE
8
DEFAULT_255_2_778
10
7.5854698
20
51.9108469
11
7.7217698
21
51.9108469
0
LINE
8
DEFAULT_255_2_778
10
7.7217698
20
51.9108469
11
7.7217698
21
51.9108469
0
LINE
8
DEFAULT_255_2_778
10
8.1173698
20
51.9108469
11
8.1173698
21
50.8813469
0
LINE
8
DEFAULT_255_2_778
10
8.1173698
20
50.8813469
11
7.9810698
21
50.8813469
0
LINE
8
DEFAULT_255_2_778
10
7.9810698
20
50.8813469
11
7.9810698
21
51.9108469
0
LINE
8
DEFAULT_255_2_778
10
7.9810698
20
51.9108469
11
8.1173698
21
51.9108469
0
LINE
8
DEFAULT_255_2_778
10
8.1173698
20
51.9108469
11
8.1173698
21
51.9108469
0
ARC
8
DEFAULT_255_2_778
10
6.9207054
20
40.2751565
40
0.3947786
50
319.9748405
51
355.4399096
0
ARC
8
DEFAULT_255_2_778
10
6.9792096
20
40.2375147
40
0.3258887
50
311.0285366
51
318.4273541
0
ARC
8
DEFAULT_255_2_778
10
6.9489509
20
40.2872349
40
0.3833853
50
270.737512
51
309.562088
0
ARC
8
DEFAULT_255_2_778
10
6.9224339
20
40.5129939
40
0.6099241
50
269.971862
51
272.9558653
0
ARC
8
DEFAULT_255_2_778
10
6.9087599
20
40.2683568
40
0.3655318
50
219.9238681
51
272.096864
0
ARC
8
DEFAULT_255_2_778
10
7.0033111
20
40.3370286
40
0.482181
50
184.6027979
51
218.9713413
0
ARC
8
DEFAULT_255_2_778
10
7.290749
20
40.3820871
40
0.7726165
50
179.8752183
51
186.2231458
0
ARC
8
DEFAULT_255_2_778
10
7.1017025
20
40.4949411
40
0.583695
50
155.6967924
51
181.194831
0
ARC
8
DEFAULT_255_2_778
10
6.9194796
20
40.5773581
40
0.3837007
50
122.1083173
51
155.7142034
0
ARC
8
DEFAULT_255_2_778
10
6.9257963
20
40.5522846
40
0.4083745
50
88.8019965
51
120.9891122
0
ARC
8
DEFAULT_255_2_778
10
6.9485896
20
40.5668124
40
0.3940153
50
57.2287465
51
92.0733749
0
ARC
8
DEFAULT_255_2_778
10
6.9810858
20
40.6337114
40
0.3202976
50
47.2913053
51
55.6387275
0
ARC
8
DEFAULT_255_2_778
10
6.9361993
20
40.5969664
40
0.3778294
50
4.3493211
51
46.0689495
0
ARC
8
DEFAULT_255_2_778
10
6.737326
20
40.5578878
40
0.5795858
50
5.7116888
51
6.7110855
0
ARC
8
DEFAULT_255_2_778
10
6.8236312
20
40.5771494
40
0.355386
50
6.2063041
51
30.4498429
0
ARC
8
DEFAULT_255_2_778
10
6.9720851
20
40.6571223
40
0.1869849
50
32.3780511
51
46.8632925
0
ARC
8
DEFAULT_255_2_778
10
6.9493351
20
40.6165562
40
0.232409
50
49.6095808
51
92.9542217
0
ARC
8
DEFAULT_255_2_778
10
6.9340152
20
40.4319443
40
0.4167254
50
89.5405004
51
89.9973557
0
ARC
8
DEFAULT_255_2_778
10
6.9235788
20
40.6046757
40
0.244218
50
87.5462815
51
142.729253
0
ARC
8
DEFAULT_255_2_778
10
7.0300314
20
40.5358115
40
0.37076
50
144.2229863
51
174.3261738
0
ARC
8
DEFAULT_255_2_778
10
7.356371
20
40.4820084
40
0.7011429
50
172.5872887
51
180.2401369
0
ARC
8
DEFAULT_255_2_778
10
7.185462
20
40.3665676
40
0.5303797
50
178.6276756
51
200.4357909
0
ARC
8
DEFAULT_255_2_778
10
6.9951338
20
40.3030382
40
0.329921
50
201.6382344
51
215.1981478
0
ARC
8
DEFAULT_255_2_778
10
6.9134221
20
40.2412784
40
0.2275754
50
214.3499741
51
272.1939834
0
ARC
8
DEFAULT_255_2_778
10
6.9347039
20
40.3056565
40
0.2920573
50
267.5333602
51
298.0069382
0
ARC
8
DEFAULT_255_2_778
10
6.9805294
20
40.2030354
40
0.1801013
50
300.4667654
51
310.0989369
0
ARC
8
DEFAULT_255_2_778
10
6.9355438
20
40.2361424
40
0.2347668
50
313.2943848
51
347.3959789
0
ARC
8
DEFAULT_255_2_778
10
6.6610832
20
40.3233303
40
0.522247
50
344.6306221
51
351.2372872
0
LINE
8
DEFAULT_255_2_778
10
7.1772344
20
40.2437698
11
7.3142344
21
40.2437698
0
LINE
8
DEFAULT_255_2_778
10
6.5181344
20
40.3837698
11
6.5181344
21
40.4827698
0
LINE
8
DEFAULT_255_2_778
10
7.3140344
20
40.6155698
11
7.1769344
21
40.6155698
0
LINE
8
DEFAULT_255_2_778
10
6.6552344
20
40.4790698
11
6.6552344
21
40.3792698
0
LINE
8
DEFAULT_255_2_778
10
7.1772344
20
40.2437698
11
7.1772344
21
40.2437698
0
ARC
8
DEFAULT_255_2_778
10
6.9874876
20
41.1652818
40
1.1290939
50
317.8191631
51
324.7825602
0
ARC
8
DEFAULT_255_2_778
10
7.5595301
20
40.757358
40
0.4265239
50
325.235974
51
331.3910759
0
ARC
8
DEFAULT_255_2_778
10
7.7207901
20
40.670346
40
0.2432902
50
331.1962374
51
359.8304535
0
ARC
8
DEFAULT_255_2_778
10
7.7796699
20
40.6766527
40
0.1845431
50
357.8178613
51
42.7522268
0
ARC
8
DEFAULT_255_2_778
10
7.7922883
20
40.6816451
40
0.1719583
50
44.3850664
51
92.6028656
0
ARC
8
DEFAULT_255_2_778
10
7.772286
20
40.6499169
40
0.2038741
50
86.5712331
51
133.4493059
0
ARC
8
DEFAULT_255_2_778
10
7.7891467
20
40.6559316
40
0.2117372
50
137.8853454
51
183.3859608
0
ARC
8
DEFAULT_255_2_778
10
7.7486742
20
40.6555181
40
0.302337
50
133.9931914
51
182.2921678
0
ARC
8
DEFAULT_255_2_778
10
7.765756
20
40.6226814
40
0.3379887
50
88.4133065
51
132.2098126
0
ARC
8
DEFAULT_255_2_778
10
7.7846492
20
40.4295964
40
0.5310297
50
89.9967697
51
91.0287876
0
ARC
8
DEFAULT_255_2_778
10
7.7981554
20
40.6090461
40
0.3518381
50
59.0696355
51
92.1950924
0
ARC
8
DEFAULT_255_2_778
10
7.8371159
20
40.6907824
40
0.2618408
50
47.9535865
51
57.189196
0
ARC
8
DEFAULT_255_2_778
10
7.8400668
20
40.69527
40
0.2565333
50
357.6220335
51
47.7717444
0
ARC
8
DEFAULT_255_2_778
10
7.7431433
20
40.697665
40
0.3534764
50
329.9996412
51
357.8860046
0
ARC
8
DEFAULT_255_2_778
10
7.2802562
20
40.945126
40
0.8782461
50
318.5516155
51
331.1178642
0
ARC
8
DEFAULT_255_2_778
10
6.8433079
20
41.3052286
40
1.4442592
50
317.1343657
51
319.3180902
0
LINE
8
DEFAULT_255_2_778
10
8.1434792
20
40.024026
11
8.1434792
21
39.917326
0
LINE
8
DEFAULT_255_2_778
10
8.1434792
20
39.917326
11
7.4661792
21
39.917326
0
LINE
8
DEFAULT_255_2_778
10
7.4661792
20
39.917326
11
7.4661792
21
40.011326
0
LINE
8
DEFAULT_255_2_778
10
7.4661792
20
40.011326
11
7.8241792
21
40.407126
0
LINE
8
DEFAULT_255_2_778
10
7.5777792
20
40.643426
11
7.4465792
21
40.643426
0
LINE
8
DEFAULT_255_2_778
10
7.9018792
20
40.322726
11
7.6248792
21
40.023726
0
LINE
8
DEFAULT_255_2_778
10
7.6248792
20
40.023726
11
8.1439792
21
40.023726
0
LINE
8
DEFAULT_255_2_778
10
8.1439792
20
40.023726
11
8.1434792
21
40.024026
0
ARC
8
DEFAULT_255_2_778
10
6.9207054
20
43.9298565
40
0.3947786
50
319.9748405
51
355.4399096
0
ARC
8
DEFAULT_255_2_778
10
6.9792096
20
43.8922147
40
0.3258887
50
311.0285366
51
318.4273541
0
ARC
8
DEFAULT_255_2_778
10
6.9489509
20
43.9419349
40
0.3833853
50
270.737512
51
309.562088
0
ARC
8
DEFAULT_255_2_778
10
6.9224339
20
44.1676939
40
0.6099241
50
269.971862
51
272.9558653
0
ARC
8
DEFAULT_255_2_778
10
6.9087599
20
43.9230568
40
0.3655318
50
219.9238681
51
272.096864
0
ARC
8
DEFAULT_255_2_778
10
7.0033111
20
43.9917286
40
0.482181
50
184.6027979
51
218.9713413
0
ARC
8
DEFAULT_255_2_778
10
7.290749
20
44.0367871
40
0.7726165
50
179.8752183
51
186.2231458
0
ARC
8
DEFAULT_255_2_778
10
7.1017025
20
44.1496411
40
0.583695
50
155.6967924
51
181.194831
0
ARC
8
DEFAULT_255_2_778
10
6.9194796
20
44.2320581
40
0.3837007
50
122.1083173
51
155.7142034
0
ARC
8
DEFAULT_255_2_778
10
6.9257963
20
44.2069846
40
0.4083745
50
88.8019965
51
120.9891122
0
ARC
8
DEFAULT_255_2_778
10
6.9485896
20
44.2215124
40
0.3940153
50
57.2287465
51
92.0733749
0
ARC
8
DEFAULT_255_2_778
10
6.9810858
20
44.2884114
40
0.3202976
50
47.2913053
51
55.6387275
0
ARC
8
DEFAULT_255_2_778
10
6.9361993
20
44.2516664
40
0.3778294
50
4.3493211
51
46.0689495
0
ARC
8
DEFAULT_255_2_778
10
6.737326
20
44.2125878
40
0.5795858
50
5.7116888
51
6.7110855
0
ARC
8
DEFAULT_255_2_778
10
6.8236312
20
44.2318494
40
0.355386
50
6.2063041
51
30.4498429
0
ARC
8
DEFAULT_255_2_778
10
6.9720851
20
44.3118223
40
0.1869849
50
32.3780511
51
46.8632925
0
ARC
8
DEFAULT_255_2_778
10
6.9493351
20
44.2712562
40
0.232409
50
49.6095808
51
92.9542217
0
ARC
8
DEFAULT_255_2_778
10
6.9340152
20
44.0866443
40
0.4167254
50
89.5405004
51
89.9973557
0
ARC
8
DEFAULT_255_2_778
10
6.9235788
20
44.2593757
40
0.244218
50
87.5462815
51
142.729253
0
ARC
8
DEFAULT_255_2_778
10
7.0300314
20
44.1905115
40
0.37076
50
144.2229863
51
174.3261738
0
ARC
8
DEFAULT_255_2_778
10
7.356371
20
44.1367084
40
0.7011429
50
172.5872887
51
180.2401369
0
ARC
8
DEFAULT_255_2_778
10
7.185462
20
44.0212676
40
0.5303797
50
178.6276756
51
200.4357909
0
ARC
8
DEFAULT_255_2_778
10
6.9951338
20
43.9577382
40
0.329921
50
201.6382344
51
215.1981478
0
ARC
8
DEFAULT_255_2_778
10
6.9134221
20
43.8959784
40
0.2275754
50
214.3499741
51
272.1939834
0
ARC
8
DEFAULT_255_2_778
10
6.9347039
20
43.9603565
40
0.2920573
50
267.5333602
51
298.0069382
0
ARC
8
DEFAULT_255_2_778
10
6.9805294
20
43.8577354
40
0.1801013
50
300.4667654
51
310.0989369
0
ARC
8
DEFAULT_255_2_778
10
6.9355438
20
43.8908424
40
0.2347668
50
313.2943848
51
347.3959789
0
ARC
8
DEFAULT_255_2_778
10
6.6610832
20
43.9780303
40
0.522247
50
344.6306221
51
351.2372872
0
LINE
8
DEFAULT_255_2_778
10
7.1772344
20
43.8984698
11
7.3142344
21
43.8984698
0
LINE
8
DEFAULT_255_2_778
10
6.5181344
20
44.0384698
11
6.5181344
21
44.1374698
0
LINE
8
DEFAULT_255_2_778
10
7.3140344
20
44.2702698
11
7.1769344
21
44.2702698
0
LINE
8
DEFAULT_255_2_778
10
6.6552344
20
44.1337698
11
6.6552344
21
44.0339698
0
LINE
8
DEFAULT_255_2_778
10
7.1772344
20
43.8984698
11
7.1772344
21
43.8984698
0
LINE
8
DEFAULT_255_2_778
10
7.8979625
20
44.6062604
11
7.8979625
21
43.5720604
0
LINE
8
DEFAULT_255_2_778
10
7.8979625
20
43.5720604
11
7.7658625
21
43.5720604
0
LINE
8
DEFAULT_255_2_778
10
7.7658625
20
43.5720604
11
7.7658625
21
44.4438604
0
LINE
8
DEFAULT_255_2_778
10
7.7658625
20
44.4438604
11
7.5010625
21
44.3469604
0
LINE
8
DEFAULT_255_2_778
10
7.5010625
20
44.3469604
11
7.5010625
21
44.4657604
0
LINE
8
DEFAULT_255_2_778
10
7.5010625
20
44.4657604
11
7.8772625
21
44.6065604
0
LINE
8
DEFAULT_255_2_778
10
7.8772625
20
44.6065604
11
7.8979625
21
44.6065604
0
LINE
8
DEFAULT_255_2_778
10
7.8979625
20
44.6065604
11
7.8979625
21
44.6062604
0
ARC
8
DEFAULT_255_2_778
10
6.9207054
20
47.5845565
40
0.3947786
50
319.9748405
51
355.4399096
0
ARC
8
DEFAULT_255_2_778
10
6.9792096
20
47.5469147
40
0.3258887
50
311.0285366
51
318.4273541
0
ARC
8
DEFAULT_255_2_778
10
6.9489509
20
47.5966349
40
0.3833853
50
270.737512
51
309.562088
0
ARC
8
DEFAULT_255_2_778
10
6.9224339
20
47.8223939
40
0.6099241
50
269.971862
51
272.9558653
0
ARC
8
DEFAULT_255_2_778
10
6.9087599
20
47.5777568
40
0.3655318
50
219.9238681
51
272.096864
0
ARC
8
DEFAULT_255_2_778
10
7.0033111
20
47.6464286
40
0.482181
50
184.6027979
51
218.9713413
0
ARC
8
DEFAULT_255_2_778
10
7.290749
20
47.6914871
40
0.7726165
50
179.8752183
51
186.2231458
0
ARC
8
DEFAULT_255_2_778
10
7.1017025
20
47.8043411
40
0.583695
50
155.6967924
51
181.194831
0
ARC
8
DEFAULT_255_2_778
10
6.9194796
20
47.8867581
40
0.3837007
50
122.1083173
51
155.7142034
0
ARC
8
DEFAULT_255_2_778
10
6.9257963
20
47.8616846
40
0.4083745
50
88.8019965
51
120.9891122
0
ARC
8
DEFAULT_255_2_778
10
6.9485896
20
47.8762124
40
0.3940153
50
57.2287465
51
92.0733749
0
ARC
8
DEFAULT_255_2_778
10
6.9810858
20
47.9431114
40
0.3202976
50
47.2913053
51
55.6387275
0
ARC
8
DEFAULT_255_2_778
10
6.9361993
20
47.9063664
40
0.3778294
50
4.3493211
51
46.0689495
0
ARC
8
DEFAULT_255_2_778
10
6.737326
20
47.8672878
40
0.5795858
50
5.7116888
51
6.7110855
0
ARC
8
DEFAULT_255_2_778
10
6.8236312
20
47.8865494
40
0.355386
50
6.2063041
51
30.4498429
0
ARC
8
DEFAULT_255_2_778
10
6.9720851
20
47.9665223
40
0.1869849
50
32.3780511
51
46.8632925
0
ARC
8
DEFAULT_255_2_778
10
6.9493351
20
47.9259562
40
0.232409
50
49.6095808
51
92.9542217
0
ARC
8
DEFAULT_255_2_778
10
6.9340152
20
47.7413443
40
0.4167254
50
89.5405004
51
89.9973557
0
ARC
8
DEFAULT_255_2_778
10
6.9235788
20
47.9140757
40
0.244218
50
87.5462815
51
142.729253
0
ARC
8
DEFAULT_255_2_778
10
7.0300314
20
47.8452115
40
0.37076
50
144.2229863
51
174.3261738
0
ARC
8
DEFAULT_255_2_778
10
7.356371
20
47.7914084
40
0.7011429
50
172.5872887
51
180.2401369
0
ARC
8
DEFAULT_255_2_778
10
7.185462
20
47.6759676
40
0.5303797
50
178.6276756
51
200.4357909
0
ARC
8
DEFAULT_255_2_778
10
6.9951338
20
47.6124382
40
0.329921
50
201.6382344
51
215.1981478
0
ARC
8
DEFAULT_255_2_778
10
6.9134221
20
47.5506784
40
0.2275754
50
214.3499741
51
272.1939834
0
ARC
8
DEFAULT_255_2_778
10
6.9347039
20
47.6150565
40
0.2920573
50
267.5333602
51
298.0069382
0
ARC
8
DEFAULT_255_2_778
10
6.9805294
20
47.5124354
40
0.1801013
50
300.4667654
51
310.0989369
0
ARC
8
DEFAULT_255_2_778
10
6.9355438
20
47.5455424
40
0.2347668
50
313.2943848
51
347.3959789
0
ARC
8
DEFAULT_255_2_778
10
6.6610832
20
47.6327303
40
0.522247
50
344.6306221
51
351.2372872
0
LINE
8
DEFAULT_255_2_778
10
7.1772344
20
47.5531698
11
7.3142344
21
47.5531698
0
LINE
8
DEFAULT_255_2_778
10
6.5181344
20
47.6931698
11
6.5181344
21
47.7921698
0
LINE
8
DEFAULT_255_2_778
10
7.3140344
20
47.9249698
11
7.1769344
21
47.9249698
0
LINE
8
DEFAULT_255_2_778
10
6.6552344
20
47.7884698
11
6.6552344
21
47.6886698
0
LINE
8
DEFAULT_255_2_778
10
7.1772344
20
47.5531698
11
7.1772344
21
47.5531698
0
ARC
8
DEFAULT_255_2_778
10
7.2115922
20
47.6536016
40
0.902928
50
348.1640717
51
0.7805548
0
ARC
8
DEFAULT_255_2_778
10
7.7015677
20
47.5474719
40
0.4016158
50
326.2596032
51
348.6454974
0
ARC
8
DEFAULT_255_2_778
10
7.8155143
20
47.4861703
40
0.2730911
50
268.8067979
51
323.675332
0
ARC
8
DEFAULT_255_2_778
10
7.7894088
20
47.6907856
40
0.4780834
50
269.9793432
51
272.4478125
0
ARC
8
DEFAULT_255_2_778
10
7.775256
20
47.5244815
40
0.3120927
50
234.9903617
51
272.5674792
0
ARC
8
DEFAULT_255_2_778
10
7.7479634
20
47.4692457
40
0.2513669
50
215.857521
51
232.8619874
0
ARC
8
DEFAULT_255_2_778
10
7.8886681
20
47.5579898
40
0.4175205
50
189.4162838
51
214.4170325
0
ARC
8
DEFAULT_255_2_778
10
8.3460134
20
47.6509934
40
0.8840813
50
180.1809031
51
190.5132892
0
ARC
8
DEFAULT_255_2_778
10
8.3422846
20
47.8351522
40
0.8804348
50
167.9249794
51
180.8037309
0
ARC
8
DEFAULT_255_2_778
10
7.8657678
20
47.9401708
40
0.3925036
50
145.903813
51
168.3645808
0
ARC
8
DEFAULT_255_2_778
10
7.7596605
20
47.9964495
40
0.273391
50
89.4708712
51
143.2039446
0
ARC
8
DEFAULT_255_2_778
10
7.787678
20
47.7876769
40
0.4828254
50
89.9693331
51
93.0265786
0
ARC
8
DEFAULT_255_2_778
10
7.8013031
20
47.9433037
40
0.3274712
50
58.4841175
51
92.3393351
0
ARC
8
DEFAULT_255_2_778
10
7.8378778
20
48.019892
40
0.2432225
50
36.3640766
51
56.3975351
0
ARC
8
DEFAULT_255_2_778
10
7.7050588
20
47.9368548
40
0.3995877
50
9.4588048
51
34.6599186
0
ARC
8
DEFAULT_255_2_778
10
7.210783
20
47.8362629
40
0.9038535
50
359.9707884
51
10.5996443
0
ARC
8
DEFAULT_255_2_778
10
7.2566923
20
47.8568299
40
0.7265438
50
359.0514313
51
11.5461816
0
ARC
8
DEFAULT_255_2_778
10
7.6959024
20
47.9470023
40
0.2781734
50
11.4563015
51
30.1935474
0
ARC
8
DEFAULT_255_2_778
10
7.799163
20
48.0017261
40
0.1614667
50
31.8376385
51
93.986913
0
ARC
8
DEFAULT_255_2_778
10
7.7768115
20
48.0040069
40
0.1591844
50
85.9924871
51
148.5331133
0
ARC
8
DEFAULT_255_2_778
10
7.9392369
20
47.9223907
40
0.340666
50
151.0858907
51
174.1903915
0
ARC
8
DEFAULT_255_2_778
10
8.4097056
20
47.8510229
40
0.8162771
50
172.5491605
51
179.7487718
0
ARC
8
DEFAULT_255_2_778
10
8.3098433
20
47.6334377
40
0.7165051
50
179.0512185
51
191.9421298
0
ARC
8
DEFAULT_255_2_778
10
7.8925426
20
47.5452574
40
0.2899894
50
191.9574431
51
210.2880253
0
ARC
8
DEFAULT_255_2_778
10
7.7813527
20
47.4803202
40
0.161226
50
210.2897829
51
272.9095449
0
ARC
8
DEFAULT_255_2_778
10
7.7989696
20
47.4777605
40
0.158739
50
266.5931597
51
328.2382046
0
ARC
8
DEFAULT_255_2_778
10
7.6457639
20
47.5582817
40
0.3316106
50
330.3436881
51
353.6081526
0
ARC
8
DEFAULT_255_2_778
10
7.1542402
20
47.63735
40
0.8292246
50
351.9595314
51
359.5268294
0
LINE
8
DEFAULT_255_2_778
10
8.1144365
20
47.8355021
11
8.1144365
21
47.6659021
0
LINE
8
DEFAULT_255_2_778
10
7.4619365
20
47.6482021
11
7.4619365
21
47.8228021
0
LINE
8
DEFAULT_255_2_778
10
8.1146365
20
47.8358021
11
8.1144365
21
47.8355021
0
LINE
8
DEFAULT_255_2_778
10
7.9831365
20
47.6305021
11
7.9831365
21
47.8448021
0
LINE
8
DEFAULT_255_2_778
10
7.5934365
20
47.8546021
11
7.5934365
21
47.6453021
0
LINE
8
DEFAULT_255_2_778
10
7.9834365
20
47.6305021
11
7.9831365
21
47.6305021
0
ARC
8
DEFAULT_255_2_778
10
6.9041566
20
58.7022151
40
0.5181806
50
71.872945
51
91.3734344
0
ARC
8
DEFAULT_255_2_778
10
6.9784612
20
58.9423135
40
0.2669117
50
51.412506
51
70.9962649
0
ARC
8
DEFAULT_255_2_778
10
6.9834313
20
58.9645048
40
0.2466669
50
357.1350601
51
49.0992984
0
ARC
8
DEFAULT_255_2_778
10
6.8042785
20
58.9458782
40
0.425558
50
359.995775
51
0.8479353
0
ARC
8
DEFAULT_255_2_778
10
7.0225014
20
58.9425682
40
0.207361
50
323.1975154
51
0.9059699
0
ARC
8
DEFAULT_255_2_778
10
6.9759414
20
58.9794015
40
0.2667119
50
292.1351399
51
322.8536928
0
ARC
8
DEFAULT_255_2_778
10
7.0172537
20
58.5011125
40
0.238688
50
36.6965429
51
75.6437336
0
ARC
8
DEFAULT_255_2_778
10
7.0037175
20
58.4941779
40
0.253698
50
358.5700412
51
36.1254519
0
ARC
8
DEFAULT_255_2_778
10
6.9832029
20
58.4738927
40
0.2744885
50
312.0744524
51
2.913998
0
ARC
8
DEFAULT_255_2_778
10
6.9524211
20
58.5317633
40
0.3384462
50
273.3221452
51
309.3766091
0
ARC
8
DEFAULT_255_2_778
10
6.9135803
20
58.7939195
40
0.602874
50
269.8817866
51
275.5640495
0
ARC
8
DEFAULT_255_2_778
10
6.9274286
20
58.5187755
40
0.217271
50
266.7831716
51
309.4680614
0
ARC
8
DEFAULT_255_2_778
10
6.9480721
20
58.4776385
40
0.1726943
50
312.858244
51
2.9568897
0
ARC
8
DEFAULT_255_2_778
10
6.9598764
20
58.5068779
40
0.1619414
50
352.7877153
51
84.2542203
0
ARC
8
DEFAULT_255_2_778
10
6.9198473
20
58.3225265
40
0.3500273
50
80.7537259
51
90.3618899
0
ARC
8
DEFAULT_255_2_778
10
6.9069789
20
58.9985611
40
0.2174948
50
267.0897843
51
307.3855782
0
ARC
8
DEFAULT_255_2_778
10
6.9443603
20
58.9402978
40
0.1486119
50
309.5736955
51
2.4485721
0
ARC
8
DEFAULT_255_2_778
10
6.9476534
20
58.9597154
40
0.14577
50
354.8564271
51
49.1304426
0
ARC
8
DEFAULT_255_2_778
10
6.9212702
20
58.8914316
40
0.2160897
50
55.7018815
51
89.3618214
0
ARC
8
DEFAULT_255_2_778
10
6.8923981
20
58.6374156
40
0.4711318
50
86.1932784
51
90.0804645
0
LINE
8
DEFAULT_255_2_778
10
6.9123365
20
58.1907469
11
6.5538365
21
58.1907469
0
LINE
8
DEFAULT_255_2_778
10
6.5538365
20
58.1907469
11
6.5538365
21
59.2202469
0
LINE
8
DEFAULT_255_2_778
10
6.5538365
20
59.2202469
11
6.8917365
21
59.2202469
0
LINE
8
DEFAULT_255_2_778
10
6.9123365
20
58.1910469
11
6.9123365
21
58.1907469
0
LINE
8
DEFAULT_255_2_778
10
6.9173365
20
58.6722469
11
6.6901365
21
58.6722469
0
LINE
8
DEFAULT_255_2_778
10
6.6901365
20
58.6722469
11
6.6901365
21
58.3018469
0
LINE
8
DEFAULT_255_2_778
10
6.6901365
20
58.3018469
11
6.9152365
21
58.3018469
0
LINE
8
DEFAULT_255_2_778
10
6.9176365
20
58.6725469
11
6.9173365
21
58.6722469
0
LINE
8
DEFAULT_255_2_778
10
6.6901365
20
59.1085469
11
6.6901365
21
58.7813469
0
LINE
8
DEFAULT_255_2_778
10
6.6901365
20
58.7813469
11
6.8959365
21
58.7813469
0
LINE
8
DEFAULT_255_2_778
10
6.8917365
20
59.1085469
11
6.6901365
21
59.1085469
0
LINE
8
DEFAULT_255_2_778
10
6.6901365
20
59.1085469
11
6.6901365
21
59.1085469
0
ARC
8
DEFAULT_255_2_778
10
6.9464876
20
59.4386818
40
1.1290939
50
317.8191631
51
324.7825602
0
ARC
8
DEFAULT_255_2_778
10
7.5185301
20
59.030758
40
0.4265239
50
325.235974
51
331.3910759
0
ARC
8
DEFAULT_255_2_778
10
7.6797901
20
58.943746
40
0.2432902
50
331.1962374
51
359.8304535
0
ARC
8
DEFAULT_255_2_778
10
7.7386699
20
58.9500527
40
0.1845431
50
357.8178613
51
42.7522268
0
ARC
8
DEFAULT_255_2_778
10
7.7512883
20
58.9550451
40
0.1719583
50
44.3850664
51
92.6028656
0
ARC
8
DEFAULT_255_2_778
10
7.731286
20
58.9233169
40
0.2038741
50
86.5712331
51
133.4493059
0
ARC
8
DEFAULT_255_2_778
10
7.7481467
20
58.9293316
40
0.2117372
50
137.8853454
51
183.3859608
0
ARC
8
DEFAULT_255_2_778
10
7.7076742
20
58.9289181
40
0.302337
50
133.9931914
51
182.2921678
0
ARC
8
DEFAULT_255_2_778
10
7.724756
20
58.8960814
40
0.3379887
50
88.4133065
51
132.2098126
0
ARC
8
DEFAULT_255_2_778
10
7.7436492
20
58.7029964
40
0.5310297
50
89.9967697
51
91.0287876
0
ARC
8
DEFAULT_255_2_778
10
7.7571554
20
58.8824461
40
0.3518381
50
59.0696355
51
92.1950924
0
ARC
8
DEFAULT_255_2_778
10
7.7961159
20
58.9641824
40
0.2618408
50
47.9535865
51
57.189196
0
ARC
8
DEFAULT_255_2_778
10
7.7990668
20
58.96867
40
0.2565333
50
357.6220335
51
47.7717444
0
ARC
8
DEFAULT_255_2_778
10
7.7021433
20
58.971065
40
0.3534764
50
329.9996412
51
357.8860046
0
ARC
8
DEFAULT_255_2_778
10
7.2392562
20
59.218526
40
0.8782461
50
318.5516155
51
331.1178642
0
ARC
8
DEFAULT_255_2_778
10
6.8023079
20
59.5786286
40
1.4442592
50
317.1343657
51
319.3180902
0
LINE
8
DEFAULT_255_2_778
10
8.1024792
20
58.297426
11
8.1024792
21
58.190726
0
LINE
8
DEFAULT_255_2_778
10
8.1024792
20
58.190726
11
7.4251792
21
58.190726
0
LINE
8
DEFAULT_255_2_778
10
7.4251792
20
58.190726
11
7.4251792
21
58.284726
0
LINE
8
DEFAULT_255_2_778
10
7.4251792
20
58.284726
11
7.7831792
21
58.680526
0
LINE
8
DEFAULT_255_2_778
10
7.5367792
20
58.916826
11
7.4055792
21
58.916826
0
LINE
8
DEFAULT_255_2_778
10
7.8608792
20
58.596126
11
7.5838792
21
58.297126
0
LINE
8
DEFAULT_255_2_778
10
7.5838792
20
58.297126
11
8.1029792
21
58.297126
0
LINE
8
DEFAULT_255_2_778
10
8.1029792
20
58.297126
11
8.1024792
21
58.297426
0
ARC
8
DEFAULT_255_2_778
10
6.9041566
20
55.0475151
40
0.5181806
50
71.872945
51
91.3734344
0
ARC
8
DEFAULT_255_2_778
10
6.9784612
20
55.2876135
40
0.2669117
50
51.412506
51
70.9962649
0
ARC
8
DEFAULT_255_2_778
10
6.9834313
20
55.3098048
40
0.2466669
50
357.1350601
51
49.0992984
0
ARC
8
DEFAULT_255_2_778
10
6.8042785
20
55.2911782
40
0.425558
50
359.995775
51
0.8479353
0
ARC
8
DEFAULT_255_2_778
10
7.0225014
20
55.2878682
40
0.207361
50
323.1975154
51
0.9059699
0
ARC
8
DEFAULT_255_2_778
10
6.9759414
20
55.3247015
40
0.2667119
50
292.1351399
51
322.8536928
0
ARC
8
DEFAULT_255_2_778
10
7.0172537
20
54.8464125
40
0.238688
50
36.6965429
51
75.6437336
0
ARC
8
DEFAULT_255_2_778
10
7.0037175
20
54.8394779
40
0.253698
50
358.5700412
51
36.1254519
0
ARC
8
DEFAULT_255_2_778
10
6.9832029
20
54.8191927
40
0.2744885
50
312.0744524
51
2.913998
0
ARC
8
DEFAULT_255_2_778
10
6.9524211
20
54.8770633
40
0.3384462
50
273.3221452
51
309.3766091
0
ARC
8
DEFAULT_255_2_778
10
6.9135803
20
55.1392195
40
0.602874
50
269.8817866
51
275.5640495
0
ARC
8
DEFAULT_255_2_778
10
6.9274286
20
54.8640755
40
0.217271
50
266.7831716
51
309.4680614
0
ARC
8
DEFAULT_255_2_778
10
6.9480721
20
54.8229385
40
0.1726943
50
312.858244
51
2.9568897
0
ARC
8
DEFAULT_255_2_778
10
6.9598764
20
54.8521779
40
0.1619414
50
352.7877153
51
84.2542203
0
ARC
8
DEFAULT_255_2_778
10
6.9198473
20
54.6678265
40
0.3500273
50
80.7537259
51
90.3618899
0
ARC
8
DEFAULT_255_2_778
10
6.9069789
20
55.3438611
40
0.2174948
50
267.0897843
51
307.3855782
0
ARC
8
DEFAULT_255_2_778
10
6.9443603
20
55.2855978
40
0.1486119
50
309.5736955
51
2.4485721
0
ARC
8
DEFAULT_255_2_778
10
6.9476534
20
55.3050154
40
0.14577
50
354.8564271
51
49.1304426
0
ARC
8
DEFAULT_255_2_778
10
6.9212702
20
55.2367316
40
0.2160897
50
55.7018815
51
89.3618214
0
ARC
8
DEFAULT_255_2_778
10
6.8923981
20
54.9827156
40
0.4711318
50
86.1932784
51
90.0804645
0
LINE
8
DEFAULT_255_2_778
10
6.9123365
20
54.5360469
11
6.5538365
21
54.5360469
0
LINE
8
DEFAULT_255_2_778
10
6.5538365
20
54.5360469
11
6.5538365
21
55.5655469
0
LINE
8
DEFAULT_255_2_778
10
6.5538365
20
55.5655469
11
6.8917365
21
55.5655469
0
LINE
8
DEFAULT_255_2_778
10
6.9123365
20
54.5363469
11
6.9123365
21
54.5360469
0
LINE
8
DEFAULT_255_2_778
10
6.9173365
20
55.0175469
11
6.6901365
21
55.0175469
0
LINE
8
DEFAULT_255_2_778
10
6.6901365
20
55.0175469
11
6.6901365
21
54.6471469
0
LINE
8
DEFAULT_255_2_778
10
6.6901365
20
54.6471469
11
6.9152365
21
54.6471469
0
LINE
8
DEFAULT_255_2_778
10
6.9176365
20
55.0178469
11
6.9173365
21
55.0175469
0
LINE
8
DEFAULT_255_2_778
10
6.6901365
20
55.4538469
11
6.6901365
21
55.1266469
0
LINE
8
DEFAULT_255_2_778
10
6.6901365
20
55.1266469
11
6.8959365
21
55.1266469
0
LINE
8
DEFAULT_255_2_778
10
6.8917365
20
55.4538469
11
6.6901365
21
55.4538469
0
LINE
8
DEFAULT_255_2_778
10
6.6901365
20
55.4538469
11
6.6901365
21
55.4538469
0
ARC
8
DEFAULT_255_2_778
10
7.7237443
20
55.3312185
40
0.2172084
50
267.590761
51
309.1616069
0
ARC
8
DEFAULT_255_2_778
10
7.7513417
20
55.2834043
40
0.1629445
50
312.2563768
51
2.6373461
0
ARC
8
DEFAULT_255_2_778
10
7.724152
20
55.3037965
40
0.1903987
50
356.11677
51
37.9242232
0
ARC
8
DEFAULT_255_2_778
10
7.7511585
20
55.2982703
40
0.1737603
50
44.8517708
51
93.0160622
0
ARC
8
DEFAULT_255_2_778
10
7.7331763
20
55.1236429
40
0.3482591
50
88.5455325
51
90.0103172
0
ARC
8
DEFAULT_255_2_778
10
7.7236731
20
55.2831547
40
0.1889833
50
87.1366488
51
132.0428448
0
ARC
8
DEFAULT_255_2_778
10
7.715455
20
55.3024324
40
0.1693002
50
134.3471156
51
182.4815539
0
ARC
8
DEFAULT_255_2_778
10
7.6771254
20
55.3008388
40
0.2620747
50
131.1088404
51
181.2542838
0
ARC
8
DEFAULT_255_2_778
10
7.7207742
20
55.2518468
40
0.3276877
50
87.841974
51
131.2270215
0
ARC
8
DEFAULT_255_2_778
10
7.7465403
20
55.226384
40
0.3531734
50
59.7154655
51
92.1787647
0
ARC
8
DEFAULT_255_2_778
10
7.7873586
20
55.313238
40
0.2577296
50
47.1869983
51
57.8139
0
ARC
8
DEFAULT_255_2_778
10
7.7683697
20
55.3037561
40
0.2776911
50
356.7477407
51
45.6422696
0
ARC
8
DEFAULT_255_2_778
10
7.820039
20
55.2912797
40
0.2255984
50
323.7250828
51
359.1675518
0
ARC
8
DEFAULT_255_2_778
10
7.7872529
20
55.3072841
40
0.2615799
50
291.4979474
51
325.148026
0
ARC
8
DEFAULT_255_2_778
10
7.8130163
20
54.8183555
40
0.2553562
50
37.7537362
51
74.0673159
0
ARC
8
DEFAULT_255_2_778
10
7.8154629
20
54.8304063
40
0.2461744
50
358.183303
51
35.8844566
0
ARC
8
DEFAULT_255_2_778
10
7.7814523
20
54.8095472
40
0.2803654
50
312.4582043
51
2.6688701
0
ARC
8
DEFAULT_255_2_778
10
7.74938
20
54.8623393
40
0.3411745
50
267.4521542
51
310.4466776
0
ARC
8
DEFAULT_255_2_778
10
7.7188787
20
54.8713358
40
0.3501697
50
230.8064905
51
272.5099358
0
LINE
8
DEFAULT_255_2_778
10
7.4975919
20
54.5999486
11
7.4974136
21
54.6001021
0
ARC
8
DEFAULT_255_2_778
10
7.6658869
20
54.7980483
40
0.2599346
50
177.9818792
51
229.5986722
0
ARC
8
DEFAULT_255_2_778
10
7.7061714
20
54.7999965
40
0.1682123
50
177.5449134
51
226.9359846
0
ARC
8
DEFAULT_255_2_778
10
7.7235361
20
54.8311414
40
0.2030048
50
229.3582333
51
272.9301833
0
ARC
8
DEFAULT_255_2_778
10
7.7475679
20
54.8269758
40
0.1990426
50
266.0664226
51
311.3322838
0
ARC
8
DEFAULT_255_2_778
10
7.7852625
20
54.7733189
40
0.1340477
50
314.3820421
51
314.6174458
0
ARC
8
DEFAULT_255_2_778
10
7.7409276
20
54.8072652
40
0.1895077
50
316.9507022
51
3.8234643
0
ARC
8
DEFAULT_255_2_778
10
7.757251
20
54.8306597
40
0.1730972
50
356.4368833
51
47.2661907
0
ARC
8
DEFAULT_255_2_778
10
7.733519
20
54.7780706
40
0.2285592
50
51.847315
51
89.8606456
0
ARC
8
DEFAULT_255_2_778
10
7.7093332
20
54.5751789
40
0.4321591
50
86.7179477
51
89.2601367
0
LINE
8
DEFAULT_255_2_778
10
7.6159136
20
55.0075021
11
7.6159136
21
55.1142021
0
LINE
8
DEFAULT_255_2_778
10
7.6159136
20
55.1142021
11
7.7146136
21
55.1142021
0
LINE
8
DEFAULT_255_2_778
10
7.5463136
20
55.2951021
11
7.4151136
21
55.2951021
0
LINE
8
DEFAULT_255_2_778
10
7.4061136
20
54.8072021
11
7.5381136
21
54.8072021
0
LINE
8
DEFAULT_255_2_778
10
7.7149136
20
55.0073021
11
7.6162136
21
55.0073021
0
LINE
8
DEFAULT_255_2_778
10
7.6162136
20
55.0073021
11
7.6159136
21
55.0075021
0
ARC
8
DEFAULT_255_2_778
10
6.9041566
20
62.3566151
40
0.5181806
50
71.872945
51
91.3734344
0
ARC
8
DEFAULT_255_2_778
10
6.9784612
20
62.5967135
40
0.2669117
50
51.412506
51
70.9962649
0
ARC
8
DEFAULT_255_2_778
10
6.9834313
20
62.6189048
40
0.2466669
50
357.1350601
51
49.0992984
0
ARC
8
DEFAULT_255_2_778
10
6.8042785
20
62.6002782
40
0.425558
50
359.995775
51
0.8479353
0
ARC
8
DEFAULT_255_2_778
10
7.0225014
20
62.5969682
40
0.207361
50
323.1975154
51
0.9059699
0
ARC
8
DEFAULT_255_2_778
10
6.9759414
20
62.6338015
40
0.2667119
50
292.1351399
51
322.8536928
0
ARC
8
DEFAULT_255_2_778
10
7.0172537
20
62.1555125
40
0.238688
50
36.6965429
51
75.6437336
0
ARC
8
DEFAULT_255_2_778
10
7.0037175
20
62.1485779
40
0.253698
50
358.5700412
51
36.1254519
0
ARC
8
DEFAULT_255_2_778
10
6.9832029
20
62.1282927
40
0.2744885
50
312.0744524
51
2.913998
0
ARC
8
DEFAULT_255_2_778
10
6.9524211
20
62.1861633
40
0.3384462
50
273.3221452
51
309.3766091
0
ARC
8
DEFAULT_255_2_778
10
6.9135803
20
62.4483195
40
0.602874
50
269.8817866
51
275.5640495
0
ARC
8
DEFAULT_255_2_778
10
6.9274286
20
62.1731755
40
0.217271
50
266.7831716
51
309.4680614
0
ARC
8
DEFAULT_255_2_778
10
6.9480721
20
62.1320385
40
0.1726943
50
312.858244
51
2.9568897
0
ARC
8
DEFAULT_255_2_778
10
6.9598764
20
62.1612779
40
0.1619414
50
352.7877153
51
84.2542203
0
ARC
8
DEFAULT_255_2_778
10
6.9198473
20
61.9769265
40
0.3500273
50
80.7537259
51
90.3618899
0
ARC
8
DEFAULT_255_2_778
10
6.9069789
20
62.6529611
40
0.2174948
50
267.0897843
51
307.3855782
0
ARC
8
DEFAULT_255_2_778
10
6.9443603
20
62.5946978
40
0.1486119
50
309.5736955
51
2.4485721
0
ARC
8
DEFAULT_255_2_778
10
6.9476534
20
62.6141154
40
0.14577
50
354.8564271
51
49.1304426
0
ARC
8
DEFAULT_255_2_778
10
6.9212702
20
62.5458316
40
0.2160897
50
55.7018815
51
89.3618214
0
ARC
8
DEFAULT_255_2_778
10
6.8923981
20
62.2918156
40
0.4711318
50
86.1932784
51
90.0804645
0
LINE
8
DEFAULT_255_2_778
10
6.9123365
20
61.8451469
11
6.5538365
21
61.8451469
0
LINE
8
DEFAULT_255_2_778
10
6.5538365
20
61.8451469
11
6.5538365
21
62.8746469
0
LINE
8
DEFAULT_255_2_778
10
6.5538365
20
62.8746469
11
6.8917365
21
62.8746469
0
LINE
8
DEFAULT_255_2_778
10
6.9123365
20
61.8454469
11
6.9123365
21
61.8451469
0
LINE
8
DEFAULT_255_2_778
10
6.9173365
20
62.3266469
11
6.6901365
21
62.3266469
0
LINE
8
DEFAULT_255_2_778
10
6.6901365
20
62.3266469
11
6.6901365
21
61.9562469
0
LINE
8
DEFAULT_255_2_778
10
6.6901365
20
61.9562469
11
6.9152365
21
61.9562469
0
LINE
8
DEFAULT_255_2_778
10
6.9176365
20
62.3269469
11
6.9173365
21
62.3266469
0
LINE
8
DEFAULT_255_2_778
10
6.6901365
20
62.7629469
11
6.6901365
21
62.4357469
0
LINE
8
DEFAULT_255_2_778
10
6.6901365
20
62.4357469
11
6.8959365
21
62.4357469
0
LINE
8
DEFAULT_255_2_778
10
6.8917365
20
62.7629469
11
6.6901365
21
62.7629469
0
LINE
8
DEFAULT_255_2_778
10
6.6901365
20
62.7629469
11
6.6901365
21
62.7629469
0
LINE
8
DEFAULT_255_2_778
10
7.8566625
20
62.8796604
11
7.8566625
21
61.8454604
0
LINE
8
DEFAULT_255_2_778
10
7.8566625
20
61.8454604
11
7.7245625
21
61.8454604
0
LINE
8
DEFAULT_255_2_778
10
7.7245625
20
61.8454604
11
7.7245625
21
62.7172604
0
LINE
8
DEFAULT_255_2_778
10
7.7245625
20
62.7172604
11
7.4597625
21
62.6203604
0
LINE
8
DEFAULT_255_2_778
10
7.4597625
20
62.6203604
11
7.4597625
21
62.7391604
0
LINE
8
DEFAULT_255_2_778
10
7.4597625
20
62.7391604
11
7.8359625
21
62.8799604
0
LINE
8
DEFAULT_255_2_778
10
7.8359625
20
62.8799604
11
7.8566625
21
62.8799604
0
LINE
8
DEFAULT_255_2_778
10
7.8566625
20
62.8799604
11
7.8566625
21
62.8796604
0
ARC
8
DEFAULT_255_2_778
10
6.9041566
20
66.0113151
40
0.5181806
50
71.872945
51
91.3734344
0
ARC
8
DEFAULT_255_2_778
10
6.9784612
20
66.2514135
40
0.2669117
50
51.412506
51
70.9962649
0
ARC
8
DEFAULT_255_2_778
10
6.9834313
20
66.2736048
40
0.2466669
50
357.1350601
51
49.0992984
0
ARC
8
DEFAULT_255_2_778
10
6.8042785
20
66.2549782
40
0.425558
50
359.995775
51
0.8479353
0
ARC
8
DEFAULT_255_2_778
10
7.0225014
20
66.2516682
40
0.207361
50
323.1975154
51
0.9059699
0
ARC
8
DEFAULT_255_2_778
10
6.9759414
20
66.2885015
40
0.2667119
50
292.1351399
51
322.8536928
0
ARC
8
DEFAULT_255_2_778
10
7.0172537
20
65.8102125
40
0.238688
50
36.6965429
51
75.6437336
0
ARC
8
DEFAULT_255_2_778
10
7.0037175
20
65.8032779
40
0.253698
50
358.5700412
51
36.1254519
0
ARC
8
DEFAULT_255_2_778
10
6.9832029
20
65.7829927
40
0.2744885
50
312.0744524
51
2.913998
0
ARC
8
DEFAULT_255_2_778
10
6.9524211
20
65.8408633
40
0.3384462
50
273.3221452
51
309.3766091
0
ARC
8
DEFAULT_255_2_778
10
6.9135803
20
66.1030195
40
0.602874
50
269.8817866
51
275.5640495
0
ARC
8
DEFAULT_255_2_778
10
6.9274286
20
65.8278755
40
0.217271
50
266.7831716
51
309.4680614
0
ARC
8
DEFAULT_255_2_778
10
6.9480721
20
65.7867385
40
0.1726943
50
312.858244
51
2.9568897
0
ARC
8
DEFAULT_255_2_778
10
6.9598764
20
65.8159779
40
0.1619414
50
352.7877153
51
84.2542203
0
ARC
8
DEFAULT_255_2_778
10
6.9198473
20
65.6316265
40
0.3500273
50
80.7537259
51
90.3618899
0
ARC
8
DEFAULT_255_2_778
10
6.9069789
20
66.3076611
40
0.2174948
50
267.0897843
51
307.3855782
0
ARC
8
DEFAULT_255_2_778
10
6.9443603
20
66.2493978
40
0.1486119
50
309.5736955
51
2.4485721
0
ARC
8
DEFAULT_255_2_778
10
6.9476534
20
66.2688154
40
0.14577
50
354.8564271
51
49.1304426
0
ARC
8
DEFAULT_255_2_778
10
6.9212702
20
66.2005316
40
0.2160897
50
55.7018815
51
89.3618214
0
ARC
8
DEFAULT_255_2_778
10
6.8923981
20
65.9465156
40
0.4711318
50
86.1932784
51
90.0804645
0
LINE
8
DEFAULT_255_2_778
10
6.9123365
20
65.4998469
11
6.5538365
21
65.4998469
0
LINE
8
DEFAULT_255_2_778
10
6.5538365
20
65.4998469
11
6.5538365
21
66.5293469
0
LINE
8
DEFAULT_255_2_778
10
6.5538365
20
66.5293469
11
6.8917365
21
66.5293469
0
LINE
8
DEFAULT_255_2_778
10
6.9123365
20
65.5001469
11
6.9123365
21
65.4998469
0
LINE
8
DEFAULT_255_2_778
10
6.9173365
20
65.9813469
11
6.6901365
21
65.9813469
0
LINE
8
DEFAULT_255_2_778
10
6.6901365
20
65.9813469
11
6.6901365
21
65.6109469
0
LINE
8
DEFAULT_255_2_778
10
6.6901365
20
65.6109469
11
6.9152365
21
65.6109469
0
LINE
8
DEFAULT_255_2_778
10
6.9176365
20
65.9816469
11
6.9173365
21
65.9813469
0
LINE
8
DEFAULT_255_2_778
10
6.6901365
20
66.4176469
11
6.6901365
21
66.0904469
0
LINE
8
DEFAULT_255_2_778
10
6.6901365
20
66.0904469
11
6.8959365
21
66.0904469
0
LINE
8
DEFAULT_255_2_778
10
6.8917365
20
66.4176469
11
6.6901365
21
66.4176469
0
LINE
8
DEFAULT_255_2_778
10
6.6901365
20
66.4176469
11
6.6901365
21
66.4176469
0
ARC
8
DEFAULT_255_2_778
10
7.1705922
20
65.9268016
40
0.902928
50
348.1640717
51
0.7805548
0
ARC
8
DEFAULT_255_2_778
10
7.6605677
20
65.8206719
40
0.4016158
50
326.2596032
51
348.6454974
0
ARC
8
DEFAULT_255_2_778
10
7.7745143
20
65.7593703
40
0.2730911
50
268.8067979
51
323.675332
0
ARC
8
DEFAULT_255_2_778
10
7.7484088
20
65.9639856
40
0.4780834
50
269.9793432
51
272.4478125
0
ARC
8
DEFAULT_255_2_778
10
7.734256
20
65.7976815
40
0.3120927
50
234.9903617
51
272.5674792
0
ARC
8
DEFAULT_255_2_778
10
7.7069634
20
65.7424457
40
0.2513669
50
215.857521
51
232.8619874
0
ARC
8
DEFAULT_255_2_778
10
7.8476681
20
65.8311898
40
0.4175205
50
189.4162838
51
214.4170325
0
ARC
8
DEFAULT_255_2_778
10
8.3050134
20
65.9241934
40
0.8840813
50
180.1809031
51
190.5132892
0
ARC
8
DEFAULT_255_2_778
10
8.3012846
20
66.1083522
40
0.8804348
50
167.9249794
51
180.8037309
0
ARC
8
DEFAULT_255_2_778
10
7.8247678
20
66.2133708
40
0.3925036
50
145.903813
51
168.3645808
0
ARC
8
DEFAULT_255_2_778
10
7.7186605
20
66.2696495
40
0.273391
50
89.4708712
51
143.2039446
0
ARC
8
DEFAULT_255_2_778
10
7.746678
20
66.0608769
40
0.4828254
50
89.9693331
51
93.0265786
0
ARC
8
DEFAULT_255_2_778
10
7.7603031
20
66.2165037
40
0.3274712
50
58.4841175
51
92.3393351
0
ARC
8
DEFAULT_255_2_778
10
7.7968778
20
66.293092
40
0.2432225
50
36.3640766
51
56.3975351
0
ARC
8
DEFAULT_255_2_778
10
7.6640588
20
66.2100548
40
0.3995877
50
9.4588048
51
34.6599186
0
ARC
8
DEFAULT_255_2_778
10
7.169783
20
66.1094629
40
0.9038535
50
359.9707884
51
10.5996443
0
ARC
8
DEFAULT_255_2_778
10
7.2156923
20
66.1300299
40
0.7265438
50
359.0514313
51
11.5461816
0
ARC
8
DEFAULT_255_2_778
10
7.6549024
20
66.2202023
40
0.2781734
50
11.4563015
51
30.1935474
0
ARC
8
DEFAULT_255_2_778
10
7.758163
20
66.2749261
40
0.1614667
50
31.8376385
51
93.986913
0
ARC
8
DEFAULT_255_2_778
10
7.7358115
20
66.2772069
40
0.1591844
50
85.9924871
51
148.5331133
0
ARC
8
DEFAULT_255_2_778
10
7.8982369
20
66.1955907
40
0.340666
50
151.0858907
51
174.1903915
0
ARC
8
DEFAULT_255_2_778
10
8.3687056
20
66.1242229
40
0.8162771
50
172.5491605
51
179.7487718
0
ARC
8
DEFAULT_255_2_778
10
8.2688433
20
65.9066377
40
0.7165051
50
179.0512185
51
191.9421298
0
ARC
8
DEFAULT_255_2_778
10
7.8515426
20
65.8184574
40
0.2899894
50
191.9574431
51
210.2880253
0
ARC
8
DEFAULT_255_2_778
10
7.7403527
20
65.7535202
40
0.161226
50
210.2897829
51
272.9095449
0
ARC
8
DEFAULT_255_2_778
10
7.7579696
20
65.7509605
40
0.158739
50
266.5931597
51
328.2382046
0
ARC
8
DEFAULT_255_2_778
10
7.6047639
20
65.8314817
40
0.3316106
50
330.3436881
51
353.6081526
0
ARC
8
DEFAULT_255_2_778
10
7.1132402
20
65.91055
40
0.8292246
50
351.9595314
51
359.5268294
0
LINE
8
DEFAULT_255_2_778
10
8.0734365
20
66.1087021
11
8.0734365
21
65.9391021
0
LINE
8
DEFAULT_255_2_778
10
7.4209365
20
65.9214021
11
7.4209365
21
66.0960021
0
LINE
8
DEFAULT_255_2_778
10
8.0736365
20
66.1090021
11
8.0734365
21
66.1087021
0
LINE
8
DEFAULT_255_2_778
10
7.9421365
20
65.9037021
11
7.9421365
21
66.1180021
0
LINE
8
DEFAULT_255_2_778
10
7.5524365
20
66.1278021
11
7.5524365
21
65.9185021
0
LINE
8
DEFAULT_255_2_778
10
7.9424365
20
65.9037021
11
7.9421365
21
65.9037021
0
ARC
8
DEFAULT_255_2_778
10
6.9207054
20
69.5124565
40
0.3947786
50
319.9748405
51
355.4399096
0
ARC
8
DEFAULT_255_2_778
10
6.9792096
20
69.4748147
40
0.3258887
50
311.0285366
51
318.4273541
0
ARC
8
DEFAULT_255_2_778
10
6.9489509
20
69.5245349
40
0.3833853
50
270.737512
51
309.562088
0
ARC
8
DEFAULT_255_2_778
10
6.9224339
20
69.7502939
40
0.6099241
50
269.971862
51
272.9558653
0
ARC
8
DEFAULT_255_2_778
10
6.9087599
20
69.5056568
40
0.3655318
50
219.9238681
51
272.096864
0
ARC
8
DEFAULT_255_2_778
10
7.0033111
20
69.5743286
40
0.482181
50
184.6027979
51
218.9713413
0
ARC
8
DEFAULT_255_2_778
10
7.290749
20
69.6193871
40
0.7726165
50
179.8752183
51
186.2231458
0
ARC
8
DEFAULT_255_2_778
10
7.1017025
20
69.7322411
40
0.583695
50
155.6967924
51
181.194831
0
ARC
8
DEFAULT_255_2_778
10
6.9194796
20
69.8146581
40
0.3837007
50
122.1083173
51
155.7142034
0
ARC
8
DEFAULT_255_2_778
10
6.9257963
20
69.7895846
40
0.4083745
50
88.8019965
51
120.9891122
0
ARC
8
DEFAULT_255_2_778
10
6.9485896
20
69.8041124
40
0.3940153
50
57.2287465
51
92.0733749
0
ARC
8
DEFAULT_255_2_778
10
6.9810858
20
69.8710114
40
0.3202976
50
47.2913053
51
55.6387275
0
ARC
8
DEFAULT_255_2_778
10
6.9361993
20
69.8342664
40
0.3778294
50
4.3493211
51
46.0689495
0
ARC
8
DEFAULT_255_2_778
10
6.737326
20
69.7951878
40
0.5795858
50
5.7116888
51
6.7110855
0
ARC
8
DEFAULT_255_2_778
10
6.8236312
20
69.8144494
40
0.355386
50
6.2063041
51
30.4498429
0
ARC
8
DEFAULT_255_2_778
10
6.9720851
20
69.8944223
40
0.1869849
50
32.3780511
51
46.8632925
0
ARC
8
DEFAULT_255_2_778
10
6.9493351
20
69.8538562
40
0.232409
50
49.6095808
51
92.9542217
0
ARC
8
DEFAULT_255_2_778
10
6.9340152
20
69.6692443
40
0.4167254
50
89.5405004
51
89.9973557
0
ARC
8
DEFAULT_255_2_778
10
6.9235788
20
69.8419757
40
0.244218
50
87.5462815
51
142.729253
0
ARC
8
DEFAULT_255_2_778
10
7.0300314
20
69.7731115
40
0.37076
50
144.2229863
51
174.3261738
0
ARC
8
DEFAULT_255_2_778
10
7.356371
20
69.7193084
40
0.7011429
50
172.5872887
51
180.2401369
0
ARC
8
DEFAULT_255_2_778
10
7.185462
20
69.6038676
40
0.5303797
50
178.6276756
51
200.4357909
0
ARC
8
DEFAULT_255_2_778
10
6.9951338
20
69.5403382
40
0.329921
50
201.6382344
51
215.1981478
0
ARC
8
DEFAULT_255_2_778
10
6.9134221
20
69.4785784
40
0.2275754
50
214.3499741
51
272.1939834
0
ARC
8
DEFAULT_255_2_778
10
6.9347039
20
69.5429565
40
0.2920573
50
267.5333602
51
298.0069382
0
ARC
8
DEFAULT_255_2_778
10
6.9805294
20
69.4403354
40
0.1801013
50
300.4667654
51
310.0989369
0
ARC
8
DEFAULT_255_2_778
10
6.9355438
20
69.4734424
40
0.2347668
50
313.2943848
51
347.3959789
0
ARC
8
DEFAULT_255_2_778
10
6.6610832
20
69.5606303
40
0.522247
50
344.6306221
51
351.2372872
0
LINE
8
DEFAULT_255_2_778
10
7.1772344
20
69.4810698
11
7.3142344
21
69.4810698
0
LINE
8
DEFAULT_255_2_778
10
6.5181344
20
69.6210698
11
6.5181344
21
69.7200698
0
LINE
8
DEFAULT_255_2_778
10
7.3140344
20
69.8528698
11
7.1769344
21
69.8528698
0
LINE
8
DEFAULT_255_2_778
10
6.6552344
20
69.7163698
11
6.6552344
21
69.6165698
0
LINE
8
DEFAULT_255_2_778
10
7.1772344
20
69.4810698
11
7.1772344
21
69.4810698
0
LINE
8
DEFAULT_255_2_778
10
7.6466698
20
70.1840469
11
7.6466698
21
69.1545469
0
LINE
8
DEFAULT_255_2_778
10
7.6466698
20
69.1545469
11
7.5103698
21
69.1545469
0
LINE
8
DEFAULT_255_2_778
10
7.5103698
20
69.1545469
11
7.5103698
21
70.1840469
0
LINE
8
DEFAULT_255_2_778
10
7.5103698
20
70.1840469
11
7.6466698
21
70.1840469
0
LINE
8
DEFAULT_255_2_778
10
7.6466698
20
70.1840469
11
7.6466698
21
70.1840469
0
LINE
8
DEFAULT_255_2_778
10
7.2235813
20
72.8092469
11
7.1248813
21
73.0778469
0
LINE
8
DEFAULT_255_2_778
10
7.1248813
20
73.0778469
11
6.6917813
21
73.0778469
0
LINE
8
DEFAULT_255_2_778
10
6.6917813
20
73.0778469
11
6.5943813
21
72.8092469
0
LINE
8
DEFAULT_255_2_778
10
6.5943813
20
72.8092469
11
6.4538813
21
72.8092469
0
LINE
8
DEFAULT_255_2_778
10
6.4538813
20
72.8092469
11
6.8486813
21
73.8387469
0
LINE
8
DEFAULT_255_2_778
10
6.8486813
20
73.8387469
11
6.9679813
21
73.8387469
0
LINE
8
DEFAULT_255_2_778
10
6.9679813
20
73.8387469
11
7.3634813
21
72.8092469
0
LINE
8
DEFAULT_255_2_778
10
7.3634813
20
72.8092469
11
7.2235813
21
72.8092469
0
LINE
8
DEFAULT_255_2_778
10
7.2235813
20
72.8092469
11
7.2235813
21
72.8092469
0
LINE
8
DEFAULT_255_2_778
10
6.9084813
20
73.6710469
11
6.7329813
21
73.1894469
0
LINE
8
DEFAULT_255_2_778
10
6.7329813
20
73.1894469
11
7.0843813
21
73.1894469
0
LINE
8
DEFAULT_255_2_778
10
7.0843813
20
73.1894469
11
6.9081813
21
73.6710469
0
LINE
8
DEFAULT_255_2_778
10
6.9081813
20
73.6710469
11
6.9084813
21
73.6710469
0
ARC
8
DEFAULT_255_2_778
10
7.7671443
20
73.6044185
40
0.2172084
50
267.590761
51
309.1616069
0
ARC
8
DEFAULT_255_2_778
10
7.7947417
20
73.5566043
40
0.1629445
50
312.2563768
51
2.6373461
0
ARC
8
DEFAULT_255_2_778
10
7.767552
20
73.5769965
40
0.1903987
50
356.11677
51
37.9242232
0
ARC
8
DEFAULT_255_2_778
10
7.7945585
20
73.5714703
40
0.1737603
50
44.8517708
51
93.0160622
0
ARC
8
DEFAULT_255_2_778
10
7.7765763
20
73.3968429
40
0.3482591
50
88.5455325
51
90.0103172
0
ARC
8
DEFAULT_255_2_778
10
7.7670731
20
73.5563547
40
0.1889833
50
87.1366488
51
132.0428448
0
ARC
8
DEFAULT_255_2_778
10
7.758855
20
73.5756324
40
0.1693002
50
134.3471156
51
182.4815539
0
ARC
8
DEFAULT_255_2_778
10
7.7205254
20
73.5740388
40
0.2620747
50
131.1088404
51
181.2542838
0
ARC
8
DEFAULT_255_2_778
10
7.7641742
20
73.5250468
40
0.3276877
50
87.841974
51
131.2270215
0
ARC
8
DEFAULT_255_2_778
10
7.7899403
20
73.499584
40
0.3531734
50
59.7154655
51
92.1787647
0
ARC
8
DEFAULT_255_2_778
10
7.8307586
20
73.586438
40
0.2577296
50
47.1869983
51
57.8139
0
ARC
8
DEFAULT_255_2_778
10
7.8117697
20
73.5769561
40
0.2776911
50
356.7477407
51
45.6422696
0
ARC
8
DEFAULT_255_2_778
10
7.863439
20
73.5644797
40
0.2255984
50
323.7250828
51
359.1675518
0
ARC
8
DEFAULT_255_2_778
10
7.8306529
20
73.5804841
40
0.2615799
50
291.4979474
51
325.148026
0
ARC
8
DEFAULT_255_2_778
10
7.8564163
20
73.0915555
40
0.2553562
50
37.7537362
51
74.0673159
0
ARC
8
DEFAULT_255_2_778
10
7.8588629
20
73.1036063
40
0.2461744
50
358.183303
51
35.8844566
0
ARC
8
DEFAULT_255_2_778
10
7.8248523
20
73.0827472
40
0.2803654
50
312.4582043
51
2.6688701
0
ARC
8
DEFAULT_255_2_778
10
7.79278
20
73.1355393
40
0.3411745
50
267.4521542
51
310.4466776
0
ARC
8
DEFAULT_255_2_778
10
7.7622787
20
73.1445358
40
0.3501697
50
230.8064905
51
272.5099358
0
LINE
8
DEFAULT_255_2_778
10
7.5409919
20
72.8731486
11
7.5408136
21
72.8733021
0
ARC
8
DEFAULT_255_2_778
10
7.7092869
20
73.0712483
40
0.2599346
50
177.9818792
51
229.5986722
0
ARC
8
DEFAULT_255_2_778
10
7.7495714
20
73.0731965
40
0.1682123
50
177.5449134
51
226.9359846
0
ARC
8
DEFAULT_255_2_778
10
7.7669361
20
73.1043414
40
0.2030048
50
229.3582333
51
272.9301833
0
ARC
8
DEFAULT_255_2_778
10
7.7909679
20
73.1001758
40
0.1990426
50
266.0664226
51
311.3322838
0
ARC
8
DEFAULT_255_2_778
10
7.8286625
20
73.0465189
40
0.1340477
50
314.3820421
51
314.6174458
0
ARC
8
DEFAULT_255_2_778
10
7.7843276
20
73.0804652
40
0.1895077
50
316.9507022
51
3.8234643
0
ARC
8
DEFAULT_255_2_778
10
7.800651
20
73.1038597
40
0.1730972
50
356.4368833
51
47.2661907
0
ARC
8
DEFAULT_255_2_778
10
7.776919
20
73.0512706
40
0.2285592
50
51.847315
51
89.8606456
0
ARC
8
DEFAULT_255_2_778
10
7.7527332
20
72.8483789
40
0.4321591
50
86.7179477
51
89.2601367
0
LINE
8
DEFAULT_255_2_778
10
7.6593136
20
73.2807021
11
7.6593136
21
73.3874021
0
LINE
8
DEFAULT_255_2_778
10
7.6593136
20
73.3874021
11
7.7580136
21
73.3874021
0
LINE
8
DEFAULT_255_2_778
10
7.5897136
20
73.5683021
11
7.4585136
21
73.5683021
0
LINE
8
DEFAULT_255_2_778
10
7.4495136
20
73.0804021
11
7.5815136
21
73.0804021
0
LINE
8
DEFAULT_255_2_778
10
7.7583136
20
73.2805021
11
7.6596136
21
73.2805021
0
LINE
8
DEFAULT_255_2_778
10
7.6596136
20
73.2805021
11
7.6593136
21
73.2807021
0
LINE
8
DEFAULT_255_2_778
10
7.2235813
20
76.4639469
11
7.1248813
21
76.7325469
0
LINE
8
DEFAULT_255_2_778
10
7.1248813
20
76.7325469
11
6.6917813
21
76.7325469
0
LINE
8
DEFAULT_255_2_778
10
6.6917813
20
76.7325469
11
6.5943813
21
76.4639469
0
LINE
8
DEFAULT_255_2_778
10
6.5943813
20
76.4639469
11
6.4538813
21
76.4639469
0
LINE
8
DEFAULT_255_2_778
10
6.4538813
20
76.4639469
11
6.8486813
21
77.4934469
0
LINE
8
DEFAULT_255_2_778
10
6.8486813
20
77.4934469
11
6.9679813
21
77.4934469
0
LINE
8
DEFAULT_255_2_778
10
6.9679813
20
77.4934469
11
7.3634813
21
76.4639469
0
LINE
8
DEFAULT_255_2_778
10
7.3634813
20
76.4639469
11
7.2235813
21
76.4639469
0
LINE
8
DEFAULT_255_2_778
10
7.2235813
20
76.4639469
11
7.2235813
21
76.4639469
0
LINE
8
DEFAULT_255_2_778
10
6.9084813
20
77.3257469
11
6.7329813
21
76.8441469
0
LINE
8
DEFAULT_255_2_778
10
6.7329813
20
76.8441469
11
7.0843813
21
76.8441469
0
LINE
8
DEFAULT_255_2_778
10
7.0843813
20
76.8441469
11
6.9081813
21
77.3257469
0
LINE
8
DEFAULT_255_2_778
10
6.9081813
20
77.3257469
11
6.9084813
21
77.3257469
0
ARC
8
DEFAULT_255_2_778
10
6.9898876
20
77.7118818
40
1.1290939
50
317.8191631
51
324.7825602
0
ARC
8
DEFAULT_255_2_778
10
7.5619301
20
77.303958
40
0.4265239
50
325.235974
51
331.3910759
0
ARC
8
DEFAULT_255_2_778
10
7.7231901
20
77.216946
40
0.2432902
50
331.1962374
51
359.8304535
0
ARC
8
DEFAULT_255_2_778
10
7.7820699
20
77.2232527
40
0.1845431
50
357.8178613
51
42.7522268
0
ARC
8
DEFAULT_255_2_778
10
7.7946883
20
77.2282451
40
0.1719583
50
44.3850664
51
92.6028656
0
ARC
8
DEFAULT_255_2_778
10
7.774686
20
77.1965169
40
0.2038741
50
86.5712331
51
133.4493059
0
ARC
8
DEFAULT_255_2_778
10
7.7915467
20
77.2025316
40
0.2117372
50
137.8853454
51
183.3859608
0
ARC
8
DEFAULT_255_2_778
10
7.7510742
20
77.2021181
40
0.302337
50
133.9931914
51
182.2921678
0
ARC
8
DEFAULT_255_2_778
10
7.768156
20
77.1692814
40
0.3379887
50
88.4133065
51
132.2098126
0
ARC
8
DEFAULT_255_2_778
10
7.7870492
20
76.9761964
40
0.5310297
50
89.9967697
51
91.0287876
0
ARC
8
DEFAULT_255_2_778
10
7.8005554
20
77.1556461
40
0.3518381
50
59.0696355
51
92.1950924
0
ARC
8
DEFAULT_255_2_778
10
7.8395159
20
77.2373824
40
0.2618408
50
47.9535865
51
57.189196
0
ARC
8
DEFAULT_255_2_778
10
7.8424668
20
77.24187
40
0.2565333
50
357.6220335
51
47.7717444
0
ARC
8
DEFAULT_255_2_778
10
7.7455433
20
77.244265
40
0.3534764
50
329.9996412
51
357.8860046
0
ARC
8
DEFAULT_255_2_778
10
7.2826562
20
77.491726
40
0.8782461
50
318.5516155
51
331.1178642
0
ARC
8
DEFAULT_255_2_778
10
6.8457079
20
77.8518286
40
1.4442592
50
317.1343657
51
319.3180902
0
LINE
8
DEFAULT_255_2_778
10
8.1458792
20
76.570626
11
8.1458792
21
76.463926
0
LINE
8
DEFAULT_255_2_778
10
8.1458792
20
76.463926
11
7.4685792
21
76.463926
0
LINE
8
DEFAULT_255_2_778
10
7.4685792
20
76.463926
11
7.4685792
21
76.557926
0
LINE
8
DEFAULT_255_2_778
10
7.4685792
20
76.557926
11
7.8265792
21
76.953726
0
LINE
8
DEFAULT_255_2_778
10
7.5801792
20
77.190026
11
7.4489792
21
77.190026
0
LINE
8
DEFAULT_255_2_778
10
7.9042792
20
76.869326
11
7.6272792
21
76.570326
0
LINE
8
DEFAULT_255_2_778
10
7.6272792
20
76.570326
11
8.1463792
21
76.570326
0
LINE
8
DEFAULT_255_2_778
10
8.1463792
20
76.570326
11
8.1458792
21
76.570626
0
LINE
8
DEFAULT_255_2_778
10
7.2235813
20
83.7730469
11
7.1248813
21
84.0416469
0
LINE
8
DEFAULT_255_2_778
10
7.1248813
20
84.0416469
11
6.6917813
21
84.0416469
0
LINE
8
DEFAULT_255_2_778
10
6.6917813
20
84.0416469
11
6.5943813
21
83.7730469
0
LINE
8
DEFAULT_255_2_778
10
6.5943813
20
83.7730469
11
6.4538813
21
83.7730469
0
LINE
8
DEFAULT_255_2_778
10
6.4538813
20
83.7730469
11
6.8486813
21
84.8025469
0
LINE
8
DEFAULT_255_2_778
10
6.8486813
20
84.8025469
11
6.9679813
21
84.8025469
0
LINE
8
DEFAULT_255_2_778
10
6.9679813
20
84.8025469
11
7.3634813
21
83.7730469
0
LINE
8
DEFAULT_255_2_778
10
7.3634813
20
83.7730469
11
7.2235813
21
83.7730469
0
LINE
8
DEFAULT_255_2_778
10
7.2235813
20
83.7730469
11
7.2235813
21
83.7730469
0
LINE
8
DEFAULT_255_2_778
10
6.9084813
20
84.6348469
11
6.7329813
21
84.1532469
0
LINE
8
DEFAULT_255_2_778
10
6.7329813
20
84.1532469
11
7.0843813
21
84.1532469
0
LINE
8
DEFAULT_255_2_778
10
7.0843813
20
84.1532469
11
6.9081813
21
84.6348469
0
LINE
8
DEFAULT_255_2_778
10
6.9081813
20
84.6348469
11
6.9084813
21
84.6348469
0
ARC
8
DEFAULT_255_2_778
10
7.8038491
20
84.330337
40
0.4723035
50
60.9559645
51
91.1410458
0
ARC
8
DEFAULT_255_2_778
10
7.8349691
20
84.3951743
40
0.4005343
50
26.5567677
51
60.3450361
0
ARC
8
DEFAULT_255_2_778
10
7.7002717
20
84.3300857
40
0.5501237
50
359.2147966
51
26.3484727
0
ARC
8
DEFAULT_255_2_778
10
7.6980916
20
84.2445792
40
0.5523862
50
333.8750505
51
1.2621852
0
ARC
8
DEFAULT_255_2_778
10
7.8402532
20
84.179068
40
0.3959199
50
299.106743
51
333.3280482
0
ARC
8
DEFAULT_255_2_778
10
7.7951103
20
84.2729733
40
0.4999645
50
269.2932934
51
298.3919492
0
ARC
8
DEFAULT_255_2_778
10
7.797272
20
84.2080299
40
0.3244267
50
267.3626483
51
308.8510832
0
ARC
8
DEFAULT_255_2_778
10
7.8171112
20
84.1699216
40
0.2824302
50
310.5665618
51
318.1657761
0
ARC
8
DEFAULT_255_2_778
10
7.7539663
20
84.2126008
40
0.3580929
50
319.8167302
51
355.4930575
0
ARC
8
DEFAULT_255_2_778
10
7.4766061
20
84.2575301
40
0.6385403
50
353.4292431
51
0.1630128
0
ARC
8
DEFAULT_255_2_778
10
7.626117
20
84.3322529
40
0.4891944
50
358.4999488
51
21.9317916
0
ARC
8
DEFAULT_255_2_778
10
7.7994055
20
84.394833
40
0.3051461
50
23.1847743
51
40.238116
0
ARC
8
DEFAULT_255_2_778
10
7.8114331
20
84.3950325
40
0.2959337
50
41.7130384
51
92.6635416
0
LINE
8
DEFAULT_255_2_778
10
7.7886438
20
83.7730469
11
7.5026438
21
83.7730469
0
LINE
8
DEFAULT_255_2_778
10
7.5026438
20
83.7730469
11
7.5026438
21
84.8025469
0
LINE
8
DEFAULT_255_2_778
10
7.5026438
20
84.8025469
11
7.7944438
21
84.8025469
0
LINE
8
DEFAULT_255_2_778
10
8.2503438
20
84.3225469
11
8.2503438
21
84.2567469
0
LINE
8
DEFAULT_255_2_778
10
7.7889438
20
83.7730469
11
7.7886438
21
83.7730469
0
LINE
8
DEFAULT_255_2_778
10
7.7979438
20
84.6906469
11
7.6389438
21
84.6906469
0
LINE
8
DEFAULT_255_2_778
10
7.6389438
20
84.6906469
11
7.6389438
21
83.8839469
0
LINE
8
DEFAULT_255_2_778
10
7.6389438
20
83.8839469
11
7.7823438
21
83.8839469
0
LINE
8
DEFAULT_255_2_778
10
8.1151438
20
84.2593469
11
8.1151438
21
84.3194469
0
LINE
8
DEFAULT_255_2_778
10
7.7976438
20
84.6906469
11
7.7979438
21
84.6906469
0
LINE
8
DEFAULT_255_2_778
10
7.2235813
20
80.1183469
11
7.1248813
21
80.3869469
0
LINE
8
DEFAULT_255_2_778
10
7.1248813
20
80.3869469
11
6.6917813
21
80.3869469
0
LINE
8
DEFAULT_255_2_778
10
6.6917813
20
80.3869469
11
6.5943813
21
80.1183469
0
LINE
8
DEFAULT_255_2_778
10
6.5943813
20
80.1183469
11
6.4538813
21
80.1183469
0
LINE
8
DEFAULT_255_2_778
10
6.4538813
20
80.1183469
11
6.8486813
21
81.1478469
0
LINE
8
DEFAULT_255_2_778
10
6.8486813
20
81.1478469
11
6.9679813
21
81.1478469
0
LINE
8
DEFAULT_255_2_778
10
6.9679813
20
81.1478469
11
7.3634813
21
80.1183469
0
LINE
8
DEFAULT_255_2_778
10
7.3634813
20
80.1183469
11
7.2235813
21
80.1183469
0
LINE
8
DEFAULT_255_2_778
10
7.2235813
20
80.1183469
11
7.2235813
21
80.1183469
0
LINE
8
DEFAULT_255_2_778
10
6.9084813
20
80.9801469
11
6.7329813
21
80.4985469
0
LINE
8
DEFAULT_255_2_778
10
6.7329813
20
80.4985469
11
7.0843813
21
80.4985469
0
LINE
8
DEFAULT_255_2_778
10
7.0843813
20
80.4985469
11
6.9081813
21
80.9801469
0
LINE
8
DEFAULT_255_2_778
10
6.9081813
20
80.9801469
11
6.9084813
21
80.9801469
0
LINE
8
DEFAULT_255_2_778
10
7.9000625
20
81.1528604
11
7.9000625
21
80.1186604
0
LINE
8
DEFAULT_255_2_778
10
7.9000625
20
80.1186604
11
7.7679625
21
80.1186604
0
LINE
8
DEFAULT_255_2_778
10
7.7679625
20
80.1186604
11
7.7679625
21
80.9904604
0
LINE
8
DEFAULT_255_2_778
10
7.7679625
20
80.9904604
11
7.5031625
21
80.8935604
0
LINE
8
DEFAULT_255_2_778
10
7.5031625
20
80.8935604
11
7.5031625
21
81.0123604
0
LINE
8
DEFAULT_255_2_778
10
7.5031625
20
81.0123604
11
7.8793625
21
81.1531604
0
LINE
8
DEFAULT_255_2_778
10
7.8793625
20
81.1531604
11
7.9000625
21
81.1531604
0
LINE
8
DEFAULT_255_2_778
10
7.9000625
20
81.1531604
11
7.9000625
21
81.1528604
0
LINE
8
DEFAULT_255_2_778
10
18.5757106
20
84.8750303
11
18.5757106
21
13.9661303
0
LINE
8
DEFAULT_255_2_778
10
17.6179106
20
84.8750303
11
28.4325106
21
84.8750303
0
LINE
8
DEFAULT_255_2_778
10
28.4325106
20
84.8750303
11
28.4325106
21
13.9661303
0
LINE
8
DEFAULT_255_2_778
10
28.4325106
20
13.9661303
11
17.6179106
21
13.9661303
0
LINE
8
DEFAULT_255_2_778
10
17.6179106
20
13.9661303
11
17.6179106
21
84.8750303
0
LINE
8
DEFAULT_255_2_778
10
27.3786106
20
84.8750303
11
27.3786106
21
13.9661303
0
ARC
8
DEFAULT_255_2_778
10
22.9661675
20
15.8751945
40
1.1061787
50
143.4646581
51
180.1339601
0
ARC
8
DEFAULT_255_2_778
10
22.972991
20
15.870258
40
1.1146001
50
95.5096
51
143.4695759
0
ARC
8
DEFAULT_255_2_778
10
22.9770906
20
15.8391265
40
1.1459818
50
89.9899388
51
95.5641785
0
ARC
8
DEFAULT_255_2_778
10
22.9802546
20
15.8674701
40
1.1176421
50
55.1142232
51
90.1518897
0
ARC
8
DEFAULT_255_2_778
10
22.9865357
20
15.8748862
40
1.1079666
50
4.4233444
51
55.1613233
0
ARC
8
DEFAULT_255_2_778
10
22.960872
20
15.8727356
40
1.1337199
50
359.9935642
51
4.4316761
0
ARC
8
DEFAULT_255_2_778
10
22.9882382
20
15.8700021
40
1.1063567
50
323.4676946
51
0.1349657
0
ARC
8
DEFAULT_255_2_778
10
22.981598
20
15.8748171
40
1.1145584
50
275.5095276
51
323.4720037
0
ARC
8
DEFAULT_255_2_778
10
22.977493
20
15.9059899
40
1.1459818
50
269.9899389
51
275.5641785
0
ARC
8
DEFAULT_255_2_778
10
22.9743249
20
15.8776078
40
1.1176035
50
235.1130963
51
270.1521047
0
ARC
8
DEFAULT_255_2_778
10
22.9681331
20
15.8702765
40
1.1080485
50
184.4209379
51
235.1588993
0
ARC
8
DEFAULT_255_2_778
10
22.9940601
20
15.8724805
40
1.1340684
50
179.9935486
51
184.430988
0
ARC
8
DEFAULT_255_2_778
10
20.2430006
20
22.0886181
40
1.6673094
50
179.9522299
51
211.6567833
0
ARC
8
DEFAULT_255_2_778
10
20.2577563
20
22.0964602
40
1.6839856
50
211.6204106
51
255.3785514
0
ARC
8
DEFAULT_255_2_778
10
20.2616556
20
22.1136187
40
1.7015729
50
255.3973527
51
261.8554403
0
ARC
8
DEFAULT_255_2_778
10
26.5356732
20
20.2525595
40
0.8465822
50
261.8591903
51
264.4193371
0
ARC
8
DEFAULT_255_2_778
10
26.5356223
20
20.2519312
40
0.8459519
50
264.4186287
51
269.9998973
0
ARC
8
DEFAULT_255_2_778
10
26.5357908
20
20.2513458
40
0.8453666
50
269.988481
51
310.7481873
0
ARC
8
DEFAULT_255_2_778
10
26.5411339
20
20.245246
40
0.8372578
50
310.7436472
51
359.9905719
0
LINE
8
DEFAULT_255_2_778
10
21.8599918
20
15.8726082
11
21.8599918
21
15.8726082
0
LINE
8
DEFAULT_255_2_778
10
27.3788918
20
17.9149082
11
18.5756918
21
17.9149082
0
LINE
8
DEFAULT_255_2_778
10
18.5756918
20
17.9149082
11
27.3786918
21
17.9149082
0
LINE
8
DEFAULT_255_2_778
10
20.0205918
20
20.4292082
11
26.4157918
21
19.4145082
0
ARC
8
DEFAULT_255_2_778
10
22.9663777
20
82.9716144
40
1.1063567
50
143.4676946
51
180.1349657
0
ARC
8
DEFAULT_255_2_778
10
22.9730179
20
82.9667994
40
1.1145584
50
95.5095276
51
143.4720037
0
ARC
8
DEFAULT_255_2_778
10
22.9771228
20
82.9356265
40
1.1459818
50
89.9899389
51
95.5641785
0
ARC
8
DEFAULT_255_2_778
10
22.980291
20
82.9640086
40
1.1176035
50
55.1130963
51
90.1521047
0
ARC
8
DEFAULT_255_2_778
10
22.9864828
20
82.9713399
40
1.1080485
50
4.4209379
51
55.1588993
0
ARC
8
DEFAULT_255_2_778
10
22.9605558
20
82.9691359
40
1.1340684
50
359.9935486
51
4.430988
0
ARC
8
DEFAULT_255_2_778
10
22.9884005
20
82.9663957
40
1.1062267
50
323.8119765
51
0.1353156
0
ARC
8
DEFAULT_255_2_778
10
22.9816846
20
82.9713156
40
1.1145519
50
275.543821
51
323.8116929
0
ARC
8
DEFAULT_255_2_778
10
22.97753
20
83.0026318
40
1.1461235
50
269.9897063
51
275.5993006
0
ARC
8
DEFAULT_255_2_778
10
22.9743442
20
82.9742168
40
1.1177125
50
235.1178124
51
270.1527555
0
ARC
8
DEFAULT_255_2_778
10
22.9679998
20
82.9666552
40
1.1078817
50
184.4204637
51
235.1633265
0
ARC
8
DEFAULT_255_2_778
10
22.9940631
20
82.9688802
40
1.134039
50
179.9935291
51
184.4310496
0
ARC
8
DEFAULT_255_2_778
10
26.5408408
20
78.5963834
40
0.8378834
50
0.0290489
51
49.2367587
0
ARC
8
DEFAULT_255_2_778
10
26.5366537
20
78.5918159
40
0.8440769
50
49.2239248
51
90.0214829
0
ARC
8
DEFAULT_255_2_778
10
26.536344
20
78.5899142
40
0.8459786
50
90.000459
51
95.4664647
0
ARC
8
DEFAULT_255_2_778
10
26.5364109
20
78.5891691
40
0.8467267
50
95.4661729
51
98.1671253
0
ARC
8
DEFAULT_255_2_778
10
20.2571958
20
76.7464516
40
1.6826698
50
98.0821649
51
128.1847614
0
ARC
8
DEFAULT_255_2_778
10
20.2512731
20
76.7506871
40
1.6756805
50
128.1151126
51
174.9188723
0
ARC
8
DEFAULT_255_2_778
10
20.2607106
20
76.7517633
40
1.6849866
50
174.9837449
51
180.005273
0
LINE
8
DEFAULT_255_2_778
10
21.8600241
20
82.9690082
11
21.8600241
21
82.9690082
0
LINE
8
DEFAULT_255_2_778
10
18.5757241
20
80.9267082
11
27.3787241
21
80.9267082
0
LINE
8
DEFAULT_255_2_778
10
26.4161241
20
79.4273082
11
20.0206241
21
78.4124082
0
ARC
8
DEFAULT_255_2_778
10
21.1104309
20
28.179569
40
0.6964142
50
90.0011692
51
179.9988308
0
ARC
8
DEFAULT_255_2_778
10
21.1104025
20
28.179569
40
0.6964142
50
0.0011692
51
89.9988308
0
ARC
8
DEFAULT_255_2_778
10
21.1104025
20
28.1795974
40
0.6964142
50
270.0011692
51
359.9988308
0
ARC
8
DEFAULT_255_2_778
10
21.1104309
20
28.1795974
40
0.6964142
50
180.0011692
51
269.9988308
0
ARC
8
DEFAULT_255_2_778
10
21.1104309
20
22.515369
40
0.6964142
50
90.0011692
51
179.9988308
0
ARC
8
DEFAULT_255_2_778
10
21.1104025
20
22.515369
40
0.6964142
50
0.0011692
51
89.9988308
0
ARC
8
DEFAULT_255_2_778
10
21.1104025
20
22.5153974
40
0.6964142
50
270.0011692
51
359.9988308
0
ARC
8
DEFAULT_255_2_778
10
21.1104309
20
22.5153974
40
0.6964142
50
180.0011692
51
269.9988308
0
ARC
8
DEFAULT_255_2_778
10
21.1104309
20
25.347469
40
0.6964142
50
90.0011692
51
179.9988308
0
ARC
8
DEFAULT_255_2_778
10
21.1104025
20
25.347469
40
0.6964142
50
0.0011692
51
89.9988308
0
ARC
8
DEFAULT_255_2_778
10
21.1104025
20
25.3474974
40
0.6964142
50
270.0011692
51
359.9988308
0
ARC
8
DEFAULT_255_2_778
10
21.1104309
20
25.3474974
40
0.6964142
50
180.0011692
51
269.9988308
0
LINE
8
DEFAULT_255_2_778
10
20.4140167
20
28.1795832
11
20.4140167
21
28.1795832
0
LINE
8
DEFAULT_255_2_778
10
20.4140167
20
22.5153832
11
20.4140167
21
22.5153832
0
LINE
8
DEFAULT_255_2_778
10
20.4140167
20
25.3474832
11
20.4140167
21
25.3474832
0
ARC
8
DEFAULT_255_2_778
10
21.1104309
20
31.011669
40
0.6964142
50
90.0011692
51
179.9988308
0
ARC
8
DEFAULT_255_2_778
10
21.1104025
20
31.011669
40
0.6964142
50
0.0011692
51
89.9988308
0
ARC
8
DEFAULT_255_2_778
10
21.1104025
20
31.0116974
40
0.6964142
50
270.0011692
51
359.9988308
0
ARC
8
DEFAULT_255_2_778
10
21.1104309
20
31.0116974
40
0.6964142
50
180.0011692
51
269.9988308
0
ARC
8
DEFAULT_255_2_778
10
21.1104309
20
36.675869
40
0.6964142
50
90.0011692
51
179.9988308
0
ARC
8
DEFAULT_255_2_778
10
21.1104025
20
36.675869
40
0.6964142
50
0.0011692
51
89.9988308
0
ARC
8
DEFAULT_255_2_778
10
21.1104025
20
36.6758974
40
0.6964142
50
270.0011692
51
359.9988308
0
ARC
8
DEFAULT_255_2_778
10
21.1104309
20
36.6758974
40
0.6964142
50
180.0011692
51
269.9988308
0
ARC
8
DEFAULT_255_2_778
10
21.1104309
20
33.843769
40
0.6964142
50
90.0011692
51
179.9988308
0
ARC
8
DEFAULT_255_2_778
10
21.1104025
20
33.843769
40
0.6964142
50
0.0011692
51
89.9988308
0
ARC
8
DEFAULT_255_2_778
10
21.1104025
20
33.8437974
40
0.6964142
50
270.0011692
51
359.9988308
0
ARC
8
DEFAULT_255_2_778
10
21.1104309
20
33.8437974
40
0.6964142
50
180.0011692
51
269.9988308
0
LINE
8
DEFAULT_255_2_778
10
20.4140167
20
31.0116832
11
20.4140167
21
31.0116832
0
LINE
8
DEFAULT_255_2_778
10
20.4140167
20
36.6758832
11
20.4140167
21
36.6758832
0
LINE
8
DEFAULT_255_2_778
10
20.4140167
20
33.8437832
11
20.4140167
21
33.8437832
0
ARC
8
DEFAULT_255_2_778
10
24.6455309
20
25.3932191
40
0.6964142
50
90.0011692
51
179.9988308
0
ARC
8
DEFAULT_255_2_778
10
24.6455025
20
25.3932191
40
0.6964142
50
0.0011692
51
89.9988308
0
ARC
8
DEFAULT_255_2_778
10
24.6455025
20
25.3932475
40
0.6964142
50
270.0011692
51
359.9988308
0
ARC
8
DEFAULT_255_2_778
10
24.6455309
20
25.3932475
40
0.6964142
50
180.0011692
51
269.9988308
0
ARC
8
DEFAULT_255_2_778
10
24.6455309
20
22.5611191
40
0.6964142
50
90.0011692
51
179.9988308
0
ARC
8
DEFAULT_255_2_778
10
24.6455025
20
22.5611191
40
0.6964142
50
0.0011692
51
89.9988308
0
ARC
8
DEFAULT_255_2_778
10
24.6455025
20
22.5611475
40
0.6964142
50
270.0011692
51
359.9988308
0
ARC
8
DEFAULT_255_2_778
10
24.6455309
20
22.5611475
40
0.6964142
50
180.0011692
51
269.9988308
0
LINE
8
DEFAULT_255_2_778
10
23.9491167
20
25.3932333
11
23.9491167
21
25.3932333
0
LINE
8
DEFAULT_255_2_778
10
23.9491167
20
22.5611333
11
23.9491167
21
22.5611333
0
ARC
8
DEFAULT_255_2_778
10
24.6455309
20
33.889569
40
0.6964142
50
90.0011692
51
179.9988308
0
ARC
8
DEFAULT_255_2_778
10
24.6455025
20
33.889569
40
0.6964142
50
0.0011692
51
89.9988308
0
ARC
8
DEFAULT_255_2_778
10
24.6455025
20
33.8895974
40
0.6964142
50
270.0011692
51
359.9988308
0
ARC
8
DEFAULT_255_2_778
10
24.6455309
20
33.8895974
40
0.6964142
50
180.0011692
51
269.9988308
0
ARC
8
DEFAULT_255_2_778
10
24.6455309
20
28.225369
40
0.6964142
50
90.0011692
51
179.9988308
0
ARC
8
DEFAULT_255_2_778
10
24.6455025
20
28.225369
40
0.6964142
50
0.0011692
51
89.9988308
0
ARC
8
DEFAULT_255_2_778
10
24.6455025
20
28.2253974
40
0.6964142
50
270.0011692
51
359.9988308
0
ARC
8
DEFAULT_255_2_778
10
24.6455309
20
28.2253974
40
0.6964142
50
180.0011692
51
269.9988308
0
ARC
8
DEFAULT_255_2_778
10
24.6455309
20
31.057469
40
0.6964142
50
90.0011692
51
179.9988308
0
ARC
8
DEFAULT_255_2_778
10
24.6455025
20
31.057469
40
0.6964142
50
0.0011692
51
89.9988308
0
ARC
8
DEFAULT_255_2_778
10
24.6455025
20
31.0574974
40
0.6964142
50
270.0011692
51
359.9988308
0
ARC
8
DEFAULT_255_2_778
10
24.6455309
20
31.0574974
40
0.6964142
50
180.0011692
51
269.9988308
0
LINE
8
DEFAULT_255_2_778
10
23.9491167
20
33.8895832
11
23.9491167
21
33.8895832
0
LINE
8
DEFAULT_255_2_778
10
23.9491167
20
28.2253832
11
23.9491167
21
28.2253832
0
LINE
8
DEFAULT_255_2_778
10
23.9491167
20
31.0574832
11
23.9491167
21
31.0574832
0
ARC
8
DEFAULT_255_2_778
10
21.1104309
20
39.5082191
40
0.6964142
50
90.0011692
51
179.9988308
0
ARC
8
DEFAULT_255_2_778
10
21.1104025
20
39.5082191
40
0.6964142
50
0.0011692
51
89.9988308
0
ARC
8
DEFAULT_255_2_778
10
21.1104025
20
39.5082475
40
0.6964142
50
270.0011692
51
359.9988308
0
ARC
8
DEFAULT_255_2_778
10
21.1104309
20
39.5082475
40
0.6964142
50
180.0011692
51
269.9988308
0
ARC
8
DEFAULT_255_2_778
10
21.1104309
20
42.3403191
40
0.6964142
50
90.0011692
51
179.9988308
0
ARC
8
DEFAULT_255_2_778
10
21.1104025
20
42.3403191
40
0.6964142
50
0.0011692
51
89.9988308
0
ARC
8
DEFAULT_255_2_778
10
21.1104025
20
42.3403475
40
0.6964142
50
270.0011692
51
359.9988308
0
ARC
8
DEFAULT_255_2_778
10
21.1104309
20
42.3403475
40
0.6964142
50
180.0011692
51
269.9988308
0
LINE
8
DEFAULT_255_2_778
10
20.4140167
20
39.5082333
11
20.4140167
21
39.5082333
0
LINE
8
DEFAULT_255_2_778
10
20.4140167
20
42.3403333
11
20.4140167
21
42.3403333
0
ARC
8
DEFAULT_255_2_778
10
21.1104309
20
45.172469
40
0.6964142
50
90.0011692
51
179.9988308
0
ARC
8
DEFAULT_255_2_778
10
21.1104025
20
45.172469
40
0.6964142
50
0.0011692
51
89.9988308
0
ARC
8
DEFAULT_255_2_778
10
21.1104025
20
45.1724974
40
0.6964142
50
270.0011692
51
359.9988308
0
ARC
8
DEFAULT_255_2_778
10
21.1104309
20
45.1724974
40
0.6964142
50
180.0011692
51
269.9988308
0
ARC
8
DEFAULT_255_2_778
10
21.1104309
20
48.004569
40
0.6964142
50
90.0011692
51
179.9988308
0
ARC
8
DEFAULT_255_2_778
10
21.1104025
20
48.004569
40
0.6964142
50
0.0011692
51
89.9988308
0
ARC
8
DEFAULT_255_2_778
10
21.1104025
20
48.0045974
40
0.6964142
50
270.0011692
51
359.9988308
0
ARC
8
DEFAULT_255_2_778
10
21.1104309
20
48.0045974
40
0.6964142
50
180.0011692
51
269.9988308
0
ARC
8
DEFAULT_255_2_778
10
21.1104309
20
50.836669
40
0.6964142
50
90.0011692
51
179.9988308
0
ARC
8
DEFAULT_255_2_778
10
21.1104025
20
50.836669
40
0.6964142
50
0.0011692
51
89.9988308
0
ARC
8
DEFAULT_255_2_778
10
21.1104025
20
50.8366974
40
0.6964142
50
270.0011692
51
359.9988308
0
ARC
8
DEFAULT_255_2_778
10
21.1104309
20
50.8366974
40
0.6964142
50
180.0011692
51
269.9988308
0
LINE
8
DEFAULT_255_2_778
10
20.4140167
20
45.1724832
11
20.4140167
21
45.1724832
0
LINE
8
DEFAULT_255_2_778
10
20.4140167
20
48.0045832
11
20.4140167
21
48.0045832
0
LINE
8
DEFAULT_255_2_778
10
20.4140167
20
50.8366832
11
20.4140167
21
50.8366832
0
ARC
8
DEFAULT_255_2_778
10
24.6455309
20
42.3861191
40
0.6964142
50
90.0011692
51
179.9988308
0
ARC
8
DEFAULT_255_2_778
10
24.6455025
20
42.3861191
40
0.6964142
50
0.0011692
51
89.9988308
0
ARC
8
DEFAULT_255_2_778
10
24.6455025
20
42.3861475
40
0.6964142
50
270.0011692
51
359.9988308
0
ARC
8
DEFAULT_255_2_778
10
24.6455309
20
42.3861475
40
0.6964142
50
180.0011692
51
269.9988308
0
ARC
8
DEFAULT_255_2_778
10
24.6455309
20
45.2182191
40
0.6964142
50
90.0011692
51
179.9988308
0
ARC
8
DEFAULT_255_2_778
10
24.6455025
20
45.2182191
40
0.6964142
50
0.0011692
51
89.9988308
0
ARC
8
DEFAULT_255_2_778
10
24.6455025
20
45.2182475
40
0.6964142
50
270.0011692
51
359.9988308
0
ARC
8
DEFAULT_255_2_778
10
24.6455309
20
45.2182475
40
0.6964142
50
180.0011692
51
269.9988308
0
LINE
8
DEFAULT_255_2_778
10
23.9491167
20
42.3861333
11
23.9491167
21
42.3861333
0
LINE
8
DEFAULT_255_2_778
10
23.9491167
20
45.2182333
11
23.9491167
21
45.2182333
0
ARC
8
DEFAULT_255_2_778
10
24.6455309
20
39.5537191
40
0.6964142
50
90.0011692
51
179.9988308
0
ARC
8
DEFAULT_255_2_778
10
24.6455025
20
39.5537191
40
0.6964142
50
0.0011692
51
89.9988308
0
ARC
8
DEFAULT_255_2_778
10
24.6455025
20
39.5537475
40
0.6964142
50
270.0011692
51
359.9988308
0
ARC
8
DEFAULT_255_2_778
10
24.6455309
20
39.5537475
40
0.6964142
50
180.0011692
51
269.9988308
0
ARC
8
DEFAULT_255_2_778
10
24.6455309
20
36.7216191
40
0.6964142
50
90.0011692
51
179.9988308
0
ARC
8
DEFAULT_255_2_778
10
24.6455025
20
36.7216191
40
0.6964142
50
0.0011692
51
89.9988308
0
ARC
8
DEFAULT_255_2_778
10
24.6455025
20
36.7216475
40
0.6964142
50
270.0011692
51
359.9988308
0
ARC
8
DEFAULT_255_2_778
10
24.6455309
20
36.7216475
40
0.6964142
50
180.0011692
51
269.9988308
0
LINE
8
DEFAULT_255_2_778
10
23.9491167
20
39.5537333
11
23.9491167
21
39.5537333
0
LINE
8
DEFAULT_255_2_778
10
23.9491167
20
36.7216333
11
23.9491167
21
36.7216333
0
ARC
8
DEFAULT_255_2_778
10
21.1104309
20
59.333169
40
0.6964142
50
90.0011692
51
179.9988308
0
ARC
8
DEFAULT_255_2_778
10
21.1104025
20
59.333169
40
0.6964142
50
0.0011692
51
89.9988308
0
ARC
8
DEFAULT_255_2_778
10
21.1104025
20
59.3331974
40
0.6964142
50
270.0011692
51
359.9988308
0
ARC
8
DEFAULT_255_2_778
10
21.1104309
20
59.3331974
40
0.6964142
50
180.0011692
51
269.9988308
0
ARC
8
DEFAULT_255_2_778
10
21.1104309
20
62.165269
40
0.6964142
50
90.0011692
51
179.9988308
0
ARC
8
DEFAULT_255_2_778
10
21.1104025
20
62.165269
40
0.6964142
50
0.0011692
51
89.9988308
0
ARC
8
DEFAULT_255_2_778
10
21.1104025
20
62.1652974
40
0.6964142
50
270.0011692
51
359.9988308
0
ARC
8
DEFAULT_255_2_778
10
21.1104309
20
62.1652974
40
0.6964142
50
180.0011692
51
269.9988308
0
ARC
8
DEFAULT_255_2_778
10
21.1104309
20
64.997369
40
0.6964142
50
90.0011692
51
179.9988308
0
ARC
8
DEFAULT_255_2_778
10
21.1104025
20
64.997369
40
0.6964142
50
0.0011692
51
89.9988308
0
ARC
8
DEFAULT_255_2_778
10
21.1104025
20
64.9973974
40
0.6964142
50
270.0011692
51
359.9988308
0
ARC
8
DEFAULT_255_2_778
10
21.1104309
20
64.9973974
40
0.6964142
50
180.0011692
51
269.9988308
0
LINE
8
DEFAULT_255_2_778
10
20.4140167
20
59.3331832
11
20.4140167
21
59.3331832
0
LINE
8
DEFAULT_255_2_778
10
20.4140167
20
62.1652832
11
20.4140167
21
62.1652832
0
LINE
8
DEFAULT_255_2_778
10
20.4140167
20
64.9973832
11
20.4140167
21
64.9973832
0
ARC
8
DEFAULT_255_2_778
10
21.1104309
20
53.6687191
40
0.6964142
50
90.0011692
51
179.9988308
0
ARC
8
DEFAULT_255_2_778
10
21.1104025
20
53.6687191
40
0.6964142
50
0.0011692
51
89.9988308
0
ARC
8
DEFAULT_255_2_778
10
21.1104025
20
53.6687475
40
0.6964142
50
270.0011692
51
359.9988308
0
ARC
8
DEFAULT_255_2_778
10
21.1104309
20
53.6687475
40
0.6964142
50
180.0011692
51
269.9988308
0
ARC
8
DEFAULT_255_2_778
10
21.1104309
20
56.5008191
40
0.6964142
50
90.0011692
51
179.9988308
0
ARC
8
DEFAULT_255_2_778
10
21.1104025
20
56.5008191
40
0.6964142
50
0.0011692
51
89.9988308
0
ARC
8
DEFAULT_255_2_778
10
21.1104025
20
56.5008475
40
0.6964142
50
270.0011692
51
359.9988308
0
ARC
8
DEFAULT_255_2_778
10
21.1104309
20
56.5008475
40
0.6964142
50
180.0011692
51
269.9988308
0
LINE
8
DEFAULT_255_2_778
10
20.4140167
20
53.6687333
11
20.4140167
21
53.6687333
0
LINE
8
DEFAULT_255_2_778
10
20.4140167
20
56.5008333
11
20.4140167
21
56.5008333
0
ARC
8
DEFAULT_255_2_778
10
24.6455309
20
53.714569
40
0.6964142
50
90.0011692
51
179.9988308
0
ARC
8
DEFAULT_255_2_778
10
24.6455025
20
53.714569
40
0.6964142
50
0.0011692
51
89.9988308
0
ARC
8
DEFAULT_255_2_778
10
24.6455025
20
53.7145974
40
0.6964142
50
270.0011692
51
359.9988308
0
ARC
8
DEFAULT_255_2_778
10
24.6455309
20
53.7145974
40
0.6964142
50
180.0011692
51
269.9988308
0
ARC
8
DEFAULT_255_2_778
10
24.6455309
20
48.050369
40
0.6964142
50
90.0011692
51
179.9988308
0
ARC
8
DEFAULT_255_2_778
10
24.6455025
20
48.050369
40
0.6964142
50
0.0011692
51
89.9988308
0
ARC
8
DEFAULT_255_2_778
10
24.6455025
20
48.0503974
40
0.6964142
50
270.0011692
51
359.9988308
0
ARC
8
DEFAULT_255_2_778
10
24.6455309
20
48.0503974
40
0.6964142
50
180.0011692
51
269.9988308
0
ARC
8
DEFAULT_255_2_778
10
24.6455309
20
50.882469
40
0.6964142
50
90.0011692
51
179.9988308
0
ARC
8
DEFAULT_255_2_778
10
24.6455025
20
50.882469
40
0.6964142
50
0.0011692
51
89.9988308
0
ARC
8
DEFAULT_255_2_778
10
24.6455025
20
50.8824974
40
0.6964142
50
270.0011692
51
359.9988308
0
ARC
8
DEFAULT_255_2_778
10
24.6455309
20
50.8824974
40
0.6964142
50
180.0011692
51
269.9988308
0
LINE
8
DEFAULT_255_2_778
10
23.9491167
20
53.7145832
11
23.9491167
21
53.7145832
0
LINE
8
DEFAULT_255_2_778
10
23.9491167
20
48.0503832
11
23.9491167
21
48.0503832
0
LINE
8
DEFAULT_255_2_778
10
23.9491167
20
50.8824832
11
23.9491167
21
50.8824832
0
ARC
8
DEFAULT_255_2_778
10
24.6455309
20
59.3787191
40
0.6964142
50
90.0011692
51
179.9988308
0
ARC
8
DEFAULT_255_2_778
10
24.6455025
20
59.3787191
40
0.6964142
50
0.0011692
51
89.9988308
0
ARC
8
DEFAULT_255_2_778
10
24.6455025
20
59.3787475
40
0.6964142
50
270.0011692
51
359.9988308
0
ARC
8
DEFAULT_255_2_778
10
24.6455309
20
59.3787475
40
0.6964142
50
180.0011692
51
269.9988308
0
ARC
8
DEFAULT_255_2_778
10
24.6455309
20
56.5466191
40
0.6964142
50
90.0011692
51
179.9988308
0
ARC
8
DEFAULT_255_2_778
10
24.6455025
20
56.5466191
40
0.6964142
50
0.0011692
51
89.9988308
0
ARC
8
DEFAULT_255_2_778
10
24.6455025
20
56.5466475
40
0.6964142
50
270.0011692
51
359.9988308
0
ARC
8
DEFAULT_255_2_778
10
24.6455309
20
56.5466475
40
0.6964142
50
180.0011692
51
269.9988308
0
LINE
8
DEFAULT_255_2_778
10
23.9491167
20
59.3787333
11
23.9491167
21
59.3787333
0
LINE
8
DEFAULT_255_2_778
10
23.9491167
20
56.5466333
11
23.9491167
21
56.5466333
0
ARC
8
DEFAULT_255_2_778
10
21.1104309
20
70.661569
40
0.6964142
50
90.0011692
51
179.9988308
0
ARC
8
DEFAULT_255_2_778
10
21.1104025
20
70.661569
40
0.6964142
50
0.0011692
51
89.9988308
0
ARC
8
DEFAULT_255_2_778
10
21.1104025
20
70.6615974
40
0.6964142
50
270.0011692
51
359.9988308
0
ARC
8
DEFAULT_255_2_778
10
21.1104309
20
70.6615974
40
0.6964142
50
180.0011692
51
269.9988308
0
ARC
8
DEFAULT_255_2_778
10
21.1104309
20
73.493669
40
0.6964142
50
90.0011692
51
179.9988308
0
ARC
8
DEFAULT_255_2_778
10
21.1104025
20
73.493669
40
0.6964142
50
0.0011692
51
89.9988308
0
ARC
8
DEFAULT_255_2_778
10
21.1104025
20
73.4936974
40
0.6964142
50
270.0011692
51
359.9988308
0
ARC
8
DEFAULT_255_2_778
10
21.1104309
20
73.4936974
40
0.6964142
50
180.0011692
51
269.9988308
0
ARC
8
DEFAULT_255_2_778
10
21.1104309
20
76.325769
40
0.6964142
50
90.0011692
51
179.9988308
0
ARC
8
DEFAULT_255_2_778
10
21.1104025
20
76.325769
40
0.6964142
50
0.0011692
51
89.9988308
0
ARC
8
DEFAULT_255_2_778
10
21.1104025
20
76.3257974
40
0.6964142
50
270.0011692
51
359.9988308
0
ARC
8
DEFAULT_255_2_778
10
21.1104309
20
76.3257974
40
0.6964142
50
180.0011692
51
269.9988308
0
LINE
8
DEFAULT_255_2_778
10
20.4140167
20
70.6615832
11
20.4140167
21
70.6615832
0
LINE
8
DEFAULT_255_2_778
10
20.4140167
20
73.4936832
11
20.4140167
21
73.4936832
0
LINE
8
DEFAULT_255_2_778
10
20.4140167
20
76.3257832
11
20.4140167
21
76.3257832
0
ARC
8
DEFAULT_255_2_778
10
21.1104309
20
67.8294691
40
0.6964142
50
90.0011692
51
179.9988308
0
ARC
8
DEFAULT_255_2_778
10
21.1104025
20
67.8294691
40
0.6964142
50
0.0011692
51
89.9988308
0
ARC
8
DEFAULT_255_2_778
10
21.1104025
20
67.8294975
40
0.6964142
50
270.0011692
51
359.9988308
0
ARC
8
DEFAULT_255_2_778
10
21.1104309
20
67.8294975
40
0.6964142
50
180.0011692
51
269.9988308
0
LINE
8
DEFAULT_255_2_778
10
20.4140167
20
67.8294833
11
20.4140167
21
67.8294833
0
ARC
8
DEFAULT_255_2_778
10
24.6455309
20
67.875269
40
0.6964142
50
90.0011692
51
179.9988308
0
ARC
8
DEFAULT_255_2_778
10
24.6455025
20
67.875269
40
0.6964142
50
0.0011692
51
89.9988308
0
ARC
8
DEFAULT_255_2_778
10
24.6455025
20
67.8752974
40
0.6964142
50
270.0011692
51
359.9988308
0
ARC
8
DEFAULT_255_2_778
10
24.6455309
20
67.8752974
40
0.6964142
50
180.0011692
51
269.9988308
0
ARC
8
DEFAULT_255_2_778
10
24.6455309
20
62.211069
40
0.6964142
50
90.0011692
51
179.9988308
0
ARC
8
DEFAULT_255_2_778
10
24.6455025
20
62.211069
40
0.6964142
50
0.0011692
51
89.9988308
0
ARC
8
DEFAULT_255_2_778
10
24.6455025
20
62.2110974
40
0.6964142
50
270.0011692
51
359.9988308
0
ARC
8
DEFAULT_255_2_778
10
24.6455309
20
62.2110974
40
0.6964142
50
180.0011692
51
269.9988308
0
ARC
8
DEFAULT_255_2_778
10
24.6455309
20
65.043169
40
0.6964142
50
90.0011692
51
179.9988308
0
ARC
8
DEFAULT_255_2_778
10
24.6455025
20
65.043169
40
0.6964142
50
0.0011692
51
89.9988308
0
ARC
8
DEFAULT_255_2_778
10
24.6455025
20
65.0431974
40
0.6964142
50
270.0011692
51
359.9988308
0
ARC
8
DEFAULT_255_2_778
10
24.6455309
20
65.0431974
40
0.6964142
50
180.0011692
51
269.9988308
0
LINE
8
DEFAULT_255_2_778
10
23.9491167
20
67.8752832
11
23.9491167
21
67.8752832
0
LINE
8
DEFAULT_255_2_778
10
23.9491167
20
62.2110832
11
23.9491167
21
62.2110832
0
LINE
8
DEFAULT_255_2_778
10
23.9491167
20
65.0431832
11
23.9491167
21
65.0431832
0
ARC
8
DEFAULT_255_2_778
10
24.6455309
20
73.539469
40
0.6964142
50
90.0011692
51
179.9988308
0
ARC
8
DEFAULT_255_2_778
10
24.6455025
20
73.539469
40
0.6964142
50
0.0011692
51
89.9988308
0
ARC
8
DEFAULT_255_2_778
10
24.6455025
20
73.5394974
40
0.6964142
50
270.0011692
51
359.9988308
0
ARC
8
DEFAULT_255_2_778
10
24.6455309
20
73.5394974
40
0.6964142
50
180.0011692
51
269.9988308
0
ARC
8
DEFAULT_255_2_778
10
24.6455309
20
70.707369
40
0.6964142
50
90.0011692
51
179.9988308
0
ARC
8
DEFAULT_255_2_778
10
24.6455025
20
70.707369
40
0.6964142
50
0.0011692
51
89.9988308
0
ARC
8
DEFAULT_255_2_778
10
24.6455025
20
70.7073974
40
0.6964142
50
270.0011692
51
359.9988308
0
ARC
8
DEFAULT_255_2_778
10
24.6455309
20
70.7073974
40
0.6964142
50
180.0011692
51
269.9988308
0
ARC
8
DEFAULT_255_2_778
10
24.6455309
20
76.371569
40
0.6964142
50
90.0011692
51
179.9988308
0
ARC
8
DEFAULT_255_2_778
10
24.6455025
20
76.371569
40
0.6964142
50
0.0011692
51
89.9988308
0
ARC
8
DEFAULT_255_2_778
10
24.6455025
20
76.3715974
40
0.6964142
50
270.0011692
51
359.9988308
0
ARC
8
DEFAULT_255_2_778
10
24.6455309
20
76.3715974
40
0.6964142
50
180.0011692
51
269.9988308
0
LINE
8
DEFAULT_255_2_778
10
23.9491167
20
73.5394832
11
23.9491167
21
73.5394832
0
LINE
8
DEFAULT_255_2_778
10
23.9491167
20
70.7073832
11
23.9491167
21
70.7073832
0
LINE
8
DEFAULT_255_2_778
10
23.9491167
20
76.3715832
11
23.9491167
21
76.3715832
0
ENDSEC
0
EOF