0
SECTION
2
HEADER
9
$MEASUREMENT
70
1
0
ENDSEC
0
SECTION
2
TABLES
0
TABLE
2
LTYPE
0
LTYPE
72
65
70
64
2
CONTINUOUS
3
______
73
0
40
0
0
ENDTAB
0
TABLE
2
LAYER
0
LAYER
2
DEFAULT_255_2_778
70
0
62
255
6
CONTINUOUS
0
ENDTAB
0
ENDSEC
0
SECTION
2
ENTITIES
0
ARC
8
DEFAULT_255_2_778
10
4.2223026
20
145.8891601
40
3.9661045
50
164.1349222
51
180.0478488
0
ARC
8
DEFAULT_255_2_778
10
4.2229944
20
145.8831097
40
3.9684279
50
134.1611431
51
164.0536247
0
ARC
8
DEFAULT_255_2_778
10
4.2358962
20
145.8781506
40
3.9809779
50
106.2952711
51
134.2446282
0
ARC
8
DEFAULT_255_2_778
10
4.2344678
20
145.8678848
40
3.9904327
50
90.4662121
51
106.2342271
0
ARC
8
DEFAULT_255_2_778
10
4.2383805
20
145.7829264
40
4.0754214
50
89.999734
51
90.5115002
0
ARC
8
DEFAULT_255_2_778
10
32.2773894
20
145.8639231
40
3.9944263
50
74.2557165
51
90.0486249
0
ARC
8
DEFAULT_255_2_778
10
32.2775247
20
145.8798937
40
3.9790204
50
46.8839666
51
74.1951916
0
ARC
8
DEFAULT_255_2_778
10
32.2876994
20
145.8822766
40
3.9703309
50
16.2396679
51
46.9676456
0
ARC
8
DEFAULT_255_2_778
10
32.2916252
20
145.8894481
40
3.9645604
50
0.2080326
51
16.1560273
0
ARC
8
DEFAULT_255_2_778
10
32.2106491
20
145.8858527
40
4.0455504
50
359.9999329
51
0.254789
0
ARC
8
DEFAULT_255_2_778
10
32.2890022
20
3.8316084
40
3.9671974
50
314.9115294
51
359.9890176
0
ARC
8
DEFAULT_255_2_778
10
32.2750734
20
3.8455585
40
3.9869108
50
270.0008717
51
314.9117492
0
LINE
8
DEFAULT_255_2_778
10
32.2751341
20
-0.1413522
11
32.2739995
21
-0.141352
0
LINE
8
DEFAULT_255_2_778
10
4.2383995
20
-0.141352
11
4.2378433
21
-0.1413521
0
ARC
8
DEFAULT_255_2_778
10
4.2344677
20
3.8517665
40
3.99312
50
254.2532634
51
270.048435
0
ARC
8
DEFAULT_255_2_778
10
4.2346691
20
3.836807
40
3.9787789
50
226.7400109
51
254.1920092
0
ARC
8
DEFAULT_255_2_778
10
4.2244258
20
3.8344531
40
3.9700491
50
196.1902663
51
226.8243894
0
ARC
8
DEFAULT_255_2_778
10
4.2208936
20
3.8273763
40
3.964688
50
180.0794686
51
196.106284
0
ARC
8
DEFAULT_255_2_778
10
4.2788558
20
3.8307571
40
4.0226562
50
179.9987061
51
180.1264778
0
LINE
8
DEFAULT_255_2_778
10
4.2383995
20
149.858348
11
32.2739995
21
149.858348
0
LINE
8
DEFAULT_255_2_778
10
36.2561995
20
145.885848
11
36.2561995
21
3.830848
0
LINE
8
DEFAULT_255_2_778
10
32.2739995
20
-0.141352
11
4.2383995
21
-0.141352
0
LINE
8
DEFAULT_255_2_778
10
0.2561995
20
3.830848
11
0.2561995
21
145.885848
0
LINE
8
DEFAULT_255_2_778
10
0.2561995
20
119.0319437
11
36.2561995
21
119.0319437
0
LINE
8
DEFAULT_255_2_778
10
0.2561995
20
120.6210437
11
36.2561995
21
120.6210437
0
ARC
8
DEFAULT_255_2_778
10
31.966184
20
3.8313614
40
3.0156216
50
314.9155585
51
359.9884715
0
ARC
8
DEFAULT_255_2_778
10
31.9560878
20
3.8417885
40
3.030134
50
269.9833153
51
314.9115382
0
LINE
8
DEFAULT_255_2_778
10
34.9818055
20
113.3566547
11
34.9818055
21
3.8307547
0
LINE
8
DEFAULT_255_2_778
10
31.9552055
20
0.8116547
11
17.1412055
21
0.8116547
0
LINE
8
DEFAULT_255_2_778
10
17.1412055
20
0.8116547
11
17.1412055
21
-0.1416453
0
LINE
8
DEFAULT_255_2_778
10
3.7606877
20
1.765252
11
17.7782877
21
1.765252
0
LINE
8
DEFAULT_255_2_778
10
17.7782877
20
1.765252
11
17.7782877
21
7.610952
0
LINE
8
DEFAULT_255_2_778
10
17.7782877
20
7.610952
11
3.7606877
21
7.610952
0
LINE
8
DEFAULT_255_2_778
10
3.7606877
20
7.610952
11
3.7606877
21
1.765252
0
ARC
8
DEFAULT_255_2_778
10
3.6231017
20
146.1870857
40
0.6347311
50
72.1852818
51
91.1281983
0
ARC
8
DEFAULT_255_2_778
10
3.701937
20
146.444432
40
0.365624
50
50.3369907
51
71.6090066
0
ARC
8
DEFAULT_255_2_778
10
3.7168842
20
146.4768723
40
0.3312385
50
0.6090767
51
48.7455758
0
ARC
8
DEFAULT_255_2_778
10
3.4966895
20
146.4471642
40
0.5524148
50
359.9615803
51
3.448582
0
ARC
8
DEFAULT_255_2_778
10
3.7137906
20
146.4396772
40
0.3353891
50
324.2852575
51
1.2158369
0
ARC
8
DEFAULT_255_2_778
10
3.6859873
20
146.4676678
40
0.3743595
50
289.4599294
51
323.2909438
0
ARC
8
DEFAULT_255_2_778
10
3.6298002
20
146.5067751
40
0.2931109
50
267.2826632
51
305.9658524
0
ARC
8
DEFAULT_255_2_778
10
3.6608415
20
146.4496828
40
0.2288263
50
308.0712646
51
311.0794075
0
ARC
8
DEFAULT_255_2_778
10
3.6702482
20
146.4377451
40
0.2136477
50
311.2814954
51
2.4273739
0
ARC
8
DEFAULT_255_2_778
10
3.6588793
20
146.461287
40
0.2252916
50
356.3115614
51
46.273637
0
ARC
8
DEFAULT_255_2_778
10
3.6446663
20
146.4171886
40
0.2677473
50
50.6026191
51
87.9200313
0
ARC
8
DEFAULT_255_2_778
10
3.6127529
20
146.1875232
40
0.4989759
50
85.2140748
51
89.7300075
0
LINE
8
DEFAULT_255_2_778
10
3.9273042
20
145.5754937
11
3.6562042
21
146.0794937
0
LINE
8
DEFAULT_255_2_778
10
3.6562042
20
146.0794937
11
3.3627042
21
146.0794937
0
LINE
8
DEFAULT_255_2_778
10
3.3627042
20
146.0794937
11
3.3627042
21
145.5754937
0
LINE
8
DEFAULT_255_2_778
10
3.3627042
20
145.5754937
11
3.1971042
21
145.5754937
0
LINE
8
DEFAULT_255_2_778
10
3.1971042
20
145.5754937
11
3.1971042
21
146.8216937
0
LINE
8
DEFAULT_255_2_778
10
3.1971042
20
146.8216937
11
3.6106042
21
146.8216937
0
LINE
8
DEFAULT_255_2_778
10
3.8107042
20
146.1146937
11
4.1041042
21
145.5857937
0
LINE
8
DEFAULT_255_2_778
10
4.1041042
20
145.5857937
11
4.1041042
21
145.5754937
0
LINE
8
DEFAULT_255_2_778
10
4.1041042
20
145.5754937
11
3.9273042
21
145.5754937
0
LINE
8
DEFAULT_255_2_778
10
3.9273042
20
145.5754937
11
3.9273042
21
145.5754937
0
LINE
8
DEFAULT_255_2_778
10
3.3627042
20
146.6864937
11
3.3627042
21
146.2139937
0
LINE
8
DEFAULT_255_2_778
10
3.3627042
20
146.2139937
11
3.6159042
21
146.2139937
0
LINE
8
DEFAULT_255_2_778
10
3.6151042
20
146.6864937
11
3.3630042
21
146.6864937
0
LINE
8
DEFAULT_255_2_778
10
3.3630042
20
146.6864937
11
3.3627042
21
146.6864937
0
LINE
8
DEFAULT_255_2_778
10
4.986225
20
146.2858937
11
4.986225
21
146.1514937
0
LINE
8
DEFAULT_255_2_778
10
4.986225
20
146.1514937
11
4.444825
21
146.1514937
0
LINE
8
DEFAULT_255_2_778
10
4.444825
20
146.1514937
11
4.444825
21
145.7098937
0
LINE
8
DEFAULT_255_2_778
10
4.444825
20
145.7098937
11
5.073725
21
145.7098937
0
LINE
8
DEFAULT_255_2_778
10
5.073725
20
145.7098937
11
5.073725
21
145.5754937
0
LINE
8
DEFAULT_255_2_778
10
5.073725
20
145.5754937
11
4.280025
21
145.5754937
0
LINE
8
DEFAULT_255_2_778
10
4.280025
20
145.5754937
11
4.280025
21
146.8216937
0
LINE
8
DEFAULT_255_2_778
10
4.280025
20
146.8216937
11
5.065025
21
146.8216937
0
LINE
8
DEFAULT_255_2_778
10
5.065025
20
146.8216937
11
5.065025
21
146.6864937
0
LINE
8
DEFAULT_255_2_778
10
5.065025
20
146.6864937
11
4.444625
21
146.6864937
0
LINE
8
DEFAULT_255_2_778
10
4.444625
20
146.6864937
11
4.444625
21
146.2858937
0
LINE
8
DEFAULT_255_2_778
10
4.444625
20
146.2858937
11
4.985925
21
146.2858937
0
LINE
8
DEFAULT_255_2_778
10
4.985925
20
146.2858937
11
4.986225
21
146.2858937
0
LINE
8
DEFAULT_255_2_778
10
5.4442167
20
146.8216937
11
5.4442167
21
145.7098937
0
LINE
8
DEFAULT_255_2_778
10
5.4442167
20
145.7098937
11
6.0364167
21
145.7098937
0
LINE
8
DEFAULT_255_2_778
10
6.0364167
20
145.7098937
11
6.0364167
21
145.5754937
0
LINE
8
DEFAULT_255_2_778
10
6.0364167
20
145.5754937
11
5.2786167
21
145.5754937
0
LINE
8
DEFAULT_255_2_778
10
5.2786167
20
145.5754937
11
5.2786167
21
146.8216937
0
LINE
8
DEFAULT_255_2_778
10
5.2786167
20
146.8216937
11
5.4442167
21
146.8216937
0
LINE
8
DEFAULT_255_2_778
10
5.4442167
20
146.8216937
11
5.4442167
21
146.8216937
0
LINE
8
DEFAULT_255_2_778
10
7.0496604
20
145.5754937
11
6.9303604
21
145.9006937
0
LINE
8
DEFAULT_255_2_778
10
6.9303604
20
145.9006937
11
6.4069604
21
145.9006937
0
LINE
8
DEFAULT_255_2_778
10
6.4069604
20
145.9006937
11
6.2895604
21
145.5754937
0
LINE
8
DEFAULT_255_2_778
10
6.2895604
20
145.5754937
11
6.1196604
21
145.5754937
0
LINE
8
DEFAULT_255_2_778
10
6.1196604
20
145.5754937
11
6.5966604
21
146.8216937
0
LINE
8
DEFAULT_255_2_778
10
6.5966604
20
146.8216937
11
6.7408604
21
146.8216937
0
LINE
8
DEFAULT_255_2_778
10
6.7408604
20
146.8216937
11
7.2187604
21
145.5754937
0
LINE
8
DEFAULT_255_2_778
10
7.2187604
20
145.5754937
11
7.0496604
21
145.5754937
0
LINE
8
DEFAULT_255_2_778
10
7.0496604
20
145.5754937
11
7.0496604
21
145.5754937
0
LINE
8
DEFAULT_255_2_778
10
6.6686604
20
146.6187937
11
6.4567604
21
146.0358937
0
LINE
8
DEFAULT_255_2_778
10
6.4567604
20
146.0358937
11
6.8813604
21
146.0358937
0
LINE
8
DEFAULT_255_2_778
10
6.8813604
20
146.0358937
11
6.6686604
21
146.6187937
0
LINE
8
DEFAULT_255_2_778
10
6.6686604
20
146.6187937
11
6.6686604
21
146.6187937
0
LINE
8
DEFAULT_255_2_778
10
7.3626406
20
146.821726
11
7.6870406
21
146.196026
0
LINE
8
DEFAULT_255_2_778
10
7.6870406
20
146.196026
11
8.0130406
21
146.821726
0
LINE
8
DEFAULT_255_2_778
10
8.0130406
20
146.821726
11
8.2000406
21
146.821726
0
LINE
8
DEFAULT_255_2_778
10
8.2000406
20
146.821726
11
7.7693406
21
146.040126
0
LINE
8
DEFAULT_255_2_778
10
7.7693406
20
146.040126
11
7.7693406
21
145.575226
0
LINE
8
DEFAULT_255_2_778
10
7.7693406
20
145.575226
11
7.6044406
21
145.575226
0
LINE
8
DEFAULT_255_2_778
10
7.6044406
20
145.575226
11
7.6044406
21
146.040126
0
LINE
8
DEFAULT_255_2_778
10
7.6044406
20
146.040126
11
7.1737406
21
146.821726
0
LINE
8
DEFAULT_255_2_778
10
7.1737406
20
146.821726
11
7.3623406
21
146.821726
0
LINE
8
DEFAULT_255_2_778
10
7.3623406
20
146.821726
11
7.3626406
21
146.821726
0
ARC
8
DEFAULT_255_2_778
10
23.8669735
20
146.1450701
40
0.8029932
50
340.5816069
51
0.9505754
0
ARC
8
DEFAULT_255_2_778
10
24.0516295
20
146.0901475
40
0.6106568
50
335.6936364
51
339.6814801
0
ARC
8
DEFAULT_255_2_778
10
24.179226
20
146.0212356
40
0.4661191
50
302.9946725
51
336.9576994
0
ARC
8
DEFAULT_255_2_778
10
24.1794043
20
146.040305
40
0.4821309
50
268.7344954
51
301.7427216
0
ARC
8
DEFAULT_255_2_778
10
24.1599655
20
146.0368141
40
0.4786032
50
238.1004295
51
271.0524416
0
ARC
8
DEFAULT_255_2_778
10
24.1673848
20
146.0334683
40
0.4797511
50
204.1889504
51
237.1369734
0
ARC
8
DEFAULT_255_2_778
10
24.3987241
20
146.1378255
40
0.7335388
50
180.3325791
51
204.2205011
0
ARC
8
DEFAULT_255_2_778
10
24.6636167
20
146.1579935
40
0.9987177
50
180.6139716
51
181.4014401
0
ARC
8
DEFAULT_255_2_778
10
24.4360517
20
146.2507159
40
0.771214
50
158.1853524
51
181.0048066
0
ARC
8
DEFAULT_255_2_778
10
24.2923232
20
146.2977822
40
0.6203637
50
155.5356417
51
157.2881187
0
ARC
8
DEFAULT_255_2_778
10
24.1647351
20
146.3672235
40
0.4755862
50
123.1086735
51
156.7849499
0
ARC
8
DEFAULT_255_2_778
10
24.1587762
20
146.3632625
40
0.475703
50
88.9906175
51
122.2468591
0
ARC
8
DEFAULT_255_2_778
10
24.1770365
20
146.3541451
40
0.4848472
50
58.3074542
51
91.167651
0
ARC
8
DEFAULT_255_2_778
10
24.1790972
20
146.375606
40
0.4656013
50
22.9145631
51
57.1357071
0
ARC
8
DEFAULT_255_2_778
10
23.9124516
20
146.2586345
40
0.7567589
50
0.5123894
51
23.2113787
0
ARC
8
DEFAULT_255_2_778
10
23.6211633
20
146.2373258
40
1.048393
50
359.9926682
51
1.5345757
0
ARC
8
DEFAULT_255_2_778
10
23.7509685
20
146.2513085
40
0.7551915
50
359.0503121
51
15.085303
0
ARC
8
DEFAULT_255_2_778
10
24.0924174
20
146.3417823
40
0.4019657
50
15.3003069
51
36.1834315
0
ARC
8
DEFAULT_255_2_778
10
24.1805434
20
146.4034702
40
0.2944259
50
36.6187561
51
92.6060662
0
ARC
8
DEFAULT_255_2_778
10
24.156119
20
146.4063091
40
0.2914916
50
87.8299879
51
143.6473759
0
ARC
8
DEFAULT_255_2_778
10
24.2955472
20
146.3105113
40
0.460602
50
144.3306199
51
172.2615068
0
ARC
8
DEFAULT_255_2_778
10
24.6513036
20
146.2433502
40
0.8223734
50
170.9622937
51
179.5442461
0
ARC
8
DEFAULT_255_2_778
10
24.5364774
20
146.1458267
40
0.7076327
50
178.9825836
51
196.8439967
0
ARC
8
DEFAULT_255_2_778
10
24.2570975
20
146.0654627
40
0.4169718
50
197.39899
51
215.9288975
0
ARC
8
DEFAULT_255_2_778
10
24.1579195
20
145.9904473
40
0.2926563
50
215.4301065
51
272.1220952
0
ARC
8
DEFAULT_255_2_778
10
24.1828382
20
145.9893287
40
0.2916771
50
267.2327275
51
323.0242665
0
ARC
8
DEFAULT_255_2_778
10
24.0517098
20
146.0733088
40
0.4471017
50
324.5340086
51
351.7789869
0
ARC
8
DEFAULT_255_2_778
10
23.6481857
20
146.1514961
40
0.8578852
50
350.464291
51
359.6657652
0
LINE
8
DEFAULT_255_2_778
10
24.6698563
20
146.2371916
11
24.6698563
21
146.1583916
0
LINE
8
DEFAULT_255_2_778
10
23.6649563
20
146.1472916
11
23.6649563
21
146.2371916
0
LINE
8
DEFAULT_255_2_778
10
24.6695563
20
146.2371916
11
24.6698563
21
146.2371916
0
LINE
8
DEFAULT_255_2_778
10
24.5060563
20
146.1464916
11
24.5060563
21
146.2387916
0
LINE
8
DEFAULT_255_2_778
10
23.8289563
20
146.2498916
11
23.8289563
21
146.1583916
0
LINE
8
DEFAULT_255_2_778
10
24.5060563
20
146.1464916
11
24.5060563
21
146.1464916
0
ARC
8
DEFAULT_255_2_778
10
25.4001153
20
145.9611484
40
0.3962266
50
315.977159
51
1.8865927
0
ARC
8
DEFAULT_255_2_778
10
25.3794746
20
145.9981655
40
0.4369658
50
274.6676386
51
314.3676236
0
ARC
8
DEFAULT_255_2_778
10
25.3380479
20
146.21878
40
0.6606321
50
274.1648468
51
276.6920251
0
ARC
8
DEFAULT_255_2_778
10
25.3289407
20
146.0877438
40
0.5296229
50
244.912753
51
271.459142
0
ARC
8
DEFAULT_255_2_778
10
25.2779351
20
145.9588672
40
0.391369
50
227.875582
51
243.6756744
0
ARC
8
DEFAULT_255_2_778
10
25.28111
20
145.9525191
40
0.3888465
50
179.7163928
51
226.9011536
0
ARC
8
DEFAULT_255_2_778
10
25.4941204
20
145.9782178
40
0.6023213
50
180.5541236
51
182.2620887
0
ARC
8
DEFAULT_255_2_778
10
25.3562435
20
145.9635935
40
0.3017321
50
177.378762
51
214.6197594
0
ARC
8
DEFAULT_255_2_778
10
25.2931676
20
145.9304616
40
0.2311602
50
216.7443273
51
224.8998253
0
ARC
8
DEFAULT_255_2_778
10
25.3175941
20
145.9685956
40
0.2755534
50
226.9317179
51
270.2632411
0
ARC
8
DEFAULT_255_2_778
10
25.3419049
20
146.1732344
40
0.480742
50
267.2524277
51
270.0264846
0
ARC
8
DEFAULT_255_2_778
10
25.355301
20
146.016175
40
0.3239503
50
267.6693418
51
299.8354121
0
ARC
8
DEFAULT_255_2_778
10
25.3986713
20
145.9240259
40
0.2225896
50
301.9525715
51
315.0587005
0
ARC
8
DEFAULT_255_2_778
10
25.3545815
20
145.9548012
40
0.2756958
50
317.0044208
51
1.0342425
0
ARC
8
DEFAULT_255_2_778
10
25.1575415
20
145.9764692
40
0.4729854
50
357.9776052
51
0.0149599
0
LINE
8
DEFAULT_255_2_778
10
25.6305271
20
146.8216927
11
25.7961271
21
146.8216927
0
LINE
8
DEFAULT_255_2_778
10
25.7961271
20
146.8216927
11
25.7961271
21
145.9741927
0
LINE
8
DEFAULT_255_2_778
10
25.3860271
20
145.5598927
11
25.3424271
21
145.5582927
0
LINE
8
DEFAULT_255_2_778
10
24.8918271
20
145.9723927
11
24.8918271
21
146.8213927
0
LINE
8
DEFAULT_255_2_778
10
24.8918271
20
146.8213927
11
25.0548271
21
146.8213927
0
LINE
8
DEFAULT_255_2_778
10
25.0548271
20
146.8213927
11
25.0548271
21
145.9773927
0
LINE
8
DEFAULT_255_2_778
10
25.6305271
20
145.9765927
11
25.6305271
21
146.8213927
0
LINE
8
DEFAULT_255_2_778
10
25.6305271
20
146.8213927
11
25.6305271
21
146.8216927
0
LINE
8
DEFAULT_255_2_778
10
26.9196708
20
146.8216937
11
26.9196708
21
146.6864937
0
LINE
8
DEFAULT_255_2_778
10
26.9196708
20
146.6864937
11
26.5180708
21
146.6864937
0
LINE
8
DEFAULT_255_2_778
10
26.5180708
20
146.6864937
11
26.5180708
21
145.5754937
0
LINE
8
DEFAULT_255_2_778
10
26.5180708
20
145.5754937
11
26.3542708
21
145.5754937
0
LINE
8
DEFAULT_255_2_778
10
26.3542708
20
145.5754937
11
26.3542708
21
146.6864937
0
LINE
8
DEFAULT_255_2_778
10
26.3542708
20
146.6864937
11
25.9536708
21
146.6864937
0
LINE
8
DEFAULT_255_2_778
10
25.9536708
20
146.6864937
11
25.9536708
21
146.8216937
0
LINE
8
DEFAULT_255_2_778
10
25.9536708
20
146.8216937
11
26.9199708
21
146.8216937
0
LINE
8
DEFAULT_255_2_778
10
26.9199708
20
146.8216937
11
26.9196708
21
146.8216937
0
ARC
8
DEFAULT_255_2_778
10
27.5785106
20
146.2706964
40
0.5511533
50
67.8372188
51
91.3628363
0
ARC
8
DEFAULT_255_2_778
10
27.6412112
20
146.4431521
40
0.3678526
50
48.1570997
51
66.7485502
0
ARC
8
DEFAULT_255_2_778
10
27.6491991
20
146.4547577
40
0.3538826
50
357.7223632
51
47.8671065
0
ARC
8
DEFAULT_255_2_778
10
27.6216563
20
146.4267394
40
0.3814011
50
327.7068476
51
2.0967461
0
ARC
8
DEFAULT_255_2_778
10
27.6883718
20
146.3954862
40
0.3084457
50
310.6004391
51
325.9932407
0
ARC
8
DEFAULT_255_2_778
10
27.6284022
20
146.481672
40
0.4130456
50
276.8490217
51
309.1361261
0
ARC
8
DEFAULT_255_2_778
10
27.5669953
20
146.8151957
40
0.751811
50
269.7185362
51
278.4644954
0
ARC
8
DEFAULT_255_2_778
10
27.5784352
20
146.5371649
40
0.33961
50
267.8512938
51
296.3273993
0
ARC
8
DEFAULT_255_2_778
10
27.6288366
20
146.4182151
40
0.2107816
50
298.3884543
51
311.3540239
0
ARC
8
DEFAULT_255_2_778
10
27.6122602
20
146.4246622
40
0.226721
50
313.4225148
51
3.7254963
0
ARC
8
DEFAULT_255_2_778
10
27.6052773
20
146.4500738
40
0.2334692
50
357.3780842
51
45.7800666
0
ARC
8
DEFAULT_255_2_778
10
27.5847942
20
146.4098638
40
0.2768943
50
48.5463533
51
91.2355317
0
ARC
8
DEFAULT_255_2_778
10
27.5652073
20
146.2394036
40
0.4474974
50
88.256344
51
88.7458163
0
LINE
8
DEFAULT_255_2_778
10
27.5639021
20
146.0633937
11
27.2696021
21
146.0633937
0
LINE
8
DEFAULT_255_2_778
10
27.2696021
20
146.0633937
11
27.2696021
21
145.5754937
0
LINE
8
DEFAULT_255_2_778
10
27.2696021
20
145.5754937
11
27.1048021
21
145.5754937
0
LINE
8
DEFAULT_255_2_778
10
27.1048021
20
145.5754937
11
27.1048021
21
146.8216937
0
LINE
8
DEFAULT_255_2_778
10
27.1048021
20
146.8216937
11
27.5654021
21
146.8216937
0
LINE
8
DEFAULT_255_2_778
10
27.5633021
20
146.0633937
11
27.5639021
21
146.0633937
0
LINE
8
DEFAULT_255_2_778
10
27.2696021
20
146.6864937
11
27.2696021
21
146.1977937
0
LINE
8
DEFAULT_255_2_778
10
27.2696021
20
146.1977937
11
27.5657021
21
146.1977937
0
LINE
8
DEFAULT_255_2_778
10
27.5750021
20
146.6867937
11
27.2696021
21
146.6867937
0
LINE
8
DEFAULT_255_2_778
10
27.2696021
20
146.6867937
11
27.2696021
21
146.6864937
0
ARC
8
DEFAULT_255_2_778
10
28.6968153
20
145.9611484
40
0.3962266
50
315.977159
51
1.8865927
0
ARC
8
DEFAULT_255_2_778
10
28.6761746
20
145.9981655
40
0.4369658
50
274.6676386
51
314.3676236
0
ARC
8
DEFAULT_255_2_778
10
28.6347479
20
146.21878
40
0.6606321
50
274.1648468
51
276.6920251
0
ARC
8
DEFAULT_255_2_778
10
28.6256407
20
146.0877438
40
0.5296229
50
244.912753
51
271.459142
0
ARC
8
DEFAULT_255_2_778
10
28.5746351
20
145.9588672
40
0.391369
50
227.875582
51
243.6756744
0
ARC
8
DEFAULT_255_2_778
10
28.57781
20
145.9525191
40
0.3888465
50
179.7163928
51
226.9011536
0
ARC
8
DEFAULT_255_2_778
10
28.7908204
20
145.9782178
40
0.6023213
50
180.5541236
51
182.2620887
0
ARC
8
DEFAULT_255_2_778
10
28.6529435
20
145.9635935
40
0.3017321
50
177.378762
51
214.6197594
0
ARC
8
DEFAULT_255_2_778
10
28.5898676
20
145.9304616
40
0.2311602
50
216.7443273
51
224.8998253
0
ARC
8
DEFAULT_255_2_778
10
28.6142941
20
145.9685956
40
0.2755534
50
226.9317179
51
270.2632411
0
ARC
8
DEFAULT_255_2_778
10
28.6386049
20
146.1732344
40
0.480742
50
267.2524277
51
270.0264846
0
ARC
8
DEFAULT_255_2_778
10
28.652001
20
146.016175
40
0.3239503
50
267.6693418
51
299.8354121
0
ARC
8
DEFAULT_255_2_778
10
28.6953713
20
145.9240259
40
0.2225896
50
301.9525715
51
315.0587005
0
ARC
8
DEFAULT_255_2_778
10
28.6512815
20
145.9548012
40
0.2756958
50
317.0044208
51
1.0342425
0
ARC
8
DEFAULT_255_2_778
10
28.4542415
20
145.9764692
40
0.4729854
50
357.9776052
51
0.0149599
0
LINE
8
DEFAULT_255_2_778
10
28.9272271
20
146.8216927
11
29.0928271
21
146.8216927
0
LINE
8
DEFAULT_255_2_778
10
29.0928271
20
146.8216927
11
29.0928271
21
145.9741927
0
LINE
8
DEFAULT_255_2_778
10
28.6827271
20
145.5598927
11
28.6391271
21
145.5582927
0
LINE
8
DEFAULT_255_2_778
10
28.1885271
20
145.9723927
11
28.1885271
21
146.8213927
0
LINE
8
DEFAULT_255_2_778
10
28.1885271
20
146.8213927
11
28.3515271
21
146.8213927
0
LINE
8
DEFAULT_255_2_778
10
28.3515271
20
146.8213927
11
28.3515271
21
145.9773927
0
LINE
8
DEFAULT_255_2_778
10
28.9272271
20
145.9765927
11
28.9272271
21
146.8213927
0
LINE
8
DEFAULT_255_2_778
10
28.9272271
20
146.8213927
11
28.9272271
21
146.8216927
0
LINE
8
DEFAULT_255_2_778
10
30.2160708
20
146.8216937
11
30.2160708
21
146.6864937
0
LINE
8
DEFAULT_255_2_778
10
30.2160708
20
146.6864937
11
29.8144708
21
146.6864937
0
LINE
8
DEFAULT_255_2_778
10
29.8144708
20
146.6864937
11
29.8144708
21
145.5754937
0
LINE
8
DEFAULT_255_2_778
10
29.8144708
20
145.5754937
11
29.6506708
21
145.5754937
0
LINE
8
DEFAULT_255_2_778
10
29.6506708
20
145.5754937
11
29.6506708
21
146.6864937
0
LINE
8
DEFAULT_255_2_778
10
29.6506708
20
146.6864937
11
29.2500708
21
146.6864937
0
LINE
8
DEFAULT_255_2_778
10
29.2500708
20
146.6864937
11
29.2500708
21
146.8216937
0
LINE
8
DEFAULT_255_2_778
10
29.2500708
20
146.8216937
11
30.2163708
21
146.8216937
0
LINE
8
DEFAULT_255_2_778
10
30.2163708
20
146.8216937
11
30.2160708
21
146.8216937
0
LINE
8
DEFAULT_255_2_778
10
3.8868469
20
122.9340937
11
3.8868469
21
122.7995937
0
LINE
8
DEFAULT_255_2_778
10
3.8868469
20
122.7995937
11
3.3626469
21
122.7995937
0
LINE
8
DEFAULT_255_2_778
10
3.3626469
20
122.7995937
11
3.3626469
21
122.2492937
0
LINE
8
DEFAULT_255_2_778
10
3.3626469
20
122.2492937
11
3.1978469
21
122.2492937
0
LINE
8
DEFAULT_255_2_778
10
3.1978469
20
122.2492937
11
3.1978469
21
123.4954937
0
LINE
8
DEFAULT_255_2_778
10
3.1978469
20
123.4954937
11
3.9717469
21
123.4954937
0
LINE
8
DEFAULT_255_2_778
10
3.9717469
20
123.4954937
11
3.9717469
21
123.3602937
0
LINE
8
DEFAULT_255_2_778
10
3.9717469
20
123.3602937
11
3.3626469
21
123.3602937
0
LINE
8
DEFAULT_255_2_778
10
3.3626469
20
123.3602937
11
3.3626469
21
122.9340937
0
LINE
8
DEFAULT_255_2_778
10
3.3626469
20
122.9340937
11
3.8868469
21
122.9340937
0
LINE
8
DEFAULT_255_2_778
10
3.8868469
20
122.9340937
11
3.8868469
21
122.9340937
0
LINE
8
DEFAULT_255_2_778
10
4.79805
20
123.4954937
11
4.79805
21
122.6678937
0
LINE
8
DEFAULT_255_2_778
10
4.79805
20
122.6678937
11
4.97135
21
122.6678937
0
LINE
8
DEFAULT_255_2_778
10
4.97135
20
122.6678937
11
4.97135
21
122.5387937
0
LINE
8
DEFAULT_255_2_778
10
4.97135
20
122.5387937
11
4.79805
21
122.5387937
0
LINE
8
DEFAULT_255_2_778
10
4.79805
20
122.5387937
11
4.79805
21
122.2495937
0
LINE
8
DEFAULT_255_2_778
10
4.79805
20
122.2495937
11
4.63855
21
122.2495937
0
LINE
8
DEFAULT_255_2_778
10
4.63855
20
122.2495937
11
4.63855
21
122.5387937
0
LINE
8
DEFAULT_255_2_778
10
4.63855
20
122.5387937
11
4.06965
21
122.5387937
0
LINE
8
DEFAULT_255_2_778
10
4.06965
20
122.5387937
11
4.06965
21
122.6321937
0
LINE
8
DEFAULT_255_2_778
10
4.06965
20
122.6321937
11
4.62895
21
123.4957937
0
LINE
8
DEFAULT_255_2_778
10
4.62895
20
123.4957937
11
4.79805
21
123.4957937
0
LINE
8
DEFAULT_255_2_778
10
4.79805
20
123.4957937
11
4.79805
21
123.4954937
0
LINE
8
DEFAULT_255_2_778
10
4.61945
20
123.2446937
11
4.24955
21
122.6678937
0
LINE
8
DEFAULT_255_2_778
10
4.24955
20
122.6678937
11
4.63825
21
122.6678937
0
LINE
8
DEFAULT_255_2_778
10
4.63825
20
122.6678937
11
4.63825
21
123.2790937
0
LINE
8
DEFAULT_255_2_778
10
4.63825
20
123.2790937
11
4.61945
21
123.2449937
0
LINE
8
DEFAULT_255_2_778
10
4.61945
20
123.2449937
11
4.61945
21
123.2446937
0
LINE
8
DEFAULT_255_2_778
10
5.4613823
20
122.8432583
11
5.4613823
21
122.7141583
0
LINE
8
DEFAULT_255_2_778
10
5.4613823
20
122.7141583
11
5.0425823
21
122.7141583
0
LINE
8
DEFAULT_255_2_778
10
5.0425823
20
122.7141583
11
5.0425823
21
122.8432583
0
LINE
8
DEFAULT_255_2_778
10
5.0425823
20
122.8432583
11
5.4613823
21
122.8432583
0
LINE
8
DEFAULT_255_2_778
10
5.4613823
20
122.8432583
11
5.4613823
21
122.8432583
0
ARC
8
DEFAULT_255_2_778
10
5.2373327
20
122.7690804
40
1.1456688
50
349.7444123
51
0.6007024
0
ARC
8
DEFAULT_255_2_778
10
5.8447159
20
122.652898
40
0.5273408
50
329.14578
51
350.4167559
0
ARC
8
DEFAULT_255_2_778
10
5.9999474
20
122.5704756
40
0.351919
50
324.8345638
51
327.7041463
0
ARC
8
DEFAULT_255_2_778
10
6.0249881
20
122.5585755
40
0.3246286
50
270.8926036
51
324.0061153
0
ARC
8
DEFAULT_255_2_778
10
5.9905652
20
122.7920169
40
0.5594255
50
269.9460611
51
274.0468733
0
ARC
8
DEFAULT_255_2_778
10
5.9764551
20
122.6284441
40
0.3960854
50
240.7126232
51
271.9653011
0
ARC
8
DEFAULT_255_2_778
10
5.9373173
20
122.5395863
40
0.2995853
50
215.6703746
51
238.9273391
0
ARC
8
DEFAULT_255_2_778
10
6.1024072
20
122.6454327
40
0.4955299
50
190.7053486
51
214.4817367
0
ARC
8
DEFAULT_255_2_778
10
6.6422565
20
122.7624379
40
1.0478211
50
180.1392339
51
191.5084904
0
ARC
8
DEFAULT_255_2_778
10
6.713879
20
122.9831404
40
1.1195031
50
169.6304575
51
180.6064237
0
ARC
8
DEFAULT_255_2_778
10
6.1195241
20
123.098431
40
0.5141439
50
148.4337752
51
170.3465868
0
ARC
8
DEFAULT_255_2_778
10
5.9717439
20
123.1786494
40
0.3463541
50
144.5379186
51
146.9428569
0
ARC
8
DEFAULT_255_2_778
10
5.9509616
20
123.1866296
40
0.3248447
50
91.5404003
51
143.5576738
0
ARC
8
DEFAULT_255_2_778
10
5.987737
20
122.9479895
40
0.5652024
50
89.9288844
51
94.6182304
0
ARC
8
DEFAULT_255_2_778
10
6.001755
20
123.1011577
40
0.412249
50
62.7788705
51
91.8510823
0
ARC
8
DEFAULT_255_2_778
10
6.0487818
20
123.2110828
40
0.2931095
50
36.2234528
51
61.1241201
0
ARC
8
DEFAULT_255_2_778
10
5.9019397
20
123.1169167
40
0.4673407
50
11.2299472
51
34.8981867
0
ARC
8
DEFAULT_255_2_778
10
5.3529163
20
122.99328
40
1.03003
50
0.5029417
51
12.0281303
0
ARC
8
DEFAULT_255_2_778
10
4.8818986
20
122.9722439
40
1.5013093
50
0.5513904
51
1.1479539
0
ARC
8
DEFAULT_255_2_778
10
5.29487
20
123.0093581
40
0.9293443
50
359.2683941
51
10.0378558
0
ARC
8
DEFAULT_255_2_778
10
5.8571924
20
123.1130842
40
0.3575738
50
9.3766646
51
29.7819926
0
ARC
8
DEFAULT_255_2_778
10
6.0015956
20
123.1882292
40
0.1950272
50
31.6934829
51
93.9565906
0
ARC
8
DEFAULT_255_2_778
10
5.9748065
20
123.1908487
40
0.1924054
50
86.0267131
51
148.5658533
0
ARC
8
DEFAULT_255_2_778
10
6.1518936
20
123.0993925
40
0.3914613
50
150.6622495
51
172.722547
0
ARC
8
DEFAULT_255_2_778
10
6.6940746
20
123.0091527
40
0.9409363
50
171.4539068
51
179.9671825
0
ARC
8
DEFAULT_255_2_778
10
6.6581493
20
122.7440349
40
0.9050924
50
179.2304114
51
190.6923667
0
ARC
8
DEFAULT_255_2_778
10
6.132281
20
122.6420106
40
0.369435
50
190.2758503
51
209.8749726
0
ARC
8
DEFAULT_255_2_778
10
5.9800375
20
122.556037
40
0.1946025
50
210.2532905
51
272.9458685
0
ARC
8
DEFAULT_255_2_778
10
6.001183
20
122.5535317
40
0.1921634
50
266.675276
51
328.2777201
0
ARC
8
DEFAULT_255_2_778
10
5.8390171
20
122.6413291
40
0.3764159
50
329.8892911
51
351.7829307
0
ARC
8
DEFAULT_255_2_778
10
5.2813591
20
122.7409935
40
0.9427835
50
350.6319009
51
359.8297257
0
LINE
8
DEFAULT_255_2_778
10
6.3829386
20
122.9863916
11
6.3829386
21
122.7810916
0
LINE
8
DEFAULT_255_2_778
10
5.5944386
20
122.7598916
11
5.5944386
21
122.9712916
0
LINE
8
DEFAULT_255_2_778
10
6.3831386
20
122.9866916
11
6.3829386
21
122.9863916
0
LINE
8
DEFAULT_255_2_778
10
6.2241386
20
122.7381916
11
6.2241386
21
122.9974916
0
LINE
8
DEFAULT_255_2_778
10
5.7531386
20
123.0096916
11
5.7531386
21
122.7561916
0
LINE
8
DEFAULT_255_2_778
10
6.2241386
20
122.7381916
11
6.2241386
21
122.7381916
0
ARC
8
DEFAULT_255_2_778
10
7.0540454
20
123.1657707
40
0.2898514
50
326.1123544
51
0.9070953
0
ARC
8
DEFAULT_255_2_778
10
7.0190343
20
123.1924347
40
0.3337924
50
295.2197806
51
325.6637117
0
ARC
8
DEFAULT_255_2_778
10
7.0251097
20
122.5593509
40
0.3580081
50
35.6400983
51
67.6476873
0
ARC
8
DEFAULT_255_2_778
10
7.0662327
20
122.5894475
40
0.3070511
50
359.2931137
51
35.5473161
0
ARC
8
DEFAULT_255_2_778
10
7.0478066
20
122.5716672
40
0.3257545
50
311.5710521
51
2.4617922
0
ARC
8
DEFAULT_255_2_778
10
7.0022559
20
122.6404481
40
0.4076008
50
270.5608225
51
309.9456624
0
ARC
8
DEFAULT_255_2_778
10
6.9763111
20
122.865823
40
0.6336636
50
269.9773371
51
272.7076754
0
ARC
8
DEFAULT_255_2_778
10
6.9623581
20
122.6891065
40
0.4571525
50
241.9199011
51
271.7175896
0
ARC
8
DEFAULT_255_2_778
10
6.9193484
20
122.5896815
40
0.349298
50
228.4044014
51
240.4676071
0
ARC
8
DEFAULT_255_2_778
10
6.9055378
20
122.5719409
40
0.3268654
50
177.594598
51
228.1503685
0
ARC
8
DEFAULT_255_2_778
10
6.8957112
20
122.5891117
40
0.3167696
50
145.6255938
51
180.624464
0
ARC
8
DEFAULT_255_2_778
10
6.9183431
20
122.5718125
40
0.3452196
50
112.279731
51
145.3765974
0
ARC
8
DEFAULT_255_2_778
10
6.9267195
20
123.184499
40
0.3246268
50
213.5775244
51
244.5970345
0
ARC
8
DEFAULT_255_2_778
10
6.9003346
20
123.1658013
40
0.2923052
50
179.1653295
51
213.3843954
0
ARC
8
DEFAULT_255_2_778
10
6.9298717
20
123.1852788
40
0.3221709
50
133.1926963
51
182.7076694
0
ARC
8
DEFAULT_255_2_778
10
6.9555289
20
123.1373749
40
0.3749213
50
89.1674619
51
131.0400995
0
ARC
8
DEFAULT_255_2_778
10
6.9762989
20
122.9340945
40
0.578365
50
89.9939066
51
91.518095
0
ARC
8
DEFAULT_255_2_778
10
6.9910164
20
123.1193163
40
0.3934161
50
55.0529074
51
92.1349405
0
ARC
8
DEFAULT_255_2_778
10
7.0177896
20
123.1726529
40
0.3344717
50
47.7307522
51
53.5783871
0
ARC
8
DEFAULT_255_2_778
10
7.0234154
20
123.1853663
40
0.3213098
50
357.2694378
51
46.9482299
0
ARC
8
DEFAULT_255_2_778
10
6.9847817
20
122.5977752
40
0.2296442
50
357.8248987
51
44.7539774
0
ARC
8
DEFAULT_255_2_778
10
6.9839083
20
122.5892125
40
0.2363563
50
46.0790474
51
92.4122035
0
ARC
8
DEFAULT_255_2_778
10
6.9633976
20
122.5934975
40
0.2321023
50
87.391612
51
134.0705311
0
ARC
8
DEFAULT_255_2_778
10
6.9690063
20
122.5991681
40
0.2320662
50
136.0396324
51
182.4965906
0
ARC
8
DEFAULT_255_2_778
10
6.957921
20
122.5770498
40
0.221087
50
176.8861398
51
224.474049
0
ARC
8
DEFAULT_255_2_778
10
6.9610914
20
122.6026503
40
0.2418176
50
228.2788664
51
273.4042538
0
LINE
8
DEFAULT_255_2_778
10
6.9754507
20
122.3612594
11
6.9755604
21
122.3612594
0
ARC
8
DEFAULT_255_2_778
10
6.9894941
20
122.6030426
40
0.2421844
50
266.7017738
51
311.7500783
0
ARC
8
DEFAULT_255_2_778
10
6.9944689
20
122.577318
40
0.2200891
50
315.2453609
51
2.9798724
0
ARC
8
DEFAULT_255_2_778
10
6.9670239
20
123.1777255
40
0.2050117
50
87.6135593
51
134.1362947
0
ARC
8
DEFAULT_255_2_778
10
6.9777526
20
123.1789276
40
0.2117922
50
136.4464164
51
183.0498249
0
ARC
8
DEFAULT_255_2_778
10
6.9771487
20
123.1586486
40
0.2110807
50
177.5533683
51
223.2724892
0
ARC
8
DEFAULT_255_2_778
10
6.9664107
20
123.15791
40
0.2028708
50
225.1997692
51
272.6697945
0
ARC
8
DEFAULT_255_2_778
10
6.98523
20
123.158118
40
0.2030749
50
267.3555202
51
314.7749161
0
ARC
8
DEFAULT_255_2_778
10
6.9742637
20
123.158626
40
0.2112899
50
316.7893052
51
2.4503369
0
ARC
8
DEFAULT_255_2_778
10
6.973882
20
123.1757883
40
0.2116346
50
357.7987014
51
43.9839327
0
ARC
8
DEFAULT_255_2_778
10
6.9822717
20
123.179893
40
0.2027678
50
44.795733
51
91.8119248
0
LINE
8
DEFAULT_255_2_778
10
7.3443604
20
123.1700594
11
7.3438604
21
123.1703594
0
LINE
8
DEFAULT_255_2_778
10
7.2142604
20
122.5887594
11
7.2142604
21
122.5890594
0
LINE
8
DEFAULT_255_2_778
10
6.9758604
20
123.3825594
11
6.9755604
21
123.3825594
0
LINE
8
DEFAULT_255_2_778
10
8.4774708
20
123.4954937
11
8.4774708
21
123.3602937
0
LINE
8
DEFAULT_255_2_778
10
8.4774708
20
123.3602937
11
8.0757708
21
123.3602937
0
LINE
8
DEFAULT_255_2_778
10
8.0757708
20
123.3602937
11
8.0757708
21
122.2492937
0
LINE
8
DEFAULT_255_2_778
10
8.0757708
20
122.2492937
11
7.9119708
21
122.2492937
0
LINE
8
DEFAULT_255_2_778
10
7.9119708
20
122.2492937
11
7.9119708
21
123.3602937
0
LINE
8
DEFAULT_255_2_778
10
7.9119708
20
123.3602937
11
7.5111708
21
123.3602937
0
LINE
8
DEFAULT_255_2_778
10
7.5111708
20
123.3602937
11
7.5111708
21
123.4954937
0
LINE
8
DEFAULT_255_2_778
10
7.5111708
20
123.4954937
11
8.4774708
21
123.4954937
0
LINE
8
DEFAULT_255_2_778
10
8.4774708
20
123.4954937
11
8.4774708
21
123.4954937
0
ARC
8
DEFAULT_255_2_778
10
9.0878017
20
122.8608857
40
0.6347311
50
72.1852818
51
91.1281983
0
ARC
8
DEFAULT_255_2_778
10
9.166637
20
123.118232
40
0.365624
50
50.3369907
51
71.6090066
0
ARC
8
DEFAULT_255_2_778
10
9.1815842
20
123.1506723
40
0.3312385
50
0.6090767
51
48.7455758
0
ARC
8
DEFAULT_255_2_778
10
8.9613895
20
123.1209642
40
0.5524148
50
359.9615803
51
3.448582
0
ARC
8
DEFAULT_255_2_778
10
9.1784906
20
123.1134772
40
0.3353891
50
324.2852575
51
1.2158369
0
ARC
8
DEFAULT_255_2_778
10
9.1506873
20
123.1414678
40
0.3743595
50
289.4599294
51
323.2909438
0
ARC
8
DEFAULT_255_2_778
10
9.0945002
20
123.1805751
40
0.2931109
50
267.2826632
51
305.9658524
0
ARC
8
DEFAULT_255_2_778
10
9.1255415
20
123.1234828
40
0.2288263
50
308.0712646
51
311.0794075
0
ARC
8
DEFAULT_255_2_778
10
9.1349482
20
123.1115451
40
0.2136477
50
311.2814954
51
2.4273739
0
ARC
8
DEFAULT_255_2_778
10
9.1235793
20
123.135087
40
0.2252916
50
356.3115614
51
46.273637
0
ARC
8
DEFAULT_255_2_778
10
9.1093663
20
123.0909886
40
0.2677473
50
50.6026191
51
87.9200313
0
ARC
8
DEFAULT_255_2_778
10
9.0774529
20
122.8613232
40
0.4989759
50
85.2140748
51
89.7300075
0
LINE
8
DEFAULT_255_2_778
10
9.3920042
20
122.2492937
11
9.1209042
21
122.7532937
0
LINE
8
DEFAULT_255_2_778
10
9.1209042
20
122.7532937
11
8.8274042
21
122.7532937
0
LINE
8
DEFAULT_255_2_778
10
8.8274042
20
122.7532937
11
8.8274042
21
122.2492937
0
LINE
8
DEFAULT_255_2_778
10
8.8274042
20
122.2492937
11
8.6618042
21
122.2492937
0
LINE
8
DEFAULT_255_2_778
10
8.6618042
20
122.2492937
11
8.6618042
21
123.4954937
0
LINE
8
DEFAULT_255_2_778
10
8.6618042
20
123.4954937
11
9.0753042
21
123.4954937
0
LINE
8
DEFAULT_255_2_778
10
9.2754042
20
122.7884937
11
9.5688042
21
122.2595937
0
LINE
8
DEFAULT_255_2_778
10
9.5688042
20
122.2595937
11
9.5688042
21
122.2492937
0
LINE
8
DEFAULT_255_2_778
10
9.5688042
20
122.2492937
11
9.3920042
21
122.2492937
0
LINE
8
DEFAULT_255_2_778
10
9.3920042
20
122.2492937
11
9.3920042
21
122.2492937
0
LINE
8
DEFAULT_255_2_778
10
8.8274042
20
123.3602937
11
8.8274042
21
122.8877937
0
LINE
8
DEFAULT_255_2_778
10
8.8274042
20
122.8877937
11
9.0806042
21
122.8877937
0
LINE
8
DEFAULT_255_2_778
10
9.0798042
20
123.3602937
11
8.8277042
21
123.3602937
0
LINE
8
DEFAULT_255_2_778
10
8.8277042
20
123.3602937
11
8.8274042
21
123.3602937
0
ARC
8
DEFAULT_255_2_778
10
10.4165087
20
123.9054708
40
1.1417217
50
244.4957234
51
254.5717617
0
ARC
8
DEFAULT_255_2_778
10
10.1442674
20
123.3406631
40
0.5147378
50
228.660789
51
244.7760282
0
ARC
8
DEFAULT_255_2_778
10
9.9929699
20
123.1680943
40
0.2852369
50
179.0162198
51
228.5827725
0
ARC
8
DEFAULT_255_2_778
10
10.0088085
20
123.1773541
40
0.3010651
50
127.4416542
51
180.8302527
0
ARC
8
DEFAULT_255_2_778
10
10.1025683
20
123.0617214
40
0.449895
50
91.5305912
51
127.9693453
0
ARC
8
DEFAULT_255_2_778
10
10.1319459
20
122.8188673
40
0.6938245
50
89.9645614
51
93.4203791
0
ARC
8
DEFAULT_255_2_778
10
10.1415468
20
123.0007556
40
0.5120182
50
64.5249513
51
91.0263938
0
ARC
8
DEFAULT_255_2_778
10
10.200052
20
123.1214397
40
0.3779049
50
32.75272
51
64.6626948
0
ARC
8
DEFAULT_255_2_778
10
10.2235614
20
123.1371762
40
0.3496198
50
359.6583819
51
32.6682075
0
ARC
8
DEFAULT_255_2_778
10
10.1814227
20
123.1468029
40
0.2264553
50
357.0356004
51
47.1001987
0
ARC
8
DEFAULT_255_2_778
10
10.1594728
20
123.1003819
40
0.2758395
50
50.3256876
51
89.0553748
0
ARC
8
DEFAULT_255_2_778
10
10.1325154
20
122.8843458
40
0.4928461
50
86.3348966
51
90.0511955
0
ARC
8
DEFAULT_255_2_778
10
10.1193407
20
123.0434353
40
0.3339992
50
87.8149648
51
116.3954816
0
ARC
8
DEFAULT_255_2_778
10
10.0706997
20
123.1592092
40
0.2088205
50
118.563301
51
127.9867598
0
ARC
8
DEFAULT_255_2_778
10
10.0516517
20
123.1834885
40
0.1779609
50
127.9644444
51
182.6077536
0
ARC
8
DEFAULT_255_2_778
10
10.0343618
20
123.1753328
40
0.1604868
50
179.9789956
51
233.3997551
0
ARC
8
DEFAULT_255_2_778
10
10.1940112
20
123.3858559
40
0.4246936
50
233.0423548
51
249.8457868
0
ARC
8
DEFAULT_255_2_778
10
10.4573618
20
124.0350838
40
1.1251517
50
248.6472304
51
254.626622
0
ARC
8
DEFAULT_255_2_778
10
9.8218431
20
121.7024383
40
1.2925222
50
66.6386377
51
74.8759379
0
ARC
8
DEFAULT_255_2_778
10
10.076557
20
122.3024957
40
0.640668
50
59.3905074
51
66.2713369
0
ARC
8
DEFAULT_255_2_778
10
10.2209576
20
122.5299322
40
0.3714933
50
32.7850385
51
60.6973277
0
ARC
8
DEFAULT_255_2_778
10
10.2636046
20
122.573653
40
0.3122645
50
358.5941216
51
30.2771839
0
ARC
8
DEFAULT_255_2_778
10
10.2853701
20
122.5576012
40
0.2905261
50
306.2778923
51
1.6549411
0
ARC
8
DEFAULT_255_2_778
10
10.1871071
20
122.6921379
40
0.4571263
50
274.5629778
51
306.2289712
0
ARC
8
DEFAULT_255_2_778
10
10.1423364
20
122.9873634
40
0.7552738
50
269.8663798
51
276.1670567
0
ARC
8
DEFAULT_255_2_778
10
10.1360257
20
122.8208232
40
0.5887492
50
246.4057849
51
270.4427342
0
ARC
8
DEFAULT_255_2_778
10
10.0531442
20
122.6530013
40
0.4018787
50
216.0866228
51
247.6577946
0
ARC
8
DEFAULT_255_2_778
10
9.9950548
20
122.606064
40
0.3273098
50
179.2249188
51
215.4360869
0
ARC
8
DEFAULT_255_2_778
10
10.0475066
20
122.6020479
40
0.214298
50
177.7418613
51
232.4746423
0
ARC
8
DEFAULT_255_2_778
10
10.114927
20
122.70336
40
0.3358147
50
233.8807434
51
269.2659392
0
ARC
8
DEFAULT_255_2_778
10
10.140247
20
122.9288778
40
0.5620861
50
266.979078
51
270.0334356
0
ARC
8
DEFAULT_255_2_778
10
10.1530234
20
122.7521048
40
0.3855141
50
268.1495724
51
292.084501
0
ARC
8
DEFAULT_255_2_778
10
10.211369
20
122.5904853
40
0.2139213
50
293.8792691
51
307.1561203
0
ARC
8
DEFAULT_255_2_778
10
10.2378841
20
122.5584741
40
0.1724031
50
306.5585864
51
2.0667549
0
ARC
8
DEFAULT_255_2_778
10
10.2413039
20
122.5734071
40
0.1690959
50
357.0455753
51
51.7996467
0
ARC
8
DEFAULT_255_2_778
10
10.095291
20
122.359031
40
0.4282316
50
54.1857054
51
69.1072155
0
ARC
8
DEFAULT_255_2_778
10
9.7516122
20
121.5223807
40
1.3326282
50
68.1305398
51
74.2842355
0
LINE
8
DEFAULT_255_2_778
10
10.573175
20
123.1350916
11
10.407575
21
123.1350916
0
LINE
8
DEFAULT_255_2_778
10
9.667775
20
122.6104916
11
9.833375
21
122.6104916
0
LINE
8
DEFAULT_255_2_778
10
10.112575
20
122.8051916
11
10.112775
21
122.8048916
0
LINE
8
DEFAULT_255_2_778
10
11.0927823
20
122.8432583
11
11.0927823
21
122.7141583
0
LINE
8
DEFAULT_255_2_778
10
11.0927823
20
122.7141583
11
10.6739823
21
122.7141583
0
LINE
8
DEFAULT_255_2_778
10
10.6739823
20
122.7141583
11
10.6739823
21
122.8432583
0
LINE
8
DEFAULT_255_2_778
10
10.6739823
20
122.8432583
11
11.0927823
21
122.8432583
0
LINE
8
DEFAULT_255_2_778
10
11.0927823
20
122.8432583
11
11.0927823
21
122.8432583
0
ARC
8
DEFAULT_255_2_778
10
10.5774171
20
123.8175382
40
1.4591632
50
318.0841097
51
324.1077824
0
ARC
8
DEFAULT_255_2_778
10
11.3064261
20
123.288088
40
0.5581828
50
324.2646708
51
331.2326853
0
ARC
8
DEFAULT_255_2_778
10
11.5381913
20
123.161351
40
0.2940295
50
331.1464367
51
359.7874776
0
ARC
8
DEFAULT_255_2_778
10
11.6093401
20
123.1687473
40
0.2230402
50
357.8193165
51
42.789631
0
ARC
8
DEFAULT_255_2_778
10
11.6243491
20
123.1753854
40
0.2075848
50
44.2593697
51
92.5761376
0
ARC
8
DEFAULT_255_2_778
10
11.6001419
20
123.137738
40
0.2454736
50
86.525485
51
133.5806017
0
ARC
8
DEFAULT_255_2_778
10
11.6193686
20
123.1446078
40
0.2544369
50
137.787207
51
182.796442
0
ARC
8
DEFAULT_255_2_778
10
11.7994552
20
123.1284668
40
0.4342363
50
179.5081462
51
180.00084
0
ARC
8
DEFAULT_255_2_778
10
11.5731846
20
123.1432207
40
0.3669628
50
134.1416972
51
182.3052229
0
ARC
8
DEFAULT_255_2_778
10
11.588681
20
123.1109332
40
0.4010863
50
90.3303658
51
132.5178856
0
ARC
8
DEFAULT_255_2_778
10
11.614793
20
122.8883728
40
0.6242875
50
89.9792817
51
92.609656
0
ARC
8
DEFAULT_255_2_778
10
11.6283704
20
123.0698561
40
0.4430055
50
63.2626666
51
91.7270797
0
ARC
8
DEFAULT_255_2_778
10
11.6761268
20
123.1833913
40
0.3202349
50
47.9968579
51
61.7543319
0
ARC
8
DEFAULT_255_2_778
10
11.681524
20
123.191557
40
0.3105586
50
357.6384441
51
47.7286768
0
ARC
8
DEFAULT_255_2_778
10
11.5791947
20
123.191627
40
0.4128246
50
331.9497057
51
358.2139617
0
ARC
8
DEFAULT_255_2_778
10
11.0981214
20
123.4308766
40
0.9500147
50
320.4018622
51
332.8590298
0
ARC
8
DEFAULT_255_2_778
10
10.5603293
20
123.8522808
40
1.6331046
50
317.098468
51
321.0362607
0
LINE
8
DEFAULT_255_2_778
10
12.0495188
20
122.3786604
11
12.0495188
21
122.2495604
0
LINE
8
DEFAULT_255_2_778
10
12.0495188
20
122.2495604
11
11.2308188
21
122.2495604
0
LINE
8
DEFAULT_255_2_778
10
11.2308188
20
122.2495604
11
11.2308188
21
122.3633604
0
LINE
8
DEFAULT_255_2_778
10
11.2308188
20
122.3633604
11
11.6632188
21
122.8427604
0
LINE
8
DEFAULT_255_2_778
10
11.3652188
20
123.1284604
11
11.2065188
21
123.1284604
0
LINE
8
DEFAULT_255_2_778
10
11.7566188
20
122.7405604
11
11.4219188
21
122.3786604
0
LINE
8
DEFAULT_255_2_778
10
11.4219188
20
122.3786604
11
12.0492188
21
122.3786604
0
LINE
8
DEFAULT_255_2_778
10
12.0492188
20
122.3786604
11
12.0495188
21
122.3786604
0
LINE
8
DEFAULT_255_2_778
10
21.4602708
20
134.2221937
11
21.4602708
21
134.0869937
0
LINE
8
DEFAULT_255_2_778
10
21.4602708
20
134.0869937
11
21.0586708
21
134.0869937
0
LINE
8
DEFAULT_255_2_778
10
21.0586708
20
134.0869937
11
21.0586708
21
132.9759937
0
LINE
8
DEFAULT_255_2_778
10
21.0586708
20
132.9759937
11
20.8948708
21
132.9759937
0
LINE
8
DEFAULT_255_2_778
10
20.8948708
20
132.9759937
11
20.8948708
21
134.0869937
0
LINE
8
DEFAULT_255_2_778
10
20.8948708
20
134.0869937
11
20.4942708
21
134.0869937
0
LINE
8
DEFAULT_255_2_778
10
20.4942708
20
134.0869937
11
20.4942708
21
134.2221937
0
LINE
8
DEFAULT_255_2_778
10
20.4942708
20
134.2221937
11
21.4605708
21
134.2221937
0
LINE
8
DEFAULT_255_2_778
10
21.4605708
20
134.2221937
11
21.4602708
21
134.2221937
0
ARC
8
DEFAULT_255_2_778
10
22.0663599
20
133.5679318
40
0.6543809
50
74.0725893
51
91.0925712
0
ARC
8
DEFAULT_255_2_778
10
22.153231
20
133.8785147
40
0.3318864
50
51.5116575
51
73.7801762
0
ARC
8
DEFAULT_255_2_778
10
22.1700621
20
133.9167227
40
0.2916976
50
359.7184418
51
49.4282064
0
ARC
8
DEFAULT_255_2_778
10
21.9645582
20
133.8903266
40
0.4978241
50
359.9731996
51
2.8742225
0
ARC
8
DEFAULT_255_2_778
10
22.2094415
20
133.8862166
40
0.2529705
50
323.4576474
51
0.8781674
0
ARC
8
DEFAULT_255_2_778
10
22.1559648
20
133.9300835
40
0.3220717
50
292.1088946
51
322.8523412
0
ARC
8
DEFAULT_255_2_778
10
22.204578
20
133.3505953
40
0.2903235
50
36.723101
51
75.5177051
0
ARC
8
DEFAULT_255_2_778
10
22.1884469
20
133.3433111
40
0.3076322
50
358.5625052
51
36.0140326
0
ARC
8
DEFAULT_255_2_778
10
22.1639985
20
133.3186283
40
0.332417
50
312.1284817
51
2.9254537
0
ARC
8
DEFAULT_255_2_778
10
22.1325017
20
133.378203
40
0.3980744
50
275.4271275
51
309.7380777
0
ARC
8
DEFAULT_255_2_778
10
22.0814878
20
133.678086
40
0.7017964
50
269.8036148
51
277.2580396
0
ARC
8
DEFAULT_255_2_778
10
22.0961824
20
133.3751303
40
0.2651065
50
266.9728342
51
307.878087
0
ARC
8
DEFAULT_255_2_778
10
22.1257159
20
133.3237022
40
0.2065456
50
310.1713184
51
311.9106706
0
ARC
8
DEFAULT_255_2_778
10
22.1217701
20
133.3228727
40
0.208593
50
312.869461
51
2.9736182
0
ARC
8
DEFAULT_255_2_778
10
22.0967037
20
133.3469839
40
0.2337567
50
356.7407163
51
36.077791
0
ARC
8
DEFAULT_255_2_778
10
22.1260295
20
133.3428391
40
0.2134938
50
41.6200946
51
87.1089402
0
ARC
8
DEFAULT_255_2_778
10
22.0863031
20
133.1077727
40
0.4511232
50
83.5733918
51
90.180455
0
ARC
8
DEFAULT_255_2_778
10
22.0724311
20
133.9512001
40
0.2608584
50
267.0227574
51
307.6248672
0
ARC
8
DEFAULT_255_2_778
10
22.1161796
20
133.8832536
40
0.1804645
50
309.7940605
51
2.4263915
0
ARC
8
DEFAULT_255_2_778
10
22.1107551
20
133.9044409
40
0.1862206
50
355.8281566
51
42.1168739
0
ARC
8
DEFAULT_255_2_778
10
22.1511339
20
133.9302122
40
0.1392131
50
45.3960839
51
52.1876361
0
ARC
8
DEFAULT_255_2_778
10
22.0943643
20
133.8348739
40
0.2497073
50
55.3098365
51
87.3137017
0
ARC
8
DEFAULT_255_2_778
10
22.0551789
20
133.5435233
40
0.5431727
50
84.6242116
51
90.1578666
0
LINE
8
DEFAULT_255_2_778
10
22.0787823
20
132.9759937
11
21.6453823
21
132.9759937
0
LINE
8
DEFAULT_255_2_778
10
21.6453823
20
132.9759937
11
21.6453823
21
134.2221937
0
LINE
8
DEFAULT_255_2_778
10
21.6453823
20
134.2221937
11
22.0538823
21
134.2221937
0
LINE
8
DEFAULT_255_2_778
10
22.0790823
20
132.9762937
11
22.0787823
21
132.9759937
0
LINE
8
DEFAULT_255_2_778
10
22.0848823
20
133.5588937
11
21.8101823
21
133.5588937
0
LINE
8
DEFAULT_255_2_778
10
21.8101823
20
133.5588937
11
21.8101823
21
133.1103937
0
LINE
8
DEFAULT_255_2_778
10
21.8101823
20
133.1103937
11
22.0821823
21
133.1103937
0
LINE
8
DEFAULT_255_2_778
10
22.0848823
20
133.5588937
11
22.0848823
21
133.5588937
0
LINE
8
DEFAULT_255_2_778
10
21.8101823
20
134.0869937
11
21.8101823
21
133.6906937
0
LINE
8
DEFAULT_255_2_778
10
21.8101823
20
133.6906937
11
22.0588823
21
133.6906937
0
LINE
8
DEFAULT_255_2_778
10
22.0536823
20
134.0866937
11
21.8099823
21
134.0866937
0
LINE
8
DEFAULT_255_2_778
10
21.8099823
20
134.0866937
11
21.8101823
21
134.0869937
0
ARC
8
DEFAULT_255_2_778
10
4.9502772
20
128.0813476
40
0.2664384
50
267.8795261
51
307.0973008
0
ARC
8
DEFAULT_255_2_778
10
4.9831124
20
128.0241943
40
0.2012175
50
309.4566246
51
311.7573568
0
ARC
8
DEFAULT_255_2_778
10
4.9842712
20
128.020039
40
0.1973553
50
312.3098079
51
2.6290599
0
ARC
8
DEFAULT_255_2_778
10
4.935295
20
128.0418599
40
0.2464547
50
357.0303151
51
31.8636956
0
ARC
8
DEFAULT_255_2_778
10
4.9931379
20
128.0566001
40
0.1904012
50
37.2933182
51
89.8327123
0
ARC
8
DEFAULT_255_2_778
10
4.9631805
20
127.8569194
40
0.3912728
50
85.5272608
51
90.0822526
0
ARC
8
DEFAULT_255_2_778
10
4.9512856
20
128.020627
40
0.2278467
50
87.1489049
51
132.1719974
0
ARC
8
DEFAULT_255_2_778
10
4.9419777
20
128.0429008
40
0.205248
50
134.4212497
51
182.4598671
0
ARC
8
DEFAULT_255_2_778
10
4.8955691
20
128.0411466
40
0.3174287
50
131.1432574
51
181.2735181
0
ARC
8
DEFAULT_255_2_778
10
4.9477074
20
127.9823963
40
0.3959762
50
87.8418962
51
131.2314137
0
ARC
8
DEFAULT_255_2_778
10
4.9759335
20
127.9342029
40
0.4440884
50
63.8794695
51
91.7181053
0
ARC
8
DEFAULT_255_2_778
10
5.0262401
20
128.0554716
40
0.3131648
50
47.0498302
51
62.3751811
0
ARC
8
DEFAULT_255_2_778
10
5.0088698
20
128.0475252
40
0.3308972
50
358.8329109
51
45.7857641
0
ARC
8
DEFAULT_255_2_778
10
4.8076632
20
128.0254765
40
0.5322554
50
359.9908691
51
1.6481977
0
ARC
8
DEFAULT_255_2_778
10
5.0663078
20
128.0293381
40
0.2736394
50
323.8691226
51
359.1736386
0
ARC
8
DEFAULT_255_2_778
10
5.0267037
20
128.0494532
40
0.3175666
50
291.6021434
51
325.1512077
0
ARC
8
DEFAULT_255_2_778
10
5.0593053
20
127.4581714
40
0.3077934
50
37.6756071
51
74.1018095
0
ARC
8
DEFAULT_255_2_778
10
5.0592779
20
127.4714454
40
0.2998867
50
358.2125961
51
35.6647082
0
ARC
8
DEFAULT_255_2_778
10
5.0196545
20
127.4463251
40
0.3397303
50
312.5104759
51
2.6599882
0
ARC
8
DEFAULT_255_2_778
10
4.9841211
20
127.5041569
40
0.4065763
50
269.0059779
51
310.6944141
0
ARC
8
DEFAULT_255_2_778
10
4.9634595
20
127.7140212
40
0.6165296
50
269.9962162
51
271.2647565
0
ARC
8
DEFAULT_255_2_778
10
4.9491173
20
127.54217
40
0.4449082
50
238.6964153
51
271.8420771
0
ARC
8
DEFAULT_255_2_778
10
4.9150501
20
127.4688419
40
0.3646653
50
229.2722861
51
237.283558
0
ARC
8
DEFAULT_255_2_778
10
4.881387
20
127.4319819
40
0.3147715
50
177.9409189
51
229.5381633
0
ARC
8
DEFAULT_255_2_778
10
4.9294209
20
127.4344279
40
0.2032954
50
177.501085
51
226.9402548
0
ARC
8
DEFAULT_255_2_778
10
4.9505407
20
127.4717883
40
0.2452194
50
229.2954736
51
272.9401768
0
ARC
8
DEFAULT_255_2_778
10
4.9763981
20
127.4834403
40
0.2568921
50
267.0369277
51
304.2339623
0
ARC
8
DEFAULT_255_2_778
10
5.0125925
20
127.4155537
40
0.1805944
50
306.8578714
51
314.475979
0
ARC
8
DEFAULT_255_2_778
10
4.9731794
20
127.4414606
40
0.2269125
50
316.9948346
51
2.5940159
0
ARC
8
DEFAULT_255_2_778
10
4.796294
20
127.4586549
40
0.4036248
50
359.0169908
51
0.0052209
0
ARC
8
DEFAULT_255_2_778
10
4.9910388
20
127.4718225
40
0.2092922
50
356.4029329
51
47.2827262
0
ARC
8
DEFAULT_255_2_778
10
4.9669989
20
127.4176333
40
0.2661001
50
51.3985088
51
87.6503222
0
ARC
8
DEFAULT_255_2_778
10
4.9342818
20
127.1871828
40
0.4982407
50
84.9766636
51
89.3517584
0
LINE
8
DEFAULT_255_2_778
10
4.8211188
20
127.6859916
11
4.8211188
21
127.8150916
0
LINE
8
DEFAULT_255_2_778
10
4.8211188
20
127.8150916
11
4.9404188
21
127.8150916
0
LINE
8
DEFAULT_255_2_778
10
4.7369188
20
128.0340916
11
4.5782188
21
128.0340916
0
LINE
8
DEFAULT_255_2_778
10
4.5668188
20
127.4432916
11
4.7263188
21
127.4432916
0
LINE
8
DEFAULT_255_2_778
10
4.9399188
20
127.6853916
11
4.8205188
21
127.6853916
0
LINE
8
DEFAULT_255_2_778
10
4.8205188
20
127.6853916
11
4.8211188
21
127.6859916
0
ARC
8
DEFAULT_255_2_778
10
3.9369171
20
131.6463382
40
1.4591632
50
318.0841097
51
324.1077824
0
ARC
8
DEFAULT_255_2_778
10
4.6659261
20
131.116888
40
0.5581828
50
324.2646708
51
331.2326853
0
ARC
8
DEFAULT_255_2_778
10
4.8976913
20
130.990151
40
0.2940295
50
331.1464367
51
359.7874776
0
ARC
8
DEFAULT_255_2_778
10
4.9688401
20
130.9975473
40
0.2230402
50
357.8193165
51
42.789631
0
ARC
8
DEFAULT_255_2_778
10
4.9838491
20
131.0041854
40
0.2075848
50
44.2593697
51
92.5761376
0
ARC
8
DEFAULT_255_2_778
10
4.9596419
20
130.966538
40
0.2454736
50
86.525485
51
133.5806017
0
ARC
8
DEFAULT_255_2_778
10
4.9788686
20
130.9734078
40
0.2544369
50
137.787207
51
182.796442
0
ARC
8
DEFAULT_255_2_778
10
5.1589552
20
130.9572668
40
0.4342363
50
179.5081462
51
180.00084
0
ARC
8
DEFAULT_255_2_778
10
4.9326846
20
130.9720207
40
0.3669628
50
134.1416972
51
182.3052229
0
ARC
8
DEFAULT_255_2_778
10
4.948181
20
130.9397332
40
0.4010863
50
90.3303658
51
132.5178856
0
ARC
8
DEFAULT_255_2_778
10
4.974293
20
130.7171728
40
0.6242875
50
89.9792817
51
92.609656
0
ARC
8
DEFAULT_255_2_778
10
4.9878704
20
130.8986561
40
0.4430055
50
63.2626666
51
91.7270797
0
ARC
8
DEFAULT_255_2_778
10
5.0356268
20
131.0121913
40
0.3202349
50
47.9968579
51
61.7543319
0
ARC
8
DEFAULT_255_2_778
10
5.041024
20
131.020357
40
0.3105586
50
357.6384441
51
47.7286768
0
ARC
8
DEFAULT_255_2_778
10
4.9386947
20
131.020427
40
0.4128246
50
331.9497057
51
358.2139617
0
ARC
8
DEFAULT_255_2_778
10
4.4576214
20
131.2596766
40
0.9500147
50
320.4018622
51
332.8590298
0
ARC
8
DEFAULT_255_2_778
10
3.9198293
20
131.6810808
40
1.6331046
50
317.098468
51
321.0362607
0
LINE
8
DEFAULT_255_2_778
10
5.4090188
20
130.2074604
11
5.4090188
21
130.0783604
0
LINE
8
DEFAULT_255_2_778
10
5.4090188
20
130.0783604
11
4.5903188
21
130.0783604
0
LINE
8
DEFAULT_255_2_778
10
4.5903188
20
130.0783604
11
4.5903188
21
130.1921604
0
LINE
8
DEFAULT_255_2_778
10
4.5903188
20
130.1921604
11
5.0227188
21
130.6715604
0
LINE
8
DEFAULT_255_2_778
10
4.7247188
20
130.9572604
11
4.5660188
21
130.9572604
0
LINE
8
DEFAULT_255_2_778
10
5.1161188
20
130.5693604
11
4.7814188
21
130.2074604
0
LINE
8
DEFAULT_255_2_778
10
4.7814188
20
130.2074604
11
5.4087188
21
130.2074604
0
LINE
8
DEFAULT_255_2_778
10
5.4087188
20
130.2074604
11
5.4090188
21
130.2074604
0
LINE
8
DEFAULT_255_2_778
10
5.3727552
20
134.1394364
11
5.3727552
21
132.8871364
0
LINE
8
DEFAULT_255_2_778
10
5.3727552
20
132.8871364
11
5.2131552
21
132.8871364
0
LINE
8
DEFAULT_255_2_778
10
5.2131552
20
132.8871364
11
5.2131552
21
133.9426364
0
LINE
8
DEFAULT_255_2_778
10
5.2131552
20
133.9426364
11
4.8930552
21
133.8253364
0
LINE
8
DEFAULT_255_2_778
10
4.8930552
20
133.8253364
11
4.8930552
21
133.9690364
0
LINE
8
DEFAULT_255_2_778
10
4.8930552
20
133.9690364
11
5.3478552
21
134.1394364
0
LINE
8
DEFAULT_255_2_778
10
5.3478552
20
134.1394364
11
5.3727552
21
134.1394364
0
LINE
8
DEFAULT_255_2_778
10
5.3727552
20
134.1394364
11
5.3727552
21
134.1394364
0
ARC
8
DEFAULT_255_2_778
10
4.2280327
20
136.2400804
40
1.1456688
50
349.7444123
51
0.6007024
0
ARC
8
DEFAULT_255_2_778
10
4.8354159
20
136.123898
40
0.5273408
50
329.14578
51
350.4167559
0
ARC
8
DEFAULT_255_2_778
10
4.9906474
20
136.0414756
40
0.351919
50
324.8345638
51
327.7041463
0
ARC
8
DEFAULT_255_2_778
10
5.0156881
20
136.0295755
40
0.3246286
50
270.8926036
51
324.0061153
0
ARC
8
DEFAULT_255_2_778
10
4.9812652
20
136.2630169
40
0.5594255
50
269.9460611
51
274.0468733
0
ARC
8
DEFAULT_255_2_778
10
4.9671551
20
136.0994441
40
0.3960854
50
240.7126232
51
271.9653011
0
ARC
8
DEFAULT_255_2_778
10
4.9280173
20
136.0105863
40
0.2995853
50
215.6703746
51
238.9273391
0
ARC
8
DEFAULT_255_2_778
10
5.0931072
20
136.1164327
40
0.4955299
50
190.7053486
51
214.4817367
0
ARC
8
DEFAULT_255_2_778
10
5.6329565
20
136.2334379
40
1.0478211
50
180.1392339
51
191.5084904
0
ARC
8
DEFAULT_255_2_778
10
5.704579
20
136.4541404
40
1.1195031
50
169.6304575
51
180.6064237
0
ARC
8
DEFAULT_255_2_778
10
5.1102241
20
136.569431
40
0.5141439
50
148.4337752
51
170.3465868
0
ARC
8
DEFAULT_255_2_778
10
4.9624439
20
136.6496494
40
0.3463541
50
144.5379186
51
146.9428569
0
ARC
8
DEFAULT_255_2_778
10
4.9416616
20
136.6576296
40
0.3248447
50
91.5404003
51
143.5576738
0
ARC
8
DEFAULT_255_2_778
10
4.978437
20
136.4189895
40
0.5652024
50
89.9288844
51
94.6182304
0
ARC
8
DEFAULT_255_2_778
10
4.992455
20
136.5721577
40
0.412249
50
62.7788705
51
91.8510823
0
ARC
8
DEFAULT_255_2_778
10
5.0394818
20
136.6820828
40
0.2931095
50
36.2234528
51
61.1241201
0
ARC
8
DEFAULT_255_2_778
10
4.8926397
20
136.5879167
40
0.4673407
50
11.2299472
51
34.8981867
0
ARC
8
DEFAULT_255_2_778
10
4.3436163
20
136.46428
40
1.03003
50
0.5029417
51
12.0281303
0
ARC
8
DEFAULT_255_2_778
10
3.8725986
20
136.4432439
40
1.5013093
50
0.5513904
51
1.1479539
0
ARC
8
DEFAULT_255_2_778
10
4.28557
20
136.4803581
40
0.9293443
50
359.2683941
51
10.0378558
0
ARC
8
DEFAULT_255_2_778
10
4.8478924
20
136.5840842
40
0.3575738
50
9.3766646
51
29.7819926
0
ARC
8
DEFAULT_255_2_778
10
4.9922956
20
136.6592292
40
0.1950272
50
31.6934829
51
93.9565906
0
ARC
8
DEFAULT_255_2_778
10
4.9655065
20
136.6618487
40
0.1924054
50
86.0267131
51
148.5658533
0
ARC
8
DEFAULT_255_2_778
10
5.1425936
20
136.5703925
40
0.3914613
50
150.6622495
51
172.722547
0
ARC
8
DEFAULT_255_2_778
10
5.6847746
20
136.4801527
40
0.9409363
50
171.4539068
51
179.9671825
0
ARC
8
DEFAULT_255_2_778
10
5.6488493
20
136.2150349
40
0.9050924
50
179.2304114
51
190.6923667
0
ARC
8
DEFAULT_255_2_778
10
5.122981
20
136.1130106
40
0.369435
50
190.2758503
51
209.8749726
0
ARC
8
DEFAULT_255_2_778
10
4.9707375
20
136.027037
40
0.1946025
50
210.2532905
51
272.9458685
0
ARC
8
DEFAULT_255_2_778
10
4.991883
20
136.0245317
40
0.1921634
50
266.675276
51
328.2777201
0
ARC
8
DEFAULT_255_2_778
10
4.8297171
20
136.1123291
40
0.3764159
50
329.8892911
51
351.7829307
0
ARC
8
DEFAULT_255_2_778
10
4.2720591
20
136.2119935
40
0.9427835
50
350.6319009
51
359.8297257
0
LINE
8
DEFAULT_255_2_778
10
5.3736386
20
136.4573916
11
5.3736386
21
136.2520916
0
LINE
8
DEFAULT_255_2_778
10
4.5851386
20
136.2308916
11
4.5851386
21
136.4422916
0
LINE
8
DEFAULT_255_2_778
10
5.3738386
20
136.4576916
11
5.3736386
21
136.4573916
0
LINE
8
DEFAULT_255_2_778
10
5.2148386
20
136.2091916
11
5.2148386
21
136.4684916
0
LINE
8
DEFAULT_255_2_778
10
4.7438386
20
136.4806916
11
4.7438386
21
136.2271916
0
LINE
8
DEFAULT_255_2_778
10
5.2148386
20
136.2091916
11
5.2148386
21
136.2091916
0
LINE
8
DEFAULT_255_2_778
10
12.7604573
20
128.3611937
11
12.7604573
21
128.2722937
0
LINE
8
DEFAULT_255_2_778
10
12.7604573
20
128.2722937
11
12.2429573
21
127.1149937
0
LINE
8
DEFAULT_255_2_778
10
12.2429573
20
127.1149937
11
12.0764573
21
127.1149937
0
LINE
8
DEFAULT_255_2_778
10
12.0764573
20
127.1149937
11
12.5921573
21
128.2309937
0
LINE
8
DEFAULT_255_2_778
10
12.5921573
20
128.2309937
11
11.9161573
21
128.2309937
0
LINE
8
DEFAULT_255_2_778
10
11.9161573
20
128.2309937
11
11.9161573
21
128.3611937
0
LINE
8
DEFAULT_255_2_778
10
11.9161573
20
128.3611937
11
12.7604573
21
128.3611937
0
LINE
8
DEFAULT_255_2_778
10
12.7604573
20
128.3611937
11
12.7604573
21
128.3611937
0
ARC
8
DEFAULT_255_2_778
10
12.3919723
20
133.2977932
40
0.4040242
50
89.0376012
51
119.9511857
0
ARC
8
DEFAULT_255_2_778
10
12.4145681
20
133.3565292
40
0.345593
50
42.3544399
51
92.6220178
0
ARC
8
DEFAULT_255_2_778
10
12.3556536
20
133.3219045
40
0.4126986
50
2.9386132
51
40.3959421
0
ARC
8
DEFAULT_255_2_778
10
12.1036143
20
133.2859674
40
0.6666447
50
359.9220434
51
4.9130852
0
ARC
8
DEFAULT_255_2_778
10
12.2861813
20
133.2718025
40
0.4842586
50
334.4752181
51
1.5688202
0
ARC
8
DEFAULT_255_2_778
10
12.4107228
20
133.2214391
40
0.3502671
50
316.7765627
51
333.1309454
0
ARC
8
DEFAULT_255_2_778
10
12.4044291
20
133.238047
40
0.3663099
50
270.8262178
51
315.557735
0
ARC
8
DEFAULT_255_2_778
10
12.3750178
20
133.4641244
40
0.5933643
50
269.9652885
51
273.3519316
0
ARC
8
DEFAULT_255_2_778
10
12.3595287
20
133.2739916
40
0.4035149
50
233.7637283
51
272.1487881
0
ARC
8
DEFAULT_255_2_778
10
12.3356023
20
133.2271747
40
0.3517095
50
228.8699873
51
232.3991754
0
ARC
8
DEFAULT_255_2_778
10
12.3499634
20
133.232714
40
0.3653986
50
182.6593388
51
227.7450854
0
ARC
8
DEFAULT_255_2_778
10
12.387071
20
133.2359965
40
0.2526244
50
184.5945064
51
225.4145204
0
ARC
8
DEFAULT_255_2_778
10
12.3407075
20
133.2008969
40
0.1952605
50
227.8746326
51
228.6308489
0
ARC
8
DEFAULT_255_2_778
10
12.3631983
20
133.2378972
40
0.2380128
50
230.4546918
51
272.7597931
0
ARC
8
DEFAULT_255_2_778
10
12.3848774
20
133.21483
40
0.2149127
50
267.2745618
51
319.6068619
0
ARC
8
DEFAULT_255_2_778
10
12.3128564
20
133.2576735
40
0.2978599
50
322.3088387
51
359.516339
0
ARC
8
DEFAULT_255_2_778
10
12.0911613
20
133.2831358
40
0.5202973
50
356.9176887
51
0.0357488
0
ARC
8
DEFAULT_255_2_778
10
12.3227168
20
133.2973736
40
0.2890766
50
357.2413053
51
40.2779261
0
ARC
8
DEFAULT_255_2_778
10
12.3713773
20
133.3275889
40
0.2325705
50
42.3495267
51
92.3704022
0
ARC
8
DEFAULT_255_2_778
10
12.3489087
20
133.2845645
40
0.2756955
50
87.3285757
51
120.1351497
0
ARC
8
DEFAULT_255_2_778
10
12.3075872
20
133.3721437
40
0.1793971
50
122.7651639
51
127.3467774
0
LINE
8
DEFAULT_255_2_778
10
12.1569583
20
133.4798604
11
12.0299583
21
133.5123604
0
LINE
8
DEFAULT_255_2_778
10
12.0299583
20
133.5123604
11
12.0934583
21
134.1338604
0
LINE
8
DEFAULT_255_2_778
10
12.0934583
20
134.1338604
11
12.7334583
21
134.1338604
0
LINE
8
DEFAULT_255_2_778
10
12.7334583
20
134.1338604
11
12.7334583
21
133.9875604
0
LINE
8
DEFAULT_255_2_778
10
12.7334583
20
133.9875604
11
12.2281583
21
133.9875604
0
LINE
8
DEFAULT_255_2_778
10
12.2281583
20
133.9875604
11
12.1902583
21
133.6478604
0
LINE
8
DEFAULT_255_2_778
10
11.9849583
20
133.2157604
11
12.1352583
21
133.2157604
0
LINE
8
DEFAULT_255_2_778
10
12.1987583
20
133.5147604
11
12.1566583
21
133.4805604
0
LINE
8
DEFAULT_255_2_778
10
12.1566583
20
133.4805604
11
12.1569583
21
133.4798604
0
ARC
8
DEFAULT_255_2_778
10
12.5419326
20
130.7405888
40
0.4500709
50
89.2563483
51
121.2856046
0
ARC
8
DEFAULT_255_2_778
10
12.5041325
20
130.8202887
40
0.3624445
50
122.7219128
51
133.9743992
0
ARC
8
DEFAULT_255_2_778
10
12.5572744
20
130.779832
40
0.4285777
50
135.3318643
51
172.2408344
0
ARC
8
DEFAULT_255_2_778
10
12.8077432
20
130.7223037
40
0.6849128
50
170.3008658
51
174.9643911
0
ARC
8
DEFAULT_255_2_778
10
12.3785396
20
130.5567154
40
0.3390953
50
87.2558879
51
138.2705769
0
ARC
8
DEFAULT_255_2_778
10
12.4075166
20
130.5712292
40
0.3244429
50
40.2412646
51
92.2508984
0
ARC
8
DEFAULT_255_2_778
10
12.3206
20
130.5082186
40
0.4315695
50
359.9497876
51
39.1723641
0
ARC
8
DEFAULT_255_2_778
10
12.0992838
20
130.4848514
40
0.6532902
50
359.9886386
51
2.0166323
0
ARC
8
DEFAULT_255_2_778
10
12.2678536
20
130.4709692
40
0.4849154
50
332.5769121
51
1.6251812
0
ARC
8
DEFAULT_255_2_778
10
12.3723575
20
130.4267709
40
0.3719054
50
317.7099934
51
331.205904
0
ARC
8
DEFAULT_255_2_778
10
12.3819346
20
130.4225572
40
0.3620008
50
267.4254749
51
317.1833654
0
ARC
8
DEFAULT_255_2_778
10
12.3561734
20
130.4172006
40
0.3564054
50
217.909005
51
271.5274928
0
ARC
8
DEFAULT_255_2_778
10
12.481609
20
130.5169965
40
0.5166908
50
182.6791181
51
218.0940717
0
ARC
8
DEFAULT_255_2_778
10
12.7425683
20
130.551482
40
0.7792946
50
179.9456054
51
184.3152148
0
ARC
8
DEFAULT_255_2_778
10
13.1571386
20
130.6254777
40
1.1939296
50
167.9641943
51
180.5977551
0
ARC
8
DEFAULT_255_2_778
10
12.6237745
20
130.7453805
40
0.6473159
50
144.0224573
51
168.4995669
0
ARC
8
DEFAULT_255_2_778
10
12.5070929
20
130.8183941
40
0.5100863
50
141.0548983
51
142.9597223
0
ARC
8
DEFAULT_255_2_778
10
12.4949282
20
130.8199392
40
0.4996956
50
96.7429865
51
140.3159125
0
ARC
8
DEFAULT_255_2_778
10
12.5585775
20
130.508024
40
0.8173591
50
90.701254
51
98.606909
0
ARC
8
DEFAULT_255_2_778
10
12.3678514
20
130.5089536
40
0.2546688
50
89.8824264
51
126.0241542
0
ARC
8
DEFAULT_255_2_778
10
12.3623017
20
130.5043988
40
0.2551894
50
124.4147494
51
159.8223322
0
ARC
8
DEFAULT_255_2_778
10
12.5718692
20
130.5210788
40
0.4492875
50
178.3236764
51
204.9192319
0
ARC
8
DEFAULT_255_2_778
10
12.4417376
20
130.4698557
40
0.3098018
50
206.4683836
51
216.3980799
0
ARC
8
DEFAULT_255_2_778
10
12.3667709
20
130.4003501
40
0.2085311
50
213.2473819
51
269.6986133
0
ARC
8
DEFAULT_255_2_778
10
12.3740167
20
130.3935835
40
0.201934
50
267.6321875
51
322.5243243
0
ARC
8
DEFAULT_255_2_778
10
12.2739203
20
130.4598977
40
0.3218253
50
323.9974365
51
1.6386635
0
ARC
8
DEFAULT_255_2_778
10
12.0758456
20
130.4769985
40
0.5198284
50
359.1294642
51
0.0025759
0
ARC
8
DEFAULT_255_2_778
10
12.2608154
20
130.4907639
40
0.3351404
50
357.6499873
51
32.7083956
0
ARC
8
DEFAULT_255_2_778
10
12.3324502
20
130.5264611
40
0.2557222
50
34.6517891
51
38.1772178
0
ARC
8
DEFAULT_255_2_778
10
12.3743047
20
130.5641497
40
0.1995603
50
37.0984841
51
91.7030208
0
LINE
8
DEFAULT_255_2_778
10
12.548574
20
131.3250219
11
12.576874
21
131.3250219
0
LINE
8
DEFAULT_255_2_778
10
12.576874
20
131.3250219
11
12.576874
21
131.1906219
0
LINE
8
DEFAULT_255_2_778
10
12.576874
20
131.1906219
11
12.547774
21
131.1906219
0
LINE
8
DEFAULT_255_2_778
10
11.963274
20
130.5522219
11
11.963274
21
130.6130219
0
LINE
8
DEFAULT_255_2_778
10
12.548574
20
131.3253219
11
12.548574
21
131.3250219
0
LINE
8
DEFAULT_255_2_778
10
12.122774
20
130.5924219
11
12.122774
21
130.5342219
0
LINE
8
DEFAULT_255_2_778
10
12.368374
20
130.7636219
11
12.368374
21
130.7636219
0
LINE
8
DEFAULT_255_2_778
10
12.62395
20
136.9664937
11
12.62395
21
136.1388937
0
LINE
8
DEFAULT_255_2_778
10
12.62395
20
136.1388937
11
12.79725
21
136.1388937
0
LINE
8
DEFAULT_255_2_778
10
12.79725
20
136.1388937
11
12.79725
21
136.0097937
0
LINE
8
DEFAULT_255_2_778
10
12.79725
20
136.0097937
11
12.62395
21
136.0097937
0
LINE
8
DEFAULT_255_2_778
10
12.62395
20
136.0097937
11
12.62395
21
135.7205937
0
LINE
8
DEFAULT_255_2_778
10
12.62395
20
135.7205937
11
12.46445
21
135.7205937
0
LINE
8
DEFAULT_255_2_778
10
12.46445
20
135.7205937
11
12.46445
21
136.0097937
0
LINE
8
DEFAULT_255_2_778
10
12.46445
20
136.0097937
11
11.89555
21
136.0097937
0
LINE
8
DEFAULT_255_2_778
10
11.89555
20
136.0097937
11
11.89555
21
136.1031937
0
LINE
8
DEFAULT_255_2_778
10
11.89555
20
136.1031937
11
12.45485
21
136.9667937
0
LINE
8
DEFAULT_255_2_778
10
12.45485
20
136.9667937
11
12.62395
21
136.9667937
0
LINE
8
DEFAULT_255_2_778
10
12.62395
20
136.9667937
11
12.62395
21
136.9664937
0
LINE
8
DEFAULT_255_2_778
10
12.44535
20
136.7156937
11
12.07545
21
136.1388937
0
LINE
8
DEFAULT_255_2_778
10
12.07545
20
136.1388937
11
12.46415
21
136.1388937
0
LINE
8
DEFAULT_255_2_778
10
12.46415
20
136.1388937
11
12.46415
21
136.7500937
0
LINE
8
DEFAULT_255_2_778
10
12.46415
20
136.7500937
11
12.44535
21
136.7159937
0
LINE
8
DEFAULT_255_2_778
10
12.44535
20
136.7159937
11
12.44535
21
136.7156937
0
LINE
8
DEFAULT_255_2_778
10
4.2313344
20
116.8510562
11
4.2313344
21
115.9001562
0
LINE
8
DEFAULT_255_2_778
10
4.2313344
20
115.9001562
11
4.1102344
21
115.9001562
0
LINE
8
DEFAULT_255_2_778
10
4.1102344
20
115.9001562
11
4.1102344
21
116.7015562
0
LINE
8
DEFAULT_255_2_778
10
4.1102344
20
116.7015562
11
3.8670344
21
116.6123562
0
LINE
8
DEFAULT_255_2_778
10
3.8670344
20
116.6123562
11
3.8670344
21
116.7216562
0
LINE
8
DEFAULT_255_2_778
10
3.8670344
20
116.7216562
11
4.2123344
21
116.8510562
0
LINE
8
DEFAULT_255_2_778
10
4.2123344
20
116.8510562
11
4.2311344
21
116.8510562
0
LINE
8
DEFAULT_255_2_778
10
4.2311344
20
116.8510562
11
4.2313344
21
116.8510562
0
ARC
8
DEFAULT_255_2_778
10
4.1491814
20
117.040927
40
1.0292105
50
317.8880208
51
324.9315705
0
ARC
8
DEFAULT_255_2_778
10
4.6736254
20
116.6688542
40
0.3862079
50
325.4074312
51
331.548199
0
ARC
8
DEFAULT_255_2_778
10
4.818413
20
116.5925741
40
0.2225749
50
331.0558079
51
359.7897353
0
ARC
8
DEFAULT_255_2_778
10
4.8718012
20
116.5981794
40
0.1693071
50
357.82614
51
42.8201336
0
ARC
8
DEFAULT_255_2_778
10
4.8833328
20
116.6032943
40
0.1574252
50
44.3075067
51
92.6018304
0
ARC
8
DEFAULT_255_2_778
10
4.86486
20
116.5750124
40
0.1858903
50
86.5067539
51
133.6766504
0
ARC
8
DEFAULT_255_2_778
10
4.880979
20
116.5790506
40
0.1946381
50
137.9332742
51
183.4147576
0
ARC
8
DEFAULT_255_2_778
10
4.8440198
20
116.5787586
40
0.278163
50
134.0874226
51
182.3284779
0
ARC
8
DEFAULT_255_2_778
10
4.8606745
20
116.5466744
40
0.3129675
50
87.1590195
51
132.1904351
0
ARC
8
DEFAULT_255_2_778
10
4.8898932
20
116.5443156
40
0.3152398
50
56.1753398
51
92.4920218
0
ARC
8
DEFAULT_255_2_778
10
4.9239717
20
116.6105163
40
0.2414251
50
48.0096352
51
54.1481182
0
ARC
8
DEFAULT_255_2_778
10
4.926944
20
116.6154888
40
0.2357434
50
357.6341488
51
47.7380365
0
ARC
8
DEFAULT_255_2_778
10
4.8325235
20
116.6187495
40
0.3302186
50
329.2889519
51
357.7451487
0
ARC
8
DEFAULT_255_2_778
10
4.3790848
20
116.8674053
40
0.8472418
50
317.9036573
51
330.4922745
0
ARC
8
DEFAULT_255_2_778
10
3.9791515
20
117.2027502
40
1.3689438
50
317.2184809
51
318.7104088
0
LINE
8
DEFAULT_255_2_778
10
5.2058865
20
115.9982573
11
5.2058865
21
115.9001573
0
LINE
8
DEFAULT_255_2_778
10
5.2058865
20
115.9001573
11
4.5843865
21
115.9001573
0
LINE
8
DEFAULT_255_2_778
10
4.5843865
20
115.9001573
11
4.5843865
21
115.9866573
0
LINE
8
DEFAULT_255_2_778
10
4.5843865
20
115.9866573
11
4.9126865
21
116.3507573
0
LINE
8
DEFAULT_255_2_778
10
4.6866865
20
116.5674573
11
4.5660865
21
116.5674573
0
LINE
8
DEFAULT_255_2_778
10
4.9838865
20
116.2729573
11
4.7298865
21
115.9980573
0
LINE
8
DEFAULT_255_2_778
10
4.7298865
20
115.9980573
11
5.2060865
21
115.9980573
0
LINE
8
DEFAULT_255_2_778
10
5.2060865
20
115.9980573
11
5.2058865
21
115.9982573
0
LINE
8
DEFAULT_255_2_778
10
5.5967854
20
116.3511802
11
5.5967854
21
116.2529802
0
LINE
8
DEFAULT_255_2_778
10
5.5967854
20
116.2529802
11
5.2787854
21
116.2529802
0
LINE
8
DEFAULT_255_2_778
10
5.2787854
20
116.2529802
11
5.2787854
21
116.3511802
0
LINE
8
DEFAULT_255_2_778
10
5.2787854
20
116.3511802
11
5.5967854
21
116.3511802
0
LINE
8
DEFAULT_255_2_778
10
5.5967854
20
116.3511802
11
5.5967854
21
116.3511802
0
ARC
8
DEFAULT_255_2_778
10
5.2667814
20
117.040927
40
1.0292105
50
317.8880208
51
324.9315705
0
ARC
8
DEFAULT_255_2_778
10
5.7912254
20
116.6688542
40
0.3862079
50
325.4074312
51
331.548199
0
ARC
8
DEFAULT_255_2_778
10
5.936013
20
116.5925741
40
0.2225749
50
331.0558079
51
359.7897353
0
ARC
8
DEFAULT_255_2_778
10
5.9894012
20
116.5981794
40
0.1693071
50
357.82614
51
42.8201336
0
ARC
8
DEFAULT_255_2_778
10
6.0009328
20
116.6032943
40
0.1574252
50
44.3075067
51
92.6018304
0
ARC
8
DEFAULT_255_2_778
10
5.98246
20
116.5750124
40
0.1858903
50
86.5067539
51
133.6766504
0
ARC
8
DEFAULT_255_2_778
10
5.998579
20
116.5790506
40
0.1946381
50
137.9332742
51
183.4147576
0
ARC
8
DEFAULT_255_2_778
10
5.9616198
20
116.5787586
40
0.278163
50
134.0874226
51
182.3284779
0
ARC
8
DEFAULT_255_2_778
10
5.9782745
20
116.5466744
40
0.3129675
50
87.1590195
51
132.1904351
0
ARC
8
DEFAULT_255_2_778
10
6.0074932
20
116.5443156
40
0.3152398
50
56.1753398
51
92.4920218
0
ARC
8
DEFAULT_255_2_778
10
6.0415717
20
116.6105163
40
0.2414251
50
48.0096352
51
54.1481182
0
ARC
8
DEFAULT_255_2_778
10
6.044544
20
116.6154888
40
0.2357434
50
357.6341488
51
47.7380365
0
ARC
8
DEFAULT_255_2_778
10
5.9501235
20
116.6187495
40
0.3302186
50
329.2889519
51
357.7451487
0
ARC
8
DEFAULT_255_2_778
10
5.4966848
20
116.8674053
40
0.8472418
50
317.9036573
51
330.4922745
0
ARC
8
DEFAULT_255_2_778
10
5.0967515
20
117.2027502
40
1.3689438
50
317.2184809
51
318.7104088
0
LINE
8
DEFAULT_255_2_778
10
6.3234865
20
115.9982573
11
6.3234865
21
115.9001573
0
LINE
8
DEFAULT_255_2_778
10
6.3234865
20
115.9001573
11
5.7019865
21
115.9001573
0
LINE
8
DEFAULT_255_2_778
10
5.7019865
20
115.9001573
11
5.7019865
21
115.9866573
0
LINE
8
DEFAULT_255_2_778
10
5.7019865
20
115.9866573
11
6.0302865
21
116.3507573
0
LINE
8
DEFAULT_255_2_778
10
5.8042865
20
116.5674573
11
5.6836865
21
116.5674573
0
LINE
8
DEFAULT_255_2_778
10
6.1014865
20
116.2729573
11
5.8474865
21
115.9980573
0
LINE
8
DEFAULT_255_2_778
10
5.8474865
20
115.9980573
11
6.3236865
21
115.9980573
0
LINE
8
DEFAULT_255_2_778
10
6.3236865
20
115.9980573
11
6.3234865
21
115.9982573
0
ARC
8
DEFAULT_255_2_778
10
6.7820883
20
116.2112061
40
0.3069912
50
89.074503
51
119.9667711
0
ARC
8
DEFAULT_255_2_778
10
6.7990699
20
116.2564587
40
0.2619746
50
42.2959754
51
92.6304496
0
ARC
8
DEFAULT_255_2_778
10
6.7441461
20
116.2242642
40
0.3245327
50
359.5864157
51
39.9740783
0
ARC
8
DEFAULT_255_2_778
10
6.5370294
20
116.2019014
40
0.5320176
50
359.9844744
51
2.1565842
0
ARC
8
DEFAULT_255_2_778
10
6.7244582
20
116.1880176
40
0.3448625
50
327.657176
51
2.2833246
0
ARC
8
DEFAULT_255_2_778
10
6.7977056
20
116.15192
40
0.26381
50
316.7784542
51
325.7697873
0
ARC
8
DEFAULT_255_2_778
10
6.7876107
20
116.1722867
40
0.285224
50
267.9819331
51
315.1856263
0
ARC
8
DEFAULT_255_2_778
10
6.7687666
20
116.3582332
40
0.471076
50
269.9975994
51
271.0703826
0
ARC
8
DEFAULT_255_2_778
10
6.7560927
20
116.1874191
40
0.3005284
50
230.1317991
51
272.4132311
0
ARC
8
DEFAULT_255_2_778
10
6.7502608
20
116.1621209
40
0.2776214
50
182.6970815
51
227.7080355
0
ARC
8
DEFAULT_255_2_778
10
6.7773235
20
116.1642142
40
0.190979
50
184.5520203
51
226.1202243
0
ARC
8
DEFAULT_255_2_778
10
6.7600212
20
116.1653016
40
0.1802556
50
230.327727
51
272.7746091
0
ARC
8
DEFAULT_255_2_778
10
6.7766307
20
116.1479715
40
0.1629051
50
267.2260632
51
319.6313224
0
ARC
8
DEFAULT_255_2_778
10
6.7141423
20
116.1847208
40
0.234649
50
322.6788423
51
2.3137139
0
ARC
8
DEFAULT_255_2_778
10
6.5323126
20
116.2004229
40
0.4163341
50
359.142719
51
0.0047289
0
ARC
8
DEFAULT_255_2_778
10
6.7298489
20
116.2110922
40
0.2190563
50
357.217262
51
40.3280201
0
ARC
8
DEFAULT_255_2_778
10
6.7662783
20
116.2335225
40
0.1768868
50
42.4261495
51
92.3754297
0
ARC
8
DEFAULT_255_2_778
10
6.747581
20
116.2111933
40
0.1993882
50
86.7321492
51
124.3256205
0
LINE
8
DEFAULT_255_2_778
10
6.6031469
20
116.3498573
11
6.5068469
21
116.3744573
0
LINE
8
DEFAULT_255_2_778
10
6.5068469
20
116.3744573
11
6.5549469
21
116.8462573
0
LINE
8
DEFAULT_255_2_778
10
6.5549469
20
116.8462573
11
7.0410469
21
116.8462573
0
LINE
8
DEFAULT_255_2_778
10
7.0410469
20
116.8462573
11
7.0410469
21
116.7351573
0
LINE
8
DEFAULT_255_2_778
10
7.0410469
20
116.7351573
11
6.6573469
21
116.7351573
0
LINE
8
DEFAULT_255_2_778
10
6.6573469
20
116.7351573
11
6.6287469
21
116.4771573
0
LINE
8
DEFAULT_255_2_778
10
6.4729469
20
116.1490573
11
6.5869469
21
116.1490573
0
LINE
8
DEFAULT_255_2_778
10
6.6351469
20
116.3758573
11
6.6031469
21
116.3498573
0
LINE
8
DEFAULT_255_2_778
10
6.6031469
20
116.3498573
11
6.6031469
21
116.3498573
0
ARC
8
DEFAULT_255_2_778
10
6.977071
20
116.2912915
40
0.8183133
50
347.5411679
51
0.862126
0
ARC
8
DEFAULT_255_2_778
10
7.4206432
20
116.1915522
40
0.3636731
50
326.2685468
51
347.8082376
0
ARC
8
DEFAULT_255_2_778
10
7.5200965
20
116.1390366
40
0.2520657
50
267.9658651
51
323.6418051
0
ARC
8
DEFAULT_255_2_778
10
7.4969793
20
116.3320197
40
0.4451155
50
269.9887167
51
271.8243005
0
ARC
8
DEFAULT_255_2_778
10
7.4826163
20
116.1656116
40
0.2790727
50
231.5604118
51
272.9321171
0
ARC
8
DEFAULT_255_2_778
10
7.4610434
20
116.1239715
40
0.2332194
50
215.8436314
51
229.3512975
0
ARC
8
DEFAULT_255_2_778
10
7.5989447
20
116.2089586
40
0.394949
50
188.3232133
51
214.1228962
0
ARC
8
DEFAULT_255_2_778
10
8.0327398
20
116.2922481
40
0.8364617
50
180.3249511
51
189.6670775
0
ARC
8
DEFAULT_255_2_778
10
7.9950788
20
116.4603072
40
0.7988804
50
167.3837795
51
180.8752379
0
ARC
8
DEFAULT_255_2_778
10
7.5628308
20
116.5586962
40
0.3555825
50
145.8699295
51
167.6419149
0
ARC
8
DEFAULT_255_2_778
10
7.4703579
20
116.6069071
40
0.2522713
50
88.650257
51
143.1487491
0
ARC
8
DEFAULT_255_2_778
10
7.4951408
20
116.4109216
40
0.4485827
50
89.9807264
51
92.4071353
0
ARC
8
DEFAULT_255_2_778
10
7.5089847
20
116.5681392
40
0.2916865
50
55.4487193
51
92.6906982
0
ARC
8
DEFAULT_255_2_778
10
7.5401963
20
116.6292996
40
0.2237923
50
36.2417163
51
53.1489639
0
ARC
8
DEFAULT_255_2_778
10
7.4118567
20
116.5499211
40
0.3744179
50
8.9148799
51
34.4276911
0
ARC
8
DEFAULT_255_2_778
10
6.9489264
20
116.4582757
40
0.8461666
50
0.0967212
51
10.1879309
0
ARC
8
DEFAULT_255_2_778
10
7.0218341
20
116.4799584
40
0.6529633
50
358.968539
51
12.1157559
0
ARC
8
DEFAULT_255_2_778
10
7.4154877
20
116.5639451
40
0.2504509
50
12.2317402
51
30.4059668
0
ARC
8
DEFAULT_255_2_778
10
7.5054447
20
116.6125327
40
0.1483193
50
31.8062187
51
93.9251679
0
ARC
8
DEFAULT_255_2_778
10
7.4850748
20
116.6144847
40
0.1463764
50
85.9975866
51
148.4825748
0
ARC
8
DEFAULT_255_2_778
10
7.6384376
20
116.5381739
40
0.3173677
50
151.2129334
51
174.6932418
0
ARC
8
DEFAULT_255_2_778
10
8.0749727
20
116.4743722
40
0.7582862
50
172.9434695
51
179.7860206
0
ARC
8
DEFAULT_255_2_778
10
7.9585332
20
116.2728107
40
0.6419535
50
178.9294946
51
192.7667169
0
ARC
8
DEFAULT_255_2_778
10
7.58622
20
116.1899611
40
0.2605405
50
193.0906699
51
210.3527562
0
ARC
8
DEFAULT_255_2_778
10
7.4890784
20
116.133088
40
0.1479747
50
210.3567515
51
272.9104058
0
ARC
8
DEFAULT_255_2_778
10
7.5051326
20
116.1310247
40
0.1459706
50
266.6456263
51
328.1997904
0
ARC
8
DEFAULT_255_2_778
10
7.3591948
20
116.2068559
40
0.3102119
50
330.5008208
51
354.4241293
0
ARC
8
DEFAULT_255_2_778
10
6.9005289
20
116.2765927
40
0.7738823
50
352.5846538
51
359.5936389
0
LINE
8
DEFAULT_255_2_778
10
7.7952917
20
116.4597042
11
7.7952917
21
116.3036042
0
LINE
8
DEFAULT_255_2_778
10
7.1962917
20
116.2875042
11
7.1962917
21
116.4481042
0
LINE
8
DEFAULT_255_2_778
10
7.7950917
20
116.4597042
11
7.7952917
21
116.4597042
0
LINE
8
DEFAULT_255_2_778
10
7.6746917
20
116.2713042
11
7.6746917
21
116.4682042
0
LINE
8
DEFAULT_255_2_778
10
7.3166917
20
116.4772042
11
7.3166917
21
116.2848042
0
LINE
8
DEFAULT_255_2_778
10
7.6743917
20
116.2711042
11
7.6746917
21
116.2713042
0
LINE
8
DEFAULT_255_2_778
10
8.3556708
20
116.8465073
11
8.6254708
21
116.0660073
0
LINE
8
DEFAULT_255_2_778
10
8.6254708
20
116.0660073
11
8.8964708
21
116.8465073
0
LINE
8
DEFAULT_255_2_778
10
8.8964708
20
116.8465073
11
9.0332708
21
116.8465073
0
LINE
8
DEFAULT_255_2_778
10
9.0332708
20
116.8465073
11
8.6813708
21
115.9001073
0
LINE
8
DEFAULT_255_2_778
10
8.6813708
20
115.9001073
11
8.5704708
21
115.9001073
0
LINE
8
DEFAULT_255_2_778
10
8.5704708
20
115.9001073
11
8.2193708
21
116.8465073
0
LINE
8
DEFAULT_255_2_778
10
8.2193708
20
116.8465073
11
8.3556708
21
116.8465073
0
LINE
8
DEFAULT_255_2_778
10
8.3556708
20
116.8465073
11
8.3556708
21
116.8465073
0
LINE
8
DEFAULT_255_2_778
10
9.7257198
20
115.9001073
11
9.6352198
21
116.1469073
0
LINE
8
DEFAULT_255_2_778
10
9.6352198
20
116.1469073
11
9.2378198
21
116.1469073
0
LINE
8
DEFAULT_255_2_778
10
9.2378198
20
116.1469073
11
9.1486198
21
115.9001073
0
LINE
8
DEFAULT_255_2_778
10
9.1486198
20
115.9001073
11
9.0195198
21
115.9001073
0
LINE
8
DEFAULT_255_2_778
10
9.0195198
20
115.9001073
11
9.3817198
21
116.8465073
0
LINE
8
DEFAULT_255_2_778
10
9.3817198
20
116.8465073
11
9.4913198
21
116.8465073
0
LINE
8
DEFAULT_255_2_778
10
9.4913198
20
116.8465073
11
9.8543198
21
115.9001073
0
LINE
8
DEFAULT_255_2_778
10
9.8543198
20
115.9001073
11
9.7259198
21
115.9001073
0
LINE
8
DEFAULT_255_2_778
10
9.7259198
20
115.9001073
11
9.7257198
21
115.9001073
0
LINE
8
DEFAULT_255_2_778
10
9.4365198
20
116.6925073
11
9.2756198
21
116.2499073
0
LINE
8
DEFAULT_255_2_778
10
9.2756198
20
116.2499073
11
9.5981198
21
116.2499073
0
LINE
8
DEFAULT_255_2_778
10
9.5981198
20
116.2499073
11
9.4365198
21
116.6925073
0
LINE
8
DEFAULT_255_2_778
10
9.4365198
20
116.6925073
11
9.4365198
21
116.6925073
0
ARC
8
DEFAULT_255_2_778
10
10.3182888
20
116.2265134
40
0.3549501
50
316.4840097
51
355.7764334
0
ARC
8
DEFAULT_255_2_778
10
10.362839
20
116.195806
40
0.3016165
50
311.1153225
51
314.8868132
0
ARC
8
DEFAULT_255_2_778
10
10.3356694
20
116.2419773
40
0.3544056
50
269.7733314
51
309.5159138
0
ARC
8
DEFAULT_255_2_778
10
10.312923
20
116.453426
40
0.5662542
50
269.9850265
51
272.1602154
0
ARC
8
DEFAULT_255_2_778
10
10.3005236
20
116.2218901
40
0.3349424
50
219.8486424
51
272.0962068
0
ARC
8
DEFAULT_255_2_778
10
10.3917487
20
116.2878715
40
0.4473258
50
183.6809074
51
218.8499132
0
ARC
8
DEFAULT_255_2_778
10
10.6627465
20
116.3277453
40
0.7206724
50
179.9024851
51
185.4615528
0
ARC
8
DEFAULT_255_2_778
10
10.4782143
20
116.4313703
40
0.5362605
50
155.6973436
51
181.2179388
0
ARC
8
DEFAULT_255_2_778
10
10.3117416
20
116.5066183
40
0.3535711
50
122.2109116
51
155.7081864
0
ARC
8
DEFAULT_255_2_778
10
10.3163274
20
116.4861391
40
0.3734091
50
88.8418145
51
121.1312109
0
ARC
8
DEFAULT_255_2_778
10
10.3385964
20
116.5071615
40
0.3526178
50
53.4415127
51
92.3927244
0
ARC
8
DEFAULT_255_2_778
10
10.3647568
20
116.556666
40
0.2973918
50
47.3421596
51
51.8087501
0
ARC
8
DEFAULT_255_2_778
10
10.3221492
20
116.5238658
40
0.3505035
50
3.3904287
51
45.8531038
0
ARC
8
DEFAULT_255_2_778
10
10.1446326
20
116.4898313
40
0.5302421
50
5.6757897
51
5.9280533
0
ARC
8
DEFAULT_255_2_778
10
10.2283557
20
116.5084577
40
0.3201103
50
6.0636367
51
31.9225573
0
ARC
8
DEFAULT_255_2_778
10
10.359134
20
116.5819931
40
0.1703601
50
34.1892309
51
46.6977334
0
ARC
8
DEFAULT_255_2_778
10
10.3368987
20
116.542665
40
0.2145026
50
49.5814227
51
93.4808874
0
ARC
8
DEFAULT_255_2_778
10
10.3143301
20
116.5330102
40
0.2239652
50
87.5574353
51
142.7831199
0
ARC
8
DEFAULT_255_2_778
10
10.4190599
20
116.4661855
40
0.3479322
50
144.451219
51
175.4483093
0
ARC
8
DEFAULT_255_2_778
10
10.7272537
20
116.4190267
40
0.6592823
50
173.4879939
51
180.1872715
0
ARC
8
DEFAULT_255_2_778
10
10.5476318
20
116.3126802
40
0.4798221
50
178.4962525
51
201.5490359
0
ARC
8
DEFAULT_255_2_778
10
10.3782178
20
116.2535994
40
0.3006374
50
202.9354612
51
215.2070945
0
ARC
8
DEFAULT_255_2_778
10
10.3050279
20
116.1978315
40
0.208711
50
214.2819077
51
272.1821782
0
ARC
8
DEFAULT_255_2_778
10
10.3256691
20
116.2500943
40
0.2611311
50
267.2136505
51
300.047518
0
ARC
8
DEFAULT_255_2_778
10
10.368183
20
116.1607895
40
0.1627332
50
302.8357261
51
310.1330335
0
ARC
8
DEFAULT_255_2_778
10
10.3217323
20
116.1960088
40
0.219974
50
313.4722044
51
348.610313
0
ARC
8
DEFAULT_255_2_778
10
10.0627501
20
116.2747832
40
0.4901068
50
345.5601139
51
351.2671919
0
LINE
8
DEFAULT_255_2_778
10
10.546675
20
116.2003719
11
10.672275
21
116.2003719
0
LINE
8
DEFAULT_255_2_778
10
9.942075
20
116.3289719
11
9.942075
21
116.4199719
0
LINE
8
DEFAULT_255_2_778
10
10.672275
20
116.5422719
11
10.546675
21
116.5422719
0
LINE
8
DEFAULT_255_2_778
10
10.067975
20
116.4168719
11
10.067975
21
116.3252719
0
LINE
8
DEFAULT_255_2_778
10
10.547175
20
116.2003719
11
10.546675
21
116.2003719
0
ARC
8
DEFAULT_255_2_778
10
4.1565883
20
113.8524061
40
0.3069912
50
89.074503
51
119.9667711
0
ARC
8
DEFAULT_255_2_778
10
4.1735699
20
113.8976587
40
0.2619746
50
42.2959754
51
92.6304496
0
ARC
8
DEFAULT_255_2_778
10
4.1186461
20
113.8654642
40
0.3245327
50
359.5864157
51
39.9740783
0
ARC
8
DEFAULT_255_2_778
10
3.9115294
20
113.8431014
40
0.5320176
50
359.9844744
51
2.1565842
0
ARC
8
DEFAULT_255_2_778
10
4.0989582
20
113.8292176
40
0.3448625
50
327.657176
51
2.2833246
0
ARC
8
DEFAULT_255_2_778
10
4.1722056
20
113.79312
40
0.26381
50
316.7784542
51
325.7697873
0
ARC
8
DEFAULT_255_2_778
10
4.1621107
20
113.8134867
40
0.285224
50
267.9819331
51
315.1856263
0
ARC
8
DEFAULT_255_2_778
10
4.1432666
20
113.9994332
40
0.471076
50
269.9975994
51
271.0703826
0
ARC
8
DEFAULT_255_2_778
10
4.1305927
20
113.8286191
40
0.3005284
50
230.1317991
51
272.4132311
0
ARC
8
DEFAULT_255_2_778
10
4.1247608
20
113.8033209
40
0.2776214
50
182.6970815
51
227.7080355
0
ARC
8
DEFAULT_255_2_778
10
4.1518235
20
113.8054142
40
0.190979
50
184.5520203
51
226.1202243
0
ARC
8
DEFAULT_255_2_778
10
4.1345212
20
113.8065016
40
0.1802556
50
230.327727
51
272.7746091
0
ARC
8
DEFAULT_255_2_778
10
4.1511307
20
113.7891715
40
0.1629051
50
267.2260632
51
319.6313224
0
ARC
8
DEFAULT_255_2_778
10
4.0886423
20
113.8259208
40
0.234649
50
322.6788423
51
2.3137139
0
ARC
8
DEFAULT_255_2_778
10
3.9068126
20
113.8416229
40
0.4163341
50
359.142719
51
0.0047289
0
ARC
8
DEFAULT_255_2_778
10
4.1043489
20
113.8522922
40
0.2190563
50
357.217262
51
40.3280201
0
ARC
8
DEFAULT_255_2_778
10
4.1407783
20
113.8747225
40
0.1768868
50
42.4261495
51
92.3754297
0
ARC
8
DEFAULT_255_2_778
10
4.122081
20
113.8523933
40
0.1993882
50
86.7321492
51
124.3256205
0
LINE
8
DEFAULT_255_2_778
10
3.9776469
20
113.9910573
11
3.8813469
21
114.0156573
0
LINE
8
DEFAULT_255_2_778
10
3.8813469
20
114.0156573
11
3.9294469
21
114.4874573
0
LINE
8
DEFAULT_255_2_778
10
3.9294469
20
114.4874573
11
4.4155469
21
114.4874573
0
LINE
8
DEFAULT_255_2_778
10
4.4155469
20
114.4874573
11
4.4155469
21
114.3763573
0
LINE
8
DEFAULT_255_2_778
10
4.4155469
20
114.3763573
11
4.0318469
21
114.3763573
0
LINE
8
DEFAULT_255_2_778
10
4.0318469
20
114.3763573
11
4.0032469
21
114.1183573
0
LINE
8
DEFAULT_255_2_778
10
3.8474469
20
113.7902573
11
3.9614469
21
113.7902573
0
LINE
8
DEFAULT_255_2_778
10
4.0096469
20
114.0170573
11
3.9776469
21
113.9910573
0
LINE
8
DEFAULT_255_2_778
10
3.9776469
20
113.9910573
11
3.9776469
21
113.9910573
0
LINE
8
DEFAULT_255_2_778
10
5.2206198
20
113.5414073
11
5.1301198
21
113.7882073
0
LINE
8
DEFAULT_255_2_778
10
5.1301198
20
113.7882073
11
4.7327198
21
113.7882073
0
LINE
8
DEFAULT_255_2_778
10
4.7327198
20
113.7882073
11
4.6435198
21
113.5414073
0
LINE
8
DEFAULT_255_2_778
10
4.6435198
20
113.5414073
11
4.5144198
21
113.5414073
0
LINE
8
DEFAULT_255_2_778
10
4.5144198
20
113.5414073
11
4.8766198
21
114.4878073
0
LINE
8
DEFAULT_255_2_778
10
4.8766198
20
114.4878073
11
4.9862198
21
114.4878073
0
LINE
8
DEFAULT_255_2_778
10
4.9862198
20
114.4878073
11
5.3492198
21
113.5414073
0
LINE
8
DEFAULT_255_2_778
10
5.3492198
20
113.5414073
11
5.2208198
21
113.5414073
0
LINE
8
DEFAULT_255_2_778
10
5.2208198
20
113.5414073
11
5.2206198
21
113.5414073
0
LINE
8
DEFAULT_255_2_778
10
4.9314198
20
114.3338073
11
4.7705198
21
113.8912073
0
LINE
8
DEFAULT_255_2_778
10
4.7705198
20
113.8912073
11
5.0930198
21
113.8912073
0
LINE
8
DEFAULT_255_2_778
10
5.0930198
20
113.8912073
11
4.9314198
21
114.3338073
0
LINE
8
DEFAULT_255_2_778
10
4.9314198
20
114.3338073
11
4.9314198
21
114.3338073
0
ARC
8
DEFAULT_255_2_778
10
6.1067883
20
113.8524061
40
0.3069912
50
89.074503
51
119.9667711
0
ARC
8
DEFAULT_255_2_778
10
6.1237699
20
113.8976587
40
0.2619746
50
42.2959754
51
92.6304496
0
ARC
8
DEFAULT_255_2_778
10
6.0688461
20
113.8654642
40
0.3245327
50
359.5864157
51
39.9740783
0
ARC
8
DEFAULT_255_2_778
10
5.8617294
20
113.8431014
40
0.5320176
50
359.9844744
51
2.1565842
0
ARC
8
DEFAULT_255_2_778
10
6.0491582
20
113.8292176
40
0.3448625
50
327.657176
51
2.2833246
0
ARC
8
DEFAULT_255_2_778
10
6.1224056
20
113.79312
40
0.26381
50
316.7784542
51
325.7697873
0
ARC
8
DEFAULT_255_2_778
10
6.1123107
20
113.8134867
40
0.285224
50
267.9819331
51
315.1856263
0
ARC
8
DEFAULT_255_2_778
10
6.0934666
20
113.9994332
40
0.471076
50
269.9975994
51
271.0703826
0
ARC
8
DEFAULT_255_2_778
10
6.0807927
20
113.8286191
40
0.3005284
50
230.1317991
51
272.4132311
0
ARC
8
DEFAULT_255_2_778
10
6.0749608
20
113.8033209
40
0.2776214
50
182.6970815
51
227.7080355
0
ARC
8
DEFAULT_255_2_778
10
6.1020235
20
113.8054142
40
0.190979
50
184.5520203
51
226.1202243
0
ARC
8
DEFAULT_255_2_778
10
6.0847212
20
113.8065016
40
0.1802556
50
230.327727
51
272.7746091
0
ARC
8
DEFAULT_255_2_778
10
6.1013307
20
113.7891715
40
0.1629051
50
267.2260632
51
319.6313224
0
ARC
8
DEFAULT_255_2_778
10
6.0388423
20
113.8259208
40
0.234649
50
322.6788423
51
2.3137139
0
ARC
8
DEFAULT_255_2_778
10
5.8570126
20
113.8416229
40
0.4163341
50
359.142719
51
0.0047289
0
ARC
8
DEFAULT_255_2_778
10
6.0545489
20
113.8522922
40
0.2190563
50
357.217262
51
40.3280201
0
ARC
8
DEFAULT_255_2_778
10
6.0909783
20
113.8747225
40
0.1768868
50
42.4261495
51
92.3754297
0
ARC
8
DEFAULT_255_2_778
10
6.072281
20
113.8523933
40
0.1993882
50
86.7321492
51
124.3256205
0
LINE
8
DEFAULT_255_2_778
10
5.9278469
20
113.9910573
11
5.8315469
21
114.0156573
0
LINE
8
DEFAULT_255_2_778
10
5.8315469
20
114.0156573
11
5.8796469
21
114.4874573
0
LINE
8
DEFAULT_255_2_778
10
5.8796469
20
114.4874573
11
6.3657469
21
114.4874573
0
LINE
8
DEFAULT_255_2_778
10
6.3657469
20
114.4874573
11
6.3657469
21
114.3763573
0
LINE
8
DEFAULT_255_2_778
10
6.3657469
20
114.3763573
11
5.9820469
21
114.3763573
0
LINE
8
DEFAULT_255_2_778
10
5.9820469
20
114.3763573
11
5.9534469
21
114.1183573
0
LINE
8
DEFAULT_255_2_778
10
5.7976469
20
113.7902573
11
5.9116469
21
113.7902573
0
LINE
8
DEFAULT_255_2_778
10
5.9598469
20
114.0170573
11
5.9278469
21
113.9910573
0
LINE
8
DEFAULT_255_2_778
10
5.9278469
20
113.9910573
11
5.9278469
21
113.9910573
0
ARC
8
DEFAULT_255_2_778
10
6.301871
20
113.9324915
40
0.8183133
50
347.5411679
51
0.862126
0
ARC
8
DEFAULT_255_2_778
10
6.7454432
20
113.8327522
40
0.3636731
50
326.2685468
51
347.8082376
0
ARC
8
DEFAULT_255_2_778
10
6.8448965
20
113.7802366
40
0.2520657
50
267.9658651
51
323.6418051
0
ARC
8
DEFAULT_255_2_778
10
6.8217793
20
113.9732197
40
0.4451155
50
269.9887167
51
271.8243005
0
ARC
8
DEFAULT_255_2_778
10
6.8074163
20
113.8068116
40
0.2790727
50
231.5604118
51
272.9321171
0
ARC
8
DEFAULT_255_2_778
10
6.7858434
20
113.7651715
40
0.2332194
50
215.8436314
51
229.3512975
0
ARC
8
DEFAULT_255_2_778
10
6.9237447
20
113.8501586
40
0.394949
50
188.3232133
51
214.1228962
0
ARC
8
DEFAULT_255_2_778
10
7.3575398
20
113.9334481
40
0.8364617
50
180.3249511
51
189.6670775
0
ARC
8
DEFAULT_255_2_778
10
7.3198788
20
114.1015072
40
0.7988804
50
167.3837795
51
180.8752379
0
ARC
8
DEFAULT_255_2_778
10
6.8876308
20
114.1998962
40
0.3555825
50
145.8699295
51
167.6419149
0
ARC
8
DEFAULT_255_2_778
10
6.7951579
20
114.2481071
40
0.2522713
50
88.650257
51
143.1487491
0
ARC
8
DEFAULT_255_2_778
10
6.8199408
20
114.0521216
40
0.4485827
50
89.9807264
51
92.4071353
0
ARC
8
DEFAULT_255_2_778
10
6.8337847
20
114.2093392
40
0.2916865
50
55.4487193
51
92.6906982
0
ARC
8
DEFAULT_255_2_778
10
6.8649963
20
114.2704996
40
0.2237923
50
36.2417163
51
53.1489639
0
ARC
8
DEFAULT_255_2_778
10
6.7366567
20
114.1911211
40
0.3744179
50
8.9148799
51
34.4276911
0
ARC
8
DEFAULT_255_2_778
10
6.2737264
20
114.0994757
40
0.8461666
50
0.0967212
51
10.1879309
0
ARC
8
DEFAULT_255_2_778
10
6.3466341
20
114.1211584
40
0.6529633
50
358.968539
51
12.1157559
0
ARC
8
DEFAULT_255_2_778
10
6.7402877
20
114.2051451
40
0.2504509
50
12.2317402
51
30.4059668
0
ARC
8
DEFAULT_255_2_778
10
6.8302447
20
114.2537327
40
0.1483193
50
31.8062187
51
93.9251679
0
ARC
8
DEFAULT_255_2_778
10
6.8098748
20
114.2556847
40
0.1463764
50
85.9975866
51
148.4825748
0
ARC
8
DEFAULT_255_2_778
10
6.9632376
20
114.1793739
40
0.3173677
50
151.2129334
51
174.6932418
0
ARC
8
DEFAULT_255_2_778
10
7.3997727
20
114.1155722
40
0.7582862
50
172.9434695
51
179.7860206
0
ARC
8
DEFAULT_255_2_778
10
7.2833332
20
113.9140107
40
0.6419535
50
178.9294946
51
192.7667169
0
ARC
8
DEFAULT_255_2_778
10
6.91102
20
113.8311611
40
0.2605405
50
193.0906699
51
210.3527562
0
ARC
8
DEFAULT_255_2_778
10
6.8138784
20
113.774288
40
0.1479747
50
210.3567515
51
272.9104058
0
ARC
8
DEFAULT_255_2_778
10
6.8299326
20
113.7722247
40
0.1459706
50
266.6456263
51
328.1997904
0
ARC
8
DEFAULT_255_2_778
10
6.6839948
20
113.8480559
40
0.3102119
50
330.5008208
51
354.4241293
0
ARC
8
DEFAULT_255_2_778
10
6.2253289
20
113.9177927
40
0.7738823
50
352.5846538
51
359.5936389
0
LINE
8
DEFAULT_255_2_778
10
7.1200917
20
114.1009042
11
7.1200917
21
113.9448042
0
LINE
8
DEFAULT_255_2_778
10
6.5210917
20
113.9287042
11
6.5210917
21
114.0893042
0
LINE
8
DEFAULT_255_2_778
10
7.1198917
20
114.1009042
11
7.1200917
21
114.1009042
0
LINE
8
DEFAULT_255_2_778
10
6.9994917
20
113.9125042
11
6.9994917
21
114.1094042
0
LINE
8
DEFAULT_255_2_778
10
6.6414917
20
114.1184042
11
6.6414917
21
113.9260042
0
LINE
8
DEFAULT_255_2_778
10
6.9991917
20
113.9123042
11
6.9994917
21
113.9125042
0
LINE
8
DEFAULT_255_2_778
10
7.7064656
20
114.4877208
11
7.3108656
21
113.4601208
0
LINE
8
DEFAULT_255_2_778
10
7.3108656
20
113.4601208
11
7.2071656
21
113.4601208
0
LINE
8
DEFAULT_255_2_778
10
7.2071656
20
113.4601208
11
7.6032656
21
114.4877208
0
LINE
8
DEFAULT_255_2_778
10
7.6032656
20
114.4877208
11
7.7061656
21
114.4877208
0
LINE
8
DEFAULT_255_2_778
10
7.7061656
20
114.4877208
11
7.7064656
21
114.4877208
0
ARC
8
DEFAULT_255_2_778
10
8.2660852
20
114.0666857
40
0.3195992
50
88.3608666
51
131.6361071
0
ARC
8
DEFAULT_255_2_778
10
8.2437503
20
114.1035188
40
0.2773409
50
133.2434068
51
133.9902055
0
ARC
8
DEFAULT_255_2_778
10
8.2924072
20
114.0683081
40
0.3366331
50
135.7864088
51
175.3890773
0
ARC
8
DEFAULT_255_2_778
10
8.4980736
20
114.0280416
40
0.5453818
50
172.9086767
51
174.9283505
0
ARC
8
DEFAULT_255_2_778
10
8.1469564
20
113.9049312
40
0.2574204
50
87.2455214
51
138.276414
0
ARC
8
DEFAULT_255_2_778
10
8.169016
20
113.9161258
40
0.2461192
50
40.1905138
51
92.2561203
0
ARC
8
DEFAULT_255_2_778
10
8.0962829
20
113.8645359
40
0.3350573
50
357.5228129
51
38.9032303
0
ARC
8
DEFAULT_255_2_778
10
8.086491
20
113.8356732
40
0.3448361
50
324.6209311
51
2.3901456
0
ARC
8
DEFAULT_255_2_778
10
8.1427807
20
113.8062482
40
0.2820354
50
317.6228512
51
322.8736686
0
ARC
8
DEFAULT_255_2_778
10
8.1493411
20
113.8032816
40
0.2751986
50
267.4562386
51
317.1585219
0
ARC
8
DEFAULT_255_2_778
10
8.1298903
20
113.7992621
40
0.2710046
50
217.9626793
51
271.5301933
0
ARC
8
DEFAULT_255_2_778
10
8.2354574
20
113.8795099
40
0.4036027
50
179.7721779
51
217.725442
0
ARC
8
DEFAULT_255_2_778
10
8.4499208
20
113.9013454
40
0.6183939
50
179.9899217
51
181.8747587
0
ARC
8
DEFAULT_255_2_778
10
8.695322
20
113.9600216
40
0.8638864
50
165.597321
51
180.8335435
0
ARC
8
DEFAULT_255_2_778
10
8.3093362
20
114.0600023
40
0.4651635
50
141.9110765
51
165.6995734
0
ARC
8
DEFAULT_255_2_778
10
8.2395481
20
114.0989136
40
0.3864327
50
93.7675047
51
140.0684068
0
ARC
8
DEFAULT_255_2_778
10
8.284023
20
113.8435121
40
0.6447954
50
90.7371851
51
96.2204797
0
ARC
8
DEFAULT_255_2_778
10
8.1387873
20
113.8697074
40
0.1923472
50
89.868984
51
126.1847913
0
ARC
8
DEFAULT_255_2_778
10
8.1340489
20
113.8656789
40
0.192901
50
124.3421134
51
159.873769
0
ARC
8
DEFAULT_255_2_778
10
8.2724698
20
113.8746753
40
0.3198185
50
177.6203882
51
210.7845216
0
ARC
8
DEFAULT_255_2_778
10
8.1897299
20
113.8354093
40
0.2288022
50
212.9420809
51
216.4247578
0
ARC
8
DEFAULT_255_2_778
10
8.1377697
20
113.7859109
40
0.157858
50
213.1650778
51
269.7667508
0
ARC
8
DEFAULT_255_2_778
10
8.1435478
20
113.7814041
40
0.1534843
50
267.6024332
51
322.4460443
0
ARC
8
DEFAULT_255_2_778
10
8.063883
20
113.8328514
40
0.2481202
50
324.2405809
51
2.7033949
0
ARC
8
DEFAULT_255_2_778
10
8.063579
20
113.856069
40
0.2484151
50
357.3432104
51
36.0486115
0
ARC
8
DEFAULT_255_2_778
10
8.1433716
20
113.9102986
40
0.1520206
50
37.2208643
51
91.6753609
0
LINE
8
DEFAULT_255_2_778
10
8.2760271
20
114.4882542
11
8.2974271
21
114.4882542
0
LINE
8
DEFAULT_255_2_778
10
8.2974271
20
114.4882542
11
8.2974271
21
114.3861542
0
LINE
8
DEFAULT_255_2_778
10
8.2974271
20
114.3861542
11
8.2752271
21
114.3861542
0
LINE
8
DEFAULT_255_2_778
10
7.8315271
20
113.9014542
11
7.8315271
21
113.9474542
0
LINE
8
DEFAULT_255_2_778
10
8.2757271
20
114.4882542
11
8.2760271
21
114.4882542
0
LINE
8
DEFAULT_255_2_778
10
7.9529271
20
113.9320542
11
7.9529271
21
113.8879542
0
LINE
8
DEFAULT_255_2_778
10
8.1389271
20
114.0622542
11
8.1392271
21
114.0620542
0
ARC
8
DEFAULT_255_2_778
10
8.350271
20
113.9324915
40
0.8183133
50
347.5411679
51
0.862126
0
ARC
8
DEFAULT_255_2_778
10
8.7938432
20
113.8327522
40
0.3636731
50
326.2685468
51
347.8082376
0
ARC
8
DEFAULT_255_2_778
10
8.8932965
20
113.7802366
40
0.2520657
50
267.9658651
51
323.6418051
0
ARC
8
DEFAULT_255_2_778
10
8.8701793
20
113.9732197
40
0.4451155
50
269.9887167
51
271.8243005
0
ARC
8
DEFAULT_255_2_778
10
8.8558163
20
113.8068116
40
0.2790727
50
231.5604118
51
272.9321171
0
ARC
8
DEFAULT_255_2_778
10
8.8342434
20
113.7651715
40
0.2332194
50
215.8436314
51
229.3512975
0
ARC
8
DEFAULT_255_2_778
10
8.9721447
20
113.8501586
40
0.394949
50
188.3232133
51
214.1228962
0
ARC
8
DEFAULT_255_2_778
10
9.4059398
20
113.9334481
40
0.8364617
50
180.3249511
51
189.6670775
0
ARC
8
DEFAULT_255_2_778
10
9.3682788
20
114.1015072
40
0.7988804
50
167.3837795
51
180.8752379
0
ARC
8
DEFAULT_255_2_778
10
8.9360308
20
114.1998962
40
0.3555825
50
145.8699295
51
167.6419149
0
ARC
8
DEFAULT_255_2_778
10
8.8435579
20
114.2481071
40
0.2522713
50
88.650257
51
143.1487491
0
ARC
8
DEFAULT_255_2_778
10
8.8683408
20
114.0521216
40
0.4485827
50
89.9807264
51
92.4071353
0
ARC
8
DEFAULT_255_2_778
10
8.8821847
20
114.2093392
40
0.2916865
50
55.4487193
51
92.6906982
0
ARC
8
DEFAULT_255_2_778
10
8.9133963
20
114.2704996
40
0.2237923
50
36.2417163
51
53.1489639
0
ARC
8
DEFAULT_255_2_778
10
8.7850567
20
114.1911211
40
0.3744179
50
8.9148799
51
34.4276911
0
ARC
8
DEFAULT_255_2_778
10
8.3221264
20
114.0994757
40
0.8461666
50
0.0967212
51
10.1879309
0
ARC
8
DEFAULT_255_2_778
10
8.3950341
20
114.1211584
40
0.6529633
50
358.968539
51
12.1157559
0
ARC
8
DEFAULT_255_2_778
10
8.7886877
20
114.2051451
40
0.2504509
50
12.2317402
51
30.4059668
0
ARC
8
DEFAULT_255_2_778
10
8.8786447
20
114.2537327
40
0.1483193
50
31.8062187
51
93.9251679
0
ARC
8
DEFAULT_255_2_778
10
8.8582748
20
114.2556847
40
0.1463764
50
85.9975866
51
148.4825748
0
ARC
8
DEFAULT_255_2_778
10
9.0116376
20
114.1793739
40
0.3173677
50
151.2129334
51
174.6932418
0
ARC
8
DEFAULT_255_2_778
10
9.4481727
20
114.1155722
40
0.7582862
50
172.9434695
51
179.7860206
0
ARC
8
DEFAULT_255_2_778
10
9.3317332
20
113.9140107
40
0.6419535
50
178.9294946
51
192.7667169
0
ARC
8
DEFAULT_255_2_778
10
8.95942
20
113.8311611
40
0.2605405
50
193.0906699
51
210.3527562
0
ARC
8
DEFAULT_255_2_778
10
8.8622784
20
113.774288
40
0.1479747
50
210.3567515
51
272.9104058
0
ARC
8
DEFAULT_255_2_778
10
8.8783326
20
113.7722247
40
0.1459706
50
266.6456263
51
328.1997904
0
ARC
8
DEFAULT_255_2_778
10
8.7323948
20
113.8480559
40
0.3102119
50
330.5008208
51
354.4241293
0
ARC
8
DEFAULT_255_2_778
10
8.2737289
20
113.9177927
40
0.7738823
50
352.5846538
51
359.5936389
0
LINE
8
DEFAULT_255_2_778
10
9.1684917
20
114.1009042
11
9.1684917
21
113.9448042
0
LINE
8
DEFAULT_255_2_778
10
8.5694917
20
113.9287042
11
8.5694917
21
114.0893042
0
LINE
8
DEFAULT_255_2_778
10
9.1682917
20
114.1009042
11
9.1684917
21
114.1009042
0
LINE
8
DEFAULT_255_2_778
10
9.0478917
20
113.9125042
11
9.0478917
21
114.1094042
0
LINE
8
DEFAULT_255_2_778
10
8.6898917
20
114.1184042
11
8.6898917
21
113.9260042
0
LINE
8
DEFAULT_255_2_778
10
9.0475917
20
113.9123042
11
9.0478917
21
113.9125042
0
LINE
8
DEFAULT_255_2_778
10
10.0834042
20
114.4878073
11
10.0834042
21
113.5414073
0
LINE
8
DEFAULT_255_2_778
10
10.0834042
20
113.5414073
11
9.9577042
21
113.5414073
0
LINE
8
DEFAULT_255_2_778
10
9.9577042
20
113.5414073
11
9.9577042
21
113.9787073
0
LINE
8
DEFAULT_255_2_778
10
9.9577042
20
113.9787073
11
9.4793042
21
113.9787073
0
LINE
8
DEFAULT_255_2_778
10
9.4793042
20
113.9787073
11
9.4793042
21
113.5414073
0
LINE
8
DEFAULT_255_2_778
10
9.4793042
20
113.5414073
11
9.3542042
21
113.5414073
0
LINE
8
DEFAULT_255_2_778
10
9.3542042
20
113.5414073
11
9.3542042
21
114.4878073
0
LINE
8
DEFAULT_255_2_778
10
9.3542042
20
114.4878073
11
9.4793042
21
114.4878073
0
LINE
8
DEFAULT_255_2_778
10
9.4793042
20
114.4878073
11
9.4793042
21
114.0809073
0
LINE
8
DEFAULT_255_2_778
10
9.4793042
20
114.0809073
11
9.9577042
21
114.0809073
0
LINE
8
DEFAULT_255_2_778
10
9.9577042
20
114.0809073
11
9.9577042
21
114.4878073
0
LINE
8
DEFAULT_255_2_778
10
9.9577042
20
114.4878073
11
10.0834042
21
114.4878073
0
LINE
8
DEFAULT_255_2_778
10
10.0834042
20
114.4878073
11
10.0834042
21
114.4878073
0
LINE
8
DEFAULT_255_2_778
10
10.7930031
20
114.1594312
11
10.4001031
21
113.6395312
0
LINE
8
DEFAULT_255_2_778
10
10.4001031
20
113.6395312
11
10.8126031
21
113.6395312
0
LINE
8
DEFAULT_255_2_778
10
10.8126031
20
113.6395312
11
10.8126031
21
113.5413312
0
LINE
8
DEFAULT_255_2_778
10
10.8126031
20
113.5413312
11
10.2530031
21
113.5413312
0
LINE
8
DEFAULT_255_2_778
10
10.2530031
20
113.5413312
11
10.2530031
21
113.6297312
0
LINE
8
DEFAULT_255_2_778
10
10.2530031
20
113.6297312
11
10.6419031
21
114.1451312
0
LINE
8
DEFAULT_255_2_778
10
10.6419031
20
114.1451312
11
10.2588031
21
114.1451312
0
LINE
8
DEFAULT_255_2_778
10
10.2588031
20
114.1451312
11
10.2588031
21
114.2446312
0
LINE
8
DEFAULT_255_2_778
10
10.2588031
20
114.2446312
11
10.7930031
21
114.2446312
0
LINE
8
DEFAULT_255_2_778
10
10.7930031
20
114.2446312
11
10.7930031
21
114.1594312
0
LINE
8
DEFAULT_255_2_778
10
10.7930031
20
114.1594312
11
10.7930031
21
114.1594312
0
LINE
8
DEFAULT_255_2_778
10
4.2218344
20
112.1766562
11
4.2218344
21
111.2257562
0
LINE
8
DEFAULT_255_2_778
10
4.2218344
20
111.2257562
11
4.1007344
21
111.2257562
0
LINE
8
DEFAULT_255_2_778
10
4.1007344
20
111.2257562
11
4.1007344
21
112.0271562
0
LINE
8
DEFAULT_255_2_778
10
4.1007344
20
112.0271562
11
3.8575344
21
111.9379562
0
LINE
8
DEFAULT_255_2_778
10
3.8575344
20
111.9379562
11
3.8575344
21
112.0472562
0
LINE
8
DEFAULT_255_2_778
10
3.8575344
20
112.0472562
11
4.2028344
21
112.1766562
0
LINE
8
DEFAULT_255_2_778
10
4.2028344
20
112.1766562
11
4.2216344
21
112.1766562
0
LINE
8
DEFAULT_255_2_778
10
4.2216344
20
112.1766562
11
4.2218344
21
112.1766562
0
ARC
8
DEFAULT_255_2_778
10
4.1395814
20
112.366527
40
1.0292105
50
317.8880208
51
324.9315705
0
ARC
8
DEFAULT_255_2_778
10
4.6640254
20
111.9944542
40
0.3862079
50
325.4074312
51
331.548199
0
ARC
8
DEFAULT_255_2_778
10
4.808813
20
111.9181741
40
0.2225749
50
331.0558079
51
359.7897353
0
ARC
8
DEFAULT_255_2_778
10
4.8622012
20
111.9237794
40
0.1693071
50
357.82614
51
42.8201336
0
ARC
8
DEFAULT_255_2_778
10
4.8737328
20
111.9288943
40
0.1574252
50
44.3075067
51
92.6018304
0
ARC
8
DEFAULT_255_2_778
10
4.85526
20
111.9006124
40
0.1858903
50
86.5067539
51
133.6766504
0
ARC
8
DEFAULT_255_2_778
10
4.871379
20
111.9046506
40
0.1946381
50
137.9332742
51
183.4147576
0
ARC
8
DEFAULT_255_2_778
10
4.8344198
20
111.9043586
40
0.278163
50
134.0874226
51
182.3284779
0
ARC
8
DEFAULT_255_2_778
10
4.8510745
20
111.8722744
40
0.3129675
50
87.1590195
51
132.1904351
0
ARC
8
DEFAULT_255_2_778
10
4.8802932
20
111.8699156
40
0.3152398
50
56.1753398
51
92.4920218
0
ARC
8
DEFAULT_255_2_778
10
4.9143717
20
111.9361163
40
0.2414251
50
48.0096352
51
54.1481182
0
ARC
8
DEFAULT_255_2_778
10
4.917344
20
111.9410888
40
0.2357434
50
357.6341488
51
47.7380365
0
ARC
8
DEFAULT_255_2_778
10
4.8229235
20
111.9443495
40
0.3302186
50
329.2889519
51
357.7451487
0
ARC
8
DEFAULT_255_2_778
10
4.3694848
20
112.1930053
40
0.8472418
50
317.9036573
51
330.4922745
0
ARC
8
DEFAULT_255_2_778
10
3.9695515
20
112.5283502
40
1.3689438
50
317.2184809
51
318.7104088
0
LINE
8
DEFAULT_255_2_778
10
5.1962865
20
111.3238573
11
5.1962865
21
111.2257573
0
LINE
8
DEFAULT_255_2_778
10
5.1962865
20
111.2257573
11
4.5747865
21
111.2257573
0
LINE
8
DEFAULT_255_2_778
10
4.5747865
20
111.2257573
11
4.5747865
21
111.3122573
0
LINE
8
DEFAULT_255_2_778
10
4.5747865
20
111.3122573
11
4.9030865
21
111.6763573
0
LINE
8
DEFAULT_255_2_778
10
4.6770865
20
111.8930573
11
4.5564865
21
111.8930573
0
LINE
8
DEFAULT_255_2_778
10
4.9742865
20
111.5985573
11
4.7202865
21
111.3236573
0
LINE
8
DEFAULT_255_2_778
10
4.7202865
20
111.3236573
11
5.1964865
21
111.3236573
0
LINE
8
DEFAULT_255_2_778
10
5.1964865
20
111.3236573
11
5.1962865
21
111.3238573
0
LINE
8
DEFAULT_255_2_778
10
5.5872854
20
111.6767802
11
5.5872854
21
111.5785802
0
LINE
8
DEFAULT_255_2_778
10
5.5872854
20
111.5785802
11
5.2692854
21
111.5785802
0
LINE
8
DEFAULT_255_2_778
10
5.2692854
20
111.5785802
11
5.2692854
21
111.6767802
0
LINE
8
DEFAULT_255_2_778
10
5.2692854
20
111.6767802
11
5.5872854
21
111.6767802
0
LINE
8
DEFAULT_255_2_778
10
5.5872854
20
111.6767802
11
5.5872854
21
111.6767802
0
ARC
8
DEFAULT_255_2_778
10
5.9662383
20
111.9558028
40
0.1983684
50
267.629429
51
309.394214
0
ARC
8
DEFAULT_255_2_778
10
5.9913474
20
111.913518
40
0.1499396
50
312.2353176
51
2.5940418
0
ARC
8
DEFAULT_255_2_778
10
5.9726767
20
111.9334559
40
0.1689692
50
355.5358501
51
41.6510692
0
ARC
8
DEFAULT_255_2_778
10
5.9877663
20
111.9173603
40
0.1698295
50
49.1129395
51
94.3336019
0
ARC
8
DEFAULT_255_2_778
10
5.9661756
20
111.913726
40
0.1731997
50
87.1016316
51
132.0663559
0
ARC
8
DEFAULT_255_2_778
10
5.9589759
20
111.9311191
40
0.1555919
50
134.3900119
51
182.510349
0
ARC
8
DEFAULT_255_2_778
10
5.9235756
20
111.929514
40
0.2407986
50
131.0517681
51
181.2397221
0
ARC
8
DEFAULT_255_2_778
10
5.9637573
20
111.8844084
40
0.3012031
50
87.8735653
51
131.180938
0
ARC
8
DEFAULT_255_2_778
10
5.9885371
20
111.8704129
40
0.3152848
50
57.032204
51
92.4729391
0
ARC
8
DEFAULT_255_2_778
10
6.0246492
20
111.9418286
40
0.2358732
50
47.0601294
51
54.9512679
0
ARC
8
DEFAULT_255_2_778
10
6.0062273
20
111.9319957
40
0.2557113
50
356.7736534
51
45.5390697
0
ARC
8
DEFAULT_255_2_778
10
6.0538831
20
111.920666
40
0.2076728
50
323.831088
51
359.1552358
0
ARC
8
DEFAULT_255_2_778
10
6.0239065
20
111.9349522
40
0.2403825
50
291.6348946
51
325.2990663
0
ARC
8
DEFAULT_255_2_778
10
6.0495404
20
111.4885011
40
0.2317293
50
37.4798059
51
74.2263048
0
ARC
8
DEFAULT_255_2_778
10
6.0491333
20
111.4969586
40
0.2270128
50
358.1939797
51
35.7230531
0
ARC
8
DEFAULT_255_2_778
10
6.0182602
20
111.4778341
40
0.2580509
50
312.5411143
51
2.6586961
0
ARC
8
DEFAULT_255_2_778
10
5.9894233
20
111.5249375
40
0.3124334
50
267.4886591
51
310.5967254
0
ARC
8
DEFAULT_255_2_778
10
5.9615579
20
111.5329624
40
0.320472
50
230.6898969
51
272.5351971
0
ARC
8
DEFAULT_255_2_778
10
5.9143624
20
111.4669827
40
0.2395807
50
177.9616678
51
229.4264021
0
ARC
8
DEFAULT_255_2_778
10
5.9501357
20
111.4686733
40
0.1541538
50
177.4602826
51
227.0153785
0
ARC
8
DEFAULT_255_2_778
10
5.9666332
20
111.4971308
40
0.1863639
50
229.2706877
51
272.8912058
0
ARC
8
DEFAULT_255_2_778
10
5.9884765
20
111.4933601
40
0.18278
50
266.0964311
51
311.5180573
0
ARC
8
DEFAULT_255_2_778
10
5.9812331
20
111.4755403
40
0.1750892
50
317.1673042
51
3.8196841
0
ARC
8
DEFAULT_255_2_778
10
5.9973514
20
111.4971552
40
0.1588939
50
356.4093801
51
47.2869703
0
ARC
8
DEFAULT_255_2_778
10
5.9728528
20
111.4436673
40
0.2155893
50
52.1514415
51
91.4451405
0
ARC
8
DEFAULT_255_2_778
10
5.9530103
20
111.2499241
40
0.4095174
50
87.9841102
51
89.2272397
0
LINE
8
DEFAULT_255_2_778
10
5.8675333
20
111.6594042
11
5.8675333
21
111.7576042
0
LINE
8
DEFAULT_255_2_778
10
5.8675333
20
111.7576042
11
5.9580333
21
111.7576042
0
LINE
8
DEFAULT_255_2_778
10
5.8035333
20
111.9243042
11
5.6828333
21
111.9243042
0
LINE
8
DEFAULT_255_2_778
10
5.6749333
20
111.4755042
11
5.7961333
21
111.4755042
0
LINE
8
DEFAULT_255_2_778
10
5.9585333
20
111.6594042
11
5.8680333
21
111.6594042
0
LINE
8
DEFAULT_255_2_778
10
5.8680333
20
111.6594042
11
5.8675333
21
111.6594042
0
ARC
8
DEFAULT_255_2_778
10
6.218271
20
111.6168915
40
0.8183133
50
347.5411679
51
0.862126
0
ARC
8
DEFAULT_255_2_778
10
6.6618432
20
111.5171522
40
0.3636731
50
326.2685468
51
347.8082376
0
ARC
8
DEFAULT_255_2_778
10
6.7612965
20
111.4646366
40
0.2520657
50
267.9658651
51
323.6418051
0
ARC
8
DEFAULT_255_2_778
10
6.7381793
20
111.6576197
40
0.4451155
50
269.9887167
51
271.8243005
0
ARC
8
DEFAULT_255_2_778
10
6.7238163
20
111.4912116
40
0.2790727
50
231.5604118
51
272.9321171
0
ARC
8
DEFAULT_255_2_778
10
6.7022434
20
111.4495715
40
0.2332194
50
215.8436314
51
229.3512975
0
ARC
8
DEFAULT_255_2_778
10
6.8401447
20
111.5345586
40
0.394949
50
188.3232133
51
214.1228962
0
ARC
8
DEFAULT_255_2_778
10
7.2739398
20
111.6178481
40
0.8364617
50
180.3249511
51
189.6670775
0
ARC
8
DEFAULT_255_2_778
10
7.2362788
20
111.7859072
40
0.7988804
50
167.3837795
51
180.8752379
0
ARC
8
DEFAULT_255_2_778
10
6.8040308
20
111.8842962
40
0.3555825
50
145.8699295
51
167.6419149
0
ARC
8
DEFAULT_255_2_778
10
6.7115579
20
111.9325071
40
0.2522713
50
88.650257
51
143.1487491
0
ARC
8
DEFAULT_255_2_778
10
6.7363408
20
111.7365216
40
0.4485827
50
89.9807264
51
92.4071353
0
ARC
8
DEFAULT_255_2_778
10
6.7501847
20
111.8937392
40
0.2916865
50
55.4487193
51
92.6906982
0
ARC
8
DEFAULT_255_2_778
10
6.7813963
20
111.9548996
40
0.2237923
50
36.2417163
51
53.1489639
0
ARC
8
DEFAULT_255_2_778
10
6.6530567
20
111.8755211
40
0.3744179
50
8.9148799
51
34.4276911
0
ARC
8
DEFAULT_255_2_778
10
6.1901264
20
111.7838757
40
0.8461666
50
0.0967212
51
10.1879309
0
ARC
8
DEFAULT_255_2_778
10
6.2630341
20
111.8055584
40
0.6529633
50
358.968539
51
12.1157559
0
ARC
8
DEFAULT_255_2_778
10
6.6566877
20
111.8895451
40
0.2504509
50
12.2317402
51
30.4059668
0
ARC
8
DEFAULT_255_2_778
10
6.7466447
20
111.9381327
40
0.1483193
50
31.8062187
51
93.9251679
0
ARC
8
DEFAULT_255_2_778
10
6.7262748
20
111.9400847
40
0.1463764
50
85.9975866
51
148.4825748
0
ARC
8
DEFAULT_255_2_778
10
6.8796376
20
111.8637739
40
0.3173677
50
151.2129334
51
174.6932418
0
ARC
8
DEFAULT_255_2_778
10
7.3161727
20
111.7999722
40
0.7582862
50
172.9434695
51
179.7860206
0
ARC
8
DEFAULT_255_2_778
10
7.1997332
20
111.5984107
40
0.6419535
50
178.9294946
51
192.7667169
0
ARC
8
DEFAULT_255_2_778
10
6.82742
20
111.5155611
40
0.2605405
50
193.0906699
51
210.3527562
0
ARC
8
DEFAULT_255_2_778
10
6.7302784
20
111.458688
40
0.1479747
50
210.3567515
51
272.9104058
0
ARC
8
DEFAULT_255_2_778
10
6.7463326
20
111.4566247
40
0.1459706
50
266.6456263
51
328.1997904
0
ARC
8
DEFAULT_255_2_778
10
6.6003948
20
111.5324559
40
0.3102119
50
330.5008208
51
354.4241293
0
ARC
8
DEFAULT_255_2_778
10
6.1417289
20
111.6021927
40
0.7738823
50
352.5846538
51
359.5936389
0
LINE
8
DEFAULT_255_2_778
10
7.0364917
20
111.7853042
11
7.0364917
21
111.6292042
0
LINE
8
DEFAULT_255_2_778
10
6.4374917
20
111.6131042
11
6.4374917
21
111.7737042
0
LINE
8
DEFAULT_255_2_778
10
7.0362917
20
111.7853042
11
7.0364917
21
111.7853042
0
LINE
8
DEFAULT_255_2_778
10
6.9158917
20
111.5969042
11
6.9158917
21
111.7938042
0
LINE
8
DEFAULT_255_2_778
10
6.5578917
20
111.8028042
11
6.5578917
21
111.6104042
0
LINE
8
DEFAULT_255_2_778
10
6.9155917
20
111.5967042
11
6.9158917
21
111.5969042
0
LINE
8
DEFAULT_255_2_778
10
7.2666708
20
112.1721073
11
7.5364708
21
111.3916073
0
LINE
8
DEFAULT_255_2_778
10
7.5364708
20
111.3916073
11
7.8074708
21
112.1721073
0
LINE
8
DEFAULT_255_2_778
10
7.8074708
20
112.1721073
11
7.9442708
21
112.1721073
0
LINE
8
DEFAULT_255_2_778
10
7.9442708
20
112.1721073
11
7.5923708
21
111.2257073
0
LINE
8
DEFAULT_255_2_778
10
7.5923708
20
111.2257073
11
7.4814708
21
111.2257073
0
LINE
8
DEFAULT_255_2_778
10
7.4814708
20
111.2257073
11
7.1303708
21
112.1721073
0
LINE
8
DEFAULT_255_2_778
10
7.1303708
20
112.1721073
11
7.2666708
21
112.1721073
0
LINE
8
DEFAULT_255_2_778
10
7.2666708
20
112.1721073
11
7.2666708
21
112.1721073
0
ARC
8
DEFAULT_255_2_778
10
8.3476452
20
111.7403592
40
0.4318346
50
60.8789947
51
91.1471235
0
ARC
8
DEFAULT_255_2_778
10
8.3756244
20
111.7983701
40
0.36756
50
26.4882882
51
60.2883707
0
ARC
8
DEFAULT_255_2_778
10
8.2541277
20
111.7386626
40
0.5029337
50
359.105066
51
26.4028909
0
ARC
8
DEFAULT_255_2_778
10
8.2512217
20
111.6592633
40
0.5059032
50
333.7877814
51
1.2735331
0
ARC
8
DEFAULT_255_2_778
10
8.3795082
20
111.5988325
40
0.3641253
50
299.2089703
51
333.4026744
0
ARC
8
DEFAULT_255_2_778
10
8.3388085
20
111.6843301
40
0.4586547
50
269.3243475
51
298.4346862
0
ARC
8
DEFAULT_255_2_778
10
8.3439666
20
111.6140272
40
0.2866875
50
266.7272835
51
316.7262477
0
ARC
8
DEFAULT_255_2_778
10
8.2972161
20
111.6320648
40
0.333627
50
319.9761869
51
356.5854901
0
ARC
8
DEFAULT_255_2_778
10
8.0354331
20
111.671516
40
0.5977685
50
354.3046692
51
0.1237709
0
ARC
8
DEFAULT_255_2_778
10
8.191863
20
111.7409444
40
0.4415237
50
358.3339129
51
23.3329918
0
ARC
8
DEFAULT_255_2_778
10
8.3444943
20
111.7989336
40
0.2784999
50
24.8157695
51
40.203682
0
ARC
8
DEFAULT_255_2_778
10
8.3548567
20
111.7992782
40
0.2704396
50
41.5651927
51
92.7460857
0
LINE
8
DEFAULT_255_2_778
10
8.3337
20
111.2257073
11
8.0712
21
111.2257073
0
LINE
8
DEFAULT_255_2_778
10
8.0712
20
111.2257073
11
8.0712
21
112.1721073
0
LINE
8
DEFAULT_255_2_778
10
8.0712
20
112.1721073
11
8.339
21
112.1721073
0
LINE
8
DEFAULT_255_2_778
10
8.757
20
111.7308073
11
8.757
21
111.6705073
0
LINE
8
DEFAULT_255_2_778
10
8.3334
20
111.2257073
11
8.3337
21
111.2257073
0
LINE
8
DEFAULT_255_2_778
10
8.3421
20
112.0694073
11
8.1961
21
112.0694073
0
LINE
8
DEFAULT_255_2_778
10
8.1961
20
112.0694073
11
8.1961
21
111.3278073
0
LINE
8
DEFAULT_255_2_778
10
8.1961
20
111.3278073
11
8.3276
21
111.3278073
0
LINE
8
DEFAULT_255_2_778
10
8.6332
20
111.6728073
11
8.6332
21
111.7281073
0
LINE
8
DEFAULT_255_2_778
10
8.3419
20
112.0694073
11
8.3421
21
112.0694073
0
ARC
8
DEFAULT_255_2_778
10
9.2898888
20
111.5521134
40
0.3549501
50
316.4840097
51
355.7764334
0
ARC
8
DEFAULT_255_2_778
10
9.334439
20
111.521406
40
0.3016165
50
311.1153225
51
314.8868132
0
ARC
8
DEFAULT_255_2_778
10
9.3072694
20
111.5675773
40
0.3544056
50
269.7733314
51
309.5159138
0
ARC
8
DEFAULT_255_2_778
10
9.284523
20
111.779026
40
0.5662542
50
269.9850265
51
272.1602154
0
ARC
8
DEFAULT_255_2_778
10
9.2721236
20
111.5474901
40
0.3349424
50
219.8486424
51
272.0962068
0
ARC
8
DEFAULT_255_2_778
10
9.3633487
20
111.6134715
40
0.4473258
50
183.6809074
51
218.8499132
0
ARC
8
DEFAULT_255_2_778
10
9.6343465
20
111.6533453
40
0.7206724
50
179.9024851
51
185.4615528
0
ARC
8
DEFAULT_255_2_778
10
9.4498143
20
111.7569703
40
0.5362605
50
155.6973436
51
181.2179388
0
ARC
8
DEFAULT_255_2_778
10
9.2833416
20
111.8322183
40
0.3535711
50
122.2109116
51
155.7081864
0
ARC
8
DEFAULT_255_2_778
10
9.2879274
20
111.8117391
40
0.3734091
50
88.8418145
51
121.1312109
0
ARC
8
DEFAULT_255_2_778
10
9.3101964
20
111.8327615
40
0.3526178
50
53.4415127
51
92.3927244
0
ARC
8
DEFAULT_255_2_778
10
9.3363568
20
111.882266
40
0.2973918
50
47.3421596
51
51.8087501
0
ARC
8
DEFAULT_255_2_778
10
9.2937492
20
111.8494658
40
0.3505035
50
3.3904287
51
45.8531038
0
ARC
8
DEFAULT_255_2_778
10
9.1162326
20
111.8154313
40
0.5302421
50
5.6757897
51
5.9280533
0
ARC
8
DEFAULT_255_2_778
10
9.1999557
20
111.8340577
40
0.3201103
50
6.0636367
51
31.9225573
0
ARC
8
DEFAULT_255_2_778
10
9.330734
20
111.9075931
40
0.1703601
50
34.1892309
51
46.6977334
0
ARC
8
DEFAULT_255_2_778
10
9.3084987
20
111.868265
40
0.2145026
50
49.5814227
51
93.4808874
0
ARC
8
DEFAULT_255_2_778
10
9.2859301
20
111.8586102
40
0.2239652
50
87.5574353
51
142.7831199
0
ARC
8
DEFAULT_255_2_778
10
9.3906599
20
111.7917855
40
0.3479322
50
144.451219
51
175.4483093
0
ARC
8
DEFAULT_255_2_778
10
9.6988537
20
111.7446267
40
0.6592823
50
173.4879939
51
180.1872715
0
ARC
8
DEFAULT_255_2_778
10
9.5192318
20
111.6382802
40
0.4798221
50
178.4962525
51
201.5490359
0
ARC
8
DEFAULT_255_2_778
10
9.3498178
20
111.5791994
40
0.3006374
50
202.9354612
51
215.2070945
0
ARC
8
DEFAULT_255_2_778
10
9.2766279
20
111.5234315
40
0.208711
50
214.2819077
51
272.1821782
0
ARC
8
DEFAULT_255_2_778
10
9.2972691
20
111.5756943
40
0.2611311
50
267.2136505
51
300.047518
0
ARC
8
DEFAULT_255_2_778
10
9.339783
20
111.4863895
40
0.1627332
50
302.8357261
51
310.1330335
0
ARC
8
DEFAULT_255_2_778
10
9.2933323
20
111.5216088
40
0.219974
50
313.4722044
51
348.610313
0
ARC
8
DEFAULT_255_2_778
10
9.0343501
20
111.6003832
40
0.4901068
50
345.5601139
51
351.2671919
0
LINE
8
DEFAULT_255_2_778
10
9.518275
20
111.5259719
11
9.643875
21
111.5259719
0
LINE
8
DEFAULT_255_2_778
10
8.913675
20
111.6545719
11
8.913675
21
111.7455719
0
LINE
8
DEFAULT_255_2_778
10
9.643875
20
111.8678719
11
9.518275
21
111.8678719
0
LINE
8
DEFAULT_255_2_778
10
9.039575
20
111.7424719
11
9.039575
21
111.6508719
0
LINE
8
DEFAULT_255_2_778
10
9.518775
20
111.5259719
11
9.518275
21
111.5259719
0
LINE
8
DEFAULT_255_2_778
10
4.2218344
20
109.8607562
11
4.2218344
21
108.9098562
0
LINE
8
DEFAULT_255_2_778
10
4.2218344
20
108.9098562
11
4.1007344
21
108.9098562
0
LINE
8
DEFAULT_255_2_778
10
4.1007344
20
108.9098562
11
4.1007344
21
109.7112562
0
LINE
8
DEFAULT_255_2_778
10
4.1007344
20
109.7112562
11
3.8575344
21
109.6220562
0
LINE
8
DEFAULT_255_2_778
10
3.8575344
20
109.6220562
11
3.8575344
21
109.7313562
0
LINE
8
DEFAULT_255_2_778
10
3.8575344
20
109.7313562
11
4.2028344
21
109.8607562
0
LINE
8
DEFAULT_255_2_778
10
4.2028344
20
109.8607562
11
4.2216344
21
109.8607562
0
LINE
8
DEFAULT_255_2_778
10
4.2216344
20
109.8607562
11
4.2218344
21
109.8607562
0
ARC
8
DEFAULT_255_2_778
10
4.351571
20
109.3009915
40
0.8183133
50
347.5411679
51
0.862126
0
ARC
8
DEFAULT_255_2_778
10
4.7951432
20
109.2012522
40
0.3636731
50
326.2685468
51
347.8082376
0
ARC
8
DEFAULT_255_2_778
10
4.8945965
20
109.1487366
40
0.2520657
50
267.9658651
51
323.6418051
0
ARC
8
DEFAULT_255_2_778
10
4.8714793
20
109.3417197
40
0.4451155
50
269.9887167
51
271.8243005
0
ARC
8
DEFAULT_255_2_778
10
4.8571163
20
109.1753116
40
0.2790727
50
231.5604118
51
272.9321171
0
ARC
8
DEFAULT_255_2_778
10
4.8355434
20
109.1336715
40
0.2332194
50
215.8436314
51
229.3512975
0
ARC
8
DEFAULT_255_2_778
10
4.9734447
20
109.2186586
40
0.394949
50
188.3232133
51
214.1228962
0
ARC
8
DEFAULT_255_2_778
10
5.4072398
20
109.3019481
40
0.8364617
50
180.3249511
51
189.6670775
0
ARC
8
DEFAULT_255_2_778
10
5.3695788
20
109.4700072
40
0.7988804
50
167.3837795
51
180.8752379
0
ARC
8
DEFAULT_255_2_778
10
4.9373308
20
109.5683962
40
0.3555825
50
145.8699295
51
167.6419149
0
ARC
8
DEFAULT_255_2_778
10
4.8448579
20
109.6166071
40
0.2522713
50
88.650257
51
143.1487491
0
ARC
8
DEFAULT_255_2_778
10
4.8696408
20
109.4206216
40
0.4485827
50
89.9807264
51
92.4071353
0
ARC
8
DEFAULT_255_2_778
10
4.8834847
20
109.5778392
40
0.2916865
50
55.4487193
51
92.6906982
0
ARC
8
DEFAULT_255_2_778
10
4.9146963
20
109.6389996
40
0.2237923
50
36.2417163
51
53.1489639
0
ARC
8
DEFAULT_255_2_778
10
4.7863567
20
109.5596211
40
0.3744179
50
8.9148799
51
34.4276911
0
ARC
8
DEFAULT_255_2_778
10
4.3234264
20
109.4679757
40
0.8461666
50
0.0967212
51
10.1879309
0
ARC
8
DEFAULT_255_2_778
10
4.3963341
20
109.4896584
40
0.6529633
50
358.968539
51
12.1157559
0
ARC
8
DEFAULT_255_2_778
10
4.7899877
20
109.5736451
40
0.2504509
50
12.2317402
51
30.4059668
0
ARC
8
DEFAULT_255_2_778
10
4.8799447
20
109.6222327
40
0.1483193
50
31.8062187
51
93.9251679
0
ARC
8
DEFAULT_255_2_778
10
4.8595748
20
109.6241847
40
0.1463764
50
85.9975866
51
148.4825748
0
ARC
8
DEFAULT_255_2_778
10
5.0129376
20
109.5478739
40
0.3173677
50
151.2129334
51
174.6932418
0
ARC
8
DEFAULT_255_2_778
10
5.4494727
20
109.4840722
40
0.7582862
50
172.9434695
51
179.7860206
0
ARC
8
DEFAULT_255_2_778
10
5.3330332
20
109.2825107
40
0.6419535
50
178.9294946
51
192.7667169
0
ARC
8
DEFAULT_255_2_778
10
4.96072
20
109.1996611
40
0.2605405
50
193.0906699
51
210.3527562
0
ARC
8
DEFAULT_255_2_778
10
4.8635784
20
109.142788
40
0.1479747
50
210.3567515
51
272.9104058
0
ARC
8
DEFAULT_255_2_778
10
4.8796326
20
109.1407247
40
0.1459706
50
266.6456263
51
328.1997904
0
ARC
8
DEFAULT_255_2_778
10
4.7336948
20
109.2165559
40
0.3102119
50
330.5008208
51
354.4241293
0
ARC
8
DEFAULT_255_2_778
10
4.2750289
20
109.2862927
40
0.7738823
50
352.5846538
51
359.5936389
0
LINE
8
DEFAULT_255_2_778
10
5.1697917
20
109.4694042
11
5.1697917
21
109.3133042
0
LINE
8
DEFAULT_255_2_778
10
4.5707917
20
109.2972042
11
4.5707917
21
109.4578042
0
LINE
8
DEFAULT_255_2_778
10
5.1695917
20
109.4694042
11
5.1697917
21
109.4694042
0
LINE
8
DEFAULT_255_2_778
10
5.0491917
20
109.2810042
11
5.0491917
21
109.4779042
0
LINE
8
DEFAULT_255_2_778
10
4.6911917
20
109.4869042
11
4.6911917
21
109.2945042
0
LINE
8
DEFAULT_255_2_778
10
5.0488917
20
109.2808042
11
5.0491917
21
109.2810042
0
ARC
8
DEFAULT_255_2_778
10
5.100871
20
109.3009915
40
0.8183133
50
347.5411679
51
0.862126
0
ARC
8
DEFAULT_255_2_778
10
5.5444432
20
109.2012522
40
0.3636731
50
326.2685468
51
347.8082376
0
ARC
8
DEFAULT_255_2_778
10
5.6438965
20
109.1487366
40
0.2520657
50
267.9658651
51
323.6418051
0
ARC
8
DEFAULT_255_2_778
10
5.6207793
20
109.3417197
40
0.4451155
50
269.9887167
51
271.8243005
0
ARC
8
DEFAULT_255_2_778
10
5.6064163
20
109.1753116
40
0.2790727
50
231.5604118
51
272.9321171
0
ARC
8
DEFAULT_255_2_778
10
5.5848434
20
109.1336715
40
0.2332194
50
215.8436314
51
229.3512975
0
ARC
8
DEFAULT_255_2_778
10
5.7227447
20
109.2186586
40
0.394949
50
188.3232133
51
214.1228962
0
ARC
8
DEFAULT_255_2_778
10
6.1565398
20
109.3019481
40
0.8364617
50
180.3249511
51
189.6670775
0
ARC
8
DEFAULT_255_2_778
10
6.1188788
20
109.4700072
40
0.7988804
50
167.3837795
51
180.8752379
0
ARC
8
DEFAULT_255_2_778
10
5.6866308
20
109.5683962
40
0.3555825
50
145.8699295
51
167.6419149
0
ARC
8
DEFAULT_255_2_778
10
5.5941579
20
109.6166071
40
0.2522713
50
88.650257
51
143.1487491
0
ARC
8
DEFAULT_255_2_778
10
5.6189408
20
109.4206216
40
0.4485827
50
89.9807264
51
92.4071353
0
ARC
8
DEFAULT_255_2_778
10
5.6327847
20
109.5778392
40
0.2916865
50
55.4487193
51
92.6906982
0
ARC
8
DEFAULT_255_2_778
10
5.6639963
20
109.6389996
40
0.2237923
50
36.2417163
51
53.1489639
0
ARC
8
DEFAULT_255_2_778
10
5.5356567
20
109.5596211
40
0.3744179
50
8.9148799
51
34.4276911
0
ARC
8
DEFAULT_255_2_778
10
5.0727264
20
109.4679757
40
0.8461666
50
0.0967212
51
10.1879309
0
ARC
8
DEFAULT_255_2_778
10
5.1456341
20
109.4896584
40
0.6529633
50
358.968539
51
12.1157559
0
ARC
8
DEFAULT_255_2_778
10
5.5392877
20
109.5736451
40
0.2504509
50
12.2317402
51
30.4059668
0
ARC
8
DEFAULT_255_2_778
10
5.6292447
20
109.6222327
40
0.1483193
50
31.8062187
51
93.9251679
0
ARC
8
DEFAULT_255_2_778
10
5.6088748
20
109.6241847
40
0.1463764
50
85.9975866
51
148.4825748
0
ARC
8
DEFAULT_255_2_778
10
5.7622376
20
109.5478739
40
0.3173677
50
151.2129334
51
174.6932418
0
ARC
8
DEFAULT_255_2_778
10
6.1987727
20
109.4840722
40
0.7582862
50
172.9434695
51
179.7860206
0
ARC
8
DEFAULT_255_2_778
10
6.0823332
20
109.2825107
40
0.6419535
50
178.9294946
51
192.7667169
0
ARC
8
DEFAULT_255_2_778
10
5.71002
20
109.1996611
40
0.2605405
50
193.0906699
51
210.3527562
0
ARC
8
DEFAULT_255_2_778
10
5.6128784
20
109.142788
40
0.1479747
50
210.3567515
51
272.9104058
0
ARC
8
DEFAULT_255_2_778
10
5.6289326
20
109.1407247
40
0.1459706
50
266.6456263
51
328.1997904
0
ARC
8
DEFAULT_255_2_778
10
5.4829948
20
109.2165559
40
0.3102119
50
330.5008208
51
354.4241293
0
ARC
8
DEFAULT_255_2_778
10
5.0243289
20
109.2862927
40
0.7738823
50
352.5846538
51
359.5936389
0
LINE
8
DEFAULT_255_2_778
10
5.9190917
20
109.4694042
11
5.9190917
21
109.3133042
0
LINE
8
DEFAULT_255_2_778
10
5.3200917
20
109.2972042
11
5.3200917
21
109.4578042
0
LINE
8
DEFAULT_255_2_778
10
5.9188917
20
109.4694042
11
5.9190917
21
109.4694042
0
LINE
8
DEFAULT_255_2_778
10
5.7984917
20
109.2810042
11
5.7984917
21
109.4779042
0
LINE
8
DEFAULT_255_2_778
10
5.4404917
20
109.4869042
11
5.4404917
21
109.2945042
0
LINE
8
DEFAULT_255_2_778
10
5.7981917
20
109.2808042
11
5.7984917
21
109.2810042
0
ARC
8
DEFAULT_255_2_778
10
6.4006512
20
109.3655529
40
0.2607325
50
87.5435901
51
139.4535413
0
ARC
8
DEFAULT_255_2_778
10
6.4262164
20
109.407588
40
0.2189313
50
46.5500791
51
93.7687748
0
ARC
8
DEFAULT_255_2_778
10
6.4339735
20
109.4302281
40
0.1974107
50
24.8362525
51
43.6642976
0
ARC
8
DEFAULT_255_2_778
10
6.8318729
20
109.3609516
40
0.2664831
50
118.4980569
51
145.1715303
0
ARC
8
DEFAULT_255_2_778
10
6.8310898
20
109.3556225
40
0.2708122
50
88.5323445
51
117.8144964
0
ARC
8
DEFAULT_255_2_778
10
6.8511626
20
109.3746008
40
0.2520876
50
56.3061485
51
92.9871015
0
ARC
8
DEFAULT_255_2_778
10
6.8559315
20
109.4171361
40
0.2149503
50
3.221438
51
51.066681
0
ARC
8
DEFAULT_255_2_778
10
6.6292477
20
109.3758204
40
0.4445128
50
0.7122182
51
6.8990173
0
ARC
8
DEFAULT_255_2_778
10
6.7931829
20
109.3866918
40
0.1604267
50
355.5504984
51
38.6763933
0
ARC
8
DEFAULT_255_2_778
10
6.8229315
20
109.3825267
40
0.1415011
50
47.5561139
51
92.2568297
0
ARC
8
DEFAULT_255_2_778
10
6.8027202
20
109.1972572
40
0.3269887
50
87.4340303
51
90.0340161
0
ARC
8
DEFAULT_255_2_778
10
6.7969292
20
109.3649729
40
0.1593712
50
87.9874553
51
131.5483067
0
ARC
8
DEFAULT_255_2_778
10
6.8022556
20
109.3648396
40
0.1630503
50
132.9181271
51
175.8829061
0
ARC
8
DEFAULT_255_2_778
10
6.3655925
20
109.3839377
40
0.1534018
50
355.0667301
51
44.0095222
0
ARC
8
DEFAULT_255_2_778
10
6.3784416
20
109.3681819
40
0.1564245
50
51.4510524
51
93.8913058
0
ARC
8
DEFAULT_255_2_778
10
6.3553559
20
109.3634116
40
0.1613169
50
85.5664956
51
158.1516864
0
LINE
8
DEFAULT_255_2_778
10
6.0853261
20
109.6131458
11
6.1993261
21
109.6131458
0
LINE
8
DEFAULT_255_2_778
10
6.1993261
20
109.6131458
11
6.2025261
21
109.5350458
0
LINE
8
DEFAULT_255_2_778
10
7.0737261
20
109.3813458
11
7.0737261
21
108.9101458
0
LINE
8
DEFAULT_255_2_778
10
7.0737261
20
108.9101458
11
6.9531261
21
108.9101458
0
LINE
8
DEFAULT_255_2_778
10
6.9531261
20
108.9101458
11
6.9531261
21
109.3742458
0
LINE
8
DEFAULT_255_2_778
10
6.6396261
20
109.3765458
11
6.6396261
21
108.9098458
0
LINE
8
DEFAULT_255_2_778
10
6.6396261
20
108.9098458
11
6.5184261
21
108.9098458
0
LINE
8
DEFAULT_255_2_778
10
6.5184261
20
108.9098458
11
6.5184261
21
109.3707458
0
LINE
8
DEFAULT_255_2_778
10
6.2056261
20
109.4234458
11
6.2056261
21
108.9098458
0
LINE
8
DEFAULT_255_2_778
10
6.2056261
20
108.9098458
11
6.0850261
21
108.9098458
0
LINE
8
DEFAULT_255_2_778
10
6.0850261
20
108.9098458
11
6.0850261
21
109.6131458
0
LINE
8
DEFAULT_255_2_778
10
6.0850261
20
109.6131458
11
6.0853261
21
109.6131458
0
LINE
8
DEFAULT_255_2_778
10
7.8887198
20
108.9098073
11
7.7982198
21
109.1566073
0
LINE
8
DEFAULT_255_2_778
10
7.7982198
20
109.1566073
11
7.4008198
21
109.1566073
0
LINE
8
DEFAULT_255_2_778
10
7.4008198
20
109.1566073
11
7.3116198
21
108.9098073
0
LINE
8
DEFAULT_255_2_778
10
7.3116198
20
108.9098073
11
7.1825198
21
108.9098073
0
LINE
8
DEFAULT_255_2_778
10
7.1825198
20
108.9098073
11
7.5447198
21
109.8562073
0
LINE
8
DEFAULT_255_2_778
10
7.5447198
20
109.8562073
11
7.6543198
21
109.8562073
0
LINE
8
DEFAULT_255_2_778
10
7.6543198
20
109.8562073
11
8.0173198
21
108.9098073
0
LINE
8
DEFAULT_255_2_778
10
8.0173198
20
108.9098073
11
7.8889198
21
108.9098073
0
LINE
8
DEFAULT_255_2_778
10
7.8889198
20
108.9098073
11
7.8887198
21
108.9098073
0
LINE
8
DEFAULT_255_2_778
10
7.5995198
20
109.7022073
11
7.4386198
21
109.2596073
0
LINE
8
DEFAULT_255_2_778
10
7.4386198
20
109.2596073
11
7.7611198
21
109.2596073
0
LINE
8
DEFAULT_255_2_778
10
7.7611198
20
109.2596073
11
7.5995198
21
109.7022073
0
LINE
8
DEFAULT_255_2_778
10
7.5995198
20
109.7022073
11
7.5995198
21
109.7022073
0
LINE
8
DEFAULT_255_2_778
10
8.3767854
20
109.3608802
11
8.3767854
21
109.2626802
0
LINE
8
DEFAULT_255_2_778
10
8.3767854
20
109.2626802
11
8.0587854
21
109.2626802
0
LINE
8
DEFAULT_255_2_778
10
8.0587854
20
109.2626802
11
8.0587854
21
109.3608802
0
LINE
8
DEFAULT_255_2_778
10
8.0587854
20
109.3608802
11
8.3767854
21
109.3608802
0
LINE
8
DEFAULT_255_2_778
10
8.3767854
20
109.3608802
11
8.3767854
21
109.3608802
0
ARC
8
DEFAULT_255_2_778
10
8.8124883
20
109.2209061
40
0.3069912
50
89.074503
51
119.9667711
0
ARC
8
DEFAULT_255_2_778
10
8.8294699
20
109.2661587
40
0.2619746
50
42.2959754
51
92.6304496
0
ARC
8
DEFAULT_255_2_778
10
8.7745461
20
109.2339642
40
0.3245327
50
359.5864157
51
39.9740783
0
ARC
8
DEFAULT_255_2_778
10
8.5674294
20
109.2116014
40
0.5320176
50
359.9844744
51
2.1565842
0
ARC
8
DEFAULT_255_2_778
10
8.7548582
20
109.1977176
40
0.3448625
50
327.657176
51
2.2833246
0
ARC
8
DEFAULT_255_2_778
10
8.8281056
20
109.16162
40
0.26381
50
316.7784542
51
325.7697873
0
ARC
8
DEFAULT_255_2_778
10
8.8180107
20
109.1819867
40
0.285224
50
267.9819331
51
315.1856263
0
ARC
8
DEFAULT_255_2_778
10
8.7991666
20
109.3679332
40
0.471076
50
269.9975994
51
271.0703826
0
ARC
8
DEFAULT_255_2_778
10
8.7864927
20
109.1971191
40
0.3005284
50
230.1317991
51
272.4132311
0
ARC
8
DEFAULT_255_2_778
10
8.7806608
20
109.1718209
40
0.2776214
50
182.6970815
51
227.7080355
0
ARC
8
DEFAULT_255_2_778
10
8.8077235
20
109.1739142
40
0.190979
50
184.5520203
51
226.1202243
0
ARC
8
DEFAULT_255_2_778
10
8.7904212
20
109.1750016
40
0.1802556
50
230.327727
51
272.7746091
0
ARC
8
DEFAULT_255_2_778
10
8.8070307
20
109.1576715
40
0.1629051
50
267.2260632
51
319.6313224
0
ARC
8
DEFAULT_255_2_778
10
8.7445423
20
109.1944208
40
0.234649
50
322.6788423
51
2.3137139
0
ARC
8
DEFAULT_255_2_778
10
8.5627126
20
109.2101229
40
0.4163341
50
359.142719
51
0.0047289
0
ARC
8
DEFAULT_255_2_778
10
8.7602489
20
109.2207922
40
0.2190563
50
357.217262
51
40.3280201
0
ARC
8
DEFAULT_255_2_778
10
8.7966783
20
109.2432225
40
0.1768868
50
42.4261495
51
92.3754297
0
ARC
8
DEFAULT_255_2_778
10
8.777981
20
109.2208933
40
0.1993882
50
86.7321492
51
124.3256205
0
LINE
8
DEFAULT_255_2_778
10
8.6335469
20
109.3595573
11
8.5372469
21
109.3841573
0
LINE
8
DEFAULT_255_2_778
10
8.5372469
20
109.3841573
11
8.5853469
21
109.8559573
0
LINE
8
DEFAULT_255_2_778
10
8.5853469
20
109.8559573
11
9.0714469
21
109.8559573
0
LINE
8
DEFAULT_255_2_778
10
9.0714469
20
109.8559573
11
9.0714469
21
109.7448573
0
LINE
8
DEFAULT_255_2_778
10
9.0714469
20
109.7448573
11
8.6877469
21
109.7448573
0
LINE
8
DEFAULT_255_2_778
10
8.6877469
20
109.7448573
11
8.6591469
21
109.4868573
0
LINE
8
DEFAULT_255_2_778
10
8.5033469
20
109.1587573
11
8.6173469
21
109.1587573
0
LINE
8
DEFAULT_255_2_778
10
8.6655469
20
109.3855573
11
8.6335469
21
109.3595573
0
LINE
8
DEFAULT_255_2_778
10
8.6335469
20
109.3595573
11
8.6335469
21
109.3595573
0
LINE
8
DEFAULT_255_2_778
10
9.8765198
20
108.9098073
11
9.7860198
21
109.1566073
0
LINE
8
DEFAULT_255_2_778
10
9.7860198
20
109.1566073
11
9.3886198
21
109.1566073
0
LINE
8
DEFAULT_255_2_778
10
9.3886198
20
109.1566073
11
9.2994198
21
108.9098073
0
LINE
8
DEFAULT_255_2_778
10
9.2994198
20
108.9098073
11
9.1703198
21
108.9098073
0
LINE
8
DEFAULT_255_2_778
10
9.1703198
20
108.9098073
11
9.5325198
21
109.8562073
0
LINE
8
DEFAULT_255_2_778
10
9.5325198
20
109.8562073
11
9.6421198
21
109.8562073
0
LINE
8
DEFAULT_255_2_778
10
9.6421198
20
109.8562073
11
10.0051198
21
108.9098073
0
LINE
8
DEFAULT_255_2_778
10
10.0051198
20
108.9098073
11
9.8767198
21
108.9098073
0
LINE
8
DEFAULT_255_2_778
10
9.8767198
20
108.9098073
11
9.8765198
21
108.9098073
0
LINE
8
DEFAULT_255_2_778
10
9.5873198
20
109.7022073
11
9.4264198
21
109.2596073
0
LINE
8
DEFAULT_255_2_778
10
9.4264198
20
109.2596073
11
9.7489198
21
109.2596073
0
LINE
8
DEFAULT_255_2_778
10
9.7489198
20
109.2596073
11
9.5873198
21
109.7022073
0
LINE
8
DEFAULT_255_2_778
10
9.5873198
20
109.7022073
11
9.5873198
21
109.7022073
0
LINE
8
DEFAULT_255_2_778
10
17.7782877
20
104.617255
11
10.7694877
21
104.617255
0
LINE
8
DEFAULT_255_2_778
10
10.7694877
20
104.617255
11
10.7694877
21
11.184955
0
LINE
8
DEFAULT_255_2_778
10
10.7694877
20
11.184955
11
3.7606877
21
11.184955
0
LINE
8
DEFAULT_255_2_778
10
10.7694938
20
100.168
11
3.7606938
21
100.168
0
LINE
8
DEFAULT_255_2_778
10
10.7694938
20
91.2698
11
3.7606938
21
91.2698
0
LINE
8
DEFAULT_255_2_778
10
17.7782938
20
95.719
11
10.7694938
21
95.719
0
LINE
8
DEFAULT_255_2_778
10
10.7694938
20
82.3716
11
3.7606938
21
82.3716
0
LINE
8
DEFAULT_255_2_778
10
17.7782938
20
86.8205
11
10.7694938
21
86.8205
0
LINE
8
DEFAULT_255_2_778
10
10.7694938
20
73.4731
11
3.7606938
21
73.4731
0
LINE
8
DEFAULT_255_2_778
10
17.7782938
20
77.9223
11
10.7694938
21
77.9223
0
LINE
8
DEFAULT_255_2_778
10
10.7694938
20
64.5749
11
3.7606938
21
64.5749
0
LINE
8
DEFAULT_255_2_778
10
17.7782938
20
69.0239
11
10.7694938
21
69.0239
0
LINE
8
DEFAULT_255_2_778
10
10.7694938
20
46.7782
11
3.7606938
21
46.7782
0
LINE
8
DEFAULT_255_2_778
10
10.7694938
20
55.6764
11
3.7606938
21
55.6764
0
LINE
8
DEFAULT_255_2_778
10
17.7782938
20
51.2275
11
10.7694938
21
51.2275
0
LINE
8
DEFAULT_255_2_778
10
17.7782938
20
60.1257
11
10.7694938
21
60.1257
0
LINE
8
DEFAULT_255_2_778
10
10.7694938
20
28.9816
11
3.7606938
21
28.9816
0
LINE
8
DEFAULT_255_2_778
10
10.7694938
20
37.88
11
3.7606938
21
37.88
0
LINE
8
DEFAULT_255_2_778
10
17.7782938
20
33.4308
11
10.7694938
21
33.4308
0
LINE
8
DEFAULT_255_2_778
10
17.7782938
20
42.329
11
10.7694938
21
42.329
0
LINE
8
DEFAULT_255_2_778
10
10.7694938
20
20.0834
11
3.7606938
21
20.0834
0
LINE
8
DEFAULT_255_2_778
10
17.7782938
20
15.6341
11
10.7694938
21
15.6341
0
LINE
8
DEFAULT_255_2_778
10
17.7782938
20
24.5326
11
10.7694938
21
24.5326
0
ARC
8
DEFAULT_255_2_778
10
13.6305965
20
101.5147619
40
0.9914952
50
348.8788691
51
0.699518
0
ARC
8
DEFAULT_255_2_778
10
14.1719684
20
101.4028256
40
0.4387319
50
326.451979
51
349.5857133
0
ARC
8
DEFAULT_255_2_778
10
14.30309
20
101.3317909
40
0.2904987
50
269.6408629
51
323.8356722
0
ARC
8
DEFAULT_255_2_778
10
14.2740959
20
101.545793
40
0.5052265
50
269.9684524
51
273.083099
0
ARC
8
DEFAULT_255_2_778
10
14.2601061
20
101.3811327
40
0.340842
50
237.5617073
51
272.3055479
0
ARC
8
DEFAULT_255_2_778
10
14.2279549
20
101.3130345
40
0.266289
50
215.6674584
51
235.5403295
0
ARC
8
DEFAULT_255_2_778
10
14.3817798
20
101.4105486
40
0.4482396
50
189.541825
51
214.3289863
0
ARC
8
DEFAULT_255_2_778
10
14.8733243
20
101.5110806
40
0.9498125
50
180.1999086
51
190.6071335
0
ARC
8
DEFAULT_255_2_778
10
14.8837489
20
101.7073938
40
0.9603103
50
168.5093393
51
180.7355049
0
ARC
8
DEFAULT_255_2_778
10
14.3616264
20
101.8183052
40
0.4265837
50
146.0131411
51
169.1375756
0
ARC
8
DEFAULT_255_2_778
10
14.241079
20
101.8835967
40
0.2904342
50
90.2972643
51
143.3985577
0
ARC
8
DEFAULT_255_2_778
10
14.2721196
20
101.6652322
40
0.5098347
50
89.9552593
51
93.6602006
0
ARC
8
DEFAULT_255_2_778
10
14.2858112
20
101.8192093
40
0.3561055
50
60.2180099
51
92.1393619
0
ARC
8
DEFAULT_255_2_778
10
14.3260785
20
101.9071966
40
0.2598861
50
36.3038416
51
58.2875728
0
ARC
8
DEFAULT_255_2_778
10
14.1863512
20
101.8193423
40
0.4246739
50
10.0395474
51
34.6944485
0
ARC
8
DEFAULT_255_2_778
10
13.6608051
20
101.7092434
40
0.9615127
50
359.9596738
51
11.0404434
0
ARC
8
DEFAULT_255_2_778
10
13.6813769
20
101.7307509
40
0.7999276
50
359.155911
51
10.8327062
0
ARC
8
DEFAULT_255_2_778
10
14.1657296
20
101.825419
40
0.3064201
50
10.4679024
51
30.0297081
0
ARC
8
DEFAULT_255_2_778
10
14.2838773
20
101.8875556
40
0.1731177
50
31.7944073
51
93.9281789
0
ARC
8
DEFAULT_255_2_778
10
14.2601843
20
101.8899812
40
0.1706961
50
86.0248045
51
148.5798997
0
ARC
8
DEFAULT_255_2_778
10
14.4289121
20
101.8044721
40
0.3595722
50
150.9689329
51
173.6930736
0
ARC
8
DEFAULT_255_2_778
10
14.9246833
20
101.7268455
40
0.8611696
50
172.1830069
51
179.8256107
0
ARC
8
DEFAULT_255_2_778
10
14.844965
20
101.4927997
40
0.7815404
50
179.1153239
51
191.4945199
0
ARC
8
DEFAULT_255_2_778
10
14.3897608
20
101.3994746
40
0.3168694
50
191.3601805
51
210.0988693
0
ARC
8
DEFAULT_255_2_778
10
14.2646297
20
101.3272265
40
0.1723789
50
210.1806997
51
272.888976
0
ARC
8
DEFAULT_255_2_778
10
14.2832873
20
101.324984
40
0.1702096
50
266.6421193
51
328.3090747
0
ARC
8
DEFAULT_255_2_778
10
14.1286465
20
101.407407
40
0.3452711
50
330.1522596
51
352.7135532
0
ARC
8
DEFAULT_255_2_778
10
13.6182594
20
101.4939692
40
0.862774
50
351.3101435
51
359.6545044
0
LINE
8
DEFAULT_255_2_778
10
14.6220177
20
101.7088667
11
14.6220177
21
101.5268667
0
LINE
8
DEFAULT_255_2_778
10
13.9235177
20
101.5077667
11
13.9235177
21
101.6950667
0
LINE
8
DEFAULT_255_2_778
10
14.6223177
20
101.7085667
11
14.6220177
21
101.7088667
0
LINE
8
DEFAULT_255_2_778
10
14.4812177
20
101.4889667
11
14.4812177
21
101.7189667
0
LINE
8
DEFAULT_255_2_778
10
14.0635177
20
101.7294667
11
14.0635177
21
101.5048667
0
LINE
8
DEFAULT_255_2_778
10
14.4810177
20
101.4887667
11
14.4812177
21
101.4889667
0
ARC
8
DEFAULT_255_2_778
10
13.4059965
20
92.6912619
40
0.9914952
50
348.8788691
51
0.699518
0
ARC
8
DEFAULT_255_2_778
10
13.9473684
20
92.5793256
40
0.4387319
50
326.451979
51
349.5857133
0
ARC
8
DEFAULT_255_2_778
10
14.07849
20
92.5082909
40
0.2904987
50
269.6408629
51
323.8356722
0
ARC
8
DEFAULT_255_2_778
10
14.0494959
20
92.722293
40
0.5052265
50
269.9684524
51
273.083099
0
ARC
8
DEFAULT_255_2_778
10
14.0355061
20
92.5576327
40
0.340842
50
237.5617073
51
272.3055479
0
ARC
8
DEFAULT_255_2_778
10
14.0033549
20
92.4895345
40
0.266289
50
215.6674584
51
235.5403295
0
ARC
8
DEFAULT_255_2_778
10
14.1571798
20
92.5870486
40
0.4482396
50
189.541825
51
214.3289863
0
ARC
8
DEFAULT_255_2_778
10
14.6487243
20
92.6875806
40
0.9498125
50
180.1999086
51
190.6071335
0
ARC
8
DEFAULT_255_2_778
10
14.6591489
20
92.8838938
40
0.9603103
50
168.5093393
51
180.7355049
0
ARC
8
DEFAULT_255_2_778
10
14.1370264
20
92.9948052
40
0.4265837
50
146.0131411
51
169.1375756
0
ARC
8
DEFAULT_255_2_778
10
14.016479
20
93.0600967
40
0.2904342
50
90.2972643
51
143.3985577
0
ARC
8
DEFAULT_255_2_778
10
14.0475196
20
92.8417322
40
0.5098347
50
89.9552593
51
93.6602006
0
ARC
8
DEFAULT_255_2_778
10
14.0612112
20
92.9957093
40
0.3561055
50
60.2180099
51
92.1393619
0
ARC
8
DEFAULT_255_2_778
10
14.1014785
20
93.0836966
40
0.2598861
50
36.3038416
51
58.2875728
0
ARC
8
DEFAULT_255_2_778
10
13.9617512
20
92.9958423
40
0.4246739
50
10.0395474
51
34.6944485
0
ARC
8
DEFAULT_255_2_778
10
13.4362051
20
92.8857434
40
0.9615127
50
359.9596738
51
11.0404434
0
ARC
8
DEFAULT_255_2_778
10
13.4567769
20
92.9072509
40
0.7999276
50
359.155911
51
10.8327062
0
ARC
8
DEFAULT_255_2_778
10
13.9411296
20
93.001919
40
0.3064201
50
10.4679024
51
30.0297081
0
ARC
8
DEFAULT_255_2_778
10
14.0592773
20
93.0640556
40
0.1731177
50
31.7944073
51
93.9281789
0
ARC
8
DEFAULT_255_2_778
10
14.0355843
20
93.0664812
40
0.1706961
50
86.0248045
51
148.5798997
0
ARC
8
DEFAULT_255_2_778
10
14.2043121
20
92.9809721
40
0.3595722
50
150.9689329
51
173.6930736
0
ARC
8
DEFAULT_255_2_778
10
14.7000833
20
92.9033455
40
0.8611696
50
172.1830069
51
179.8256107
0
ARC
8
DEFAULT_255_2_778
10
14.620365
20
92.6692997
40
0.7815404
50
179.1153239
51
191.4945199
0
ARC
8
DEFAULT_255_2_778
10
14.1651608
20
92.5759746
40
0.3168694
50
191.3601805
51
210.0988693
0
ARC
8
DEFAULT_255_2_778
10
14.0400297
20
92.5037265
40
0.1723789
50
210.1806997
51
272.888976
0
ARC
8
DEFAULT_255_2_778
10
14.0586873
20
92.501484
40
0.1702096
50
266.6421193
51
328.3090747
0
ARC
8
DEFAULT_255_2_778
10
13.9040465
20
92.583907
40
0.3452711
50
330.1522596
51
352.7135532
0
ARC
8
DEFAULT_255_2_778
10
13.3936594
20
92.6704692
40
0.862774
50
351.3101435
51
359.6545044
0
LINE
8
DEFAULT_255_2_778
10
14.3974177
20
92.8853667
11
14.3974177
21
92.7033667
0
LINE
8
DEFAULT_255_2_778
10
13.6989177
20
92.6842667
11
13.6989177
21
92.8715667
0
LINE
8
DEFAULT_255_2_778
10
14.3977177
20
92.8850667
11
14.3974177
21
92.8853667
0
LINE
8
DEFAULT_255_2_778
10
14.2566177
20
92.6654667
11
14.2566177
21
92.8954667
0
LINE
8
DEFAULT_255_2_778
10
13.8389177
20
92.9059667
11
13.8389177
21
92.6813667
0
LINE
8
DEFAULT_255_2_778
10
14.2564177
20
92.6652667
11
14.2566177
21
92.6654667
0
LINE
8
DEFAULT_255_2_778
10
14.4649073
20
84.5184312
11
14.4649073
21
83.4087312
0
LINE
8
DEFAULT_255_2_778
10
14.4649073
20
83.4087312
11
14.3233073
21
83.4087312
0
LINE
8
DEFAULT_255_2_778
10
14.3233073
20
83.4087312
11
14.3233073
21
84.3440312
0
LINE
8
DEFAULT_255_2_778
10
14.3233073
20
84.3440312
11
14.0397073
21
84.2401312
0
LINE
8
DEFAULT_255_2_778
10
14.0397073
20
84.2401312
11
14.0397073
21
84.3676312
0
LINE
8
DEFAULT_255_2_778
10
14.0397073
20
84.3676312
11
14.4427073
21
84.5184312
0
LINE
8
DEFAULT_255_2_778
10
14.4427073
20
84.5184312
11
14.4646073
21
84.5184312
0
LINE
8
DEFAULT_255_2_778
10
14.4646073
20
84.5184312
11
14.4649073
21
84.5184312
0
ARC
8
DEFAULT_255_2_778
10
5.8978965
20
96.9163619
40
0.9914952
50
348.8788691
51
0.699518
0
ARC
8
DEFAULT_255_2_778
10
6.4392684
20
96.8044256
40
0.4387319
50
326.451979
51
349.5857133
0
ARC
8
DEFAULT_255_2_778
10
6.57039
20
96.7333909
40
0.2904987
50
269.6408629
51
323.8356722
0
ARC
8
DEFAULT_255_2_778
10
6.5413959
20
96.947393
40
0.5052265
50
269.9684524
51
273.083099
0
ARC
8
DEFAULT_255_2_778
10
6.5274061
20
96.7827327
40
0.340842
50
237.5617073
51
272.3055479
0
ARC
8
DEFAULT_255_2_778
10
6.4952549
20
96.7146345
40
0.266289
50
215.6674584
51
235.5403295
0
ARC
8
DEFAULT_255_2_778
10
6.6490798
20
96.8121486
40
0.4482396
50
189.541825
51
214.3289863
0
ARC
8
DEFAULT_255_2_778
10
7.1406243
20
96.9126806
40
0.9498125
50
180.1999086
51
190.6071335
0
ARC
8
DEFAULT_255_2_778
10
7.1510489
20
97.1089938
40
0.9603103
50
168.5093393
51
180.7355049
0
ARC
8
DEFAULT_255_2_778
10
6.6289264
20
97.2199052
40
0.4265837
50
146.0131411
51
169.1375756
0
ARC
8
DEFAULT_255_2_778
10
6.508379
20
97.2851967
40
0.2904342
50
90.2972643
51
143.3985577
0
ARC
8
DEFAULT_255_2_778
10
6.5394196
20
97.0668322
40
0.5098347
50
89.9552593
51
93.6602006
0
ARC
8
DEFAULT_255_2_778
10
6.5531112
20
97.2208093
40
0.3561055
50
60.2180099
51
92.1393619
0
ARC
8
DEFAULT_255_2_778
10
6.5933785
20
97.3087966
40
0.2598861
50
36.3038416
51
58.2875728
0
ARC
8
DEFAULT_255_2_778
10
6.4536512
20
97.2209423
40
0.4246739
50
10.0395474
51
34.6944485
0
ARC
8
DEFAULT_255_2_778
10
5.9281051
20
97.1108434
40
0.9615127
50
359.9596738
51
11.0404434
0
ARC
8
DEFAULT_255_2_778
10
5.9486769
20
97.1323509
40
0.7999276
50
359.155911
51
10.8327062
0
ARC
8
DEFAULT_255_2_778
10
6.4330296
20
97.227019
40
0.3064201
50
10.4679024
51
30.0297081
0
ARC
8
DEFAULT_255_2_778
10
6.5511773
20
97.2891556
40
0.1731177
50
31.7944073
51
93.9281789
0
ARC
8
DEFAULT_255_2_778
10
6.5274843
20
97.2915812
40
0.1706961
50
86.0248045
51
148.5798997
0
ARC
8
DEFAULT_255_2_778
10
6.6962121
20
97.2060721
40
0.3595722
50
150.9689329
51
173.6930736
0
ARC
8
DEFAULT_255_2_778
10
7.1919833
20
97.1284455
40
0.8611696
50
172.1830069
51
179.8256107
0
ARC
8
DEFAULT_255_2_778
10
7.112265
20
96.8943997
40
0.7815404
50
179.1153239
51
191.4945199
0
ARC
8
DEFAULT_255_2_778
10
6.6570608
20
96.8010746
40
0.3168694
50
191.3601805
51
210.0988693
0
ARC
8
DEFAULT_255_2_778
10
6.5319297
20
96.7288265
40
0.1723789
50
210.1806997
51
272.888976
0
ARC
8
DEFAULT_255_2_778
10
6.5505873
20
96.726584
40
0.1702096
50
266.6421193
51
328.3090747
0
ARC
8
DEFAULT_255_2_778
10
6.3959465
20
96.809007
40
0.3452711
50
330.1522596
51
352.7135532
0
ARC
8
DEFAULT_255_2_778
10
5.8855594
20
96.8955692
40
0.862774
50
351.3101435
51
359.6545044
0
LINE
8
DEFAULT_255_2_778
10
6.8893177
20
97.1104667
11
6.8893177
21
96.9284667
0
LINE
8
DEFAULT_255_2_778
10
6.1908177
20
96.9093667
11
6.1908177
21
97.0966667
0
LINE
8
DEFAULT_255_2_778
10
6.8896177
20
97.1101667
11
6.8893177
21
97.1104667
0
LINE
8
DEFAULT_255_2_778
10
6.7485177
20
96.8905667
11
6.7485177
21
97.1205667
0
LINE
8
DEFAULT_255_2_778
10
6.3308177
20
97.1310667
11
6.3308177
21
96.9064667
0
LINE
8
DEFAULT_255_2_778
10
6.7483177
20
96.8903667
11
6.7485177
21
96.8905667
0
LINE
8
DEFAULT_255_2_778
10
6.8936073
20
88.8927312
11
6.8936073
21
87.7830312
0
LINE
8
DEFAULT_255_2_778
10
6.8936073
20
87.7830312
11
6.7520073
21
87.7830312
0
LINE
8
DEFAULT_255_2_778
10
6.7520073
20
87.7830312
11
6.7520073
21
88.7183312
0
LINE
8
DEFAULT_255_2_778
10
6.7520073
20
88.7183312
11
6.4684073
21
88.6144312
0
LINE
8
DEFAULT_255_2_778
10
6.4684073
20
88.6144312
11
6.4684073
21
88.7419312
0
LINE
8
DEFAULT_255_2_778
10
6.4684073
20
88.7419312
11
6.8714073
21
88.8927312
0
LINE
8
DEFAULT_255_2_778
10
6.8714073
20
88.8927312
11
6.8933073
21
88.8927312
0
LINE
8
DEFAULT_255_2_778
10
6.8933073
20
88.8927312
11
6.8936073
21
88.8927312
0
LINE
8
DEFAULT_255_2_778
10
6.5192073
20
79.9199312
11
6.5192073
21
78.8102312
0
LINE
8
DEFAULT_255_2_778
10
6.5192073
20
78.8102312
11
6.3776073
21
78.8102312
0
LINE
8
DEFAULT_255_2_778
10
6.3776073
20
78.8102312
11
6.3776073
21
79.7455312
0
LINE
8
DEFAULT_255_2_778
10
6.3776073
20
79.7455312
11
6.0940073
21
79.6416312
0
LINE
8
DEFAULT_255_2_778
10
6.0940073
20
79.6416312
11
6.0940073
21
79.7691312
0
LINE
8
DEFAULT_255_2_778
10
6.0940073
20
79.7691312
11
6.4970073
21
79.9199312
0
LINE
8
DEFAULT_255_2_778
10
6.4970073
20
79.9199312
11
6.5189073
21
79.9199312
0
LINE
8
DEFAULT_255_2_778
10
6.5189073
20
79.9199312
11
6.5192073
21
79.9199312
0
ARC
8
DEFAULT_255_2_778
10
14.3468506
20
98.9674626
40
0.4336932
50
322.6123368
51
355.1462432
0
ARC
8
DEFAULT_255_2_778
10
14.4202127
20
98.9226997
40
0.3483393
50
311.1406777
51
321.1351838
0
ARC
8
DEFAULT_255_2_778
10
14.3893172
20
98.9726834
40
0.406422
50
271.431794
51
309.7847121
0
ARC
8
DEFAULT_255_2_778
10
14.3598291
20
99.208952
40
0.6437854
50
269.9607929
51
273.5304201
0
ARC
8
DEFAULT_255_2_778
10
14.3450349
20
98.955387
40
0.3904843
50
219.8129124
51
272.1065938
0
ARC
8
DEFAULT_255_2_778
10
14.444494
20
99.0291749
40
0.5141755
50
185.2180468
51
219.032567
0
ARC
8
DEFAULT_255_2_778
10
14.7478962
20
99.0786858
40
0.8211103
50
179.8547986
51
186.7332803
0
ARC
8
DEFAULT_255_2_778
10
14.5551292
20
99.2001397
40
0.6284809
50
155.8201684
51
181.210132
0
ARC
8
DEFAULT_255_2_778
10
14.3568611
20
99.2884547
40
0.4114344
50
122.1060625
51
155.7304352
0
ARC
8
DEFAULT_255_2_778
10
14.3633691
20
99.2646089
40
0.4351512
50
88.8123416
51
121.1631418
0
ARC
8
DEFAULT_255_2_778
10
14.3863795
20
99.2715644
40
0.4283308
50
59.2644996
51
91.8718325
0
ARC
8
DEFAULT_255_2_778
10
14.4220719
20
99.3491264
40
0.3435389
50
47.2676699
51
57.7697836
0
ARC
8
DEFAULT_255_2_778
10
14.3761303
20
99.311601
40
0.4023625
50
5.2274679
51
46.0882697
0
ARC
8
DEFAULT_255_2_778
10
14.1653849
20
99.2681586
40
0.6166589
50
5.7057528
51
7.4635918
0
ARC
8
DEFAULT_255_2_778
10
14.2429986
20
99.285579
40
0.3916566
50
6.433867
51
29.1833077
0
ARC
8
DEFAULT_255_2_778
10
14.4098883
20
99.3721564
40
0.203818
50
30.8108088
51
46.7316078
0
ARC
8
DEFAULT_255_2_778
10
14.38917
20
99.3334229
40
0.2464891
50
49.3969992
51
92.3264492
0
ARC
8
DEFAULT_255_2_778
10
14.3721249
20
99.1510871
40
0.4286795
50
89.0591046
51
90.0048576
0
ARC
8
DEFAULT_255_2_778
10
14.3609092
20
99.3187635
40
0.2612424
50
87.5473966
51
142.8120636
0
ARC
8
DEFAULT_255_2_778
10
14.4731484
20
99.2453914
40
0.3951186
50
144.1736006
51
173.7391977
0
ARC
8
DEFAULT_255_2_778
10
14.8169618
20
99.1866481
40
0.7435813
50
172.1286688
51
180.2682586
0
ARC
8
DEFAULT_255_2_778
10
14.6505344
20
99.0635024
40
0.577287
50
178.7330455
51
199.5826741
0
ARC
8
DEFAULT_255_2_778
10
14.4423177
20
98.9964217
40
0.358691
50
200.6348468
51
215.0816134
0
ARC
8
DEFAULT_255_2_778
10
14.3500598
20
98.9277119
40
0.2437239
50
214.3286096
51
272.1935809
0
ARC
8
DEFAULT_255_2_778
10
14.3720775
20
99.0022796
40
0.318366
50
267.7157839
51
296.6745221
0
ARC
8
DEFAULT_255_2_778
10
14.4212366
20
98.8873997
40
0.1937948
50
298.9353709
51
310.1480368
0
ARC
8
DEFAULT_255_2_778
10
14.3772559
20
98.9197061
40
0.2471773
50
313.1136061
51
346.9757687
0
ARC
8
DEFAULT_255_2_778
10
14.0889669
20
99.0123539
40
0.549512
50
344.3374394
51
351.461605
0
LINE
8
DEFAULT_255_2_778
10
14.6321886
20
98.9307667
11
14.7789886
21
98.9307667
0
LINE
8
DEFAULT_255_2_778
10
13.9267886
20
99.0807667
11
13.9267886
21
99.1868667
0
LINE
8
DEFAULT_255_2_778
10
14.7789886
20
99.3294667
11
14.6321886
21
99.3294667
0
LINE
8
DEFAULT_255_2_778
10
14.0733886
20
99.1831667
11
14.0733886
21
99.0762667
0
LINE
8
DEFAULT_255_2_778
10
14.6323886
20
98.9307667
11
14.6321886
21
98.9307667
0
LINE
8
DEFAULT_255_2_778
10
6.32185
20
95.0863854
11
6.32185
21
93.9819854
0
LINE
8
DEFAULT_255_2_778
10
6.32185
20
93.9819854
11
6.17505
21
93.9819854
0
LINE
8
DEFAULT_255_2_778
10
6.17505
20
93.9819854
11
5.61775
21
94.8328854
0
LINE
8
DEFAULT_255_2_778
10
5.61775
20
94.8328854
11
5.61775
21
93.9819854
0
LINE
8
DEFAULT_255_2_778
10
5.61775
20
93.9819854
11
5.47095
21
93.9819854
0
LINE
8
DEFAULT_255_2_778
10
5.47095
20
93.9819854
11
5.47095
21
95.0863854
0
LINE
8
DEFAULT_255_2_778
10
5.47095
20
95.0863854
11
5.61775
21
95.0863854
0
LINE
8
DEFAULT_255_2_778
10
5.61775
20
95.0863854
11
6.17655
21
94.2314854
0
LINE
8
DEFAULT_255_2_778
10
6.17655
20
94.2314854
11
6.17655
21
95.0863854
0
LINE
8
DEFAULT_255_2_778
10
6.17655
20
95.0863854
11
6.32185
21
95.0863854
0
LINE
8
DEFAULT_255_2_778
10
6.32185
20
95.0863854
11
6.32185
21
95.0863854
0
ARC
8
DEFAULT_255_2_778
10
6.735016
20
94.4851217
40
0.6976185
50
338.7559188
51
1.0987474
0
ARC
8
DEFAULT_255_2_778
10
6.8885191
20
94.4358728
40
0.5367897
50
335.714381
51
337.7185486
0
ARC
8
DEFAULT_255_2_778
10
6.9967176
20
94.3778306
40
0.4143793
50
303.0497306
51
336.8766498
0
ARC
8
DEFAULT_255_2_778
10
6.9980795
20
94.3933281
40
0.4267343
50
268.7279631
51
301.7615637
0
ARC
8
DEFAULT_255_2_778
10
6.9809753
20
94.3918874
40
0.4252569
50
238.140145
51
271.0281893
0
ARC
8
DEFAULT_255_2_778
10
6.9860502
20
94.3863603
40
0.423303
50
204.0872242
51
237.1617855
0
ARC
8
DEFAULT_255_2_778
10
7.1983026
20
94.4820513
40
0.656128
50
179.4369567
51
204.1512195
0
ARC
8
DEFAULT_255_2_778
10
7.2153231
20
94.5813903
40
0.6732481
50
156.5230462
51
181.1312121
0
ARC
8
DEFAULT_255_2_778
10
6.9858156
20
94.6835559
40
0.4220445
50
123.2021602
51
156.8321866
0
ARC
8
DEFAULT_255_2_778
10
6.979695
20
94.6789257
40
0.4226365
50
89.0087746
51
122.1640753
0
ARC
8
DEFAULT_255_2_778
10
6.9955418
20
94.6708094
40
0.4307741
50
58.3461339
51
91.1353627
0
ARC
8
DEFAULT_255_2_778
10
6.9975279
20
94.6901515
40
0.4133538
50
23.0056094
51
57.1734112
0
ARC
8
DEFAULT_255_2_778
10
6.7550851
20
94.5847854
40
0.6776972
50
359.4652067
51
23.1944955
0
ARC
8
DEFAULT_255_2_778
10
6.4921361
20
94.5684182
40
0.9406703
50
359.998827
51
0.6116515
0
ARC
8
DEFAULT_255_2_778
10
6.6365256
20
94.5825232
40
0.6509011
50
358.8974813
51
16.4235302
0
ARC
8
DEFAULT_255_2_778
10
6.9261232
20
94.6644557
40
0.3499701
50
16.9621572
51
36.2911052
0
ARC
8
DEFAULT_255_2_778
10
6.9986411
20
94.7156123
40
0.2612459
50
36.6615946
51
92.5525602
0
ARC
8
DEFAULT_255_2_778
10
6.9771585
20
94.7186362
40
0.2581506
50
87.8137959
51
143.6630469
0
ARC
8
DEFAULT_255_2_778
10
7.1099475
20
94.6293047
40
0.4181042
50
144.5841366
51
173.9551819
0
ARC
8
DEFAULT_255_2_778
10
7.4379171
20
94.5733433
40
0.7504403
50
172.3430027
51
179.4918382
0
ARC
8
DEFAULT_255_2_778
10
7.2996722
20
94.4861278
40
0.6122971
50
178.8142132
51
198.3189778
0
ARC
8
DEFAULT_255_2_778
10
7.0613416
20
94.412892
40
0.3630662
50
199.1687639
51
215.9976826
0
ARC
8
DEFAULT_255_2_778
10
6.9789313
20
94.3501383
40
0.2595197
50
215.4824973
51
272.1364901
0
ARC
8
DEFAULT_255_2_778
10
7.0012026
20
94.3487887
40
0.2582971
50
267.2047536
51
323.043683
0
ARC
8
DEFAULT_255_2_778
10
6.8778007
20
94.4267706
40
0.4039646
50
324.7282032
51
352.90524
0
ARC
8
DEFAULT_255_2_778
10
6.5083769
20
94.4940139
40
0.7791508
50
351.3533913
51
359.5723848
0
LINE
8
DEFAULT_255_2_778
10
7.4325063
20
94.5683989
11
7.4325063
21
94.4984989
0
LINE
8
DEFAULT_255_2_778
10
6.5422063
20
94.4884989
11
6.5422063
21
94.5680989
0
LINE
8
DEFAULT_255_2_778
10
7.4328063
20
94.5683989
11
7.4325063
21
94.5683989
0
LINE
8
DEFAULT_255_2_778
10
7.2873063
20
94.4878989
11
7.2873063
21
94.5699989
0
LINE
8
DEFAULT_255_2_778
10
6.6875063
20
94.5799989
11
6.6875063
21
94.4987989
0
LINE
8
DEFAULT_255_2_778
10
7.2875063
20
94.4881989
11
7.2873063
21
94.4878989
0
LINE
8
DEFAULT_255_2_778
10
13.91665
20
90.8609854
11
13.91665
21
89.7565854
0
LINE
8
DEFAULT_255_2_778
10
13.91665
20
89.7565854
11
13.76985
21
89.7565854
0
LINE
8
DEFAULT_255_2_778
10
13.76985
20
89.7565854
11
13.21255
21
90.6074854
0
LINE
8
DEFAULT_255_2_778
10
13.21255
20
90.6074854
11
13.21255
21
89.7565854
0
LINE
8
DEFAULT_255_2_778
10
13.21255
20
89.7565854
11
13.06575
21
89.7565854
0
LINE
8
DEFAULT_255_2_778
10
13.06575
20
89.7565854
11
13.06575
21
90.8609854
0
LINE
8
DEFAULT_255_2_778
10
13.06575
20
90.8609854
11
13.21255
21
90.8609854
0
LINE
8
DEFAULT_255_2_778
10
13.21255
20
90.8609854
11
13.77135
21
90.0060854
0
LINE
8
DEFAULT_255_2_778
10
13.77135
20
90.0060854
11
13.77135
21
90.8609854
0
LINE
8
DEFAULT_255_2_778
10
13.77135
20
90.8609854
11
13.91665
21
90.8609854
0
LINE
8
DEFAULT_255_2_778
10
13.91665
20
90.8609854
11
13.91665
21
90.8609854
0
ARC
8
DEFAULT_255_2_778
10
14.5582506
20
90.1435626
40
0.4336932
50
322.6123368
51
355.1462432
0
ARC
8
DEFAULT_255_2_778
10
14.6316127
20
90.0987997
40
0.3483393
50
311.1406777
51
321.1351838
0
ARC
8
DEFAULT_255_2_778
10
14.6007172
20
90.1487834
40
0.406422
50
271.431794
51
309.7847121
0
ARC
8
DEFAULT_255_2_778
10
14.5712291
20
90.385052
40
0.6437854
50
269.9607929
51
273.5304201
0
ARC
8
DEFAULT_255_2_778
10
14.5564349
20
90.131487
40
0.3904843
50
219.8129124
51
272.1065938
0
ARC
8
DEFAULT_255_2_778
10
14.655894
20
90.2052749
40
0.5141755
50
185.2180468
51
219.032567
0
ARC
8
DEFAULT_255_2_778
10
14.9592962
20
90.2547858
40
0.8211103
50
179.8547986
51
186.7332803
0
ARC
8
DEFAULT_255_2_778
10
14.7665292
20
90.3762397
40
0.6284809
50
155.8201684
51
181.210132
0
ARC
8
DEFAULT_255_2_778
10
14.5682611
20
90.4645547
40
0.4114344
50
122.1060625
51
155.7304352
0
ARC
8
DEFAULT_255_2_778
10
14.5747691
20
90.4407089
40
0.4351512
50
88.8123416
51
121.1631418
0
ARC
8
DEFAULT_255_2_778
10
14.5977795
20
90.4476644
40
0.4283308
50
59.2644996
51
91.8718325
0
ARC
8
DEFAULT_255_2_778
10
14.6334719
20
90.5252264
40
0.3435389
50
47.2676699
51
57.7697836
0
ARC
8
DEFAULT_255_2_778
10
14.5875303
20
90.487701
40
0.4023625
50
5.2274679
51
46.0882697
0
ARC
8
DEFAULT_255_2_778
10
14.3767849
20
90.4442586
40
0.6166589
50
5.7057528
51
7.4635918
0
ARC
8
DEFAULT_255_2_778
10
14.4543986
20
90.461679
40
0.3916566
50
6.433867
51
29.1833077
0
ARC
8
DEFAULT_255_2_778
10
14.6212883
20
90.5482564
40
0.203818
50
30.8108088
51
46.7316078
0
ARC
8
DEFAULT_255_2_778
10
14.60057
20
90.5095229
40
0.2464891
50
49.3969992
51
92.3264492
0
ARC
8
DEFAULT_255_2_778
10
14.5835249
20
90.3271871
40
0.4286795
50
89.0591046
51
90.0048576
0
ARC
8
DEFAULT_255_2_778
10
14.5723092
20
90.4948635
40
0.2612424
50
87.5473966
51
142.8120636
0
ARC
8
DEFAULT_255_2_778
10
14.6845484
20
90.4214914
40
0.3951186
50
144.1736006
51
173.7391977
0
ARC
8
DEFAULT_255_2_778
10
15.0283618
20
90.3627481
40
0.7435813
50
172.1286688
51
180.2682586
0
ARC
8
DEFAULT_255_2_778
10
14.8619344
20
90.2396024
40
0.577287
50
178.7330455
51
199.5826741
0
ARC
8
DEFAULT_255_2_778
10
14.6537177
20
90.1725217
40
0.358691
50
200.6348468
51
215.0816134
0
ARC
8
DEFAULT_255_2_778
10
14.5614598
20
90.1038119
40
0.2437239
50
214.3286096
51
272.1935809
0
ARC
8
DEFAULT_255_2_778
10
14.5834775
20
90.1783796
40
0.318366
50
267.7157839
51
296.6745221
0
ARC
8
DEFAULT_255_2_778
10
14.6326366
20
90.0634997
40
0.1937948
50
298.9353709
51
310.1480368
0
ARC
8
DEFAULT_255_2_778
10
14.5886559
20
90.0958061
40
0.2471773
50
313.1136061
51
346.9757687
0
ARC
8
DEFAULT_255_2_778
10
14.3003669
20
90.1884539
40
0.549512
50
344.3374394
51
351.461605
0
LINE
8
DEFAULT_255_2_778
10
14.8435886
20
90.1068667
11
14.9903886
21
90.1068667
0
LINE
8
DEFAULT_255_2_778
10
14.1381886
20
90.2568667
11
14.1381886
21
90.3629667
0
LINE
8
DEFAULT_255_2_778
10
14.9903886
20
90.5055667
11
14.8435886
21
90.5055667
0
LINE
8
DEFAULT_255_2_778
10
14.2847886
20
90.3592667
11
14.2847886
21
90.2523667
0
LINE
8
DEFAULT_255_2_778
10
14.8437886
20
90.1068667
11
14.8435886
21
90.1068667
0
ARC
8
DEFAULT_255_2_778
10
6.5389506
20
85.6946626
40
0.4336932
50
322.6123368
51
355.1462432
0
ARC
8
DEFAULT_255_2_778
10
6.6123127
20
85.6498997
40
0.3483393
50
311.1406777
51
321.1351838
0
ARC
8
DEFAULT_255_2_778
10
6.5814172
20
85.6998834
40
0.406422
50
271.431794
51
309.7847121
0
ARC
8
DEFAULT_255_2_778
10
6.5519291
20
85.936152
40
0.6437854
50
269.9607929
51
273.5304201
0
ARC
8
DEFAULT_255_2_778
10
6.5371349
20
85.682587
40
0.3904843
50
219.8129124
51
272.1065938
0
ARC
8
DEFAULT_255_2_778
10
6.636594
20
85.7563749
40
0.5141755
50
185.2180468
51
219.032567
0
ARC
8
DEFAULT_255_2_778
10
6.9399962
20
85.8058858
40
0.8211103
50
179.8547986
51
186.7332803
0
ARC
8
DEFAULT_255_2_778
10
6.7472292
20
85.9273397
40
0.6284809
50
155.8201684
51
181.210132
0
ARC
8
DEFAULT_255_2_778
10
6.5489611
20
86.0156547
40
0.4114344
50
122.1060625
51
155.7304352
0
ARC
8
DEFAULT_255_2_778
10
6.5554691
20
85.9918089
40
0.4351512
50
88.8123416
51
121.1631418
0
ARC
8
DEFAULT_255_2_778
10
6.5784795
20
85.9987644
40
0.4283308
50
59.2644996
51
91.8718325
0
ARC
8
DEFAULT_255_2_778
10
6.6141719
20
86.0763264
40
0.3435389
50
47.2676699
51
57.7697836
0
ARC
8
DEFAULT_255_2_778
10
6.5682303
20
86.038801
40
0.4023625
50
5.2274679
51
46.0882697
0
ARC
8
DEFAULT_255_2_778
10
6.3574849
20
85.9953586
40
0.6166589
50
5.7057528
51
7.4635918
0
ARC
8
DEFAULT_255_2_778
10
6.4350986
20
86.012779
40
0.3916566
50
6.433867
51
29.1833077
0
ARC
8
DEFAULT_255_2_778
10
6.6019883
20
86.0993564
40
0.203818
50
30.8108088
51
46.7316078
0
ARC
8
DEFAULT_255_2_778
10
6.58127
20
86.0606229
40
0.2464891
50
49.3969992
51
92.3264492
0
ARC
8
DEFAULT_255_2_778
10
6.5642249
20
85.8782871
40
0.4286795
50
89.0591046
51
90.0048576
0
ARC
8
DEFAULT_255_2_778
10
6.5530092
20
86.0459635
40
0.2612424
50
87.5473966
51
142.8120636
0
ARC
8
DEFAULT_255_2_778
10
6.6652484
20
85.9725914
40
0.3951186
50
144.1736006
51
173.7391977
0
ARC
8
DEFAULT_255_2_778
10
7.0090618
20
85.9138481
40
0.7435813
50
172.1286688
51
180.2682586
0
ARC
8
DEFAULT_255_2_778
10
6.8426344
20
85.7907024
40
0.577287
50
178.7330455
51
199.5826741
0
ARC
8
DEFAULT_255_2_778
10
6.6344177
20
85.7236217
40
0.358691
50
200.6348468
51
215.0816134
0
ARC
8
DEFAULT_255_2_778
10
6.5421598
20
85.6549119
40
0.2437239
50
214.3286096
51
272.1935809
0
ARC
8
DEFAULT_255_2_778
10
6.5641775
20
85.7294796
40
0.318366
50
267.7157839
51
296.6745221
0
ARC
8
DEFAULT_255_2_778
10
6.6133366
20
85.6145997
40
0.1937948
50
298.9353709
51
310.1480368
0
ARC
8
DEFAULT_255_2_778
10
6.5693559
20
85.6469061
40
0.2471773
50
313.1136061
51
346.9757687
0
ARC
8
DEFAULT_255_2_778
10
6.2810669
20
85.7395539
40
0.549512
50
344.3374394
51
351.461605
0
LINE
8
DEFAULT_255_2_778
10
6.8242886
20
85.6579667
11
6.9710886
21
85.6579667
0
LINE
8
DEFAULT_255_2_778
10
6.1188886
20
85.8079667
11
6.1188886
21
85.9140667
0
LINE
8
DEFAULT_255_2_778
10
6.9710886
20
86.0566667
11
6.8242886
21
86.0566667
0
LINE
8
DEFAULT_255_2_778
10
6.2654886
20
85.9103667
11
6.2654886
21
85.8034667
0
LINE
8
DEFAULT_255_2_778
10
6.8244886
20
85.6579667
11
6.8242886
21
85.6579667
0
LINE
8
DEFAULT_255_2_778
10
13.91665
20
82.0373854
11
13.91665
21
80.9329854
0
LINE
8
DEFAULT_255_2_778
10
13.91665
20
80.9329854
11
13.76985
21
80.9329854
0
LINE
8
DEFAULT_255_2_778
10
13.76985
20
80.9329854
11
13.21255
21
81.7838854
0
LINE
8
DEFAULT_255_2_778
10
13.21255
20
81.7838854
11
13.21255
21
80.9329854
0
LINE
8
DEFAULT_255_2_778
10
13.21255
20
80.9329854
11
13.06575
21
80.9329854
0
LINE
8
DEFAULT_255_2_778
10
13.06575
20
80.9329854
11
13.06575
21
82.0373854
0
LINE
8
DEFAULT_255_2_778
10
13.06575
20
82.0373854
11
13.21255
21
82.0373854
0
LINE
8
DEFAULT_255_2_778
10
13.21255
20
82.0373854
11
13.77135
21
81.1824854
0
LINE
8
DEFAULT_255_2_778
10
13.77135
20
81.1824854
11
13.77135
21
82.0373854
0
LINE
8
DEFAULT_255_2_778
10
13.77135
20
82.0373854
11
13.91665
21
82.0373854
0
LINE
8
DEFAULT_255_2_778
10
13.91665
20
82.0373854
11
13.91665
21
82.0373854
0
ARC
8
DEFAULT_255_2_778
10
14.329916
20
81.4361217
40
0.6976185
50
338.7559188
51
1.0987474
0
ARC
8
DEFAULT_255_2_778
10
14.4834191
20
81.3868728
40
0.5367897
50
335.714381
51
337.7185486
0
ARC
8
DEFAULT_255_2_778
10
14.5916176
20
81.3288306
40
0.4143793
50
303.0497306
51
336.8766498
0
ARC
8
DEFAULT_255_2_778
10
14.5929795
20
81.3443281
40
0.4267343
50
268.7279631
51
301.7615637
0
ARC
8
DEFAULT_255_2_778
10
14.5758753
20
81.3428874
40
0.4252569
50
238.140145
51
271.0281893
0
ARC
8
DEFAULT_255_2_778
10
14.5809502
20
81.3373603
40
0.423303
50
204.0872242
51
237.1617855
0
ARC
8
DEFAULT_255_2_778
10
14.7932026
20
81.4330513
40
0.656128
50
179.4369567
51
204.1512195
0
ARC
8
DEFAULT_255_2_778
10
14.8102231
20
81.5323903
40
0.6732481
50
156.5230462
51
181.1312121
0
ARC
8
DEFAULT_255_2_778
10
14.5807156
20
81.6345559
40
0.4220445
50
123.2021602
51
156.8321866
0
ARC
8
DEFAULT_255_2_778
10
14.574595
20
81.6299257
40
0.4226365
50
89.0087746
51
122.1640753
0
ARC
8
DEFAULT_255_2_778
10
14.5904418
20
81.6218094
40
0.4307741
50
58.3461339
51
91.1353627
0
ARC
8
DEFAULT_255_2_778
10
14.5924279
20
81.6411515
40
0.4133538
50
23.0056094
51
57.1734112
0
ARC
8
DEFAULT_255_2_778
10
14.3499851
20
81.5357854
40
0.6776972
50
359.4652067
51
23.1944955
0
ARC
8
DEFAULT_255_2_778
10
14.0870361
20
81.5194182
40
0.9406703
50
359.998827
51
0.6116515
0
ARC
8
DEFAULT_255_2_778
10
14.2314256
20
81.5335232
40
0.6509011
50
358.8974813
51
16.4235302
0
ARC
8
DEFAULT_255_2_778
10
14.5210232
20
81.6154557
40
0.3499701
50
16.9621572
51
36.2911052
0
ARC
8
DEFAULT_255_2_778
10
14.5935411
20
81.6666123
40
0.2612459
50
36.6615946
51
92.5525602
0
ARC
8
DEFAULT_255_2_778
10
14.5720585
20
81.6696362
40
0.2581506
50
87.8137959
51
143.6630469
0
ARC
8
DEFAULT_255_2_778
10
14.7048475
20
81.5803047
40
0.4181042
50
144.5841366
51
173.9551819
0
ARC
8
DEFAULT_255_2_778
10
15.0328171
20
81.5243433
40
0.7504403
50
172.3430027
51
179.4918382
0
ARC
8
DEFAULT_255_2_778
10
14.8945722
20
81.4371278
40
0.6122971
50
178.8142132
51
198.3189778
0
ARC
8
DEFAULT_255_2_778
10
14.6562416
20
81.363892
40
0.3630662
50
199.1687639
51
215.9976826
0
ARC
8
DEFAULT_255_2_778
10
14.5738313
20
81.3011383
40
0.2595197
50
215.4824973
51
272.1364901
0
ARC
8
DEFAULT_255_2_778
10
14.5961026
20
81.2997887
40
0.2582971
50
267.2047536
51
323.043683
0
ARC
8
DEFAULT_255_2_778
10
14.4727007
20
81.3777706
40
0.4039646
50
324.7282032
51
352.90524
0
ARC
8
DEFAULT_255_2_778
10
14.1032769
20
81.4450139
40
0.7791508
50
351.3533913
51
359.5723848
0
LINE
8
DEFAULT_255_2_778
10
15.0274063
20
81.5193989
11
15.0274063
21
81.4494989
0
LINE
8
DEFAULT_255_2_778
10
14.1371063
20
81.4394989
11
14.1371063
21
81.5190989
0
LINE
8
DEFAULT_255_2_778
10
15.0277063
20
81.5193989
11
15.0274063
21
81.5193989
0
LINE
8
DEFAULT_255_2_778
10
14.8822063
20
81.4388989
11
14.8822063
21
81.5209989
0
LINE
8
DEFAULT_255_2_778
10
14.2824063
20
81.5309989
11
14.2824063
21
81.4497989
0
LINE
8
DEFAULT_255_2_778
10
14.8824063
20
81.4391989
11
14.8822063
21
81.4388989
0
LINE
8
DEFAULT_255_2_778
10
6.03395
20
77.4389854
11
6.03395
21
76.3345854
0
LINE
8
DEFAULT_255_2_778
10
6.03395
20
76.3345854
11
5.88715
21
76.3345854
0
LINE
8
DEFAULT_255_2_778
10
5.88715
20
76.3345854
11
5.32985
21
77.1854854
0
LINE
8
DEFAULT_255_2_778
10
5.32985
20
77.1854854
11
5.32985
21
76.3345854
0
LINE
8
DEFAULT_255_2_778
10
5.32985
20
76.3345854
11
5.18305
21
76.3345854
0
LINE
8
DEFAULT_255_2_778
10
5.18305
20
76.3345854
11
5.18305
21
77.4389854
0
LINE
8
DEFAULT_255_2_778
10
5.18305
20
77.4389854
11
5.32985
21
77.4389854
0
LINE
8
DEFAULT_255_2_778
10
5.32985
20
77.4389854
11
5.88865
21
76.5840854
0
LINE
8
DEFAULT_255_2_778
10
5.88865
20
76.5840854
11
5.88865
21
77.4389854
0
LINE
8
DEFAULT_255_2_778
10
5.88865
20
77.4389854
11
6.03395
21
77.4389854
0
LINE
8
DEFAULT_255_2_778
10
6.03395
20
77.4389854
11
6.03395
21
77.4389854
0
ARC
8
DEFAULT_255_2_778
10
6.6754506
20
76.7215626
40
0.4336932
50
322.6123368
51
355.1462432
0
ARC
8
DEFAULT_255_2_778
10
6.7488127
20
76.6767997
40
0.3483393
50
311.1406777
51
321.1351838
0
ARC
8
DEFAULT_255_2_778
10
6.7179172
20
76.7267834
40
0.406422
50
271.431794
51
309.7847121
0
ARC
8
DEFAULT_255_2_778
10
6.6884291
20
76.963052
40
0.6437854
50
269.9607929
51
273.5304201
0
ARC
8
DEFAULT_255_2_778
10
6.6736349
20
76.709487
40
0.3904843
50
219.8129124
51
272.1065938
0
ARC
8
DEFAULT_255_2_778
10
6.773094
20
76.7832749
40
0.5141755
50
185.2180468
51
219.032567
0
ARC
8
DEFAULT_255_2_778
10
7.0764962
20
76.8327858
40
0.8211103
50
179.8547986
51
186.7332803
0
ARC
8
DEFAULT_255_2_778
10
6.8837292
20
76.9542397
40
0.6284809
50
155.8201684
51
181.210132
0
ARC
8
DEFAULT_255_2_778
10
6.6854611
20
77.0425547
40
0.4114344
50
122.1060625
51
155.7304352
0
ARC
8
DEFAULT_255_2_778
10
6.6919691
20
77.0187089
40
0.4351512
50
88.8123416
51
121.1631418
0
ARC
8
DEFAULT_255_2_778
10
6.7149795
20
77.0256644
40
0.4283308
50
59.2644996
51
91.8718325
0
ARC
8
DEFAULT_255_2_778
10
6.7506719
20
77.1032264
40
0.3435389
50
47.2676699
51
57.7697836
0
ARC
8
DEFAULT_255_2_778
10
6.7047303
20
77.065701
40
0.4023625
50
5.2274679
51
46.0882697
0
ARC
8
DEFAULT_255_2_778
10
6.4939849
20
77.0222586
40
0.6166589
50
5.7057528
51
7.4635918
0
ARC
8
DEFAULT_255_2_778
10
6.5715986
20
77.039679
40
0.3916566
50
6.433867
51
29.1833077
0
ARC
8
DEFAULT_255_2_778
10
6.7384883
20
77.1262564
40
0.203818
50
30.8108088
51
46.7316078
0
ARC
8
DEFAULT_255_2_778
10
6.71777
20
77.0875229
40
0.2464891
50
49.3969992
51
92.3264492
0
ARC
8
DEFAULT_255_2_778
10
6.7007249
20
76.9051871
40
0.4286795
50
89.0591046
51
90.0048576
0
ARC
8
DEFAULT_255_2_778
10
6.6895092
20
77.0728635
40
0.2612424
50
87.5473966
51
142.8120636
0
ARC
8
DEFAULT_255_2_778
10
6.8017484
20
76.9994914
40
0.3951186
50
144.1736006
51
173.7391977
0
ARC
8
DEFAULT_255_2_778
10
7.1455618
20
76.9407481
40
0.7435813
50
172.1286688
51
180.2682586
0
ARC
8
DEFAULT_255_2_778
10
6.9791344
20
76.8176024
40
0.577287
50
178.7330455
51
199.5826741
0
ARC
8
DEFAULT_255_2_778
10
6.7709177
20
76.7505217
40
0.358691
50
200.6348468
51
215.0816134
0
ARC
8
DEFAULT_255_2_778
10
6.6786598
20
76.6818119
40
0.2437239
50
214.3286096
51
272.1935809
0
ARC
8
DEFAULT_255_2_778
10
6.7006775
20
76.7563796
40
0.318366
50
267.7157839
51
296.6745221
0
ARC
8
DEFAULT_255_2_778
10
6.7498366
20
76.6414997
40
0.1937948
50
298.9353709
51
310.1480368
0
ARC
8
DEFAULT_255_2_778
10
6.7058559
20
76.6738061
40
0.2471773
50
313.1136061
51
346.9757687
0
ARC
8
DEFAULT_255_2_778
10
6.4175669
20
76.7664539
40
0.549512
50
344.3374394
51
351.461605
0
LINE
8
DEFAULT_255_2_778
10
6.9607886
20
76.6848667
11
7.1075886
21
76.6848667
0
LINE
8
DEFAULT_255_2_778
10
6.2553886
20
76.8348667
11
6.2553886
21
76.9409667
0
LINE
8
DEFAULT_255_2_778
10
7.1075886
20
77.0835667
11
6.9607886
21
77.0835667
0
LINE
8
DEFAULT_255_2_778
10
6.4019886
20
76.9372667
11
6.4019886
21
76.8303667
0
LINE
8
DEFAULT_255_2_778
10
6.9609886
20
76.6848667
11
6.9607886
21
76.6848667
0
LINE
8
DEFAULT_255_2_778
10
6.25095
20
68.5407854
11
6.25095
21
67.4363854
0
LINE
8
DEFAULT_255_2_778
10
6.25095
20
67.4363854
11
6.10415
21
67.4363854
0
LINE
8
DEFAULT_255_2_778
10
6.10415
20
67.4363854
11
5.54685
21
68.2872854
0
LINE
8
DEFAULT_255_2_778
10
5.54685
20
68.2872854
11
5.54685
21
67.4363854
0
LINE
8
DEFAULT_255_2_778
10
5.54685
20
67.4363854
11
5.40005
21
67.4363854
0
LINE
8
DEFAULT_255_2_778
10
5.40005
20
67.4363854
11
5.40005
21
68.5407854
0
LINE
8
DEFAULT_255_2_778
10
5.40005
20
68.5407854
11
5.54685
21
68.5407854
0
LINE
8
DEFAULT_255_2_778
10
5.54685
20
68.5407854
11
6.10565
21
67.6858854
0
LINE
8
DEFAULT_255_2_778
10
6.10565
20
67.6858854
11
6.10565
21
68.5407854
0
LINE
8
DEFAULT_255_2_778
10
6.10565
20
68.5407854
11
6.25095
21
68.5407854
0
LINE
8
DEFAULT_255_2_778
10
6.25095
20
68.5407854
11
6.25095
21
68.5407854
0
ARC
8
DEFAULT_255_2_778
10
6.664116
20
67.9394217
40
0.6976185
50
338.7559188
51
1.0987474
0
ARC
8
DEFAULT_255_2_778
10
6.8176191
20
67.8901728
40
0.5367897
50
335.714381
51
337.7185486
0
ARC
8
DEFAULT_255_2_778
10
6.9258176
20
67.8321306
40
0.4143793
50
303.0497306
51
336.8766498
0
ARC
8
DEFAULT_255_2_778
10
6.9271795
20
67.8476281
40
0.4267343
50
268.7279631
51
301.7615637
0
ARC
8
DEFAULT_255_2_778
10
6.9100753
20
67.8461874
40
0.4252569
50
238.140145
51
271.0281893
0
ARC
8
DEFAULT_255_2_778
10
6.9151502
20
67.8406603
40
0.423303
50
204.0872242
51
237.1617855
0
ARC
8
DEFAULT_255_2_778
10
7.1274026
20
67.9363513
40
0.656128
50
179.4369567
51
204.1512195
0
ARC
8
DEFAULT_255_2_778
10
7.1444231
20
68.0356903
40
0.6732481
50
156.5230462
51
181.1312121
0
ARC
8
DEFAULT_255_2_778
10
6.9149156
20
68.1378559
40
0.4220445
50
123.2021602
51
156.8321866
0
ARC
8
DEFAULT_255_2_778
10
6.908795
20
68.1332257
40
0.4226365
50
89.0087746
51
122.1640753
0
ARC
8
DEFAULT_255_2_778
10
6.9246418
20
68.1251094
40
0.4307741
50
58.3461339
51
91.1353627
0
ARC
8
DEFAULT_255_2_778
10
6.9266279
20
68.1444515
40
0.4133538
50
23.0056094
51
57.1734112
0
ARC
8
DEFAULT_255_2_778
10
6.6841851
20
68.0390854
40
0.6776972
50
359.4652067
51
23.1944955
0
ARC
8
DEFAULT_255_2_778
10
6.4212361
20
68.0227182
40
0.9406703
50
359.998827
51
0.6116515
0
ARC
8
DEFAULT_255_2_778
10
6.5656256
20
68.0368232
40
0.6509011
50
358.8974813
51
16.4235302
0
ARC
8
DEFAULT_255_2_778
10
6.8552232
20
68.1187557
40
0.3499701
50
16.9621572
51
36.2911052
0
ARC
8
DEFAULT_255_2_778
10
6.9277411
20
68.1699123
40
0.2612459
50
36.6615946
51
92.5525602
0
ARC
8
DEFAULT_255_2_778
10
6.9062585
20
68.1729362
40
0.2581506
50
87.8137959
51
143.6630469
0
ARC
8
DEFAULT_255_2_778
10
7.0390475
20
68.0836047
40
0.4181042
50
144.5841366
51
173.9551819
0
ARC
8
DEFAULT_255_2_778
10
7.3670171
20
68.0276433
40
0.7504403
50
172.3430027
51
179.4918382
0
ARC
8
DEFAULT_255_2_778
10
7.2287722
20
67.9404278
40
0.6122971
50
178.8142132
51
198.3189778
0
ARC
8
DEFAULT_255_2_778
10
6.9904416
20
67.867192
40
0.3630662
50
199.1687639
51
215.9976826
0
ARC
8
DEFAULT_255_2_778
10
6.9080313
20
67.8044383
40
0.2595197
50
215.4824973
51
272.1364901
0
ARC
8
DEFAULT_255_2_778
10
6.9303026
20
67.8030887
40
0.2582971
50
267.2047536
51
323.043683
0
ARC
8
DEFAULT_255_2_778
10
6.8069007
20
67.8810706
40
0.4039646
50
324.7282032
51
352.90524
0
ARC
8
DEFAULT_255_2_778
10
6.4374769
20
67.9483139
40
0.7791508
50
351.3533913
51
359.5723848
0
LINE
8
DEFAULT_255_2_778
10
7.3616063
20
68.0226989
11
7.3616063
21
67.9527989
0
LINE
8
DEFAULT_255_2_778
10
6.4713063
20
67.9427989
11
6.4713063
21
68.0223989
0
LINE
8
DEFAULT_255_2_778
10
7.3619063
20
68.0226989
11
7.3616063
21
68.0226989
0
LINE
8
DEFAULT_255_2_778
10
7.2164063
20
67.9421989
11
7.2164063
21
68.0242989
0
LINE
8
DEFAULT_255_2_778
10
6.6166063
20
68.0342989
11
6.6166063
21
67.9530989
0
LINE
8
DEFAULT_255_2_778
10
7.2166063
20
67.9424989
11
7.2164063
21
67.9421989
0
ARC
8
DEFAULT_255_2_778
10
5.5147614
20
71.2714668
40
1.2454091
50
317.9628786
51
324.5091376
0
ARC
8
DEFAULT_255_2_778
10
6.1426008
20
70.820548
40
0.4724331
50
324.8287215
51
331.3624144
0
ARC
8
DEFAULT_255_2_778
10
6.327915
20
70.7200577
40
0.2616277
50
331.2270863
51
359.7740628
0
ARC
8
DEFAULT_255_2_778
10
6.3918767
20
70.7265642
40
0.1978076
50
357.8160154
51
42.7460114
0
ARC
8
DEFAULT_255_2_778
10
6.405543
20
70.7325327
40
0.1837855
50
44.2715767
51
92.6203834
0
ARC
8
DEFAULT_255_2_778
10
6.383874
20
70.6997027
40
0.2168296
50
86.492177
51
133.6377463
0
ARC
8
DEFAULT_255_2_778
10
6.4023911
20
70.7045025
40
0.2267512
50
137.8647613
51
183.4072624
0
ARC
8
DEFAULT_255_2_778
10
6.360813
20
70.7040461
40
0.3258326
50
134.2032486
51
182.2901066
0
ARC
8
DEFAULT_255_2_778
10
6.3757353
20
70.6718958
40
0.3594752
50
89.0318794
51
132.3352259
0
ARC
8
DEFAULT_255_2_778
10
6.397069
20
70.4673229
40
0.5642032
50
89.9927219
51
91.5498572
0
ARC
8
DEFAULT_255_2_778
10
6.4106636
20
70.6494289
40
0.3823363
50
60.5222599
51
92.026928
0
ARC
8
DEFAULT_255_2_778
10
6.4526122
20
70.7412268
40
0.2819125
50
48.0295414
51
58.76313
0
ARC
8
DEFAULT_255_2_778
10
6.4559079
20
70.747328
40
0.2751774
50
357.5835891
51
47.6901812
0
ARC
8
DEFAULT_255_2_778
10
6.3567935
20
70.7486936
40
0.3742719
50
330.8163903
51
358.0144502
0
ARC
8
DEFAULT_255_2_778
10
5.8893685
20
70.9908872
40
0.9006094
50
319.4381231
51
331.8643249
0
ARC
8
DEFAULT_255_2_778
10
5.4159694
20
71.3716372
40
1.5079571
50
317.2133148
51
320.1440733
0
LINE
8
DEFAULT_255_2_778
10
6.7821406
20
70.026626
11
6.7821406
21
69.912026
0
LINE
8
DEFAULT_255_2_778
10
6.7821406
20
69.912026
11
6.0566406
21
69.912026
0
LINE
8
DEFAULT_255_2_778
10
6.0566406
20
69.912026
11
6.0566406
21
70.012926
0
LINE
8
DEFAULT_255_2_778
10
6.0566406
20
70.012926
11
6.4397406
21
70.437526
0
LINE
8
DEFAULT_255_2_778
10
6.1760406
20
70.691026
11
6.0352406
21
70.691026
0
LINE
8
DEFAULT_255_2_778
10
6.5226406
20
70.347326
11
6.2260406
21
70.026326
0
LINE
8
DEFAULT_255_2_778
10
6.2260406
20
70.026326
11
6.7819406
21
70.026326
0
LINE
8
DEFAULT_255_2_778
10
6.7819406
20
70.026326
11
6.7821406
21
70.026626
0
ARC
8
DEFAULT_255_2_778
10
14.3854506
20
72.4218626
40
0.4336932
50
322.6123368
51
355.1462432
0
ARC
8
DEFAULT_255_2_778
10
14.4588127
20
72.3770997
40
0.3483393
50
311.1406777
51
321.1351838
0
ARC
8
DEFAULT_255_2_778
10
14.4279172
20
72.4270834
40
0.406422
50
271.431794
51
309.7847121
0
ARC
8
DEFAULT_255_2_778
10
14.3984291
20
72.663352
40
0.6437854
50
269.9607929
51
273.5304201
0
ARC
8
DEFAULT_255_2_778
10
14.3836349
20
72.409787
40
0.3904843
50
219.8129124
51
272.1065938
0
ARC
8
DEFAULT_255_2_778
10
14.483094
20
72.4835749
40
0.5141755
50
185.2180468
51
219.032567
0
ARC
8
DEFAULT_255_2_778
10
14.7864962
20
72.5330858
40
0.8211103
50
179.8547986
51
186.7332803
0
ARC
8
DEFAULT_255_2_778
10
14.5937292
20
72.6545397
40
0.6284809
50
155.8201684
51
181.210132
0
ARC
8
DEFAULT_255_2_778
10
14.3954611
20
72.7428547
40
0.4114344
50
122.1060625
51
155.7304352
0
ARC
8
DEFAULT_255_2_778
10
14.4019691
20
72.7190089
40
0.4351512
50
88.8123416
51
121.1631418
0
ARC
8
DEFAULT_255_2_778
10
14.4249795
20
72.7259644
40
0.4283308
50
59.2644996
51
91.8718325
0
ARC
8
DEFAULT_255_2_778
10
14.4606719
20
72.8035264
40
0.3435389
50
47.2676699
51
57.7697836
0
ARC
8
DEFAULT_255_2_778
10
14.4147303
20
72.766001
40
0.4023625
50
5.2274679
51
46.0882697
0
ARC
8
DEFAULT_255_2_778
10
14.2039849
20
72.7225586
40
0.6166589
50
5.7057528
51
7.4635918
0
ARC
8
DEFAULT_255_2_778
10
14.2815986
20
72.739979
40
0.3916566
50
6.433867
51
29.1833077
0
ARC
8
DEFAULT_255_2_778
10
14.4484883
20
72.8265564
40
0.203818
50
30.8108088
51
46.7316078
0
ARC
8
DEFAULT_255_2_778
10
14.42777
20
72.7878229
40
0.2464891
50
49.3969992
51
92.3264492
0
ARC
8
DEFAULT_255_2_778
10
14.4107249
20
72.6054871
40
0.4286795
50
89.0591046
51
90.0048576
0
ARC
8
DEFAULT_255_2_778
10
14.3995092
20
72.7731635
40
0.2612424
50
87.5473966
51
142.8120636
0
ARC
8
DEFAULT_255_2_778
10
14.5117484
20
72.6997914
40
0.3951186
50
144.1736006
51
173.7391977
0
ARC
8
DEFAULT_255_2_778
10
14.8555618
20
72.6410481
40
0.7435813
50
172.1286688
51
180.2682586
0
ARC
8
DEFAULT_255_2_778
10
14.6891344
20
72.5179024
40
0.577287
50
178.7330455
51
199.5826741
0
ARC
8
DEFAULT_255_2_778
10
14.4809177
20
72.4508217
40
0.358691
50
200.6348468
51
215.0816134
0
ARC
8
DEFAULT_255_2_778
10
14.3886598
20
72.3821119
40
0.2437239
50
214.3286096
51
272.1935809
0
ARC
8
DEFAULT_255_2_778
10
14.4106775
20
72.4566796
40
0.318366
50
267.7157839
51
296.6745221
0
ARC
8
DEFAULT_255_2_778
10
14.4598366
20
72.3417997
40
0.1937948
50
298.9353709
51
310.1480368
0
ARC
8
DEFAULT_255_2_778
10
14.4158559
20
72.3741061
40
0.2471773
50
313.1136061
51
346.9757687
0
ARC
8
DEFAULT_255_2_778
10
14.1275669
20
72.4667539
40
0.549512
50
344.3374394
51
351.461605
0
LINE
8
DEFAULT_255_2_778
10
14.6707886
20
72.3851667
11
14.8175886
21
72.3851667
0
LINE
8
DEFAULT_255_2_778
10
13.9653886
20
72.5351667
11
13.9653886
21
72.6412667
0
LINE
8
DEFAULT_255_2_778
10
14.8175886
20
72.7838667
11
14.6707886
21
72.7838667
0
LINE
8
DEFAULT_255_2_778
10
14.1119886
20
72.6375667
11
14.1119886
21
72.5306667
0
LINE
8
DEFAULT_255_2_778
10
14.6709886
20
72.3851667
11
14.6707886
21
72.3851667
0
ARC
8
DEFAULT_255_2_778
10
13.4607614
20
75.8699668
40
1.2454091
50
317.9628786
51
324.5091376
0
ARC
8
DEFAULT_255_2_778
10
14.0886008
20
75.419048
40
0.4724331
50
324.8287215
51
331.3624144
0
ARC
8
DEFAULT_255_2_778
10
14.273915
20
75.3185577
40
0.2616277
50
331.2270863
51
359.7740628
0
ARC
8
DEFAULT_255_2_778
10
14.3378767
20
75.3250642
40
0.1978076
50
357.8160154
51
42.7460114
0
ARC
8
DEFAULT_255_2_778
10
14.351543
20
75.3310327
40
0.1837855
50
44.2715767
51
92.6203834
0
ARC
8
DEFAULT_255_2_778
10
14.329874
20
75.2982027
40
0.2168296
50
86.492177
51
133.6377463
0
ARC
8
DEFAULT_255_2_778
10
14.3483911
20
75.3030025
40
0.2267512
50
137.8647613
51
183.4072624
0
ARC
8
DEFAULT_255_2_778
10
14.306813
20
75.3025461
40
0.3258326
50
134.2032486
51
182.2901066
0
ARC
8
DEFAULT_255_2_778
10
14.3217353
20
75.2703958
40
0.3594752
50
89.0318794
51
132.3352259
0
ARC
8
DEFAULT_255_2_778
10
14.343069
20
75.0658229
40
0.5642032
50
89.9927219
51
91.5498572
0
ARC
8
DEFAULT_255_2_778
10
14.3566636
20
75.2479289
40
0.3823363
50
60.5222599
51
92.026928
0
ARC
8
DEFAULT_255_2_778
10
14.3986122
20
75.3397268
40
0.2819125
50
48.0295414
51
58.76313
0
ARC
8
DEFAULT_255_2_778
10
14.4019079
20
75.345828
40
0.2751774
50
357.5835891
51
47.6901812
0
ARC
8
DEFAULT_255_2_778
10
14.3027935
20
75.3471936
40
0.3742719
50
330.8163903
51
358.0144502
0
ARC
8
DEFAULT_255_2_778
10
13.8353685
20
75.5893872
40
0.9006094
50
319.4381231
51
331.8643249
0
ARC
8
DEFAULT_255_2_778
10
13.3619694
20
75.9701372
40
1.5079571
50
317.2133148
51
320.1440733
0
LINE
8
DEFAULT_255_2_778
10
14.7281406
20
74.625126
11
14.7281406
21
74.510526
0
LINE
8
DEFAULT_255_2_778
10
14.7281406
20
74.510526
11
14.0026406
21
74.510526
0
LINE
8
DEFAULT_255_2_778
10
14.0026406
20
74.510526
11
14.0026406
21
74.611426
0
LINE
8
DEFAULT_255_2_778
10
14.0026406
20
74.611426
11
14.3857406
21
75.036026
0
LINE
8
DEFAULT_255_2_778
10
14.1220406
20
75.289526
11
13.9812406
21
75.289526
0
LINE
8
DEFAULT_255_2_778
10
14.4686406
20
74.945826
11
14.1720406
21
74.624826
0
LINE
8
DEFAULT_255_2_778
10
14.1720406
20
74.624826
11
14.7279406
21
74.624826
0
LINE
8
DEFAULT_255_2_778
10
14.7279406
20
74.624826
11
14.7281406
21
74.625126
0
ARC
8
DEFAULT_255_2_778
10
6.5026506
20
58.9248626
40
0.4336932
50
322.6123368
51
355.1462432
0
ARC
8
DEFAULT_255_2_778
10
6.5760127
20
58.8800997
40
0.3483393
50
311.1406777
51
321.1351838
0
ARC
8
DEFAULT_255_2_778
10
6.5451172
20
58.9300834
40
0.406422
50
271.431794
51
309.7847121
0
ARC
8
DEFAULT_255_2_778
10
6.5156291
20
59.166352
40
0.6437854
50
269.9607929
51
273.5304201
0
ARC
8
DEFAULT_255_2_778
10
6.5008349
20
58.912787
40
0.3904843
50
219.8129124
51
272.1065938
0
ARC
8
DEFAULT_255_2_778
10
6.600294
20
58.9865749
40
0.5141755
50
185.2180468
51
219.032567
0
ARC
8
DEFAULT_255_2_778
10
6.9036962
20
59.0360858
40
0.8211103
50
179.8547986
51
186.7332803
0
ARC
8
DEFAULT_255_2_778
10
6.7109292
20
59.1575397
40
0.6284809
50
155.8201684
51
181.210132
0
ARC
8
DEFAULT_255_2_778
10
6.5126611
20
59.2458547
40
0.4114344
50
122.1060625
51
155.7304352
0
ARC
8
DEFAULT_255_2_778
10
6.5191691
20
59.2220089
40
0.4351512
50
88.8123416
51
121.1631418
0
ARC
8
DEFAULT_255_2_778
10
6.5421795
20
59.2289644
40
0.4283308
50
59.2644996
51
91.8718325
0
ARC
8
DEFAULT_255_2_778
10
6.5778719
20
59.3065264
40
0.3435389
50
47.2676699
51
57.7697836
0
ARC
8
DEFAULT_255_2_778
10
6.5319303
20
59.269001
40
0.4023625
50
5.2274679
51
46.0882697
0
ARC
8
DEFAULT_255_2_778
10
6.3211849
20
59.2255586
40
0.6166589
50
5.7057528
51
7.4635918
0
ARC
8
DEFAULT_255_2_778
10
6.3987986
20
59.242979
40
0.3916566
50
6.433867
51
29.1833077
0
ARC
8
DEFAULT_255_2_778
10
6.5656883
20
59.3295564
40
0.203818
50
30.8108088
51
46.7316078
0
ARC
8
DEFAULT_255_2_778
10
6.54497
20
59.2908229
40
0.2464891
50
49.3969992
51
92.3264492
0
ARC
8
DEFAULT_255_2_778
10
6.5279249
20
59.1084871
40
0.4286795
50
89.0591046
51
90.0048576
0
ARC
8
DEFAULT_255_2_778
10
6.5167092
20
59.2761635
40
0.2612424
50
87.5473966
51
142.8120636
0
ARC
8
DEFAULT_255_2_778
10
6.6289484
20
59.2027914
40
0.3951186
50
144.1736006
51
173.7391977
0
ARC
8
DEFAULT_255_2_778
10
6.9727618
20
59.1440481
40
0.7435813
50
172.1286688
51
180.2682586
0
ARC
8
DEFAULT_255_2_778
10
6.8063344
20
59.0209024
40
0.577287
50
178.7330455
51
199.5826741
0
ARC
8
DEFAULT_255_2_778
10
6.5981177
20
58.9538217
40
0.358691
50
200.6348468
51
215.0816134
0
ARC
8
DEFAULT_255_2_778
10
6.5058598
20
58.8851119
40
0.2437239
50
214.3286096
51
272.1935809
0
ARC
8
DEFAULT_255_2_778
10
6.5278775
20
58.9596796
40
0.318366
50
267.7157839
51
296.6745221
0
ARC
8
DEFAULT_255_2_778
10
6.5770366
20
58.8447997
40
0.1937948
50
298.9353709
51
310.1480368
0
ARC
8
DEFAULT_255_2_778
10
6.5330559
20
58.8771061
40
0.2471773
50
313.1136061
51
346.9757687
0
ARC
8
DEFAULT_255_2_778
10
6.2447669
20
58.9697539
40
0.549512
50
344.3374394
51
351.461605
0
LINE
8
DEFAULT_255_2_778
10
6.7879886
20
58.8881667
11
6.9347886
21
58.8881667
0
LINE
8
DEFAULT_255_2_778
10
6.0825886
20
59.0381667
11
6.0825886
21
59.1442667
0
LINE
8
DEFAULT_255_2_778
10
6.9347886
20
59.2868667
11
6.7879886
21
59.2868667
0
LINE
8
DEFAULT_255_2_778
10
6.2291886
20
59.1405667
11
6.2291886
21
59.0336667
0
LINE
8
DEFAULT_255_2_778
10
6.7881886
20
58.8881667
11
6.7879886
21
58.8881667
0
ARC
8
DEFAULT_255_2_778
10
6.3760869
20
61.8673001
40
0.233408
50
267.784176
51
309.2173856
0
ARC
8
DEFAULT_255_2_778
10
6.4064245
20
61.8157466
40
0.1745224
50
312.2034307
51
2.6339016
0
ARC
8
DEFAULT_255_2_778
10
6.3713538
20
61.8366006
40
0.2098016
50
356.4929163
51
35.4270708
0
ARC
8
DEFAULT_255_2_778
10
6.4092324
20
61.83909
40
0.1786083
50
41.8332674
51
91.8941768
0
ARC
8
DEFAULT_255_2_778
10
6.3870435
20
61.6553208
40
0.3626459
50
87.4261552
51
90.0285912
0
ARC
8
DEFAULT_255_2_778
10
6.3766497
20
61.8164072
40
0.201818
50
87.0993591
51
132.0934979
0
ARC
8
DEFAULT_255_2_778
10
6.3684117
20
61.8365162
40
0.1815233
50
134.4194218
51
182.5100035
0
ARC
8
DEFAULT_255_2_778
10
6.3273865
20
61.8346962
40
0.2810908
50
131.0842686
51
181.2495019
0
ARC
8
DEFAULT_255_2_778
10
6.3741526
20
61.7822569
40
0.3513507
50
87.8779514
51
131.2128138
0
ARC
8
DEFAULT_255_2_778
10
6.4004497
20
61.7491424
40
0.384454
50
61.4854239
51
91.9806121
0
ARC
8
DEFAULT_255_2_778
10
6.4446553
20
61.8481696
40
0.2764647
50
47.1532109
51
59.7379545
0
ARC
8
DEFAULT_255_2_778
10
6.4254224
20
61.8389666
40
0.2963952
50
357.4981955
51
45.6369805
0
ARC
8
DEFAULT_255_2_778
10
6.2406674
20
61.8208951
40
0.480895
50
359.9966069
51
0.6116411
0
ARC
8
DEFAULT_255_2_778
10
6.4799414
20
61.8244288
40
0.2416473
50
323.7283079
51
359.1553613
0
ARC
8
DEFAULT_255_2_778
10
6.4429511
20
61.8434372
40
0.2827914
50
291.6891425
51
325.0573557
0
ARC
8
DEFAULT_255_2_778
10
6.4729246
20
61.3187769
40
0.2722905
50
37.6672184
51
74.1128211
0
ARC
8
DEFAULT_255_2_778
10
6.4736587
20
61.330432
40
0.2647329
50
358.2108521
51
35.7672223
0
ARC
8
DEFAULT_255_2_778
10
6.4375325
20
61.3081824
40
0.301055
50
312.4845689
51
2.6623902
0
ARC
8
DEFAULT_255_2_778
10
6.4036438
20
61.3634041
40
0.3648743
50
267.5374881
51
310.5520065
0
LINE
8
DEFAULT_255_2_778
10
6.3879668
20
60.9988667
11
6.3876625
21
60.9988667
0
ARC
8
DEFAULT_255_2_778
10
6.3729096
20
61.381507
40
0.3829247
50
234.5070262
51
272.2079795
0
ARC
8
DEFAULT_255_2_778
10
6.3457135
20
61.3286838
40
0.3242386
50
229.2730851
51
233.0001205
0
ARC
8
DEFAULT_255_2_778
10
6.3153946
20
61.2951114
40
0.279017
50
177.9141755
51
229.4932245
0
ARC
8
DEFAULT_255_2_778
10
6.3576164
20
61.2972845
40
0.1796313
50
177.4531447
51
227.0672906
0
ARC
8
DEFAULT_255_2_778
10
6.3771962
20
61.3306441
40
0.2175541
50
229.2766986
51
272.8893418
0
ARC
8
DEFAULT_255_2_778
10
6.4017453
20
61.3302408
40
0.2172991
50
266.4162467
51
309.1167009
0
ARC
8
DEFAULT_255_2_778
10
6.4315203
20
61.2807986
40
0.160358
50
312.0091629
51
314.5730807
0
ARC
8
DEFAULT_255_2_778
10
6.3937572
20
61.3054573
40
0.2046517
50
317.260303
51
3.7849159
0
ARC
8
DEFAULT_255_2_778
10
6.4126827
20
61.3306026
40
0.1856449
50
356.4064245
51
47.2231089
0
ARC
8
DEFAULT_255_2_778
10
6.388201
20
61.2761727
40
0.2429669
50
51.7073097
51
89.2429228
0
ARC
8
DEFAULT_255_2_778
10
6.3613159
20
61.0625558
40
0.4575536
50
86.2286554
51
89.2177582
0
LINE
8
DEFAULT_255_2_778
10
6.2614625
20
61.5195667
11
6.2614625
21
61.6340667
0
LINE
8
DEFAULT_255_2_778
10
6.2614625
20
61.6340667
11
6.3670625
21
61.6340667
0
LINE
8
DEFAULT_255_2_778
10
6.1870625
20
61.8285667
11
6.0463625
21
61.8285667
0
LINE
8
DEFAULT_255_2_778
10
6.0365625
20
61.3052667
11
6.1781625
21
61.3052667
0
LINE
8
DEFAULT_255_2_778
10
6.3675625
20
61.5200667
11
6.2619625
21
61.5200667
0
LINE
8
DEFAULT_255_2_778
10
6.2619625
20
61.5200667
11
6.2614625
21
61.5195667
0
ARC
8
DEFAULT_255_2_778
10
13.4607614
20
66.9714668
40
1.2454091
50
317.9628786
51
324.5091376
0
ARC
8
DEFAULT_255_2_778
10
14.0886008
20
66.520548
40
0.4724331
50
324.8287215
51
331.3624144
0
ARC
8
DEFAULT_255_2_778
10
14.273915
20
66.4200577
40
0.2616277
50
331.2270863
51
359.7740628
0
ARC
8
DEFAULT_255_2_778
10
14.3378767
20
66.4265642
40
0.1978076
50
357.8160154
51
42.7460114
0
ARC
8
DEFAULT_255_2_778
10
14.351543
20
66.4325327
40
0.1837855
50
44.2715767
51
92.6203834
0
ARC
8
DEFAULT_255_2_778
10
14.329874
20
66.3997027
40
0.2168296
50
86.492177
51
133.6377463
0
ARC
8
DEFAULT_255_2_778
10
14.3483911
20
66.4045025
40
0.2267512
50
137.8647613
51
183.4072624
0
ARC
8
DEFAULT_255_2_778
10
14.306813
20
66.4040461
40
0.3258326
50
134.2032486
51
182.2901066
0
ARC
8
DEFAULT_255_2_778
10
14.3217353
20
66.3718958
40
0.3594752
50
89.0318794
51
132.3352259
0
ARC
8
DEFAULT_255_2_778
10
14.343069
20
66.1673229
40
0.5642032
50
89.9927219
51
91.5498572
0
ARC
8
DEFAULT_255_2_778
10
14.3566636
20
66.3494289
40
0.3823363
50
60.5222599
51
92.026928
0
ARC
8
DEFAULT_255_2_778
10
14.3986122
20
66.4412268
40
0.2819125
50
48.0295414
51
58.76313
0
ARC
8
DEFAULT_255_2_778
10
14.4019079
20
66.447328
40
0.2751774
50
357.5835891
51
47.6901812
0
ARC
8
DEFAULT_255_2_778
10
14.3027935
20
66.4486936
40
0.3742719
50
330.8163903
51
358.0144502
0
ARC
8
DEFAULT_255_2_778
10
13.8353685
20
66.6908872
40
0.9006094
50
319.4381231
51
331.8643249
0
ARC
8
DEFAULT_255_2_778
10
13.3619694
20
67.0716372
40
1.5079571
50
317.2133148
51
320.1440733
0
LINE
8
DEFAULT_255_2_778
10
14.7281406
20
65.726626
11
14.7281406
21
65.612026
0
LINE
8
DEFAULT_255_2_778
10
14.7281406
20
65.612026
11
14.0026406
21
65.612026
0
LINE
8
DEFAULT_255_2_778
10
14.0026406
20
65.612026
11
14.0026406
21
65.712926
0
LINE
8
DEFAULT_255_2_778
10
14.0026406
20
65.712926
11
14.3857406
21
66.137526
0
LINE
8
DEFAULT_255_2_778
10
14.1220406
20
66.391026
11
13.9812406
21
66.391026
0
LINE
8
DEFAULT_255_2_778
10
14.4686406
20
66.047326
11
14.1720406
21
65.726326
0
LINE
8
DEFAULT_255_2_778
10
14.1720406
20
65.726326
11
14.7279406
21
65.726326
0
LINE
8
DEFAULT_255_2_778
10
14.7279406
20
65.726326
11
14.7281406
21
65.726626
0
LINE
8
DEFAULT_255_2_778
10
14.85385
20
64.2407854
11
14.85385
21
63.1363854
0
LINE
8
DEFAULT_255_2_778
10
14.85385
20
63.1363854
11
14.70705
21
63.1363854
0
LINE
8
DEFAULT_255_2_778
10
14.70705
20
63.1363854
11
14.14975
21
63.9872854
0
LINE
8
DEFAULT_255_2_778
10
14.14975
20
63.9872854
11
14.14975
21
63.1363854
0
LINE
8
DEFAULT_255_2_778
10
14.14975
20
63.1363854
11
14.00295
21
63.1363854
0
LINE
8
DEFAULT_255_2_778
10
14.00295
20
63.1363854
11
14.00295
21
64.2407854
0
LINE
8
DEFAULT_255_2_778
10
14.00295
20
64.2407854
11
14.14975
21
64.2407854
0
LINE
8
DEFAULT_255_2_778
10
14.14975
20
64.2407854
11
14.70855
21
63.3858854
0
LINE
8
DEFAULT_255_2_778
10
14.70855
20
63.3858854
11
14.70855
21
64.2407854
0
LINE
8
DEFAULT_255_2_778
10
14.70855
20
64.2407854
11
14.85385
21
64.2407854
0
LINE
8
DEFAULT_255_2_778
10
14.85385
20
64.2407854
11
14.85385
21
64.2407854
0
ARC
8
DEFAULT_255_2_778
10
15.4953506
20
63.5233626
40
0.4336932
50
322.6123368
51
355.1462432
0
ARC
8
DEFAULT_255_2_778
10
15.5687127
20
63.4785997
40
0.3483393
50
311.1406777
51
321.1351838
0
ARC
8
DEFAULT_255_2_778
10
15.5378172
20
63.5285834
40
0.406422
50
271.431794
51
309.7847121
0
ARC
8
DEFAULT_255_2_778
10
15.5083291
20
63.764852
40
0.6437854
50
269.9607929
51
273.5304201
0
ARC
8
DEFAULT_255_2_778
10
15.4935349
20
63.511287
40
0.3904843
50
219.8129124
51
272.1065938
0
ARC
8
DEFAULT_255_2_778
10
15.592994
20
63.5850749
40
0.5141755
50
185.2180468
51
219.032567
0
ARC
8
DEFAULT_255_2_778
10
15.8963962
20
63.6345858
40
0.8211103
50
179.8547986
51
186.7332803
0
ARC
8
DEFAULT_255_2_778
10
15.7036292
20
63.7560397
40
0.6284809
50
155.8201684
51
181.210132
0
ARC
8
DEFAULT_255_2_778
10
15.5053611
20
63.8443547
40
0.4114344
50
122.1060625
51
155.7304352
0
ARC
8
DEFAULT_255_2_778
10
15.5118691
20
63.8205089
40
0.4351512
50
88.8123416
51
121.1631418
0
ARC
8
DEFAULT_255_2_778
10
15.5348795
20
63.8274644
40
0.4283308
50
59.2644996
51
91.8718325
0
ARC
8
DEFAULT_255_2_778
10
15.5705719
20
63.9050264
40
0.3435389
50
47.2676699
51
57.7697836
0
ARC
8
DEFAULT_255_2_778
10
15.5246303
20
63.867501
40
0.4023625
50
5.2274679
51
46.0882697
0
ARC
8
DEFAULT_255_2_778
10
15.3138849
20
63.8240586
40
0.6166589
50
5.7057528
51
7.4635918
0
ARC
8
DEFAULT_255_2_778
10
15.3914986
20
63.841479
40
0.3916566
50
6.433867
51
29.1833077
0
ARC
8
DEFAULT_255_2_778
10
15.5583883
20
63.9280564
40
0.203818
50
30.8108088
51
46.7316078
0
ARC
8
DEFAULT_255_2_778
10
15.53767
20
63.8893229
40
0.2464891
50
49.3969992
51
92.3264492
0
ARC
8
DEFAULT_255_2_778
10
15.5206249
20
63.7069871
40
0.4286795
50
89.0591046
51
90.0048576
0
ARC
8
DEFAULT_255_2_778
10
15.5094092
20
63.8746635
40
0.2612424
50
87.5473966
51
142.8120636
0
ARC
8
DEFAULT_255_2_778
10
15.6216484
20
63.8012914
40
0.3951186
50
144.1736006
51
173.7391977
0
ARC
8
DEFAULT_255_2_778
10
15.9654618
20
63.7425481
40
0.7435813
50
172.1286688
51
180.2682586
0
ARC
8
DEFAULT_255_2_778
10
15.7990344
20
63.6194024
40
0.577287
50
178.7330455
51
199.5826741
0
ARC
8
DEFAULT_255_2_778
10
15.5908177
20
63.5523217
40
0.358691
50
200.6348468
51
215.0816134
0
ARC
8
DEFAULT_255_2_778
10
15.4985598
20
63.4836119
40
0.2437239
50
214.3286096
51
272.1935809
0
ARC
8
DEFAULT_255_2_778
10
15.5205775
20
63.5581796
40
0.318366
50
267.7157839
51
296.6745221
0
ARC
8
DEFAULT_255_2_778
10
15.5697366
20
63.4432997
40
0.1937948
50
298.9353709
51
310.1480368
0
ARC
8
DEFAULT_255_2_778
10
15.5257559
20
63.4756061
40
0.2471773
50
313.1136061
51
346.9757687
0
ARC
8
DEFAULT_255_2_778
10
15.2374669
20
63.5682539
40
0.549512
50
344.3374394
51
351.461605
0
LINE
8
DEFAULT_255_2_778
10
15.7806886
20
63.4866667
11
15.9274886
21
63.4866667
0
LINE
8
DEFAULT_255_2_778
10
15.0752886
20
63.6366667
11
15.0752886
21
63.7427667
0
LINE
8
DEFAULT_255_2_778
10
15.9274886
20
63.8853667
11
15.7806886
21
63.8853667
0
LINE
8
DEFAULT_255_2_778
10
15.2218886
20
63.7390667
11
15.2218886
21
63.6321667
0
LINE
8
DEFAULT_255_2_778
10
15.7808886
20
63.4866667
11
15.7806886
21
63.4866667
0
LINE
8
DEFAULT_255_2_778
10
6.38185
20
50.7440854
11
6.38185
21
49.6396854
0
LINE
8
DEFAULT_255_2_778
10
6.38185
20
49.6396854
11
6.23505
21
49.6396854
0
LINE
8
DEFAULT_255_2_778
10
6.23505
20
49.6396854
11
5.67775
21
50.4905854
0
LINE
8
DEFAULT_255_2_778
10
5.67775
20
50.4905854
11
5.67775
21
49.6396854
0
LINE
8
DEFAULT_255_2_778
10
5.67775
20
49.6396854
11
5.53095
21
49.6396854
0
LINE
8
DEFAULT_255_2_778
10
5.53095
20
49.6396854
11
5.53095
21
50.7440854
0
LINE
8
DEFAULT_255_2_778
10
5.53095
20
50.7440854
11
5.67775
21
50.7440854
0
LINE
8
DEFAULT_255_2_778
10
5.67775
20
50.7440854
11
6.23655
21
49.8891854
0
LINE
8
DEFAULT_255_2_778
10
6.23655
20
49.8891854
11
6.23655
21
50.7440854
0
LINE
8
DEFAULT_255_2_778
10
6.23655
20
50.7440854
11
6.38185
21
50.7440854
0
LINE
8
DEFAULT_255_2_778
10
6.38185
20
50.7440854
11
6.38185
21
50.7440854
0
ARC
8
DEFAULT_255_2_778
10
7.0233506
20
50.0266626
40
0.4336932
50
322.6123368
51
355.1462432
0
ARC
8
DEFAULT_255_2_778
10
7.0967127
20
49.9818997
40
0.3483393
50
311.1406777
51
321.1351838
0
ARC
8
DEFAULT_255_2_778
10
7.0658172
20
50.0318834
40
0.406422
50
271.431794
51
309.7847121
0
ARC
8
DEFAULT_255_2_778
10
7.0363291
20
50.268152
40
0.6437854
50
269.9607929
51
273.5304201
0
ARC
8
DEFAULT_255_2_778
10
7.0215349
20
50.014587
40
0.3904843
50
219.8129124
51
272.1065938
0
ARC
8
DEFAULT_255_2_778
10
7.120994
20
50.0883749
40
0.5141755
50
185.2180468
51
219.032567
0
ARC
8
DEFAULT_255_2_778
10
7.4243962
20
50.1378858
40
0.8211103
50
179.8547986
51
186.7332803
0
ARC
8
DEFAULT_255_2_778
10
7.2316292
20
50.2593397
40
0.6284809
50
155.8201684
51
181.210132
0
ARC
8
DEFAULT_255_2_778
10
7.0333611
20
50.3476547
40
0.4114344
50
122.1060625
51
155.7304352
0
ARC
8
DEFAULT_255_2_778
10
7.0398691
20
50.3238089
40
0.4351512
50
88.8123416
51
121.1631418
0
ARC
8
DEFAULT_255_2_778
10
7.0628795
20
50.3307644
40
0.4283308
50
59.2644996
51
91.8718325
0
ARC
8
DEFAULT_255_2_778
10
7.0985719
20
50.4083264
40
0.3435389
50
47.2676699
51
57.7697836
0
ARC
8
DEFAULT_255_2_778
10
7.0526303
20
50.370801
40
0.4023625
50
5.2274679
51
46.0882697
0
ARC
8
DEFAULT_255_2_778
10
6.8418849
20
50.3273586
40
0.6166589
50
5.7057528
51
7.4635918
0
ARC
8
DEFAULT_255_2_778
10
6.9194986
20
50.344779
40
0.3916566
50
6.433867
51
29.1833077
0
ARC
8
DEFAULT_255_2_778
10
7.0863883
20
50.4313564
40
0.203818
50
30.8108088
51
46.7316078
0
ARC
8
DEFAULT_255_2_778
10
7.06567
20
50.3926229
40
0.2464891
50
49.3969992
51
92.3264492
0
ARC
8
DEFAULT_255_2_778
10
7.0486249
20
50.2102871
40
0.4286795
50
89.0591046
51
90.0048576
0
ARC
8
DEFAULT_255_2_778
10
7.0374092
20
50.3779635
40
0.2612424
50
87.5473966
51
142.8120636
0
ARC
8
DEFAULT_255_2_778
10
7.1496484
20
50.3045914
40
0.3951186
50
144.1736006
51
173.7391977
0
ARC
8
DEFAULT_255_2_778
10
7.4934618
20
50.2458481
40
0.7435813
50
172.1286688
51
180.2682586
0
ARC
8
DEFAULT_255_2_778
10
7.3270344
20
50.1227024
40
0.577287
50
178.7330455
51
199.5826741
0
ARC
8
DEFAULT_255_2_778
10
7.1188177
20
50.0556217
40
0.358691
50
200.6348468
51
215.0816134
0
ARC
8
DEFAULT_255_2_778
10
7.0265598
20
49.9869119
40
0.2437239
50
214.3286096
51
272.1935809
0
ARC
8
DEFAULT_255_2_778
10
7.0485775
20
50.0614796
40
0.318366
50
267.7157839
51
296.6745221
0
ARC
8
DEFAULT_255_2_778
10
7.0977366
20
49.9465997
40
0.1937948
50
298.9353709
51
310.1480368
0
ARC
8
DEFAULT_255_2_778
10
7.0537559
20
49.9789061
40
0.2471773
50
313.1136061
51
346.9757687
0
ARC
8
DEFAULT_255_2_778
10
6.7654669
20
50.0715539
40
0.549512
50
344.3374394
51
351.461605
0
LINE
8
DEFAULT_255_2_778
10
7.3086886
20
49.9899667
11
7.4554886
21
49.9899667
0
LINE
8
DEFAULT_255_2_778
10
6.6032886
20
50.1399667
11
6.6032886
21
50.2460667
0
LINE
8
DEFAULT_255_2_778
10
7.4554886
20
50.3886667
11
7.3086886
21
50.3886667
0
LINE
8
DEFAULT_255_2_778
10
6.7498886
20
50.2423667
11
6.7498886
21
50.1354667
0
LINE
8
DEFAULT_255_2_778
10
7.3088886
20
49.9899667
11
7.3086886
21
49.9899667
0
ARC
8
DEFAULT_255_2_778
10
6.3760869
20
52.9691001
40
0.233408
50
267.784176
51
309.2173856
0
ARC
8
DEFAULT_255_2_778
10
6.4064245
20
52.9175466
40
0.1745224
50
312.2034307
51
2.6339016
0
ARC
8
DEFAULT_255_2_778
10
6.3713538
20
52.9384006
40
0.2098016
50
356.4929163
51
35.4270708
0
ARC
8
DEFAULT_255_2_778
10
6.4092324
20
52.94089
40
0.1786083
50
41.8332674
51
91.8941768
0
ARC
8
DEFAULT_255_2_778
10
6.3870435
20
52.7571208
40
0.3626459
50
87.4261552
51
90.0285912
0
ARC
8
DEFAULT_255_2_778
10
6.3766497
20
52.9182072
40
0.201818
50
87.0993591
51
132.0934979
0
ARC
8
DEFAULT_255_2_778
10
6.3684117
20
52.9383162
40
0.1815233
50
134.4194218
51
182.5100035
0
ARC
8
DEFAULT_255_2_778
10
6.3273865
20
52.9364962
40
0.2810908
50
131.0842686
51
181.2495019
0
ARC
8
DEFAULT_255_2_778
10
6.3741526
20
52.8840569
40
0.3513507
50
87.8779514
51
131.2128138
0
ARC
8
DEFAULT_255_2_778
10
6.4004497
20
52.8509424
40
0.384454
50
61.4854239
51
91.9806121
0
ARC
8
DEFAULT_255_2_778
10
6.4446553
20
52.9499696
40
0.2764647
50
47.1532109
51
59.7379545
0
ARC
8
DEFAULT_255_2_778
10
6.4254224
20
52.9407666
40
0.2963952
50
357.4981955
51
45.6369805
0
ARC
8
DEFAULT_255_2_778
10
6.2406674
20
52.9226951
40
0.480895
50
359.9966069
51
0.6116411
0
ARC
8
DEFAULT_255_2_778
10
6.4799414
20
52.9262288
40
0.2416473
50
323.7283079
51
359.1553613
0
ARC
8
DEFAULT_255_2_778
10
6.4429511
20
52.9452372
40
0.2827914
50
291.6891425
51
325.0573557
0
ARC
8
DEFAULT_255_2_778
10
6.4729246
20
52.4205769
40
0.2722905
50
37.6672184
51
74.1128211
0
ARC
8
DEFAULT_255_2_778
10
6.4736587
20
52.432232
40
0.2647329
50
358.2108521
51
35.7672223
0
ARC
8
DEFAULT_255_2_778
10
6.4375325
20
52.4099824
40
0.301055
50
312.4845689
51
2.6623902
0
ARC
8
DEFAULT_255_2_778
10
6.4036438
20
52.4652041
40
0.3648743
50
267.5374881
51
310.5520065
0
LINE
8
DEFAULT_255_2_778
10
6.3879668
20
52.1006667
11
6.3876625
21
52.1006667
0
ARC
8
DEFAULT_255_2_778
10
6.3729096
20
52.483307
40
0.3829247
50
234.5070262
51
272.2079795
0
ARC
8
DEFAULT_255_2_778
10
6.3457135
20
52.4304838
40
0.3242386
50
229.2730851
51
233.0001205
0
ARC
8
DEFAULT_255_2_778
10
6.3153946
20
52.3969114
40
0.279017
50
177.9141755
51
229.4932245
0
ARC
8
DEFAULT_255_2_778
10
6.3576164
20
52.3990845
40
0.1796313
50
177.4531447
51
227.0672906
0
ARC
8
DEFAULT_255_2_778
10
6.3771962
20
52.4324441
40
0.2175541
50
229.2766986
51
272.8893418
0
ARC
8
DEFAULT_255_2_778
10
6.4017453
20
52.4320408
40
0.2172991
50
266.4162467
51
309.1167009
0
ARC
8
DEFAULT_255_2_778
10
6.4315203
20
52.3825986
40
0.160358
50
312.0091629
51
314.5730807
0
ARC
8
DEFAULT_255_2_778
10
6.3937572
20
52.4072573
40
0.2046517
50
317.260303
51
3.7849159
0
ARC
8
DEFAULT_255_2_778
10
6.4126827
20
52.4324026
40
0.1856449
50
356.4064245
51
47.2231089
0
ARC
8
DEFAULT_255_2_778
10
6.388201
20
52.3779727
40
0.2429669
50
51.7073097
51
89.2429228
0
ARC
8
DEFAULT_255_2_778
10
6.3613159
20
52.1643558
40
0.4575536
50
86.2286554
51
89.2177582
0
LINE
8
DEFAULT_255_2_778
10
6.2614625
20
52.6213667
11
6.2614625
21
52.7358667
0
LINE
8
DEFAULT_255_2_778
10
6.2614625
20
52.7358667
11
6.3670625
21
52.7358667
0
LINE
8
DEFAULT_255_2_778
10
6.1870625
20
52.9303667
11
6.0463625
21
52.9303667
0
LINE
8
DEFAULT_255_2_778
10
6.0365625
20
52.4070667
11
6.1781625
21
52.4070667
0
LINE
8
DEFAULT_255_2_778
10
6.3675625
20
52.6218667
11
6.2619625
21
52.6218667
0
LINE
8
DEFAULT_255_2_778
10
6.2619625
20
52.6218667
11
6.2614625
21
52.6213667
0
ARC
8
DEFAULT_255_2_778
10
14.3220869
20
57.5675001
40
0.233408
50
267.784176
51
309.2173856
0
ARC
8
DEFAULT_255_2_778
10
14.3524245
20
57.5159466
40
0.1745224
50
312.2034307
51
2.6339016
0
ARC
8
DEFAULT_255_2_778
10
14.3173538
20
57.5368006
40
0.2098016
50
356.4929163
51
35.4270708
0
ARC
8
DEFAULT_255_2_778
10
14.3552324
20
57.53929
40
0.1786083
50
41.8332674
51
91.8941768
0
ARC
8
DEFAULT_255_2_778
10
14.3330435
20
57.3555208
40
0.3626459
50
87.4261552
51
90.0285912
0
ARC
8
DEFAULT_255_2_778
10
14.3226497
20
57.5166072
40
0.201818
50
87.0993591
51
132.0934979
0
ARC
8
DEFAULT_255_2_778
10
14.3144117
20
57.5367162
40
0.1815233
50
134.4194218
51
182.5100035
0
ARC
8
DEFAULT_255_2_778
10
14.2733865
20
57.5348962
40
0.2810908
50
131.0842686
51
181.2495019
0
ARC
8
DEFAULT_255_2_778
10
14.3201526
20
57.4824569
40
0.3513507
50
87.8779514
51
131.2128138
0
ARC
8
DEFAULT_255_2_778
10
14.3464497
20
57.4493424
40
0.384454
50
61.4854239
51
91.9806121
0
ARC
8
DEFAULT_255_2_778
10
14.3906553
20
57.5483696
40
0.2764647
50
47.1532109
51
59.7379545
0
ARC
8
DEFAULT_255_2_778
10
14.3714224
20
57.5391666
40
0.2963952
50
357.4981955
51
45.6369805
0
ARC
8
DEFAULT_255_2_778
10
14.1866674
20
57.5210951
40
0.480895
50
359.9966069
51
0.6116411
0
ARC
8
DEFAULT_255_2_778
10
14.4259414
20
57.5246288
40
0.2416473
50
323.7283079
51
359.1553613
0
ARC
8
DEFAULT_255_2_778
10
14.3889511
20
57.5436372
40
0.2827914
50
291.6891425
51
325.0573557
0
ARC
8
DEFAULT_255_2_778
10
14.4189246
20
57.0189769
40
0.2722905
50
37.6672184
51
74.1128211
0
ARC
8
DEFAULT_255_2_778
10
14.4196587
20
57.030632
40
0.2647329
50
358.2108521
51
35.7672223
0
ARC
8
DEFAULT_255_2_778
10
14.3835325
20
57.0083824
40
0.301055
50
312.4845689
51
2.6623902
0
ARC
8
DEFAULT_255_2_778
10
14.3496438
20
57.0636041
40
0.3648743
50
267.5374881
51
310.5520065
0
LINE
8
DEFAULT_255_2_778
10
14.3339668
20
56.6990667
11
14.3336625
21
56.6990667
0
ARC
8
DEFAULT_255_2_778
10
14.3189096
20
57.081707
40
0.3829247
50
234.5070262
51
272.2079795
0
ARC
8
DEFAULT_255_2_778
10
14.2917135
20
57.0288838
40
0.3242386
50
229.2730851
51
233.0001205
0
ARC
8
DEFAULT_255_2_778
10
14.2613946
20
56.9953114
40
0.279017
50
177.9141755
51
229.4932245
0
ARC
8
DEFAULT_255_2_778
10
14.3036164
20
56.9974845
40
0.1796313
50
177.4531447
51
227.0672906
0
ARC
8
DEFAULT_255_2_778
10
14.3231962
20
57.0308441
40
0.2175541
50
229.2766986
51
272.8893418
0
ARC
8
DEFAULT_255_2_778
10
14.3477453
20
57.0304408
40
0.2172991
50
266.4162467
51
309.1167009
0
ARC
8
DEFAULT_255_2_778
10
14.3775203
20
56.9809986
40
0.160358
50
312.0091629
51
314.5730807
0
ARC
8
DEFAULT_255_2_778
10
14.3397572
20
57.0056573
40
0.2046517
50
317.260303
51
3.7849159
0
ARC
8
DEFAULT_255_2_778
10
14.3586827
20
57.0308026
40
0.1856449
50
356.4064245
51
47.2231089
0
ARC
8
DEFAULT_255_2_778
10
14.334201
20
56.9763727
40
0.2429669
50
51.7073097
51
89.2429228
0
ARC
8
DEFAULT_255_2_778
10
14.3073159
20
56.7627558
40
0.4575536
50
86.2286554
51
89.2177582
0
LINE
8
DEFAULT_255_2_778
10
14.2074625
20
57.2197667
11
14.2074625
21
57.3342667
0
LINE
8
DEFAULT_255_2_778
10
14.2074625
20
57.3342667
11
14.3130625
21
57.3342667
0
LINE
8
DEFAULT_255_2_778
10
14.1330625
20
57.5287667
11
13.9923625
21
57.5287667
0
LINE
8
DEFAULT_255_2_778
10
13.9825625
20
57.0054667
11
14.1241625
21
57.0054667
0
LINE
8
DEFAULT_255_2_778
10
14.3135625
20
57.2202667
11
14.2079625
21
57.2202667
0
LINE
8
DEFAULT_255_2_778
10
14.2079625
20
57.2202667
11
14.2074625
21
57.2197667
0
LINE
8
DEFAULT_255_2_778
10
14.26465
20
55.3425854
11
14.26465
21
54.2381854
0
LINE
8
DEFAULT_255_2_778
10
14.26465
20
54.2381854
11
14.11785
21
54.2381854
0
LINE
8
DEFAULT_255_2_778
10
14.11785
20
54.2381854
11
13.56055
21
55.0890854
0
LINE
8
DEFAULT_255_2_778
10
13.56055
20
55.0890854
11
13.56055
21
54.2381854
0
LINE
8
DEFAULT_255_2_778
10
13.56055
20
54.2381854
11
13.41375
21
54.2381854
0
LINE
8
DEFAULT_255_2_778
10
13.41375
20
54.2381854
11
13.41375
21
55.3425854
0
LINE
8
DEFAULT_255_2_778
10
13.41375
20
55.3425854
11
13.56055
21
55.3425854
0
LINE
8
DEFAULT_255_2_778
10
13.56055
20
55.3425854
11
14.11935
21
54.4876854
0
LINE
8
DEFAULT_255_2_778
10
14.11935
20
54.4876854
11
14.11935
21
55.3425854
0
LINE
8
DEFAULT_255_2_778
10
14.11935
20
55.3425854
11
14.26465
21
55.3425854
0
LINE
8
DEFAULT_255_2_778
10
14.26465
20
55.3425854
11
14.26465
21
55.3425854
0
ARC
8
DEFAULT_255_2_778
10
14.677816
20
54.7412217
40
0.6976185
50
338.7559188
51
1.0987474
0
ARC
8
DEFAULT_255_2_778
10
14.8313191
20
54.6919728
40
0.5367897
50
335.714381
51
337.7185486
0
ARC
8
DEFAULT_255_2_778
10
14.9395176
20
54.6339306
40
0.4143793
50
303.0497306
51
336.8766498
0
ARC
8
DEFAULT_255_2_778
10
14.9408795
20
54.6494281
40
0.4267343
50
268.7279631
51
301.7615637
0
ARC
8
DEFAULT_255_2_778
10
14.9237753
20
54.6479874
40
0.4252569
50
238.140145
51
271.0281893
0
ARC
8
DEFAULT_255_2_778
10
14.9288502
20
54.6424603
40
0.423303
50
204.0872242
51
237.1617855
0
ARC
8
DEFAULT_255_2_778
10
15.1411026
20
54.7381513
40
0.656128
50
179.4369567
51
204.1512195
0
ARC
8
DEFAULT_255_2_778
10
15.1581231
20
54.8374903
40
0.6732481
50
156.5230462
51
181.1312121
0
ARC
8
DEFAULT_255_2_778
10
14.9286156
20
54.9396559
40
0.4220445
50
123.2021602
51
156.8321866
0
ARC
8
DEFAULT_255_2_778
10
14.922495
20
54.9350257
40
0.4226365
50
89.0087746
51
122.1640753
0
ARC
8
DEFAULT_255_2_778
10
14.9383418
20
54.9269094
40
0.4307741
50
58.3461339
51
91.1353627
0
ARC
8
DEFAULT_255_2_778
10
14.9403279
20
54.9462515
40
0.4133538
50
23.0056094
51
57.1734112
0
ARC
8
DEFAULT_255_2_778
10
14.6978851
20
54.8408854
40
0.6776972
50
359.4652067
51
23.1944955
0
ARC
8
DEFAULT_255_2_778
10
14.4349361
20
54.8245182
40
0.9406703
50
359.998827
51
0.6116515
0
ARC
8
DEFAULT_255_2_778
10
14.5793256
20
54.8386232
40
0.6509011
50
358.8974813
51
16.4235302
0
ARC
8
DEFAULT_255_2_778
10
14.8689232
20
54.9205557
40
0.3499701
50
16.9621572
51
36.2911052
0
ARC
8
DEFAULT_255_2_778
10
14.9414411
20
54.9717123
40
0.2612459
50
36.6615946
51
92.5525602
0
ARC
8
DEFAULT_255_2_778
10
14.9199585
20
54.9747362
40
0.2581506
50
87.8137959
51
143.6630469
0
ARC
8
DEFAULT_255_2_778
10
15.0527475
20
54.8854047
40
0.4181042
50
144.5841366
51
173.9551819
0
ARC
8
DEFAULT_255_2_778
10
15.3807171
20
54.8294433
40
0.7504403
50
172.3430027
51
179.4918382
0
ARC
8
DEFAULT_255_2_778
10
15.2424722
20
54.7422278
40
0.6122971
50
178.8142132
51
198.3189778
0
ARC
8
DEFAULT_255_2_778
10
15.0041416
20
54.668992
40
0.3630662
50
199.1687639
51
215.9976826
0
ARC
8
DEFAULT_255_2_778
10
14.9217313
20
54.6062383
40
0.2595197
50
215.4824973
51
272.1364901
0
ARC
8
DEFAULT_255_2_778
10
14.9440026
20
54.6048887
40
0.2582971
50
267.2047536
51
323.043683
0
ARC
8
DEFAULT_255_2_778
10
14.8206007
20
54.6828706
40
0.4039646
50
324.7282032
51
352.90524
0
ARC
8
DEFAULT_255_2_778
10
14.4511769
20
54.7501139
40
0.7791508
50
351.3533913
51
359.5723848
0
LINE
8
DEFAULT_255_2_778
10
15.3753063
20
54.8244989
11
15.3753063
21
54.7545989
0
LINE
8
DEFAULT_255_2_778
10
14.4850063
20
54.7445989
11
14.4850063
21
54.8241989
0
LINE
8
DEFAULT_255_2_778
10
15.3756063
20
54.8244989
11
15.3753063
21
54.8244989
0
LINE
8
DEFAULT_255_2_778
10
15.2301063
20
54.7439989
11
15.2301063
21
54.8260989
0
LINE
8
DEFAULT_255_2_778
10
14.6303063
20
54.8360989
11
14.6303063
21
54.7548989
0
LINE
8
DEFAULT_255_2_778
10
15.2303063
20
54.7442989
11
15.2301063
21
54.7439989
0
LINE
8
DEFAULT_255_2_778
10
6.38185
20
41.8458854
11
6.38185
21
40.7414854
0
LINE
8
DEFAULT_255_2_778
10
6.38185
20
40.7414854
11
6.23505
21
40.7414854
0
LINE
8
DEFAULT_255_2_778
10
6.23505
20
40.7414854
11
5.67775
21
41.5923854
0
LINE
8
DEFAULT_255_2_778
10
5.67775
20
41.5923854
11
5.67775
21
40.7414854
0
LINE
8
DEFAULT_255_2_778
10
5.67775
20
40.7414854
11
5.53095
21
40.7414854
0
LINE
8
DEFAULT_255_2_778
10
5.53095
20
40.7414854
11
5.53095
21
41.8458854
0
LINE
8
DEFAULT_255_2_778
10
5.53095
20
41.8458854
11
5.67775
21
41.8458854
0
LINE
8
DEFAULT_255_2_778
10
5.67775
20
41.8458854
11
6.23655
21
40.9909854
0
LINE
8
DEFAULT_255_2_778
10
6.23655
20
40.9909854
11
6.23655
21
41.8458854
0
LINE
8
DEFAULT_255_2_778
10
6.23655
20
41.8458854
11
6.38185
21
41.8458854
0
LINE
8
DEFAULT_255_2_778
10
6.38185
20
41.8458854
11
6.38185
21
41.8458854
0
ARC
8
DEFAULT_255_2_778
10
6.795116
20
41.2446217
40
0.6976185
50
338.7559188
51
1.0987474
0
ARC
8
DEFAULT_255_2_778
10
6.9486191
20
41.1953728
40
0.5367897
50
335.714381
51
337.7185486
0
ARC
8
DEFAULT_255_2_778
10
7.0568176
20
41.1373306
40
0.4143793
50
303.0497306
51
336.8766498
0
ARC
8
DEFAULT_255_2_778
10
7.0581795
20
41.1528281
40
0.4267343
50
268.7279631
51
301.7615637
0
ARC
8
DEFAULT_255_2_778
10
7.0410753
20
41.1513874
40
0.4252569
50
238.140145
51
271.0281893
0
ARC
8
DEFAULT_255_2_778
10
7.0461502
20
41.1458603
40
0.423303
50
204.0872242
51
237.1617855
0
ARC
8
DEFAULT_255_2_778
10
7.2584026
20
41.2415513
40
0.656128
50
179.4369567
51
204.1512195
0
ARC
8
DEFAULT_255_2_778
10
7.2754231
20
41.3408903
40
0.6732481
50
156.5230462
51
181.1312121
0
ARC
8
DEFAULT_255_2_778
10
7.0459156
20
41.4430559
40
0.4220445
50
123.2021602
51
156.8321866
0
ARC
8
DEFAULT_255_2_778
10
7.039795
20
41.4384257
40
0.4226365
50
89.0087746
51
122.1640753
0
ARC
8
DEFAULT_255_2_778
10
7.0556418
20
41.4303094
40
0.4307741
50
58.3461339
51
91.1353627
0
ARC
8
DEFAULT_255_2_778
10
7.0576279
20
41.4496515
40
0.4133538
50
23.0056094
51
57.1734112
0
ARC
8
DEFAULT_255_2_778
10
6.8151851
20
41.3442854
40
0.6776972
50
359.4652067
51
23.1944955
0
ARC
8
DEFAULT_255_2_778
10
6.5522361
20
41.3279182
40
0.9406703
50
359.998827
51
0.6116515
0
ARC
8
DEFAULT_255_2_778
10
6.6966256
20
41.3420232
40
0.6509011
50
358.8974813
51
16.4235302
0
ARC
8
DEFAULT_255_2_778
10
6.9862232
20
41.4239557
40
0.3499701
50
16.9621572
51
36.2911052
0
ARC
8
DEFAULT_255_2_778
10
7.0587411
20
41.4751123
40
0.2612459
50
36.6615946
51
92.5525602
0
ARC
8
DEFAULT_255_2_778
10
7.0372585
20
41.4781362
40
0.2581506
50
87.8137959
51
143.6630469
0
ARC
8
DEFAULT_255_2_778
10
7.1700475
20
41.3888047
40
0.4181042
50
144.5841366
51
173.9551819
0
ARC
8
DEFAULT_255_2_778
10
7.4980171
20
41.3328433
40
0.7504403
50
172.3430027
51
179.4918382
0
ARC
8
DEFAULT_255_2_778
10
7.3597722
20
41.2456278
40
0.6122971
50
178.8142132
51
198.3189778
0
ARC
8
DEFAULT_255_2_778
10
7.1214416
20
41.172392
40
0.3630662
50
199.1687639
51
215.9976826
0
ARC
8
DEFAULT_255_2_778
10
7.0390313
20
41.1096383
40
0.2595197
50
215.4824973
51
272.1364901
0
ARC
8
DEFAULT_255_2_778
10
7.0613026
20
41.1082887
40
0.2582971
50
267.2047536
51
323.043683
0
ARC
8
DEFAULT_255_2_778
10
6.9379007
20
41.1862706
40
0.4039646
50
324.7282032
51
352.90524
0
ARC
8
DEFAULT_255_2_778
10
6.5684769
20
41.2535139
40
0.7791508
50
351.3533913
51
359.5723848
0
LINE
8
DEFAULT_255_2_778
10
7.4926063
20
41.3278989
11
7.4926063
21
41.2579989
0
LINE
8
DEFAULT_255_2_778
10
6.6023063
20
41.2479989
11
6.6023063
21
41.3275989
0
LINE
8
DEFAULT_255_2_778
10
7.4929063
20
41.3278989
11
7.4926063
21
41.3278989
0
LINE
8
DEFAULT_255_2_778
10
7.3474063
20
41.2473989
11
7.3474063
21
41.3294989
0
LINE
8
DEFAULT_255_2_778
10
6.7476063
20
41.3394989
11
6.7476063
21
41.2582989
0
LINE
8
DEFAULT_255_2_778
10
7.3476063
20
41.2476989
11
7.3474063
21
41.2473989
0
LINE
8
DEFAULT_255_2_778
10
6.6507469
20
44.3212854
11
6.6507469
21
43.5878854
0
LINE
8
DEFAULT_255_2_778
10
6.6507469
20
43.5878854
11
6.8044469
21
43.5878854
0
LINE
8
DEFAULT_255_2_778
10
6.8044469
20
43.5878854
11
6.8044469
21
43.4732854
0
LINE
8
DEFAULT_255_2_778
10
6.8044469
20
43.4732854
11
6.6507469
21
43.4732854
0
LINE
8
DEFAULT_255_2_778
10
6.6507469
20
43.4732854
11
6.6507469
21
43.2168854
0
LINE
8
DEFAULT_255_2_778
10
6.6507469
20
43.2168854
11
6.5091469
21
43.2168854
0
LINE
8
DEFAULT_255_2_778
10
6.5091469
20
43.2168854
11
6.5091469
21
43.4732854
0
LINE
8
DEFAULT_255_2_778
10
6.5091469
20
43.4732854
11
6.0051469
21
43.4732854
0
LINE
8
DEFAULT_255_2_778
10
6.0051469
20
43.4732854
11
6.0051469
21
43.5558854
0
LINE
8
DEFAULT_255_2_778
10
6.0051469
20
43.5558854
11
6.5009469
21
44.3209854
0
LINE
8
DEFAULT_255_2_778
10
6.5009469
20
44.3209854
11
6.6507469
21
44.3209854
0
LINE
8
DEFAULT_255_2_778
10
6.6507469
20
44.3209854
11
6.6507469
21
44.3212854
0
LINE
8
DEFAULT_255_2_778
10
6.4925469
20
44.0990854
11
6.1646469
21
43.5878854
0
LINE
8
DEFAULT_255_2_778
10
6.1646469
20
43.5878854
11
6.5091469
21
43.5878854
0
LINE
8
DEFAULT_255_2_778
10
6.5091469
20
43.5878854
11
6.5091469
21
44.1294854
0
LINE
8
DEFAULT_255_2_778
10
6.5091469
20
44.1294854
11
6.4925469
21
44.0990854
0
LINE
8
DEFAULT_255_2_778
10
6.4925469
20
44.0990854
11
6.4925469
21
44.0990854
0
LINE
8
DEFAULT_255_2_778
10
14.5966469
20
48.9197854
11
14.5966469
21
48.1863854
0
LINE
8
DEFAULT_255_2_778
10
14.5966469
20
48.1863854
11
14.7503469
21
48.1863854
0
LINE
8
DEFAULT_255_2_778
10
14.7503469
20
48.1863854
11
14.7503469
21
48.0717854
0
LINE
8
DEFAULT_255_2_778
10
14.7503469
20
48.0717854
11
14.5966469
21
48.0717854
0
LINE
8
DEFAULT_255_2_778
10
14.5966469
20
48.0717854
11
14.5966469
21
47.8153854
0
LINE
8
DEFAULT_255_2_778
10
14.5966469
20
47.8153854
11
14.4550469
21
47.8153854
0
LINE
8
DEFAULT_255_2_778
10
14.4550469
20
47.8153854
11
14.4550469
21
48.0717854
0
LINE
8
DEFAULT_255_2_778
10
14.4550469
20
48.0717854
11
13.9510469
21
48.0717854
0
LINE
8
DEFAULT_255_2_778
10
13.9510469
20
48.0717854
11
13.9510469
21
48.1543854
0
LINE
8
DEFAULT_255_2_778
10
13.9510469
20
48.1543854
11
14.4468469
21
48.9194854
0
LINE
8
DEFAULT_255_2_778
10
14.4468469
20
48.9194854
11
14.5966469
21
48.9194854
0
LINE
8
DEFAULT_255_2_778
10
14.5966469
20
48.9194854
11
14.5966469
21
48.9197854
0
LINE
8
DEFAULT_255_2_778
10
14.4384469
20
48.6975854
11
14.1105469
21
48.1863854
0
LINE
8
DEFAULT_255_2_778
10
14.1105469
20
48.1863854
11
14.4550469
21
48.1863854
0
LINE
8
DEFAULT_255_2_778
10
14.4550469
20
48.1863854
11
14.4550469
21
48.7279854
0
LINE
8
DEFAULT_255_2_778
10
14.4550469
20
48.7279854
11
14.4384469
21
48.6975854
0
LINE
8
DEFAULT_255_2_778
10
14.4384469
20
48.6975854
11
14.4384469
21
48.6975854
0
ARC
8
DEFAULT_255_2_778
10
14.3854506
20
45.7269626
40
0.4336932
50
322.6123368
51
355.1462432
0
ARC
8
DEFAULT_255_2_778
10
14.4588127
20
45.6821997
40
0.3483393
50
311.1406777
51
321.1351838
0
ARC
8
DEFAULT_255_2_778
10
14.4279172
20
45.7321834
40
0.406422
50
271.431794
51
309.7847121
0
ARC
8
DEFAULT_255_2_778
10
14.3984291
20
45.968452
40
0.6437854
50
269.9607929
51
273.5304201
0
ARC
8
DEFAULT_255_2_778
10
14.3836349
20
45.714887
40
0.3904843
50
219.8129124
51
272.1065938
0
ARC
8
DEFAULT_255_2_778
10
14.483094
20
45.7886749
40
0.5141755
50
185.2180468
51
219.032567
0
ARC
8
DEFAULT_255_2_778
10
14.7864962
20
45.8381858
40
0.8211103
50
179.8547986
51
186.7332803
0
ARC
8
DEFAULT_255_2_778
10
14.5937292
20
45.9596397
40
0.6284809
50
155.8201684
51
181.210132
0
ARC
8
DEFAULT_255_2_778
10
14.3954611
20
46.0479547
40
0.4114344
50
122.1060625
51
155.7304352
0
ARC
8
DEFAULT_255_2_778
10
14.4019691
20
46.0241089
40
0.4351512
50
88.8123416
51
121.1631418
0
ARC
8
DEFAULT_255_2_778
10
14.4249795
20
46.0310644
40
0.4283308
50
59.2644996
51
91.8718325
0
ARC
8
DEFAULT_255_2_778
10
14.4606719
20
46.1086264
40
0.3435389
50
47.2676699
51
57.7697836
0
ARC
8
DEFAULT_255_2_778
10
14.4147303
20
46.071101
40
0.4023625
50
5.2274679
51
46.0882697
0
ARC
8
DEFAULT_255_2_778
10
14.2039849
20
46.0276586
40
0.6166589
50
5.7057528
51
7.4635918
0
ARC
8
DEFAULT_255_2_778
10
14.2815986
20
46.045079
40
0.3916566
50
6.433867
51
29.1833077
0
ARC
8
DEFAULT_255_2_778
10
14.4484883
20
46.1316564
40
0.203818
50
30.8108088
51
46.7316078
0
ARC
8
DEFAULT_255_2_778
10
14.42777
20
46.0929229
40
0.2464891
50
49.3969992
51
92.3264492
0
ARC
8
DEFAULT_255_2_778
10
14.4107249
20
45.9105871
40
0.4286795
50
89.0591046
51
90.0048576
0
ARC
8
DEFAULT_255_2_778
10
14.3995092
20
46.0782635
40
0.2612424
50
87.5473966
51
142.8120636
0
ARC
8
DEFAULT_255_2_778
10
14.5117484
20
46.0048914
40
0.3951186
50
144.1736006
51
173.7391977
0
ARC
8
DEFAULT_255_2_778
10
14.8555618
20
45.9461481
40
0.7435813
50
172.1286688
51
180.2682586
0
ARC
8
DEFAULT_255_2_778
10
14.6891344
20
45.8230024
40
0.577287
50
178.7330455
51
199.5826741
0
ARC
8
DEFAULT_255_2_778
10
14.4809177
20
45.7559217
40
0.358691
50
200.6348468
51
215.0816134
0
ARC
8
DEFAULT_255_2_778
10
14.3886598
20
45.6872119
40
0.2437239
50
214.3286096
51
272.1935809
0
ARC
8
DEFAULT_255_2_778
10
14.4106775
20
45.7617796
40
0.318366
50
267.7157839
51
296.6745221
0
ARC
8
DEFAULT_255_2_778
10
14.4598366
20
45.6468997
40
0.1937948
50
298.9353709
51
310.1480368
0
ARC
8
DEFAULT_255_2_778
10
14.4158559
20
45.6792061
40
0.2471773
50
313.1136061
51
346.9757687
0
ARC
8
DEFAULT_255_2_778
10
14.1275669
20
45.7718539
40
0.549512
50
344.3374394
51
351.461605
0
LINE
8
DEFAULT_255_2_778
10
14.6707886
20
45.6902667
11
14.8175886
21
45.6902667
0
LINE
8
DEFAULT_255_2_778
10
13.9653886
20
45.8402667
11
13.9653886
21
45.9463667
0
LINE
8
DEFAULT_255_2_778
10
14.8175886
20
46.0889667
11
14.6707886
21
46.0889667
0
LINE
8
DEFAULT_255_2_778
10
14.1119886
20
45.9426667
11
14.1119886
21
45.8357667
0
LINE
8
DEFAULT_255_2_778
10
14.6709886
20
45.6902667
11
14.6707886
21
45.6902667
0
LINE
8
DEFAULT_255_2_778
10
6.97135
20
32.9473854
11
6.97135
21
31.8429854
0
LINE
8
DEFAULT_255_2_778
10
6.97135
20
31.8429854
11
6.82455
21
31.8429854
0
LINE
8
DEFAULT_255_2_778
10
6.82455
20
31.8429854
11
6.26725
21
32.6938854
0
LINE
8
DEFAULT_255_2_778
10
6.26725
20
32.6938854
11
6.26725
21
31.8429854
0
LINE
8
DEFAULT_255_2_778
10
6.26725
20
31.8429854
11
6.12045
21
31.8429854
0
LINE
8
DEFAULT_255_2_778
10
6.12045
20
31.8429854
11
6.12045
21
32.9473854
0
LINE
8
DEFAULT_255_2_778
10
6.12045
20
32.9473854
11
6.26725
21
32.9473854
0
LINE
8
DEFAULT_255_2_778
10
6.26725
20
32.9473854
11
6.82605
21
32.0924854
0
LINE
8
DEFAULT_255_2_778
10
6.82605
20
32.0924854
11
6.82605
21
32.9473854
0
LINE
8
DEFAULT_255_2_778
10
6.82605
20
32.9473854
11
6.97135
21
32.9473854
0
LINE
8
DEFAULT_255_2_778
10
6.97135
20
32.9473854
11
6.97135
21
32.9473854
0
ARC
8
DEFAULT_255_2_778
10
7.384616
20
32.3461217
40
0.6976185
50
338.7559188
51
1.0987474
0
ARC
8
DEFAULT_255_2_778
10
7.5381191
20
32.2968728
40
0.5367897
50
335.714381
51
337.7185486
0
ARC
8
DEFAULT_255_2_778
10
7.6463176
20
32.2388306
40
0.4143793
50
303.0497306
51
336.8766498
0
ARC
8
DEFAULT_255_2_778
10
7.6476795
20
32.2543281
40
0.4267343
50
268.7279631
51
301.7615637
0
ARC
8
DEFAULT_255_2_778
10
7.6305753
20
32.2528874
40
0.4252569
50
238.140145
51
271.0281893
0
ARC
8
DEFAULT_255_2_778
10
7.6356502
20
32.2473603
40
0.423303
50
204.0872242
51
237.1617855
0
ARC
8
DEFAULT_255_2_778
10
7.8479026
20
32.3430513
40
0.656128
50
179.4369567
51
204.1512195
0
ARC
8
DEFAULT_255_2_778
10
7.8649231
20
32.4423903
40
0.6732481
50
156.5230462
51
181.1312121
0
ARC
8
DEFAULT_255_2_778
10
7.6354156
20
32.5445559
40
0.4220445
50
123.2021602
51
156.8321866
0
ARC
8
DEFAULT_255_2_778
10
7.629295
20
32.5399257
40
0.4226365
50
89.0087746
51
122.1640753
0
ARC
8
DEFAULT_255_2_778
10
7.6451418
20
32.5318094
40
0.4307741
50
58.3461339
51
91.1353627
0
ARC
8
DEFAULT_255_2_778
10
7.6471279
20
32.5511515
40
0.4133538
50
23.0056094
51
57.1734112
0
ARC
8
DEFAULT_255_2_778
10
7.4046851
20
32.4457854
40
0.6776972
50
359.4652067
51
23.1944955
0
ARC
8
DEFAULT_255_2_778
10
7.1417361
20
32.4294182
40
0.9406703
50
359.998827
51
0.6116515
0
ARC
8
DEFAULT_255_2_778
10
7.2861256
20
32.4435232
40
0.6509011
50
358.8974813
51
16.4235302
0
ARC
8
DEFAULT_255_2_778
10
7.5757232
20
32.5254557
40
0.3499701
50
16.9621572
51
36.2911052
0
ARC
8
DEFAULT_255_2_778
10
7.6482411
20
32.5766123
40
0.2612459
50
36.6615946
51
92.5525602
0
ARC
8
DEFAULT_255_2_778
10
7.6267585
20
32.5796362
40
0.2581506
50
87.8137959
51
143.6630469
0
ARC
8
DEFAULT_255_2_778
10
7.7595475
20
32.4903047
40
0.4181042
50
144.5841366
51
173.9551819
0
ARC
8
DEFAULT_255_2_778
10
8.0875171
20
32.4343433
40
0.7504403
50
172.3430027
51
179.4918382
0
ARC
8
DEFAULT_255_2_778
10
7.9492722
20
32.3471278
40
0.6122971
50
178.8142132
51
198.3189778
0
ARC
8
DEFAULT_255_2_778
10
7.7109416
20
32.273892
40
0.3630662
50
199.1687639
51
215.9976826
0
ARC
8
DEFAULT_255_2_778
10
7.6285313
20
32.2111383
40
0.2595197
50
215.4824973
51
272.1364901
0
ARC
8
DEFAULT_255_2_778
10
7.6508026
20
32.2097887
40
0.2582971
50
267.2047536
51
323.043683
0
ARC
8
DEFAULT_255_2_778
10
7.5274007
20
32.2877706
40
0.4039646
50
324.7282032
51
352.90524
0
ARC
8
DEFAULT_255_2_778
10
7.1579769
20
32.3550139
40
0.7791508
50
351.3533913
51
359.5723848
0
LINE
8
DEFAULT_255_2_778
10
8.0821063
20
32.4293989
11
8.0821063
21
32.3594989
0
LINE
8
DEFAULT_255_2_778
10
7.1918063
20
32.3494989
11
7.1918063
21
32.4290989
0
LINE
8
DEFAULT_255_2_778
10
8.0824063
20
32.4293989
11
8.0821063
21
32.4293989
0
LINE
8
DEFAULT_255_2_778
10
7.9369063
20
32.3488989
11
7.9369063
21
32.4309989
0
LINE
8
DEFAULT_255_2_778
10
7.3371063
20
32.4409989
11
7.3371063
21
32.3597989
0
LINE
8
DEFAULT_255_2_778
10
7.9371063
20
32.3491989
11
7.9369063
21
32.3488989
0
ARC
8
DEFAULT_255_2_778
10
6.4427421
20
34.6832533
40
0.3569919
50
89.026849
51
120.0075897
0
ARC
8
DEFAULT_255_2_778
10
6.4629073
20
34.7347439
40
0.3057752
50
42.2896913
51
92.6433757
0
ARC
8
DEFAULT_255_2_778
10
6.405537
20
34.7007118
40
0.3713573
50
1.3946152
51
40.2174681
0
ARC
8
DEFAULT_255_2_778
10
6.1736399
20
34.671353
40
0.6043654
50
359.9564647
51
3.6426163
0
ARC
8
DEFAULT_255_2_778
10
6.3615131
20
34.6573381
40
0.4167126
50
331.6479619
51
1.8641571
0
ARC
8
DEFAULT_255_2_778
10
6.4614091
20
34.6132772
40
0.3079974
50
316.711944
51
330.0360544
0
ARC
8
DEFAULT_255_2_778
10
6.4518932
20
34.6325149
40
0.3282
50
269.5148613
51
315.4062437
0
ARC
8
DEFAULT_255_2_778
10
6.4275673
20
34.8401888
40
0.536295
50
269.9826813
51
272.3026139
0
ARC
8
DEFAULT_255_2_778
10
6.4124788
20
34.6533951
40
0.3498199
50
230.0825577
51
272.4454929
0
ARC
8
DEFAULT_255_2_778
10
6.405213
20
34.6243366
40
0.3231352
50
182.5794926
51
227.7637971
0
ARC
8
DEFAULT_255_2_778
10
6.4372508
20
34.6273608
40
0.2224404
50
184.5295983
51
226.1696476
0
ARC
8
DEFAULT_255_2_778
10
6.4176575
20
34.6292715
40
0.2108174
50
230.3745165
51
272.7317969
0
ARC
8
DEFAULT_255_2_778
10
6.4368982
20
34.6085996
40
0.1901282
50
267.2285707
51
319.6079311
0
ARC
8
DEFAULT_255_2_778
10
6.3693814
20
34.6485997
40
0.2678014
50
322.4517783
51
0.666408
0
ARC
8
DEFAULT_255_2_778
10
6.1652615
20
34.6696476
40
0.4722437
50
357.8236993
51
0.0177302
0
ARC
8
DEFAULT_255_2_778
10
6.3823164
20
34.6823729
40
0.2554986
50
357.1779634
51
40.2902677
0
ARC
8
DEFAULT_255_2_778
10
6.4249301
20
34.7092197
40
0.2057549
50
42.2617726
51
92.4024485
0
ARC
8
DEFAULT_255_2_778
10
6.4034271
20
34.6802711
40
0.234876
50
86.8569336
51
123.3559488
0
ARC
8
DEFAULT_255_2_778
10
6.3674751
20
34.7498672
40
0.1571924
50
126.3596618
51
127.4895493
0
LINE
8
DEFAULT_255_2_778
10
6.2343052
20
34.8436937
11
6.1218052
21
34.8724937
0
LINE
8
DEFAULT_255_2_778
10
6.1218052
20
34.8724937
11
6.1782052
21
35.4230937
0
LINE
8
DEFAULT_255_2_778
10
6.1782052
20
35.4230937
11
6.7454052
21
35.4230937
0
LINE
8
DEFAULT_255_2_778
10
6.7454052
20
35.4230937
11
6.7454052
21
35.2934937
0
LINE
8
DEFAULT_255_2_778
10
6.7454052
20
35.2934937
11
6.2975052
21
35.2934937
0
LINE
8
DEFAULT_255_2_778
10
6.2975052
20
35.2934937
11
6.2642052
21
34.9923937
0
LINE
8
DEFAULT_255_2_778
10
6.0824052
20
34.6097937
11
6.2155052
21
34.6097937
0
LINE
8
DEFAULT_255_2_778
10
6.2718052
20
34.8745937
11
6.2345052
21
34.8441937
0
LINE
8
DEFAULT_255_2_778
10
6.2345052
20
34.8441937
11
6.2343052
21
34.8436937
0
ARC
8
DEFAULT_255_2_778
10
14.3884421
20
39.2817533
40
0.3569919
50
89.026849
51
120.0075897
0
ARC
8
DEFAULT_255_2_778
10
14.4086073
20
39.3332439
40
0.3057752
50
42.2896913
51
92.6433757
0
ARC
8
DEFAULT_255_2_778
10
14.351237
20
39.2992118
40
0.3713573
50
1.3946152
51
40.2174681
0
ARC
8
DEFAULT_255_2_778
10
14.1193399
20
39.269853
40
0.6043654
50
359.9564647
51
3.6426163
0
ARC
8
DEFAULT_255_2_778
10
14.3072131
20
39.2558381
40
0.4167126
50
331.6479619
51
1.8641571
0
ARC
8
DEFAULT_255_2_778
10
14.4071091
20
39.2117772
40
0.3079974
50
316.711944
51
330.0360544
0
ARC
8
DEFAULT_255_2_778
10
14.3975932
20
39.2310149
40
0.3282
50
269.5148613
51
315.4062437
0
ARC
8
DEFAULT_255_2_778
10
14.3732673
20
39.4386888
40
0.536295
50
269.9826813
51
272.3026139
0
ARC
8
DEFAULT_255_2_778
10
14.3581788
20
39.2518951
40
0.3498199
50
230.0825577
51
272.4454929
0
ARC
8
DEFAULT_255_2_778
10
14.350913
20
39.2228366
40
0.3231352
50
182.5794926
51
227.7637971
0
ARC
8
DEFAULT_255_2_778
10
14.3829508
20
39.2258608
40
0.2224404
50
184.5295983
51
226.1696476
0
ARC
8
DEFAULT_255_2_778
10
14.3633575
20
39.2277715
40
0.2108174
50
230.3745165
51
272.7317969
0
ARC
8
DEFAULT_255_2_778
10
14.3825982
20
39.2070996
40
0.1901282
50
267.2285707
51
319.6079311
0
ARC
8
DEFAULT_255_2_778
10
14.3150814
20
39.2470997
40
0.2678014
50
322.4517783
51
0.666408
0
ARC
8
DEFAULT_255_2_778
10
14.1109615
20
39.2681476
40
0.4722437
50
357.8236993
51
0.0177302
0
ARC
8
DEFAULT_255_2_778
10
14.3280164
20
39.2808729
40
0.2554986
50
357.1779634
51
40.2902677
0
ARC
8
DEFAULT_255_2_778
10
14.3706301
20
39.3077197
40
0.2057549
50
42.2617726
51
92.4024485
0
ARC
8
DEFAULT_255_2_778
10
14.3491271
20
39.2787711
40
0.234876
50
86.8569336
51
123.3559488
0
ARC
8
DEFAULT_255_2_778
10
14.3131751
20
39.3483672
40
0.1571924
50
126.3596618
51
127.4895493
0
LINE
8
DEFAULT_255_2_778
10
14.1800052
20
39.4421937
11
14.0675052
21
39.4709937
0
LINE
8
DEFAULT_255_2_778
10
14.0675052
20
39.4709937
11
14.1239052
21
40.0215937
0
LINE
8
DEFAULT_255_2_778
10
14.1239052
20
40.0215937
11
14.6911052
21
40.0215937
0
LINE
8
DEFAULT_255_2_778
10
14.6911052
20
40.0215937
11
14.6911052
21
39.8919937
0
LINE
8
DEFAULT_255_2_778
10
14.6911052
20
39.8919937
11
14.2432052
21
39.8919937
0
LINE
8
DEFAULT_255_2_778
10
14.2432052
20
39.8919937
11
14.2099052
21
39.5908937
0
LINE
8
DEFAULT_255_2_778
10
14.0281052
20
39.2082937
11
14.1612052
21
39.2082937
0
LINE
8
DEFAULT_255_2_778
10
14.2175052
20
39.4730937
11
14.1802052
21
39.4426937
0
LINE
8
DEFAULT_255_2_778
10
14.1802052
20
39.4426937
11
14.1800052
21
39.4421937
0
ARC
8
DEFAULT_255_2_778
10
14.3854506
20
36.8284626
40
0.4336932
50
322.6123368
51
355.1462432
0
ARC
8
DEFAULT_255_2_778
10
14.4588127
20
36.7836997
40
0.3483393
50
311.1406777
51
321.1351838
0
ARC
8
DEFAULT_255_2_778
10
14.4279172
20
36.8336834
40
0.406422
50
271.431794
51
309.7847121
0
ARC
8
DEFAULT_255_2_778
10
14.3984291
20
37.069952
40
0.6437854
50
269.9607929
51
273.5304201
0
ARC
8
DEFAULT_255_2_778
10
14.3836349
20
36.816387
40
0.3904843
50
219.8129124
51
272.1065938
0
ARC
8
DEFAULT_255_2_778
10
14.483094
20
36.8901749
40
0.5141755
50
185.2180468
51
219.032567
0
ARC
8
DEFAULT_255_2_778
10
14.7864962
20
36.9396858
40
0.8211103
50
179.8547986
51
186.7332803
0
ARC
8
DEFAULT_255_2_778
10
14.5937292
20
37.0611397
40
0.6284809
50
155.8201684
51
181.210132
0
ARC
8
DEFAULT_255_2_778
10
14.3954611
20
37.1494547
40
0.4114344
50
122.1060625
51
155.7304352
0
ARC
8
DEFAULT_255_2_778
10
14.4019691
20
37.1256089
40
0.4351512
50
88.8123416
51
121.1631418
0
ARC
8
DEFAULT_255_2_778
10
14.4249795
20
37.1325644
40
0.4283308
50
59.2644996
51
91.8718325
0
ARC
8
DEFAULT_255_2_778
10
14.4606719
20
37.2101264
40
0.3435389
50
47.2676699
51
57.7697836
0
ARC
8
DEFAULT_255_2_778
10
14.4147303
20
37.172601
40
0.4023625
50
5.2274679
51
46.0882697
0
ARC
8
DEFAULT_255_2_778
10
14.2039849
20
37.1291586
40
0.6166589
50
5.7057528
51
7.4635918
0
ARC
8
DEFAULT_255_2_778
10
14.2815986
20
37.146579
40
0.3916566
50
6.433867
51
29.1833077
0
ARC
8
DEFAULT_255_2_778
10
14.4484883
20
37.2331564
40
0.203818
50
30.8108088
51
46.7316078
0
ARC
8
DEFAULT_255_2_778
10
14.42777
20
37.1944229
40
0.2464891
50
49.3969992
51
92.3264492
0
ARC
8
DEFAULT_255_2_778
10
14.4107249
20
37.0120871
40
0.4286795
50
89.0591046
51
90.0048576
0
ARC
8
DEFAULT_255_2_778
10
14.3995092
20
37.1797635
40
0.2612424
50
87.5473966
51
142.8120636
0
ARC
8
DEFAULT_255_2_778
10
14.5117484
20
37.1063914
40
0.3951186
50
144.1736006
51
173.7391977
0
ARC
8
DEFAULT_255_2_778
10
14.8555618
20
37.0476481
40
0.7435813
50
172.1286688
51
180.2682586
0
ARC
8
DEFAULT_255_2_778
10
14.6891344
20
36.9245024
40
0.577287
50
178.7330455
51
199.5826741
0
ARC
8
DEFAULT_255_2_778
10
14.4809177
20
36.8574217
40
0.358691
50
200.6348468
51
215.0816134
0
ARC
8
DEFAULT_255_2_778
10
14.3886598
20
36.7887119
40
0.2437239
50
214.3286096
51
272.1935809
0
ARC
8
DEFAULT_255_2_778
10
14.4106775
20
36.8632796
40
0.318366
50
267.7157839
51
296.6745221
0
ARC
8
DEFAULT_255_2_778
10
14.4598366
20
36.7483997
40
0.1937948
50
298.9353709
51
310.1480368
0
ARC
8
DEFAULT_255_2_778
10
14.4158559
20
36.7807061
40
0.2471773
50
313.1136061
51
346.9757687
0
ARC
8
DEFAULT_255_2_778
10
14.1275669
20
36.8733539
40
0.549512
50
344.3374394
51
351.461605
0
LINE
8
DEFAULT_255_2_778
10
14.6707886
20
36.7917667
11
14.8175886
21
36.7917667
0
LINE
8
DEFAULT_255_2_778
10
13.9653886
20
36.9417667
11
13.9653886
21
37.0478667
0
LINE
8
DEFAULT_255_2_778
10
14.8175886
20
37.1904667
11
14.6707886
21
37.1904667
0
LINE
8
DEFAULT_255_2_778
10
14.1119886
20
37.0441667
11
14.1119886
21
36.9372667
0
LINE
8
DEFAULT_255_2_778
10
14.6709886
20
36.7917667
11
14.6707886
21
36.7917667
0
LINE
8
DEFAULT_255_2_778
10
6.97135
20
24.0491854
11
6.97135
21
22.9447854
0
LINE
8
DEFAULT_255_2_778
10
6.97135
20
22.9447854
11
6.82455
21
22.9447854
0
LINE
8
DEFAULT_255_2_778
10
6.82455
20
22.9447854
11
6.26725
21
23.7956854
0
LINE
8
DEFAULT_255_2_778
10
6.26725
20
23.7956854
11
6.26725
21
22.9447854
0
LINE
8
DEFAULT_255_2_778
10
6.26725
20
22.9447854
11
6.12045
21
22.9447854
0
LINE
8
DEFAULT_255_2_778
10
6.12045
20
22.9447854
11
6.12045
21
24.0491854
0
LINE
8
DEFAULT_255_2_778
10
6.12045
20
24.0491854
11
6.26725
21
24.0491854
0
LINE
8
DEFAULT_255_2_778
10
6.26725
20
24.0491854
11
6.82605
21
23.1942854
0
LINE
8
DEFAULT_255_2_778
10
6.82605
20
23.1942854
11
6.82605
21
24.0491854
0
LINE
8
DEFAULT_255_2_778
10
6.82605
20
24.0491854
11
6.97135
21
24.0491854
0
LINE
8
DEFAULT_255_2_778
10
6.97135
20
24.0491854
11
6.97135
21
24.0491854
0
ARC
8
DEFAULT_255_2_778
10
7.384616
20
23.4479217
40
0.6976185
50
338.7559188
51
1.0987474
0
ARC
8
DEFAULT_255_2_778
10
7.5381191
20
23.3986728
40
0.5367897
50
335.714381
51
337.7185486
0
ARC
8
DEFAULT_255_2_778
10
7.6463176
20
23.3406306
40
0.4143793
50
303.0497306
51
336.8766498
0
ARC
8
DEFAULT_255_2_778
10
7.6476795
20
23.3561281
40
0.4267343
50
268.7279631
51
301.7615637
0
ARC
8
DEFAULT_255_2_778
10
7.6305753
20
23.3546874
40
0.4252569
50
238.140145
51
271.0281893
0
ARC
8
DEFAULT_255_2_778
10
7.6356502
20
23.3491603
40
0.423303
50
204.0872242
51
237.1617855
0
ARC
8
DEFAULT_255_2_778
10
7.8479026
20
23.4448513
40
0.656128
50
179.4369567
51
204.1512195
0
ARC
8
DEFAULT_255_2_778
10
7.8649231
20
23.5441903
40
0.6732481
50
156.5230462
51
181.1312121
0
ARC
8
DEFAULT_255_2_778
10
7.6354156
20
23.6463559
40
0.4220445
50
123.2021602
51
156.8321866
0
ARC
8
DEFAULT_255_2_778
10
7.629295
20
23.6417257
40
0.4226365
50
89.0087746
51
122.1640753
0
ARC
8
DEFAULT_255_2_778
10
7.6451418
20
23.6336094
40
0.4307741
50
58.3461339
51
91.1353627
0
ARC
8
DEFAULT_255_2_778
10
7.6471279
20
23.6529515
40
0.4133538
50
23.0056094
51
57.1734112
0
ARC
8
DEFAULT_255_2_778
10
7.4046851
20
23.5475854
40
0.6776972
50
359.4652067
51
23.1944955
0
ARC
8
DEFAULT_255_2_778
10
7.1417361
20
23.5312182
40
0.9406703
50
359.998827
51
0.6116515
0
ARC
8
DEFAULT_255_2_778
10
7.2861256
20
23.5453232
40
0.6509011
50
358.8974813
51
16.4235302
0
ARC
8
DEFAULT_255_2_778
10
7.5757232
20
23.6272557
40
0.3499701
50
16.9621572
51
36.2911052
0
ARC
8
DEFAULT_255_2_778
10
7.6482411
20
23.6784123
40
0.2612459
50
36.6615946
51
92.5525602
0
ARC
8
DEFAULT_255_2_778
10
7.6267585
20
23.6814362
40
0.2581506
50
87.8137959
51
143.6630469
0
ARC
8
DEFAULT_255_2_778
10
7.7595475
20
23.5921047
40
0.4181042
50
144.5841366
51
173.9551819
0
ARC
8
DEFAULT_255_2_778
10
8.0875171
20
23.5361433
40
0.7504403
50
172.3430027
51
179.4918382
0
ARC
8
DEFAULT_255_2_778
10
7.9492722
20
23.4489278
40
0.6122971
50
178.8142132
51
198.3189778
0
ARC
8
DEFAULT_255_2_778
10
7.7109416
20
23.375692
40
0.3630662
50
199.1687639
51
215.9976826
0
ARC
8
DEFAULT_255_2_778
10
7.6285313
20
23.3129383
40
0.2595197
50
215.4824973
51
272.1364901
0
ARC
8
DEFAULT_255_2_778
10
7.6508026
20
23.3115887
40
0.2582971
50
267.2047536
51
323.043683
0
ARC
8
DEFAULT_255_2_778
10
7.5274007
20
23.3895706
40
0.4039646
50
324.7282032
51
352.90524
0
ARC
8
DEFAULT_255_2_778
10
7.1579769
20
23.4568139
40
0.7791508
50
351.3533913
51
359.5723848
0
LINE
8
DEFAULT_255_2_778
10
8.0821063
20
23.5311989
11
8.0821063
21
23.4612989
0
LINE
8
DEFAULT_255_2_778
10
7.1918063
20
23.4512989
11
7.1918063
21
23.5308989
0
LINE
8
DEFAULT_255_2_778
10
8.0824063
20
23.5311989
11
8.0821063
21
23.5311989
0
LINE
8
DEFAULT_255_2_778
10
7.9369063
20
23.4506989
11
7.9369063
21
23.5327989
0
LINE
8
DEFAULT_255_2_778
10
7.3371063
20
23.5427989
11
7.3371063
21
23.4615989
0
LINE
8
DEFAULT_255_2_778
10
7.9371063
20
23.4509989
11
7.9369063
21
23.4506989
0
ARC
8
DEFAULT_255_2_778
10
6.5754331
20
26.0189702
40
0.3875593
50
88.8781792
51
124.8070999
0
ARC
8
DEFAULT_255_2_778
10
6.5443157
20
26.0791986
40
0.3204664
50
126.385894
51
134.0945474
0
ARC
8
DEFAULT_255_2_778
10
6.5950741
20
26.0398688
40
0.3841403
50
135.4500205
51
173.6397336
0
ARC
8
DEFAULT_255_2_778
10
6.8243062
20
25.9907005
40
0.6178545
50
171.4626227
51
174.9809009
0
ARC
8
DEFAULT_255_2_778
10
6.4329438
20
25.8446622
40
0.3004468
50
87.2190336
51
138.2420862
0
ARC
8
DEFAULT_255_2_778
10
6.4587841
20
25.8576086
40
0.2873674
50
40.216471
51
92.2462602
0
ARC
8
DEFAULT_255_2_778
10
6.3775604
20
25.7995294
40
0.3869757
50
358.6996156
51
39.0179236
0
ARC
8
DEFAULT_255_2_778
10
6.1763653
20
25.7807955
40
0.5881555
50
359.9960751
51
0.9695207
0
ARC
8
DEFAULT_255_2_778
10
6.3457662
20
25.7669046
40
0.4189837
50
329.7328863
51
1.8944019
0
ARC
8
DEFAULT_255_2_778
10
6.4281439
20
25.7291258
40
0.3289137
50
317.6746658
51
328.1837352
0
ARC
8
DEFAULT_255_2_778
10
6.4359882
20
25.7258646
40
0.3209312
50
267.4341467
51
317.1621475
0
ARC
8
DEFAULT_255_2_778
10
6.4131392
20
25.7209853
40
0.3158441
50
217.902718
51
271.5388076
0
ARC
8
DEFAULT_255_2_778
10
6.5295775
20
25.8121784
40
0.4637424
50
181.2305973
51
217.9553016
0
ARC
8
DEFAULT_255_2_778
10
6.7682925
20
25.8401051
40
0.7033716
50
179.9714794
51
183.0876552
0
ARC
8
DEFAULT_255_2_778
10
7.0997526
20
25.907026
40
1.0349081
50
166.9200249
51
180.6959749
0
ARC
8
DEFAULT_255_2_778
10
6.6332893
20
26.019634
40
0.5550782
50
142.09413
51
167.3453714
0
ARC
8
DEFAULT_255_2_778
10
6.5385028
20
26.0745972
40
0.4467695
50
95.5856759
51
140.1872362
0
ARC
8
DEFAULT_255_2_778
10
6.5930857
20
25.7908338
40
0.7349835
50
90.7456507
51
97.6678403
0
ARC
8
DEFAULT_255_2_778
10
6.423749
20
25.8026672
40
0.2251885
50
89.8799429
51
126.0835997
0
ARC
8
DEFAULT_255_2_778
10
6.4178157
20
25.7990252
40
0.2247445
50
124.3140469
51
159.9286744
0
ARC
8
DEFAULT_255_2_778
10
6.5943708
20
25.8115614
40
0.3878711
50
178.065432
51
207.0841618
0
ARC
8
DEFAULT_255_2_778
10
6.4858519
20
25.7656174
40
0.270468
50
208.8857103
51
216.4951932
0
ARC
8
DEFAULT_255_2_778
10
6.422925
20
25.7061661
40
0.1848126
50
213.2794251
51
269.7506886
0
ARC
8
DEFAULT_255_2_778
10
6.4294901
20
25.7004172
40
0.1792135
50
267.6433449
51
322.4743366
0
ARC
8
DEFAULT_255_2_778
10
6.3364229
20
25.7604262
40
0.2897186
50
324.2736286
51
2.6963063
0
ARC
8
DEFAULT_255_2_778
10
6.3367464
20
25.7877747
40
0.2893998
50
357.282782
51
36.0184981
0
ARC
8
DEFAULT_255_2_778
10
6.4297887
20
25.851334
40
0.1767997
50
37.0895266
51
91.7074254
0
LINE
8
DEFAULT_255_2_778
10
6.5837208
20
26.5254552
11
6.6089208
21
26.5254552
0
LINE
8
DEFAULT_255_2_778
10
6.6089208
20
26.5254552
11
6.6089208
21
26.4064552
0
LINE
8
DEFAULT_255_2_778
10
6.6089208
20
26.4064552
11
6.5830208
21
26.4064552
0
LINE
8
DEFAULT_255_2_778
10
6.0649208
20
25.8404552
11
6.0649208
21
25.8944552
0
LINE
8
DEFAULT_255_2_778
10
6.5835208
20
26.5257552
11
6.5837208
21
26.5254552
0
LINE
8
DEFAULT_255_2_778
10
6.2067208
20
25.8761552
11
6.2067208
21
25.8246552
0
LINE
8
DEFAULT_255_2_778
10
6.4245208
20
26.0280552
11
6.4242208
21
26.0278552
0
ARC
8
DEFAULT_255_2_778
10
14.5214331
20
30.6173702
40
0.3875593
50
88.8781792
51
124.8070999
0
ARC
8
DEFAULT_255_2_778
10
14.4903157
20
30.6775986
40
0.3204664
50
126.385894
51
134.0945474
0
ARC
8
DEFAULT_255_2_778
10
14.5410741
20
30.6382688
40
0.3841403
50
135.4500205
51
173.6397336
0
ARC
8
DEFAULT_255_2_778
10
14.7703062
20
30.5891005
40
0.6178545
50
171.4626227
51
174.9809009
0
ARC
8
DEFAULT_255_2_778
10
14.3789438
20
30.4430622
40
0.3004468
50
87.2190336
51
138.2420862
0
ARC
8
DEFAULT_255_2_778
10
14.4047841
20
30.4560086
40
0.2873674
50
40.216471
51
92.2462602
0
ARC
8
DEFAULT_255_2_778
10
14.3234219
20
30.3978789
40
0.3871151
50
358.6936636
51
39.0108194
0
ARC
8
DEFAULT_255_2_778
10
14.1216478
20
30.3790955
40
0.5888729
50
359.9960779
51
0.9689361
0
ARC
8
DEFAULT_255_2_778
10
14.2920113
20
30.365232
40
0.4187378
50
329.7239934
51
1.8917642
0
ARC
8
DEFAULT_255_2_778
10
14.3740491
20
30.3276148
40
0.3290437
50
317.6743303
51
328.1785673
0
ARC
8
DEFAULT_255_2_778
10
14.3819882
20
30.3242646
40
0.3209312
50
267.4341467
51
317.1621475
0
ARC
8
DEFAULT_255_2_778
10
14.3591392
20
30.3193853
40
0.3158441
50
217.902718
51
271.5388076
0
ARC
8
DEFAULT_255_2_778
10
14.4755775
20
30.4105784
40
0.4637424
50
181.2305973
51
217.9553016
0
ARC
8
DEFAULT_255_2_778
10
14.7142925
20
30.4385051
40
0.7033716
50
179.9714794
51
183.0876552
0
ARC
8
DEFAULT_255_2_778
10
15.0457526
20
30.505426
40
1.0349081
50
166.9200249
51
180.6959749
0
ARC
8
DEFAULT_255_2_778
10
14.5792893
20
30.618034
40
0.5550782
50
142.09413
51
167.3453714
0
ARC
8
DEFAULT_255_2_778
10
14.4845028
20
30.6729972
40
0.4467695
50
95.5856759
51
140.1872362
0
ARC
8
DEFAULT_255_2_778
10
14.5390857
20
30.3892338
40
0.7349835
50
90.7456507
51
97.6678403
0
ARC
8
DEFAULT_255_2_778
10
14.369749
20
30.4010672
40
0.2251885
50
89.8799429
51
126.0835997
0
ARC
8
DEFAULT_255_2_778
10
14.3638157
20
30.3974252
40
0.2247445
50
124.3140469
51
159.9286744
0
ARC
8
DEFAULT_255_2_778
10
14.5403708
20
30.4099614
40
0.3878711
50
178.065432
51
207.0841618
0
ARC
8
DEFAULT_255_2_778
10
14.4318519
20
30.3640174
40
0.270468
50
208.8857103
51
216.4951932
0
ARC
8
DEFAULT_255_2_778
10
14.368925
20
30.3045661
40
0.1848126
50
213.2794251
51
269.7506886
0
ARC
8
DEFAULT_255_2_778
10
14.3754901
20
30.2988172
40
0.1792135
50
267.6433449
51
322.4743366
0
ARC
8
DEFAULT_255_2_778
10
14.2824229
20
30.3588262
40
0.2897186
50
324.2736286
51
2.6963063
0
ARC
8
DEFAULT_255_2_778
10
14.2827464
20
30.3861747
40
0.2893998
50
357.282782
51
36.0184981
0
ARC
8
DEFAULT_255_2_778
10
14.3757887
20
30.449734
40
0.1767997
50
37.0895266
51
91.7074254
0
LINE
8
DEFAULT_255_2_778
10
14.5297208
20
31.1238552
11
14.5549208
21
31.1238552
0
LINE
8
DEFAULT_255_2_778
10
14.5549208
20
31.1238552
11
14.5549208
21
31.0048552
0
LINE
8
DEFAULT_255_2_778
10
14.5549208
20
31.0048552
11
14.5290208
21
31.0048552
0
LINE
8
DEFAULT_255_2_778
10
14.0109208
20
30.4388552
11
14.0109208
21
30.4928552
0
LINE
8
DEFAULT_255_2_778
10
14.5295208
20
31.1241552
11
14.5297208
21
31.1238552
0
LINE
8
DEFAULT_255_2_778
10
14.1527208
20
30.4745552
11
14.1527208
21
30.4230552
0
LINE
8
DEFAULT_255_2_778
10
14.3705208
20
30.6264552
11
14.3702208
21
30.6262552
0
ARC
8
DEFAULT_255_2_778
10
14.3856061
20
27.9301961
40
0.4335299
50
322.6067399
51
355.1575185
0
ARC
8
DEFAULT_255_2_778
10
14.4593873
20
27.8851452
40
0.34767
50
311.1112905
51
321.1211164
0
ARC
8
DEFAULT_255_2_778
10
14.427887
20
27.9351699
40
0.4061756
50
271.4369148
51
309.8191972
0
ARC
8
DEFAULT_255_2_778
10
14.3984259
20
28.1710524
40
0.6431537
50
269.9610363
51
273.5341751
0
ARC
8
DEFAULT_255_2_778
10
14.3836349
20
27.9181193
40
0.3904843
50
219.8129124
51
272.1065938
0
ARC
8
DEFAULT_255_2_778
10
14.4835361
20
27.9920707
40
0.5146219
50
185.2211398
51
219.0157079
0
ARC
8
DEFAULT_255_2_778
10
14.7866167
20
28.0415203
40
0.8212307
50
179.8549761
51
186.7327817
0
ARC
8
DEFAULT_255_2_778
10
14.5937292
20
28.163172
40
0.6284809
50
155.8201684
51
181.210132
0
ARC
8
DEFAULT_255_2_778
10
14.3954611
20
28.251487
40
0.4114344
50
122.1060625
51
155.7304352
0
ARC
8
DEFAULT_255_2_778
10
14.4019691
20
28.2276412
40
0.4351512
50
88.8123416
51
121.1631418
0
ARC
8
DEFAULT_255_2_778
10
14.4249795
20
28.2345967
40
0.4283308
50
59.2644996
51
91.8718325
0
ARC
8
DEFAULT_255_2_778
10
14.4606719
20
28.3121587
40
0.3435389
50
47.2676699
51
57.7697836
0
ARC
8
DEFAULT_255_2_778
10
14.4147303
20
28.2746333
40
0.4023625
50
5.2274679
51
46.0882697
0
ARC
8
DEFAULT_255_2_778
10
14.2039849
20
28.2311909
40
0.6166589
50
5.7057528
51
7.4635918
0
ARC
8
DEFAULT_255_2_778
10
14.2815986
20
28.2486113
40
0.3916566
50
6.433867
51
29.1833077
0
ARC
8
DEFAULT_255_2_778
10
14.4484883
20
28.3351887
40
0.203818
50
30.8108088
51
46.7316078
0
ARC
8
DEFAULT_255_2_778
10
14.42777
20
28.2964552
40
0.2464891
50
49.3969992
51
92.3264492
0
ARC
8
DEFAULT_255_2_778
10
14.4107249
20
28.1141194
40
0.4286795
50
89.0591046
51
90.0048576
0
ARC
8
DEFAULT_255_2_778
10
14.3995092
20
28.2817958
40
0.2612424
50
87.5473966
51
142.8120636
0
ARC
8
DEFAULT_255_2_778
10
14.5117484
20
28.2084237
40
0.3951186
50
144.1736006
51
173.7391977
0
ARC
8
DEFAULT_255_2_778
10
14.8555618
20
28.1496804
40
0.7435813
50
172.1286688
51
180.2682586
0
ARC
8
DEFAULT_255_2_778
10
14.6891344
20
28.0265347
40
0.577287
50
178.7330455
51
199.5826741
0
ARC
8
DEFAULT_255_2_778
10
14.4809177
20
27.959454
40
0.358691
50
200.6348468
51
215.0816134
0
ARC
8
DEFAULT_255_2_778
10
14.3886598
20
27.8907442
40
0.2437239
50
214.3286096
51
272.1935809
0
ARC
8
DEFAULT_255_2_778
10
14.4106775
20
27.9653119
40
0.318366
50
267.7157839
51
296.6745221
0
ARC
8
DEFAULT_255_2_778
10
14.4598366
20
27.850432
40
0.1937948
50
298.9353709
51
310.1480368
0
ARC
8
DEFAULT_255_2_778
10
14.4158559
20
27.8827384
40
0.2471773
50
313.1136061
51
346.9757687
0
ARC
8
DEFAULT_255_2_778
10
14.1275669
20
27.9753862
40
0.549512
50
344.3374394
51
351.461605
0
LINE
8
DEFAULT_255_2_778
10
14.6707886
20
27.8935989
11
14.8175886
21
27.8935989
0
LINE
8
DEFAULT_255_2_778
10
13.9653886
20
28.0435989
11
13.9653886
21
28.1498989
0
LINE
8
DEFAULT_255_2_778
10
14.8175886
20
28.2924989
11
14.6707886
21
28.2924989
0
LINE
8
DEFAULT_255_2_778
10
14.1119886
20
28.1461989
11
14.1119886
21
28.0392989
0
LINE
8
DEFAULT_255_2_778
10
14.6709886
20
27.8937989
11
14.6707886
21
27.8935989
0
LINE
8
DEFAULT_255_2_778
10
6.97135
20
15.1509854
11
6.97135
21
14.0465854
0
LINE
8
DEFAULT_255_2_778
10
6.97135
20
14.0465854
11
6.82455
21
14.0465854
0
LINE
8
DEFAULT_255_2_778
10
6.82455
20
14.0465854
11
6.26725
21
14.8974854
0
LINE
8
DEFAULT_255_2_778
10
6.26725
20
14.8974854
11
6.26725
21
14.0465854
0
LINE
8
DEFAULT_255_2_778
10
6.26725
20
14.0465854
11
6.12045
21
14.0465854
0
LINE
8
DEFAULT_255_2_778
10
6.12045
20
14.0465854
11
6.12045
21
15.1509854
0
LINE
8
DEFAULT_255_2_778
10
6.12045
20
15.1509854
11
6.26725
21
15.1509854
0
LINE
8
DEFAULT_255_2_778
10
6.26725
20
15.1509854
11
6.82605
21
14.2960854
0
LINE
8
DEFAULT_255_2_778
10
6.82605
20
14.2960854
11
6.82605
21
15.1509854
0
LINE
8
DEFAULT_255_2_778
10
6.82605
20
15.1509854
11
6.97135
21
15.1509854
0
LINE
8
DEFAULT_255_2_778
10
6.97135
20
15.1509854
11
6.97135
21
15.1509854
0
ARC
8
DEFAULT_255_2_778
10
7.384616
20
14.5497217
40
0.6976185
50
338.7559188
51
1.0987474
0
ARC
8
DEFAULT_255_2_778
10
7.5381191
20
14.5004728
40
0.5367897
50
335.714381
51
337.7185486
0
ARC
8
DEFAULT_255_2_778
10
7.6463176
20
14.4424306
40
0.4143793
50
303.0497306
51
336.8766498
0
ARC
8
DEFAULT_255_2_778
10
7.6476795
20
14.4579281
40
0.4267343
50
268.7279631
51
301.7615637
0
ARC
8
DEFAULT_255_2_778
10
7.6305753
20
14.4564874
40
0.4252569
50
238.140145
51
271.0281893
0
ARC
8
DEFAULT_255_2_778
10
7.6356502
20
14.4509603
40
0.423303
50
204.0872242
51
237.1617855
0
ARC
8
DEFAULT_255_2_778
10
7.8479026
20
14.5466513
40
0.656128
50
179.4369567
51
204.1512195
0
ARC
8
DEFAULT_255_2_778
10
7.8649231
20
14.6459903
40
0.6732481
50
156.5230462
51
181.1312121
0
ARC
8
DEFAULT_255_2_778
10
7.6354156
20
14.7481559
40
0.4220445
50
123.2021602
51
156.8321866
0
ARC
8
DEFAULT_255_2_778
10
7.629295
20
14.7435257
40
0.4226365
50
89.0087746
51
122.1640753
0
ARC
8
DEFAULT_255_2_778
10
7.6451418
20
14.7354094
40
0.4307741
50
58.3461339
51
91.1353627
0
ARC
8
DEFAULT_255_2_778
10
7.6471279
20
14.7547515
40
0.4133538
50
23.0056094
51
57.1734112
0
ARC
8
DEFAULT_255_2_778
10
7.4046851
20
14.6493854
40
0.6776972
50
359.4652067
51
23.1944955
0
ARC
8
DEFAULT_255_2_778
10
7.1417361
20
14.6330182
40
0.9406703
50
359.998827
51
0.6116515
0
ARC
8
DEFAULT_255_2_778
10
7.2861256
20
14.6471232
40
0.6509011
50
358.8974813
51
16.4235302
0
ARC
8
DEFAULT_255_2_778
10
7.5757232
20
14.7290557
40
0.3499701
50
16.9621572
51
36.2911052
0
ARC
8
DEFAULT_255_2_778
10
7.6482411
20
14.7802123
40
0.2612459
50
36.6615946
51
92.5525602
0
ARC
8
DEFAULT_255_2_778
10
7.6267585
20
14.7832362
40
0.2581506
50
87.8137959
51
143.6630469
0
ARC
8
DEFAULT_255_2_778
10
7.7595475
20
14.6939047
40
0.4181042
50
144.5841366
51
173.9551819
0
ARC
8
DEFAULT_255_2_778
10
8.0875171
20
14.6379433
40
0.7504403
50
172.3430027
51
179.4918382
0
ARC
8
DEFAULT_255_2_778
10
7.9492722
20
14.5507278
40
0.6122971
50
178.8142132
51
198.3189778
0
ARC
8
DEFAULT_255_2_778
10
7.7109416
20
14.477492
40
0.3630662
50
199.1687639
51
215.9976826
0
ARC
8
DEFAULT_255_2_778
10
7.6285313
20
14.4147383
40
0.2595197
50
215.4824973
51
272.1364901
0
ARC
8
DEFAULT_255_2_778
10
7.6508026
20
14.4133887
40
0.2582971
50
267.2047536
51
323.043683
0
ARC
8
DEFAULT_255_2_778
10
7.5274007
20
14.4913706
40
0.4039646
50
324.7282032
51
352.90524
0
ARC
8
DEFAULT_255_2_778
10
7.1579769
20
14.5586139
40
0.7791508
50
351.3533913
51
359.5723848
0
LINE
8
DEFAULT_255_2_778
10
8.0821063
20
14.6329989
11
8.0821063
21
14.5630989
0
LINE
8
DEFAULT_255_2_778
10
7.1918063
20
14.5530989
11
7.1918063
21
14.6326989
0
LINE
8
DEFAULT_255_2_778
10
8.0824063
20
14.6329989
11
8.0821063
21
14.6329989
0
LINE
8
DEFAULT_255_2_778
10
7.9369063
20
14.5524989
11
7.9369063
21
14.6345989
0
LINE
8
DEFAULT_255_2_778
10
7.3371063
20
14.6445989
11
7.3371063
21
14.5633989
0
LINE
8
DEFAULT_255_2_778
10
7.9371063
20
14.5527989
11
7.9369063
21
14.5524989
0
LINE
8
DEFAULT_255_2_778
10
6.7716469
20
17.6264854
11
6.7716469
21
17.5476854
0
LINE
8
DEFAULT_255_2_778
10
6.7716469
20
17.5476854
11
6.3131469
21
16.5220854
0
LINE
8
DEFAULT_255_2_778
10
6.3131469
20
16.5220854
11
6.1654469
21
16.5220854
0
LINE
8
DEFAULT_255_2_778
10
6.1654469
20
16.5220854
11
6.6224469
21
17.5110854
0
LINE
8
DEFAULT_255_2_778
10
6.6224469
20
17.5110854
11
6.0231469
21
17.5110854
0
LINE
8
DEFAULT_255_2_778
10
6.0231469
20
17.5110854
11
6.0231469
21
17.6264854
0
LINE
8
DEFAULT_255_2_778
10
6.0231469
20
17.6264854
11
6.7713469
21
17.6264854
0
LINE
8
DEFAULT_255_2_778
10
6.7713469
20
17.6264854
11
6.7716469
21
17.6264854
0
LINE
8
DEFAULT_255_2_778
10
14.7175469
20
22.2248854
11
14.7175469
21
22.1460854
0
LINE
8
DEFAULT_255_2_778
10
14.7175469
20
22.1460854
11
14.2590469
21
21.1204854
0
LINE
8
DEFAULT_255_2_778
10
14.2590469
20
21.1204854
11
14.1113469
21
21.1204854
0
LINE
8
DEFAULT_255_2_778
10
14.1113469
20
21.1204854
11
14.5683469
21
22.1094854
0
LINE
8
DEFAULT_255_2_778
10
14.5683469
20
22.1094854
11
13.9690469
21
22.1094854
0
LINE
8
DEFAULT_255_2_778
10
13.9690469
20
22.1094854
11
13.9690469
21
22.2248854
0
LINE
8
DEFAULT_255_2_778
10
13.9690469
20
22.2248854
11
14.7172469
21
22.2248854
0
LINE
8
DEFAULT_255_2_778
10
14.7172469
20
22.2248854
11
14.7175469
21
22.2248854
0
ARC
8
DEFAULT_255_2_778
10
14.3854506
20
19.0320626
40
0.4336932
50
322.6123368
51
355.1462432
0
ARC
8
DEFAULT_255_2_778
10
14.4588127
20
18.9872997
40
0.3483393
50
311.1406777
51
321.1351838
0
ARC
8
DEFAULT_255_2_778
10
14.4279172
20
19.0372834
40
0.406422
50
271.431794
51
309.7847121
0
ARC
8
DEFAULT_255_2_778
10
14.3984291
20
19.273552
40
0.6437854
50
269.9607929
51
273.5304201
0
ARC
8
DEFAULT_255_2_778
10
14.3836349
20
19.019987
40
0.3904843
50
219.8129124
51
272.1065938
0
ARC
8
DEFAULT_255_2_778
10
14.483094
20
19.0937749
40
0.5141755
50
185.2180468
51
219.032567
0
ARC
8
DEFAULT_255_2_778
10
14.7864962
20
19.1432858
40
0.8211103
50
179.8547986
51
186.7332803
0
ARC
8
DEFAULT_255_2_778
10
14.5937292
20
19.2647397
40
0.6284809
50
155.8201684
51
181.210132
0
ARC
8
DEFAULT_255_2_778
10
14.3954611
20
19.3530547
40
0.4114344
50
122.1060625
51
155.7304352
0
ARC
8
DEFAULT_255_2_778
10
14.4019691
20
19.3292089
40
0.4351512
50
88.8123416
51
121.1631418
0
ARC
8
DEFAULT_255_2_778
10
14.4249795
20
19.3361644
40
0.4283308
50
59.2644996
51
91.8718325
0
ARC
8
DEFAULT_255_2_778
10
14.4606719
20
19.4137264
40
0.3435389
50
47.2676699
51
57.7697836
0
ARC
8
DEFAULT_255_2_778
10
14.4147303
20
19.376201
40
0.4023625
50
5.2274679
51
46.0882697
0
ARC
8
DEFAULT_255_2_778
10
14.2039849
20
19.3327586
40
0.6166589
50
5.7057528
51
7.4635918
0
ARC
8
DEFAULT_255_2_778
10
14.2815986
20
19.350179
40
0.3916566
50
6.433867
51
29.1833077
0
ARC
8
DEFAULT_255_2_778
10
14.4484883
20
19.4367564
40
0.203818
50
30.8108088
51
46.7316078
0
ARC
8
DEFAULT_255_2_778
10
14.42777
20
19.3980229
40
0.2464891
50
49.3969992
51
92.3264492
0
ARC
8
DEFAULT_255_2_778
10
14.4107249
20
19.2156871
40
0.4286795
50
89.0591046
51
90.0048576
0
ARC
8
DEFAULT_255_2_778
10
14.3995092
20
19.3833635
40
0.2612424
50
87.5473966
51
142.8120636
0
ARC
8
DEFAULT_255_2_778
10
14.5117484
20
19.3099914
40
0.3951186
50
144.1736006
51
173.7391977
0
ARC
8
DEFAULT_255_2_778
10
14.8555618
20
19.2512481
40
0.7435813
50
172.1286688
51
180.2682586
0
ARC
8
DEFAULT_255_2_778
10
14.6891344
20
19.1281024
40
0.577287
50
178.7330455
51
199.5826741
0
ARC
8
DEFAULT_255_2_778
10
14.4809177
20
19.0610217
40
0.358691
50
200.6348468
51
215.0816134
0
ARC
8
DEFAULT_255_2_778
10
14.3886598
20
18.9923119
40
0.2437239
50
214.3286096
51
272.1935809
0
ARC
8
DEFAULT_255_2_778
10
14.4106775
20
19.0668796
40
0.318366
50
267.7157839
51
296.6745221
0
ARC
8
DEFAULT_255_2_778
10
14.4598366
20
18.9519997
40
0.1937948
50
298.9353709
51
310.1480368
0
ARC
8
DEFAULT_255_2_778
10
14.4158559
20
18.9843061
40
0.2471773
50
313.1136061
51
346.9757687
0
ARC
8
DEFAULT_255_2_778
10
14.1275669
20
19.0769539
40
0.549512
50
344.3374394
51
351.461605
0
LINE
8
DEFAULT_255_2_778
10
14.6707886
20
18.9953667
11
14.8175886
21
18.9953667
0
LINE
8
DEFAULT_255_2_778
10
13.9653886
20
19.1453667
11
13.9653886
21
19.2514667
0
LINE
8
DEFAULT_255_2_778
10
14.8175886
20
19.3940667
11
14.6707886
21
19.3940667
0
LINE
8
DEFAULT_255_2_778
10
14.1119886
20
19.2477667
11
14.1119886
21
19.1408667
0
LINE
8
DEFAULT_255_2_778
10
14.6709886
20
18.9953667
11
14.6707886
21
18.9953667
0
ARC
8
DEFAULT_255_2_778
10
33.3890531
20
112.3995704
40
0.957325
50
45.1096295
51
90.0099022
0
ARC
8
DEFAULT_255_2_778
10
33.391723
20
112.4032068
40
0.9528648
50
0.0233689
51
45.069046
0
ARC
8
DEFAULT_255_2_778
10
33.3927383
20
4.3533157
40
0.9518496
50
316.2376242
51
359.9686828
0
ARC
8
DEFAULT_255_2_778
10
33.3906251
20
4.3519264
40
0.9524179
50
270.6936425
51
316.3859162
0
ARC
8
DEFAULT_255_2_778
10
33.3894375
20
4.3738509
40
0.9743558
50
270.0003363
51
270.7478632
0
LINE
8
DEFAULT_255_2_778
10
33.3894432
20
3.3994953
11
33.3888877
21
3.3994954
0
LINE
8
DEFAULT_255_2_778
10
21.2825877
20
3.3994954
11
21.2820323
21
3.3994953
0
ARC
8
DEFAULT_255_2_778
10
21.2807993
20
4.3513671
40
0.9518727
50
226.006534
51
270.0742135
0
ARC
8
DEFAULT_255_2_778
10
21.2792889
20
4.3533972
40
0.9522873
50
180.7953646
51
226.1567501
0
ARC
8
DEFAULT_255_2_778
10
21.3006327
20
4.3546353
40
0.9736467
50
180.1082701
51
180.8507804
0
ARC
8
DEFAULT_255_2_778
10
21.2796782
20
112.4029791
40
0.9526905
50
134.9266079
51
179.9809784
0
ARC
8
DEFAULT_255_2_778
10
21.2820475
20
112.4004198
40
0.9561758
50
89.9676295
51
134.9188242
0
LINE
8
DEFAULT_255_2_778
10
27.3357877
20
104.4583954
11
27.3357877
21
11.6618954
0
LINE
8
DEFAULT_255_2_778
10
34.3445877
20
112.4035954
11
34.3445877
21
4.3527954
0
LINE
8
DEFAULT_255_2_778
10
33.3888877
20
3.3994954
11
21.2825877
21
3.3994954
0
LINE
8
DEFAULT_255_2_778
10
20.3269877
20
4.3527954
11
20.3269877
21
112.4032954
0
LINE
8
DEFAULT_255_2_778
10
21.2825877
20
113.3565954
11
33.3888877
21
113.3565954
0
LINE
8
DEFAULT_255_2_778
10
20.3269876
20
108.9074
11
27.2579876
21
108.9074
0
LINE
8
DEFAULT_255_2_778
10
20.3269877
20
104.4584291
11
34.3445877
21
104.4584291
0
LINE
8
DEFAULT_255_2_778
10
20.3269877
20
104.7762291
11
34.3445877
21
104.7762291
0
LINE
8
DEFAULT_255_2_778
10
20.3269877
20
105.7295291
11
34.3445877
21
105.7295291
0
LINE
8
DEFAULT_255_2_778
10
20.3269938
20
99.6914469
11
27.3357938
21
99.6914469
0
LINE
8
DEFAULT_255_2_778
10
20.3269938
20
100.6447469
11
27.3357938
21
100.6447469
0
LINE
8
DEFAULT_255_2_778
10
20.3269938
20
90.7932469
11
27.3357938
21
90.7932469
0
LINE
8
DEFAULT_255_2_778
10
20.3269938
20
91.7465469
11
27.3357938
21
91.7465469
0
LINE
8
DEFAULT_255_2_778
10
20.3269938
20
81.8947469
11
27.3357938
21
81.8947469
0
LINE
8
DEFAULT_255_2_778
10
20.3269938
20
82.8480469
11
27.3357938
21
82.8480469
0
LINE
8
DEFAULT_255_2_778
10
20.3269938
20
65.0516469
11
27.3357938
21
65.0516469
0
LINE
8
DEFAULT_255_2_778
10
20.3269938
20
64.0983469
11
27.3357938
21
64.0983469
0
LINE
8
DEFAULT_255_2_778
10
20.3269938
20
73.9498469
11
27.3357938
21
73.9498469
0
LINE
8
DEFAULT_255_2_778
10
20.3269938
20
72.9965469
11
27.3357938
21
72.9965469
0
LINE
8
DEFAULT_255_2_778
10
20.3269938
20
46.3017469
11
27.3357938
21
46.3017469
0
LINE
8
DEFAULT_255_2_778
10
20.3269938
20
47.2550469
11
27.3357938
21
47.2550469
0
LINE
8
DEFAULT_255_2_778
10
20.3269938
20
37.4032469
11
27.3357938
21
37.4032469
0
LINE
8
DEFAULT_255_2_778
10
20.3269938
20
38.3565469
11
27.3357938
21
38.3565469
0
LINE
8
DEFAULT_255_2_778
10
20.3269938
20
56.1532469
11
27.3357938
21
56.1532469
0
LINE
8
DEFAULT_255_2_778
10
20.3269938
20
55.1999469
11
27.3357938
21
55.1999469
0
LINE
8
DEFAULT_255_2_778
10
20.3269938
20
20.5601469
11
27.3357938
21
20.5601469
0
LINE
8
DEFAULT_255_2_778
10
20.3269938
20
19.6068469
11
27.3357938
21
19.6068469
0
LINE
8
DEFAULT_255_2_778
10
20.3269938
20
29.4583469
11
27.3357938
21
29.4583469
0
LINE
8
DEFAULT_255_2_778
10
20.3269938
20
28.5050469
11
27.3357938
21
28.5050469
0
LINE
8
DEFAULT_255_2_778
10
20.3269877
20
10.7083469
11
34.3445877
21
10.7083469
0
LINE
8
DEFAULT_255_2_778
10
20.3269877
20
11.6616469
11
34.3445877
21
11.6616469
0
ARC
8
DEFAULT_255_2_778
10
24.6973696
20
95.7224931
40
2.2441243
50
158.1911588
51
180.0892915
0
ARC
8
DEFAULT_255_2_778
10
24.6954163
20
95.7191763
40
2.2435465
50
101.2143948
51
158.0939859
0
ARC
8
DEFAULT_255_2_778
10
24.7016851
20
95.6800984
40
2.2830977
50
89.9657983
51
101.1779855
0
ARC
8
DEFAULT_255_2_778
10
24.7065946
20
95.7033302
40
2.2598684
50
68.6434011
51
90.0899184
0
ARC
8
DEFAULT_255_2_778
10
24.7124749
20
95.7219409
40
2.2403947
50
9.7301689
51
68.610131
0
ARC
8
DEFAULT_255_2_778
10
24.6815064
20
95.7200373
40
2.2712418
50
359.9737263
51
9.645465
0
ARC
8
DEFAULT_255_2_778
10
24.7086007
20
95.7154999
40
2.2441501
50
338.1913813
51
0.0892536
0
ARC
8
DEFAULT_255_2_778
10
24.7105907
20
95.7187822
40
2.2435251
50
281.2159759
51
338.0946755
0
ARC
8
DEFAULT_255_2_778
10
24.7044088
20
95.7575846
40
2.2827891
50
269.9658446
51
281.1787412
0
ARC
8
DEFAULT_255_2_778
10
24.6994944
20
95.7349167
40
2.2601237
50
248.6446222
51
270.090086
0
ARC
8
DEFAULT_255_2_778
10
24.693499
20
95.7160538
40
2.2403732
50
189.7303443
51
248.6117554
0
ARC
8
DEFAULT_255_2_778
10
24.7244896
20
95.7179543
40
2.2712418
50
179.9737264
51
189.6454652
0
LINE
8
DEFAULT_255_2_778
10
25.930948
20
94.8185958
11
25.716348
21
94.5836958
0
LINE
8
DEFAULT_255_2_778
10
25.716348
20
94.5836958
11
24.713548
21
95.4945958
0
LINE
8
DEFAULT_255_2_778
10
24.713548
20
95.4945958
11
23.800248
21
94.4941958
0
LINE
8
DEFAULT_255_2_778
10
23.800248
20
94.4941958
11
23.564748
21
94.7082958
0
LINE
8
DEFAULT_255_2_778
10
23.564748
20
94.7082958
11
24.478148
21
95.7086958
0
LINE
8
DEFAULT_255_2_778
10
24.478148
20
95.7086958
11
23.475348
21
96.6195958
0
LINE
8
DEFAULT_255_2_778
10
23.475348
20
96.6195958
11
23.689948
21
96.8545958
0
LINE
8
DEFAULT_255_2_778
10
23.689948
20
96.8545958
11
24.692748
21
95.9435958
0
LINE
8
DEFAULT_255_2_778
10
24.692748
20
95.9435958
11
25.606048
21
96.9439958
0
LINE
8
DEFAULT_255_2_778
10
25.606048
20
96.9439958
11
25.841548
21
96.7299958
0
LINE
8
DEFAULT_255_2_778
10
25.841548
20
96.7299958
11
24.928148
21
95.7295958
0
LINE
8
DEFAULT_255_2_778
10
24.928148
20
95.7295958
11
25.930948
21
94.8185958
0
LINE
8
DEFAULT_255_2_778
10
22.453248
20
95.7189958
11
22.453248
21
95.7189958
0
ARC
8
DEFAULT_255_2_778
10
24.6973696
20
86.8242931
40
2.2441243
50
158.1911588
51
180.0892915
0
ARC
8
DEFAULT_255_2_778
10
24.6954163
20
86.8209763
40
2.2435465
50
101.2143948
51
158.0939859
0
ARC
8
DEFAULT_255_2_778
10
24.7016851
20
86.7818984
40
2.2830977
50
89.9657983
51
101.1779855
0
ARC
8
DEFAULT_255_2_778
10
24.7065946
20
86.8051302
40
2.2598684
50
68.6434011
51
90.0899184
0
ARC
8
DEFAULT_255_2_778
10
24.7124749
20
86.8237409
40
2.2403947
50
9.7301689
51
68.610131
0
ARC
8
DEFAULT_255_2_778
10
24.6815064
20
86.8218373
40
2.2712418
50
359.9737263
51
9.645465
0
ARC
8
DEFAULT_255_2_778
10
24.7086007
20
86.8172999
40
2.2441501
50
338.1913813
51
0.0892536
0
ARC
8
DEFAULT_255_2_778
10
24.7105907
20
86.8205822
40
2.2435251
50
281.2159759
51
338.0946755
0
ARC
8
DEFAULT_255_2_778
10
24.7044088
20
86.8593846
40
2.2827891
50
269.9658446
51
281.1787412
0
ARC
8
DEFAULT_255_2_778
10
24.6994944
20
86.8367167
40
2.2601237
50
248.6446222
51
270.090086
0
ARC
8
DEFAULT_255_2_778
10
24.693499
20
86.8178538
40
2.2403732
50
189.7303443
51
248.6117554
0
ARC
8
DEFAULT_255_2_778
10
24.7244896
20
86.8197543
40
2.2712418
50
179.9737264
51
189.6454652
0
LINE
8
DEFAULT_255_2_778
10
25.930948
20
85.9203958
11
25.716348
21
85.6854958
0
LINE
8
DEFAULT_255_2_778
10
25.716348
20
85.6854958
11
24.713548
21
86.5963958
0
LINE
8
DEFAULT_255_2_778
10
24.713548
20
86.5963958
11
23.800248
21
85.5959958
0
LINE
8
DEFAULT_255_2_778
10
23.800248
20
85.5959958
11
23.564748
21
85.8100958
0
LINE
8
DEFAULT_255_2_778
10
23.564748
20
85.8100958
11
24.478148
21
86.8104958
0
LINE
8
DEFAULT_255_2_778
10
24.478148
20
86.8104958
11
23.475348
21
87.7213958
0
LINE
8
DEFAULT_255_2_778
10
23.475348
20
87.7213958
11
23.689948
21
87.9563958
0
LINE
8
DEFAULT_255_2_778
10
23.689948
20
87.9563958
11
24.692748
21
87.0453958
0
LINE
8
DEFAULT_255_2_778
10
24.692748
20
87.0453958
11
25.606048
21
88.0457958
0
LINE
8
DEFAULT_255_2_778
10
25.606048
20
88.0457958
11
25.841548
21
87.8317958
0
LINE
8
DEFAULT_255_2_778
10
25.841548
20
87.8317958
11
24.928148
21
86.8313958
0
LINE
8
DEFAULT_255_2_778
10
24.928148
20
86.8313958
11
25.930948
21
85.9203958
0
LINE
8
DEFAULT_255_2_778
10
22.453248
20
86.8207958
11
22.453248
21
86.8207958
0
ARC
8
DEFAULT_255_2_778
10
24.6973696
20
77.9257931
40
2.2441243
50
158.1911588
51
180.0892915
0
ARC
8
DEFAULT_255_2_778
10
24.6954163
20
77.9224763
40
2.2435465
50
101.2143948
51
158.0939859
0
ARC
8
DEFAULT_255_2_778
10
24.7016851
20
77.8833984
40
2.2830977
50
89.9657983
51
101.1779855
0
ARC
8
DEFAULT_255_2_778
10
24.7065946
20
77.9066302
40
2.2598684
50
68.6434011
51
90.0899184
0
ARC
8
DEFAULT_255_2_778
10
24.7124749
20
77.9252409
40
2.2403947
50
9.7301689
51
68.610131
0
ARC
8
DEFAULT_255_2_778
10
24.6815064
20
77.9233373
40
2.2712418
50
359.9737263
51
9.645465
0
ARC
8
DEFAULT_255_2_778
10
24.7086007
20
77.9187999
40
2.2441501
50
338.1913813
51
0.0892536
0
ARC
8
DEFAULT_255_2_778
10
24.7105907
20
77.9220822
40
2.2435251
50
281.2159759
51
338.0946755
0
ARC
8
DEFAULT_255_2_778
10
24.7044088
20
77.9608846
40
2.2827891
50
269.9658446
51
281.1787412
0
ARC
8
DEFAULT_255_2_778
10
24.6994944
20
77.9382167
40
2.2601237
50
248.6446222
51
270.090086
0
ARC
8
DEFAULT_255_2_778
10
24.693499
20
77.9193538
40
2.2403732
50
189.7303443
51
248.6117554
0
ARC
8
DEFAULT_255_2_778
10
24.7244896
20
77.9212543
40
2.2712418
50
179.9737264
51
189.6454652
0
LINE
8
DEFAULT_255_2_778
10
25.930948
20
77.0218958
11
25.716348
21
76.7869958
0
LINE
8
DEFAULT_255_2_778
10
25.716348
20
76.7869958
11
24.713548
21
77.6978958
0
LINE
8
DEFAULT_255_2_778
10
24.713548
20
77.6978958
11
23.800248
21
76.6974958
0
LINE
8
DEFAULT_255_2_778
10
23.800248
20
76.6974958
11
23.564748
21
76.9115958
0
LINE
8
DEFAULT_255_2_778
10
23.564748
20
76.9115958
11
24.478148
21
77.9119958
0
LINE
8
DEFAULT_255_2_778
10
24.478148
20
77.9119958
11
23.475348
21
78.8228958
0
LINE
8
DEFAULT_255_2_778
10
23.475348
20
78.8228958
11
23.689948
21
79.0578958
0
LINE
8
DEFAULT_255_2_778
10
23.689948
20
79.0578958
11
24.692748
21
78.1468958
0
LINE
8
DEFAULT_255_2_778
10
24.692748
20
78.1468958
11
25.606048
21
79.1472958
0
LINE
8
DEFAULT_255_2_778
10
25.606048
20
79.1472958
11
25.841548
21
78.9332958
0
LINE
8
DEFAULT_255_2_778
10
25.841548
20
78.9332958
11
24.928148
21
77.9328958
0
LINE
8
DEFAULT_255_2_778
10
24.928148
20
77.9328958
11
25.930948
21
77.0218958
0
LINE
8
DEFAULT_255_2_778
10
22.453248
20
77.9222958
11
22.453248
21
77.9222958
0
ARC
8
DEFAULT_255_2_778
10
24.6973696
20
69.0275931
40
2.2441243
50
158.1911588
51
180.0892915
0
ARC
8
DEFAULT_255_2_778
10
24.6954163
20
69.0242763
40
2.2435465
50
101.2143948
51
158.0939859
0
ARC
8
DEFAULT_255_2_778
10
24.7016851
20
68.9851984
40
2.2830977
50
89.9657983
51
101.1779855
0
ARC
8
DEFAULT_255_2_778
10
24.7065946
20
69.0084302
40
2.2598684
50
68.6434011
51
90.0899184
0
ARC
8
DEFAULT_255_2_778
10
24.7124749
20
69.0270409
40
2.2403947
50
9.7301689
51
68.610131
0
ARC
8
DEFAULT_255_2_778
10
24.6815064
20
69.0251373
40
2.2712418
50
359.9737263
51
9.645465
0
ARC
8
DEFAULT_255_2_778
10
24.7086007
20
69.0205999
40
2.2441501
50
338.1913813
51
0.0892536
0
ARC
8
DEFAULT_255_2_778
10
24.7105907
20
69.0238822
40
2.2435251
50
281.2159759
51
338.0946755
0
ARC
8
DEFAULT_255_2_778
10
24.7044088
20
69.0626846
40
2.2827891
50
269.9658446
51
281.1787412
0
ARC
8
DEFAULT_255_2_778
10
24.6994944
20
69.0400167
40
2.2601237
50
248.6446222
51
270.090086
0
ARC
8
DEFAULT_255_2_778
10
24.693499
20
69.0211538
40
2.2403732
50
189.7303443
51
248.6117554
0
ARC
8
DEFAULT_255_2_778
10
24.7244896
20
69.0230543
40
2.2712418
50
179.9737264
51
189.6454652
0
LINE
8
DEFAULT_255_2_778
10
25.930948
20
68.1236958
11
25.716348
21
67.8887958
0
LINE
8
DEFAULT_255_2_778
10
25.716348
20
67.8887958
11
24.713548
21
68.7996958
0
LINE
8
DEFAULT_255_2_778
10
24.713548
20
68.7996958
11
23.800248
21
67.7992958
0
LINE
8
DEFAULT_255_2_778
10
23.800248
20
67.7992958
11
23.564748
21
68.0133958
0
LINE
8
DEFAULT_255_2_778
10
23.564748
20
68.0133958
11
24.478148
21
69.0137958
0
LINE
8
DEFAULT_255_2_778
10
24.478148
20
69.0137958
11
23.475348
21
69.9246958
0
LINE
8
DEFAULT_255_2_778
10
23.475348
20
69.9246958
11
23.689948
21
70.1596958
0
LINE
8
DEFAULT_255_2_778
10
23.689948
20
70.1596958
11
24.692748
21
69.2486958
0
LINE
8
DEFAULT_255_2_778
10
24.692748
20
69.2486958
11
25.606048
21
70.2490958
0
LINE
8
DEFAULT_255_2_778
10
25.606048
20
70.2490958
11
25.841548
21
70.0350958
0
LINE
8
DEFAULT_255_2_778
10
25.841548
20
70.0350958
11
24.928148
21
69.0346958
0
LINE
8
DEFAULT_255_2_778
10
24.928148
20
69.0346958
11
25.930948
21
68.1236958
0
LINE
8
DEFAULT_255_2_778
10
22.453248
20
69.0240958
11
22.453248
21
69.0240958
0
ARC
8
DEFAULT_255_2_778
10
24.6973696
20
60.1291931
40
2.2441243
50
158.1911588
51
180.0892915
0
ARC
8
DEFAULT_255_2_778
10
24.6954163
20
60.1258763
40
2.2435465
50
101.2143948
51
158.0939859
0
ARC
8
DEFAULT_255_2_778
10
24.7016851
20
60.0867984
40
2.2830977
50
89.9657983
51
101.1779855
0
ARC
8
DEFAULT_255_2_778
10
24.7065946
20
60.1100302
40
2.2598684
50
68.6434011
51
90.0899184
0
ARC
8
DEFAULT_255_2_778
10
24.7124749
20
60.1286409
40
2.2403947
50
9.7301689
51
68.610131
0
ARC
8
DEFAULT_255_2_778
10
24.6815064
20
60.1267373
40
2.2712418
50
359.9737263
51
9.645465
0
ARC
8
DEFAULT_255_2_778
10
24.7086007
20
60.1221999
40
2.2441501
50
338.1913813
51
0.0892536
0
ARC
8
DEFAULT_255_2_778
10
24.7105907
20
60.1254822
40
2.2435251
50
281.2159759
51
338.0946755
0
ARC
8
DEFAULT_255_2_778
10
24.7044088
20
60.1642846
40
2.2827891
50
269.9658446
51
281.1787412
0
ARC
8
DEFAULT_255_2_778
10
24.6994944
20
60.1416167
40
2.2601237
50
248.6446222
51
270.090086
0
ARC
8
DEFAULT_255_2_778
10
24.693499
20
60.1227538
40
2.2403732
50
189.7303443
51
248.6117554
0
ARC
8
DEFAULT_255_2_778
10
24.7244896
20
60.1246543
40
2.2712418
50
179.9737264
51
189.6454652
0
LINE
8
DEFAULT_255_2_778
10
25.930948
20
59.2252958
11
25.716348
21
58.9903958
0
LINE
8
DEFAULT_255_2_778
10
25.716348
20
58.9903958
11
24.713548
21
59.9012958
0
LINE
8
DEFAULT_255_2_778
10
24.713548
20
59.9012958
11
23.800248
21
58.9008958
0
LINE
8
DEFAULT_255_2_778
10
23.800248
20
58.9008958
11
23.564748
21
59.1149958
0
LINE
8
DEFAULT_255_2_778
10
23.564748
20
59.1149958
11
24.478148
21
60.1153958
0
LINE
8
DEFAULT_255_2_778
10
24.478148
20
60.1153958
11
23.475348
21
61.0262958
0
LINE
8
DEFAULT_255_2_778
10
23.475348
20
61.0262958
11
23.689948
21
61.2612958
0
LINE
8
DEFAULT_255_2_778
10
23.689948
20
61.2612958
11
24.692748
21
60.3502958
0
LINE
8
DEFAULT_255_2_778
10
24.692748
20
60.3502958
11
25.606048
21
61.3506958
0
LINE
8
DEFAULT_255_2_778
10
25.606048
20
61.3506958
11
25.841548
21
61.1366958
0
LINE
8
DEFAULT_255_2_778
10
25.841548
20
61.1366958
11
24.928148
21
60.1362958
0
LINE
8
DEFAULT_255_2_778
10
24.928148
20
60.1362958
11
25.930948
21
59.2252958
0
LINE
8
DEFAULT_255_2_778
10
22.453248
20
60.1256958
11
22.453248
21
60.1256958
0
ARC
8
DEFAULT_255_2_778
10
24.6973696
20
51.2309931
40
2.2441243
50
158.1911588
51
180.0892915
0
ARC
8
DEFAULT_255_2_778
10
24.6954163
20
51.2276763
40
2.2435465
50
101.2143948
51
158.0939859
0
ARC
8
DEFAULT_255_2_778
10
24.7016851
20
51.1885984
40
2.2830977
50
89.9657983
51
101.1779855
0
ARC
8
DEFAULT_255_2_778
10
24.7065946
20
51.2118302
40
2.2598684
50
68.6434011
51
90.0899184
0
ARC
8
DEFAULT_255_2_778
10
24.7124749
20
51.2304409
40
2.2403947
50
9.7301689
51
68.610131
0
ARC
8
DEFAULT_255_2_778
10
24.6815064
20
51.2285373
40
2.2712418
50
359.9737263
51
9.645465
0
ARC
8
DEFAULT_255_2_778
10
24.7086007
20
51.2239999
40
2.2441501
50
338.1913813
51
0.0892536
0
ARC
8
DEFAULT_255_2_778
10
24.7105907
20
51.2272822
40
2.2435251
50
281.2159759
51
338.0946755
0
ARC
8
DEFAULT_255_2_778
10
24.7044088
20
51.2660846
40
2.2827891
50
269.9658446
51
281.1787412
0
ARC
8
DEFAULT_255_2_778
10
24.6994944
20
51.2434167
40
2.2601237
50
248.6446222
51
270.090086
0
ARC
8
DEFAULT_255_2_778
10
24.693499
20
51.2245538
40
2.2403732
50
189.7303443
51
248.6117554
0
ARC
8
DEFAULT_255_2_778
10
24.7244896
20
51.2264543
40
2.2712418
50
179.9737264
51
189.6454652
0
LINE
8
DEFAULT_255_2_778
10
25.930948
20
50.3270958
11
25.716348
21
50.0921958
0
LINE
8
DEFAULT_255_2_778
10
25.716348
20
50.0921958
11
24.713548
21
51.0030958
0
LINE
8
DEFAULT_255_2_778
10
24.713548
20
51.0030958
11
23.800248
21
50.0026958
0
LINE
8
DEFAULT_255_2_778
10
23.800248
20
50.0026958
11
23.564748
21
50.2167958
0
LINE
8
DEFAULT_255_2_778
10
23.564748
20
50.2167958
11
24.478148
21
51.2171958
0
LINE
8
DEFAULT_255_2_778
10
24.478148
20
51.2171958
11
23.475348
21
52.1280958
0
LINE
8
DEFAULT_255_2_778
10
23.475348
20
52.1280958
11
23.689948
21
52.3630958
0
LINE
8
DEFAULT_255_2_778
10
23.689948
20
52.3630958
11
24.692748
21
51.4520958
0
LINE
8
DEFAULT_255_2_778
10
24.692748
20
51.4520958
11
25.606048
21
52.4524958
0
LINE
8
DEFAULT_255_2_778
10
25.606048
20
52.4524958
11
25.841548
21
52.2384958
0
LINE
8
DEFAULT_255_2_778
10
25.841548
20
52.2384958
11
24.928148
21
51.2380958
0
LINE
8
DEFAULT_255_2_778
10
24.928148
20
51.2380958
11
25.930948
21
50.3270958
0
LINE
8
DEFAULT_255_2_778
10
22.453248
20
51.2274958
11
22.453248
21
51.2274958
0
ARC
8
DEFAULT_255_2_778
10
24.6973696
20
42.3327931
40
2.2441243
50
158.1911588
51
180.0892915
0
ARC
8
DEFAULT_255_2_778
10
24.6954163
20
42.3294763
40
2.2435465
50
101.2143948
51
158.0939859
0
ARC
8
DEFAULT_255_2_778
10
24.7016851
20
42.2903984
40
2.2830977
50
89.9657983
51
101.1779855
0
ARC
8
DEFAULT_255_2_778
10
24.7065946
20
42.3136302
40
2.2598684
50
68.6434011
51
90.0899184
0
ARC
8
DEFAULT_255_2_778
10
24.7124749
20
42.3322409
40
2.2403947
50
9.7301689
51
68.610131
0
ARC
8
DEFAULT_255_2_778
10
24.6815064
20
42.3303373
40
2.2712418
50
359.9737263
51
9.645465
0
ARC
8
DEFAULT_255_2_778
10
24.7086007
20
42.3257999
40
2.2441501
50
338.1913813
51
0.0892536
0
ARC
8
DEFAULT_255_2_778
10
24.7105907
20
42.3290822
40
2.2435251
50
281.2159759
51
338.0946755
0
ARC
8
DEFAULT_255_2_778
10
24.7044088
20
42.3678846
40
2.2827891
50
269.9658446
51
281.1787412
0
ARC
8
DEFAULT_255_2_778
10
24.6994944
20
42.3452167
40
2.2601237
50
248.6446222
51
270.090086
0
ARC
8
DEFAULT_255_2_778
10
24.693499
20
42.3263538
40
2.2403732
50
189.7303443
51
248.6117554
0
ARC
8
DEFAULT_255_2_778
10
24.7244896
20
42.3282543
40
2.2712418
50
179.9737264
51
189.6454652
0
LINE
8
DEFAULT_255_2_778
10
25.930948
20
41.4288958
11
25.716348
21
41.1939958
0
LINE
8
DEFAULT_255_2_778
10
25.716348
20
41.1939958
11
24.713548
21
42.1048958
0
LINE
8
DEFAULT_255_2_778
10
24.713548
20
42.1048958
11
23.800248
21
41.1044958
0
LINE
8
DEFAULT_255_2_778
10
23.800248
20
41.1044958
11
23.564748
21
41.3185958
0
LINE
8
DEFAULT_255_2_778
10
23.564748
20
41.3185958
11
24.478148
21
42.3189958
0
LINE
8
DEFAULT_255_2_778
10
24.478148
20
42.3189958
11
23.475348
21
43.2298958
0
LINE
8
DEFAULT_255_2_778
10
23.475348
20
43.2298958
11
23.689948
21
43.4648958
0
LINE
8
DEFAULT_255_2_778
10
23.689948
20
43.4648958
11
24.692748
21
42.5538958
0
LINE
8
DEFAULT_255_2_778
10
24.692748
20
42.5538958
11
25.606048
21
43.5542958
0
LINE
8
DEFAULT_255_2_778
10
25.606048
20
43.5542958
11
25.841548
21
43.3402958
0
LINE
8
DEFAULT_255_2_778
10
25.841548
20
43.3402958
11
24.928148
21
42.3398958
0
LINE
8
DEFAULT_255_2_778
10
24.928148
20
42.3398958
11
25.930948
21
41.4288958
0
LINE
8
DEFAULT_255_2_778
10
22.453248
20
42.3292958
11
22.453248
21
42.3292958
0
ARC
8
DEFAULT_255_2_778
10
24.6973696
20
33.4342931
40
2.2441243
50
158.1911588
51
180.0892915
0
ARC
8
DEFAULT_255_2_778
10
24.6954163
20
33.4309763
40
2.2435465
50
101.2143948
51
158.0939859
0
ARC
8
DEFAULT_255_2_778
10
24.7016851
20
33.3918984
40
2.2830977
50
89.9657983
51
101.1779855
0
ARC
8
DEFAULT_255_2_778
10
24.7065946
20
33.4151302
40
2.2598684
50
68.6434011
51
90.0899184
0
ARC
8
DEFAULT_255_2_778
10
24.7124749
20
33.4337409
40
2.2403947
50
9.7301689
51
68.610131
0
ARC
8
DEFAULT_255_2_778
10
24.6815064
20
33.4318373
40
2.2712418
50
359.9737263
51
9.645465
0
ARC
8
DEFAULT_255_2_778
10
24.7086007
20
33.4272999
40
2.2441501
50
338.1913813
51
0.0892536
0
ARC
8
DEFAULT_255_2_778
10
24.7105907
20
33.4305822
40
2.2435251
50
281.2159759
51
338.0946755
0
ARC
8
DEFAULT_255_2_778
10
24.7044088
20
33.4693846
40
2.2827891
50
269.9658446
51
281.1787412
0
ARC
8
DEFAULT_255_2_778
10
24.6994944
20
33.4467167
40
2.2601237
50
248.6446222
51
270.090086
0
ARC
8
DEFAULT_255_2_778
10
24.693499
20
33.4278538
40
2.2403732
50
189.7303443
51
248.6117554
0
ARC
8
DEFAULT_255_2_778
10
24.7244896
20
33.4297543
40
2.2712418
50
179.9737264
51
189.6454652
0
LINE
8
DEFAULT_255_2_778
10
25.930948
20
32.5303958
11
25.716348
21
32.2954958
0
LINE
8
DEFAULT_255_2_778
10
25.716348
20
32.2954958
11
24.713548
21
33.2063958
0
LINE
8
DEFAULT_255_2_778
10
24.713548
20
33.2063958
11
23.800248
21
32.2059958
0
LINE
8
DEFAULT_255_2_778
10
23.800248
20
32.2059958
11
23.564748
21
32.4200958
0
LINE
8
DEFAULT_255_2_778
10
23.564748
20
32.4200958
11
24.478148
21
33.4204958
0
LINE
8
DEFAULT_255_2_778
10
24.478148
20
33.4204958
11
23.475348
21
34.3313958
0
LINE
8
DEFAULT_255_2_778
10
23.475348
20
34.3313958
11
23.689948
21
34.5663958
0
LINE
8
DEFAULT_255_2_778
10
23.689948
20
34.5663958
11
24.692748
21
33.6553958
0
LINE
8
DEFAULT_255_2_778
10
24.692748
20
33.6553958
11
25.606048
21
34.6557958
0
LINE
8
DEFAULT_255_2_778
10
25.606048
20
34.6557958
11
25.841548
21
34.4417958
0
LINE
8
DEFAULT_255_2_778
10
25.841548
20
34.4417958
11
24.928148
21
33.4413958
0
LINE
8
DEFAULT_255_2_778
10
24.928148
20
33.4413958
11
25.930948
21
32.5303958
0
LINE
8
DEFAULT_255_2_778
10
22.453248
20
33.4307958
11
22.453248
21
33.4307958
0
ARC
8
DEFAULT_255_2_778
10
24.6973696
20
24.5360931
40
2.2441243
50
158.1911588
51
180.0892915
0
ARC
8
DEFAULT_255_2_778
10
24.6954163
20
24.5327763
40
2.2435465
50
101.2143948
51
158.0939859
0
ARC
8
DEFAULT_255_2_778
10
24.7016851
20
24.4936984
40
2.2830977
50
89.9657983
51
101.1779855
0
ARC
8
DEFAULT_255_2_778
10
24.7065946
20
24.5169302
40
2.2598684
50
68.6434011
51
90.0899184
0
ARC
8
DEFAULT_255_2_778
10
24.7124749
20
24.5355409
40
2.2403947
50
9.7301689
51
68.610131
0
ARC
8
DEFAULT_255_2_778
10
24.6815064
20
24.5336373
40
2.2712418
50
359.9737263
51
9.645465
0
ARC
8
DEFAULT_255_2_778
10
24.7086007
20
24.5290999
40
2.2441501
50
338.1913813
51
0.0892536
0
ARC
8
DEFAULT_255_2_778
10
24.7105907
20
24.5323822
40
2.2435251
50
281.2159759
51
338.0946755
0
ARC
8
DEFAULT_255_2_778
10
24.7044088
20
24.5711846
40
2.2827891
50
269.9658446
51
281.1787412
0
ARC
8
DEFAULT_255_2_778
10
24.6994944
20
24.5485167
40
2.2601237
50
248.6446222
51
270.090086
0
ARC
8
DEFAULT_255_2_778
10
24.693499
20
24.5296538
40
2.2403732
50
189.7303443
51
248.6117554
0
ARC
8
DEFAULT_255_2_778
10
24.7244896
20
24.5315543
40
2.2712418
50
179.9737264
51
189.6454652
0
LINE
8
DEFAULT_255_2_778
10
25.930948
20
23.6321958
11
25.716348
21
23.3972958
0
LINE
8
DEFAULT_255_2_778
10
25.716348
20
23.3972958
11
24.713548
21
24.3081958
0
LINE
8
DEFAULT_255_2_778
10
24.713548
20
24.3081958
11
23.800248
21
23.3077958
0
LINE
8
DEFAULT_255_2_778
10
23.800248
20
23.3077958
11
23.564748
21
23.5218958
0
LINE
8
DEFAULT_255_2_778
10
23.564748
20
23.5218958
11
24.478148
21
24.5222958
0
LINE
8
DEFAULT_255_2_778
10
24.478148
20
24.5222958
11
23.475348
21
25.4331958
0
LINE
8
DEFAULT_255_2_778
10
23.475348
20
25.4331958
11
23.689948
21
25.6681958
0
LINE
8
DEFAULT_255_2_778
10
23.689948
20
25.6681958
11
24.692748
21
24.7571958
0
LINE
8
DEFAULT_255_2_778
10
24.692748
20
24.7571958
11
25.606048
21
25.7575958
0
LINE
8
DEFAULT_255_2_778
10
25.606048
20
25.7575958
11
25.841548
21
25.5435958
0
LINE
8
DEFAULT_255_2_778
10
25.841548
20
25.5435958
11
24.928148
21
24.5431958
0
LINE
8
DEFAULT_255_2_778
10
24.928148
20
24.5431958
11
25.930948
21
23.6321958
0
LINE
8
DEFAULT_255_2_778
10
22.453248
20
24.5325958
11
22.453248
21
24.5325958
0
ARC
8
DEFAULT_255_2_778
10
31.7061696
20
20.0868931
40
2.2441243
50
158.1911588
51
180.0892915
0
ARC
8
DEFAULT_255_2_778
10
31.7042163
20
20.0835763
40
2.2435465
50
101.2143948
51
158.0939859
0
ARC
8
DEFAULT_255_2_778
10
31.7104851
20
20.0444984
40
2.2830977
50
89.9657983
51
101.1779855
0
ARC
8
DEFAULT_255_2_778
10
31.7153946
20
20.0677302
40
2.2598684
50
68.6434011
51
90.0899184
0
ARC
8
DEFAULT_255_2_778
10
31.7212749
20
20.0863409
40
2.2403947
50
9.7301689
51
68.610131
0
ARC
8
DEFAULT_255_2_778
10
31.6903064
20
20.0844373
40
2.2712418
50
359.9737263
51
9.645465
0
ARC
8
DEFAULT_255_2_778
10
31.7174007
20
20.0798999
40
2.2441501
50
338.1913813
51
0.0892536
0
ARC
8
DEFAULT_255_2_778
10
31.7193907
20
20.0831822
40
2.2435251
50
281.2159759
51
338.0946755
0
ARC
8
DEFAULT_255_2_778
10
31.7132088
20
20.1219846
40
2.2827891
50
269.9658446
51
281.1787412
0
ARC
8
DEFAULT_255_2_778
10
31.7082944
20
20.0993167
40
2.2601237
50
248.6446222
51
270.090086
0
ARC
8
DEFAULT_255_2_778
10
31.702299
20
20.0804538
40
2.2403732
50
189.7303443
51
248.6117554
0
ARC
8
DEFAULT_255_2_778
10
31.7332896
20
20.0823543
40
2.2712418
50
179.9737264
51
189.6454652
0
LINE
8
DEFAULT_255_2_778
10
32.939748
20
19.1829958
11
32.725148
21
18.9480958
0
LINE
8
DEFAULT_255_2_778
10
32.725148
20
18.9480958
11
31.722348
21
19.8589958
0
LINE
8
DEFAULT_255_2_778
10
31.722348
20
19.8589958
11
30.809048
21
18.8585958
0
LINE
8
DEFAULT_255_2_778
10
30.809048
20
18.8585958
11
30.573548
21
19.0726958
0
LINE
8
DEFAULT_255_2_778
10
30.573548
20
19.0726958
11
31.486948
21
20.0730958
0
LINE
8
DEFAULT_255_2_778
10
31.486948
20
20.0730958
11
30.484148
21
20.9839958
0
LINE
8
DEFAULT_255_2_778
10
30.484148
20
20.9839958
11
30.698748
21
21.2189958
0
LINE
8
DEFAULT_255_2_778
10
30.698748
20
21.2189958
11
31.701548
21
20.3079958
0
LINE
8
DEFAULT_255_2_778
10
31.701548
20
20.3079958
11
32.614848
21
21.3083958
0
LINE
8
DEFAULT_255_2_778
10
32.614848
20
21.3083958
11
32.850348
21
21.0943958
0
LINE
8
DEFAULT_255_2_778
10
32.850348
20
21.0943958
11
31.936948
21
20.0939958
0
LINE
8
DEFAULT_255_2_778
10
31.936948
20
20.0939958
11
32.939748
21
19.1829958
0
LINE
8
DEFAULT_255_2_778
10
29.462048
20
20.0833958
11
29.462048
21
20.0833958
0
LINE
8
DEFAULT_255_2_778
10
27.3357938
20
25.0091469
11
34.3445938
21
25.0091469
0
LINE
8
DEFAULT_255_2_778
10
27.3357938
20
24.0558469
11
34.3445938
21
24.0558469
0
LINE
8
DEFAULT_255_2_778
10
27.3357938
20
16.1109469
11
34.3445938
21
16.1109469
0
LINE
8
DEFAULT_255_2_778
10
27.3357938
20
15.1576469
11
34.3445938
21
15.1576469
0
ARC
8
DEFAULT_255_2_778
10
24.6973696
20
15.6375931
40
2.2441243
50
158.1911588
51
180.0892915
0
ARC
8
DEFAULT_255_2_778
10
24.6954163
20
15.6342763
40
2.2435465
50
101.2143948
51
158.0939859
0
ARC
8
DEFAULT_255_2_778
10
24.7016851
20
15.5951984
40
2.2830977
50
89.9657983
51
101.1779855
0
ARC
8
DEFAULT_255_2_778
10
24.7065946
20
15.6184302
40
2.2598684
50
68.6434011
51
90.0899184
0
ARC
8
DEFAULT_255_2_778
10
24.7124749
20
15.6370409
40
2.2403947
50
9.7301689
51
68.610131
0
ARC
8
DEFAULT_255_2_778
10
24.6815064
20
15.6351373
40
2.2712418
50
359.9737263
51
9.645465
0
ARC
8
DEFAULT_255_2_778
10
24.7086007
20
15.6305999
40
2.2441501
50
338.1913813
51
0.0892536
0
ARC
8
DEFAULT_255_2_778
10
24.7105907
20
15.6338822
40
2.2435251
50
281.2159759
51
338.0946755
0
ARC
8
DEFAULT_255_2_778
10
24.7044088
20
15.6726846
40
2.2827891
50
269.9658446
51
281.1787412
0
ARC
8
DEFAULT_255_2_778
10
24.6994944
20
15.6500167
40
2.2601237
50
248.6446222
51
270.090086
0
ARC
8
DEFAULT_255_2_778
10
24.693499
20
15.6311538
40
2.2403732
50
189.7303443
51
248.6117554
0
ARC
8
DEFAULT_255_2_778
10
24.7244896
20
15.6330543
40
2.2712418
50
179.9737264
51
189.6454652
0
LINE
8
DEFAULT_255_2_778
10
25.930948
20
14.7336958
11
25.716348
21
14.4987958
0
LINE
8
DEFAULT_255_2_778
10
25.716348
20
14.4987958
11
24.713548
21
15.4096958
0
LINE
8
DEFAULT_255_2_778
10
24.713548
20
15.4096958
11
23.800248
21
14.4092958
0
LINE
8
DEFAULT_255_2_778
10
23.800248
20
14.4092958
11
23.564748
21
14.6233958
0
LINE
8
DEFAULT_255_2_778
10
23.564748
20
14.6233958
11
24.478148
21
15.6237958
0
LINE
8
DEFAULT_255_2_778
10
24.478148
20
15.6237958
11
23.475348
21
16.5346958
0
LINE
8
DEFAULT_255_2_778
10
23.475348
20
16.5346958
11
23.689948
21
16.7696958
0
LINE
8
DEFAULT_255_2_778
10
23.689948
20
16.7696958
11
24.692748
21
15.8586958
0
LINE
8
DEFAULT_255_2_778
10
24.692748
20
15.8586958
11
25.606048
21
16.8590958
0
LINE
8
DEFAULT_255_2_778
10
25.606048
20
16.8590958
11
25.841548
21
16.6450958
0
LINE
8
DEFAULT_255_2_778
10
25.841548
20
16.6450958
11
24.928148
21
15.6446958
0
LINE
8
DEFAULT_255_2_778
10
24.928148
20
15.6446958
11
25.930948
21
14.7336958
0
LINE
8
DEFAULT_255_2_778
10
22.453248
20
15.6340958
11
22.453248
21
15.6340958
0
ARC
8
DEFAULT_255_2_778
10
31.7061696
20
28.9852931
40
2.2441243
50
158.1911588
51
180.0892915
0
ARC
8
DEFAULT_255_2_778
10
31.7042163
20
28.9819763
40
2.2435465
50
101.2143948
51
158.0939859
0
ARC
8
DEFAULT_255_2_778
10
31.7104851
20
28.9428984
40
2.2830977
50
89.9657983
51
101.1779855
0
ARC
8
DEFAULT_255_2_778
10
31.7153946
20
28.9661302
40
2.2598684
50
68.6434011
51
90.0899184
0
ARC
8
DEFAULT_255_2_778
10
31.7212749
20
28.9847409
40
2.2403947
50
9.7301689
51
68.610131
0
ARC
8
DEFAULT_255_2_778
10
31.6903064
20
28.9828373
40
2.2712418
50
359.9737263
51
9.645465
0
ARC
8
DEFAULT_255_2_778
10
31.7174007
20
28.9782999
40
2.2441501
50
338.1913813
51
0.0892536
0
ARC
8
DEFAULT_255_2_778
10
31.7193907
20
28.9815822
40
2.2435251
50
281.2159759
51
338.0946755
0
ARC
8
DEFAULT_255_2_778
10
31.7132088
20
29.0203846
40
2.2827891
50
269.9658446
51
281.1787412
0
ARC
8
DEFAULT_255_2_778
10
31.7082944
20
28.9977167
40
2.2601237
50
248.6446222
51
270.090086
0
ARC
8
DEFAULT_255_2_778
10
31.702299
20
28.9788538
40
2.2403732
50
189.7303443
51
248.6117554
0
ARC
8
DEFAULT_255_2_778
10
31.7332896
20
28.9807543
40
2.2712418
50
179.9737264
51
189.6454652
0
LINE
8
DEFAULT_255_2_778
10
32.939748
20
28.0813958
11
32.725148
21
27.8464958
0
LINE
8
DEFAULT_255_2_778
10
32.725148
20
27.8464958
11
31.722348
21
28.7573958
0
LINE
8
DEFAULT_255_2_778
10
31.722348
20
28.7573958
11
30.809048
21
27.7569958
0
LINE
8
DEFAULT_255_2_778
10
30.809048
20
27.7569958
11
30.573548
21
27.9710958
0
LINE
8
DEFAULT_255_2_778
10
30.573548
20
27.9710958
11
31.486948
21
28.9714958
0
LINE
8
DEFAULT_255_2_778
10
31.486948
20
28.9714958
11
30.484148
21
29.8823958
0
LINE
8
DEFAULT_255_2_778
10
30.484148
20
29.8823958
11
30.698748
21
30.1173958
0
LINE
8
DEFAULT_255_2_778
10
30.698748
20
30.1173958
11
31.701548
21
29.2063958
0
LINE
8
DEFAULT_255_2_778
10
31.701548
20
29.2063958
11
32.614848
21
30.2067958
0
LINE
8
DEFAULT_255_2_778
10
32.614848
20
30.2067958
11
32.850348
21
29.9927958
0
LINE
8
DEFAULT_255_2_778
10
32.850348
20
29.9927958
11
31.936948
21
28.9923958
0
LINE
8
DEFAULT_255_2_778
10
31.936948
20
28.9923958
11
32.939748
21
28.0813958
0
LINE
8
DEFAULT_255_2_778
10
29.462048
20
28.9817958
11
29.462048
21
28.9817958
0
LINE
8
DEFAULT_255_2_778
10
27.3357938
20
33.9075469
11
34.3445938
21
33.9075469
0
LINE
8
DEFAULT_255_2_778
10
27.3357938
20
32.9542469
11
34.3445938
21
32.9542469
0
LINE
8
DEFAULT_255_2_778
10
27.3357938
20
41.8524469
11
34.3445938
21
41.8524469
0
LINE
8
DEFAULT_255_2_778
10
27.3357938
20
42.8057469
11
34.3445938
21
42.8057469
0
ARC
8
DEFAULT_255_2_778
10
31.7061696
20
37.8834931
40
2.2441243
50
158.1911588
51
180.0892915
0
ARC
8
DEFAULT_255_2_778
10
31.7042163
20
37.8801763
40
2.2435465
50
101.2143948
51
158.0939859
0
ARC
8
DEFAULT_255_2_778
10
31.7104851
20
37.8410984
40
2.2830977
50
89.9657983
51
101.1779855
0
ARC
8
DEFAULT_255_2_778
10
31.7153946
20
37.8643302
40
2.2598684
50
68.6434011
51
90.0899184
0
ARC
8
DEFAULT_255_2_778
10
31.7212749
20
37.8829409
40
2.2403947
50
9.7301689
51
68.610131
0
ARC
8
DEFAULT_255_2_778
10
31.6903064
20
37.8810373
40
2.2712418
50
359.9737263
51
9.645465
0
ARC
8
DEFAULT_255_2_778
10
31.7174007
20
37.8764999
40
2.2441501
50
338.1913813
51
0.0892536
0
ARC
8
DEFAULT_255_2_778
10
31.7193907
20
37.8797822
40
2.2435251
50
281.2159759
51
338.0946755
0
ARC
8
DEFAULT_255_2_778
10
31.7132088
20
37.9185846
40
2.2827891
50
269.9658446
51
281.1787412
0
ARC
8
DEFAULT_255_2_778
10
31.7082944
20
37.8959167
40
2.2601237
50
248.6446222
51
270.090086
0
ARC
8
DEFAULT_255_2_778
10
31.702299
20
37.8770538
40
2.2403732
50
189.7303443
51
248.6117554
0
ARC
8
DEFAULT_255_2_778
10
31.7332896
20
37.8789543
40
2.2712418
50
179.9737264
51
189.6454652
0
LINE
8
DEFAULT_255_2_778
10
32.939748
20
36.9795958
11
32.725148
21
36.7446958
0
LINE
8
DEFAULT_255_2_778
10
32.725148
20
36.7446958
11
31.722348
21
37.6555958
0
LINE
8
DEFAULT_255_2_778
10
31.722348
20
37.6555958
11
30.809048
21
36.6551958
0
LINE
8
DEFAULT_255_2_778
10
30.809048
20
36.6551958
11
30.573548
21
36.8692958
0
LINE
8
DEFAULT_255_2_778
10
30.573548
20
36.8692958
11
31.486948
21
37.8696958
0
LINE
8
DEFAULT_255_2_778
10
31.486948
20
37.8696958
11
30.484148
21
38.7805958
0
LINE
8
DEFAULT_255_2_778
10
30.484148
20
38.7805958
11
30.698748
21
39.0155958
0
LINE
8
DEFAULT_255_2_778
10
30.698748
20
39.0155958
11
31.701548
21
38.1045958
0
LINE
8
DEFAULT_255_2_778
10
31.701548
20
38.1045958
11
32.614848
21
39.1049958
0
LINE
8
DEFAULT_255_2_778
10
32.614848
20
39.1049958
11
32.850348
21
38.8909958
0
LINE
8
DEFAULT_255_2_778
10
32.850348
20
38.8909958
11
31.936948
21
37.8905958
0
LINE
8
DEFAULT_255_2_778
10
31.936948
20
37.8905958
11
32.939748
21
36.9795958
0
LINE
8
DEFAULT_255_2_778
10
29.462048
20
37.8799958
11
29.462048
21
37.8799958
0
LINE
8
DEFAULT_255_2_778
10
27.3357938
20
50.7509469
11
34.3445938
21
50.7509469
0
LINE
8
DEFAULT_255_2_778
10
27.3357938
20
51.7042469
11
34.3445938
21
51.7042469
0
ARC
8
DEFAULT_255_2_778
10
31.7061696
20
46.7816931
40
2.2441243
50
158.1911588
51
180.0892915
0
ARC
8
DEFAULT_255_2_778
10
31.7042163
20
46.7783763
40
2.2435465
50
101.2143948
51
158.0939859
0
ARC
8
DEFAULT_255_2_778
10
31.7104851
20
46.7392984
40
2.2830977
50
89.9657983
51
101.1779855
0
ARC
8
DEFAULT_255_2_778
10
31.7153946
20
46.7625302
40
2.2598684
50
68.6434011
51
90.0899184
0
ARC
8
DEFAULT_255_2_778
10
31.7212749
20
46.7811409
40
2.2403947
50
9.7301689
51
68.610131
0
ARC
8
DEFAULT_255_2_778
10
31.6903064
20
46.7792373
40
2.2712418
50
359.9737263
51
9.645465
0
ARC
8
DEFAULT_255_2_778
10
31.7174007
20
46.7746999
40
2.2441501
50
338.1913813
51
0.0892536
0
ARC
8
DEFAULT_255_2_778
10
31.7193907
20
46.7779822
40
2.2435251
50
281.2159759
51
338.0946755
0
ARC
8
DEFAULT_255_2_778
10
31.7132088
20
46.8167846
40
2.2827891
50
269.9658446
51
281.1787412
0
ARC
8
DEFAULT_255_2_778
10
31.7082944
20
46.7941167
40
2.2601237
50
248.6446222
51
270.090086
0
ARC
8
DEFAULT_255_2_778
10
31.702299
20
46.7752538
40
2.2403732
50
189.7303443
51
248.6117554
0
ARC
8
DEFAULT_255_2_778
10
31.7332896
20
46.7771543
40
2.2712418
50
179.9737264
51
189.6454652
0
LINE
8
DEFAULT_255_2_778
10
32.939748
20
45.8777958
11
32.725148
21
45.6428958
0
LINE
8
DEFAULT_255_2_778
10
32.725148
20
45.6428958
11
31.722348
21
46.5537958
0
LINE
8
DEFAULT_255_2_778
10
31.722348
20
46.5537958
11
30.809048
21
45.5533958
0
LINE
8
DEFAULT_255_2_778
10
30.809048
20
45.5533958
11
30.573548
21
45.7674958
0
LINE
8
DEFAULT_255_2_778
10
30.573548
20
45.7674958
11
31.486948
21
46.7678958
0
LINE
8
DEFAULT_255_2_778
10
31.486948
20
46.7678958
11
30.484148
21
47.6787958
0
LINE
8
DEFAULT_255_2_778
10
30.484148
20
47.6787958
11
30.698748
21
47.9137958
0
LINE
8
DEFAULT_255_2_778
10
30.698748
20
47.9137958
11
31.701548
21
47.0027958
0
LINE
8
DEFAULT_255_2_778
10
31.701548
20
47.0027958
11
32.614848
21
48.0031958
0
LINE
8
DEFAULT_255_2_778
10
32.614848
20
48.0031958
11
32.850348
21
47.7891958
0
LINE
8
DEFAULT_255_2_778
10
32.850348
20
47.7891958
11
31.936948
21
46.7887958
0
LINE
8
DEFAULT_255_2_778
10
31.936948
20
46.7887958
11
32.939748
21
45.8777958
0
LINE
8
DEFAULT_255_2_778
10
29.462048
20
46.7781958
11
29.462048
21
46.7781958
0
LINE
8
DEFAULT_255_2_778
10
27.3357938
20
59.6491469
11
34.3445938
21
59.6491469
0
LINE
8
DEFAULT_255_2_778
10
27.3357938
20
60.6024469
11
34.3445938
21
60.6024469
0
ARC
8
DEFAULT_255_2_778
10
31.7061696
20
55.6801931
40
2.2441243
50
158.1911588
51
180.0892915
0
ARC
8
DEFAULT_255_2_778
10
31.7042163
20
55.6768763
40
2.2435465
50
101.2143948
51
158.0939859
0
ARC
8
DEFAULT_255_2_778
10
31.7104851
20
55.6377984
40
2.2830977
50
89.9657983
51
101.1779855
0
ARC
8
DEFAULT_255_2_778
10
31.7153946
20
55.6610302
40
2.2598684
50
68.6434011
51
90.0899184
0
ARC
8
DEFAULT_255_2_778
10
31.7212749
20
55.6796409
40
2.2403947
50
9.7301689
51
68.610131
0
ARC
8
DEFAULT_255_2_778
10
31.6903064
20
55.6777373
40
2.2712418
50
359.9737263
51
9.645465
0
ARC
8
DEFAULT_255_2_778
10
31.7174007
20
55.6731999
40
2.2441501
50
338.1913813
51
0.0892536
0
ARC
8
DEFAULT_255_2_778
10
31.7193907
20
55.6764822
40
2.2435251
50
281.2159759
51
338.0946755
0
ARC
8
DEFAULT_255_2_778
10
31.7132088
20
55.7152846
40
2.2827891
50
269.9658446
51
281.1787412
0
ARC
8
DEFAULT_255_2_778
10
31.7082944
20
55.6926167
40
2.2601237
50
248.6446222
51
270.090086
0
ARC
8
DEFAULT_255_2_778
10
31.702299
20
55.6737538
40
2.2403732
50
189.7303443
51
248.6117554
0
ARC
8
DEFAULT_255_2_778
10
31.7332896
20
55.6756543
40
2.2712418
50
179.9737264
51
189.6454652
0
LINE
8
DEFAULT_255_2_778
10
32.939748
20
54.7762958
11
32.725148
21
54.5413958
0
LINE
8
DEFAULT_255_2_778
10
32.725148
20
54.5413958
11
31.722348
21
55.4522958
0
LINE
8
DEFAULT_255_2_778
10
31.722348
20
55.4522958
11
30.809048
21
54.4518958
0
LINE
8
DEFAULT_255_2_778
10
30.809048
20
54.4518958
11
30.573548
21
54.6659958
0
LINE
8
DEFAULT_255_2_778
10
30.573548
20
54.6659958
11
31.486948
21
55.6663958
0
LINE
8
DEFAULT_255_2_778
10
31.486948
20
55.6663958
11
30.484148
21
56.5772958
0
LINE
8
DEFAULT_255_2_778
10
30.484148
20
56.5772958
11
30.698748
21
56.8122958
0
LINE
8
DEFAULT_255_2_778
10
30.698748
20
56.8122958
11
31.701548
21
55.9012958
0
LINE
8
DEFAULT_255_2_778
10
31.701548
20
55.9012958
11
32.614848
21
56.9016958
0
LINE
8
DEFAULT_255_2_778
10
32.614848
20
56.9016958
11
32.850348
21
56.6876958
0
LINE
8
DEFAULT_255_2_778
10
32.850348
20
56.6876958
11
31.936948
21
55.6872958
0
LINE
8
DEFAULT_255_2_778
10
31.936948
20
55.6872958
11
32.939748
21
54.7762958
0
LINE
8
DEFAULT_255_2_778
10
29.462048
20
55.6766958
11
29.462048
21
55.6766958
0
LINE
8
DEFAULT_255_2_778
10
27.3357938
20
68.5473469
11
34.3445938
21
68.5473469
0
LINE
8
DEFAULT_255_2_778
10
27.3357938
20
69.5006469
11
34.3445938
21
69.5006469
0
ARC
8
DEFAULT_255_2_778
10
31.7061696
20
64.5783931
40
2.2441243
50
158.1911588
51
180.0892915
0
ARC
8
DEFAULT_255_2_778
10
31.7042163
20
64.5750763
40
2.2435465
50
101.2143948
51
158.0939859
0
ARC
8
DEFAULT_255_2_778
10
31.7104851
20
64.5359984
40
2.2830977
50
89.9657983
51
101.1779855
0
ARC
8
DEFAULT_255_2_778
10
31.7153946
20
64.5592302
40
2.2598684
50
68.6434011
51
90.0899184
0
ARC
8
DEFAULT_255_2_778
10
31.7212749
20
64.5778409
40
2.2403947
50
9.7301689
51
68.610131
0
ARC
8
DEFAULT_255_2_778
10
31.6903064
20
64.5759373
40
2.2712418
50
359.9737263
51
9.645465
0
ARC
8
DEFAULT_255_2_778
10
31.7174007
20
64.5713999
40
2.2441501
50
338.1913813
51
0.0892536
0
ARC
8
DEFAULT_255_2_778
10
31.7193907
20
64.5746822
40
2.2435251
50
281.2159759
51
338.0946755
0
ARC
8
DEFAULT_255_2_778
10
31.7132088
20
64.6134846
40
2.2827891
50
269.9658446
51
281.1787412
0
ARC
8
DEFAULT_255_2_778
10
31.7082944
20
64.5908167
40
2.2601237
50
248.6446222
51
270.090086
0
ARC
8
DEFAULT_255_2_778
10
31.702299
20
64.5719538
40
2.2403732
50
189.7303443
51
248.6117554
0
ARC
8
DEFAULT_255_2_778
10
31.7332896
20
64.5738543
40
2.2712418
50
179.9737264
51
189.6454652
0
LINE
8
DEFAULT_255_2_778
10
32.939748
20
63.6744958
11
32.725148
21
63.4395958
0
LINE
8
DEFAULT_255_2_778
10
32.725148
20
63.4395958
11
31.722348
21
64.3504958
0
LINE
8
DEFAULT_255_2_778
10
31.722348
20
64.3504958
11
30.809048
21
63.3500958
0
LINE
8
DEFAULT_255_2_778
10
30.809048
20
63.3500958
11
30.573548
21
63.5641958
0
LINE
8
DEFAULT_255_2_778
10
30.573548
20
63.5641958
11
31.486948
21
64.5645958
0
LINE
8
DEFAULT_255_2_778
10
31.486948
20
64.5645958
11
30.484148
21
65.4754958
0
LINE
8
DEFAULT_255_2_778
10
30.484148
20
65.4754958
11
30.698748
21
65.7104958
0
LINE
8
DEFAULT_255_2_778
10
30.698748
20
65.7104958
11
31.701548
21
64.7994958
0
LINE
8
DEFAULT_255_2_778
10
31.701548
20
64.7994958
11
32.614848
21
65.7998958
0
LINE
8
DEFAULT_255_2_778
10
32.614848
20
65.7998958
11
32.850348
21
65.5858958
0
LINE
8
DEFAULT_255_2_778
10
32.850348
20
65.5858958
11
31.936948
21
64.5854958
0
LINE
8
DEFAULT_255_2_778
10
31.936948
20
64.5854958
11
32.939748
21
63.6744958
0
LINE
8
DEFAULT_255_2_778
10
29.462048
20
64.5748958
11
29.462048
21
64.5748958
0
LINE
8
DEFAULT_255_2_778
10
27.3357938
20
77.4458469
11
34.3445938
21
77.4458469
0
LINE
8
DEFAULT_255_2_778
10
27.3357938
20
78.3991469
11
34.3445938
21
78.3991469
0
ARC
8
DEFAULT_255_2_778
10
31.7061696
20
73.4765931
40
2.2441243
50
158.1911588
51
180.0892915
0
ARC
8
DEFAULT_255_2_778
10
31.7042163
20
73.4732763
40
2.2435465
50
101.2143948
51
158.0939859
0
ARC
8
DEFAULT_255_2_778
10
31.7104851
20
73.4341984
40
2.2830977
50
89.9657983
51
101.1779855
0
ARC
8
DEFAULT_255_2_778
10
31.7153946
20
73.4574302
40
2.2598684
50
68.6434011
51
90.0899184
0
ARC
8
DEFAULT_255_2_778
10
31.7212749
20
73.4760409
40
2.2403947
50
9.7301689
51
68.610131
0
ARC
8
DEFAULT_255_2_778
10
31.6903064
20
73.4741373
40
2.2712418
50
359.9737263
51
9.645465
0
ARC
8
DEFAULT_255_2_778
10
31.7174007
20
73.4695999
40
2.2441501
50
338.1913813
51
0.0892536
0
ARC
8
DEFAULT_255_2_778
10
31.7193907
20
73.4728822
40
2.2435251
50
281.2159759
51
338.0946755
0
ARC
8
DEFAULT_255_2_778
10
31.7132088
20
73.5116846
40
2.2827891
50
269.9658446
51
281.1787412
0
ARC
8
DEFAULT_255_2_778
10
31.7082944
20
73.4890167
40
2.2601237
50
248.6446222
51
270.090086
0
ARC
8
DEFAULT_255_2_778
10
31.702299
20
73.4701538
40
2.2403732
50
189.7303443
51
248.6117554
0
ARC
8
DEFAULT_255_2_778
10
31.7332896
20
73.4720543
40
2.2712418
50
179.9737264
51
189.6454652
0
LINE
8
DEFAULT_255_2_778
10
32.939748
20
72.5726958
11
32.725148
21
72.3377958
0
LINE
8
DEFAULT_255_2_778
10
32.725148
20
72.3377958
11
31.722348
21
73.2486958
0
LINE
8
DEFAULT_255_2_778
10
31.722348
20
73.2486958
11
30.809048
21
72.2482958
0
LINE
8
DEFAULT_255_2_778
10
30.809048
20
72.2482958
11
30.573548
21
72.4623958
0
LINE
8
DEFAULT_255_2_778
10
30.573548
20
72.4623958
11
31.486948
21
73.4627958
0
LINE
8
DEFAULT_255_2_778
10
31.486948
20
73.4627958
11
30.484148
21
74.3736958
0
LINE
8
DEFAULT_255_2_778
10
30.484148
20
74.3736958
11
30.698748
21
74.6086958
0
LINE
8
DEFAULT_255_2_778
10
30.698748
20
74.6086958
11
31.701548
21
73.6976958
0
LINE
8
DEFAULT_255_2_778
10
31.701548
20
73.6976958
11
32.614848
21
74.6980958
0
LINE
8
DEFAULT_255_2_778
10
32.614848
20
74.6980958
11
32.850348
21
74.4840958
0
LINE
8
DEFAULT_255_2_778
10
32.850348
20
74.4840958
11
31.936948
21
73.4836958
0
LINE
8
DEFAULT_255_2_778
10
31.936948
20
73.4836958
11
32.939748
21
72.5726958
0
LINE
8
DEFAULT_255_2_778
10
29.462048
20
73.4730958
11
29.462048
21
73.4730958
0
LINE
8
DEFAULT_255_2_778
10
27.3357938
20
86.3440469
11
34.3445938
21
86.3440469
0
LINE
8
DEFAULT_255_2_778
10
27.3357938
20
87.2973469
11
34.3445938
21
87.2973469
0
ARC
8
DEFAULT_255_2_778
10
31.7061696
20
82.3750931
40
2.2441243
50
158.1911588
51
180.0892915
0
ARC
8
DEFAULT_255_2_778
10
31.7042163
20
82.3717763
40
2.2435465
50
101.2143948
51
158.0939859
0
ARC
8
DEFAULT_255_2_778
10
31.7104851
20
82.3326984
40
2.2830977
50
89.9657983
51
101.1779855
0
ARC
8
DEFAULT_255_2_778
10
31.7153946
20
82.3559302
40
2.2598684
50
68.6434011
51
90.0899184
0
ARC
8
DEFAULT_255_2_778
10
31.7212749
20
82.3745409
40
2.2403947
50
9.7301689
51
68.610131
0
ARC
8
DEFAULT_255_2_778
10
31.6903064
20
82.3726373
40
2.2712418
50
359.9737263
51
9.645465
0
ARC
8
DEFAULT_255_2_778
10
31.7174007
20
82.3680999
40
2.2441501
50
338.1913813
51
0.0892536
0
ARC
8
DEFAULT_255_2_778
10
31.7193907
20
82.3713822
40
2.2435251
50
281.2159759
51
338.0946755
0
ARC
8
DEFAULT_255_2_778
10
31.7132088
20
82.4101846
40
2.2827891
50
269.9658446
51
281.1787412
0
ARC
8
DEFAULT_255_2_778
10
31.7082944
20
82.3875167
40
2.2601237
50
248.6446222
51
270.090086
0
ARC
8
DEFAULT_255_2_778
10
31.702299
20
82.3686538
40
2.2403732
50
189.7303443
51
248.6117554
0
ARC
8
DEFAULT_255_2_778
10
31.7332896
20
82.3705543
40
2.2712418
50
179.9737264
51
189.6454652
0
LINE
8
DEFAULT_255_2_778
10
32.939748
20
81.4711958
11
32.725148
21
81.2362958
0
LINE
8
DEFAULT_255_2_778
10
32.725148
20
81.2362958
11
31.722348
21
82.1471958
0
LINE
8
DEFAULT_255_2_778
10
31.722348
20
82.1471958
11
30.809048
21
81.1467958
0
LINE
8
DEFAULT_255_2_778
10
30.809048
20
81.1467958
11
30.573548
21
81.3608958
0
LINE
8
DEFAULT_255_2_778
10
30.573548
20
81.3608958
11
31.486948
21
82.3612958
0
LINE
8
DEFAULT_255_2_778
10
31.486948
20
82.3612958
11
30.484148
21
83.2721958
0
LINE
8
DEFAULT_255_2_778
10
30.484148
20
83.2721958
11
30.698748
21
83.5071958
0
LINE
8
DEFAULT_255_2_778
10
30.698748
20
83.5071958
11
31.701548
21
82.5961958
0
LINE
8
DEFAULT_255_2_778
10
31.701548
20
82.5961958
11
32.614848
21
83.5965958
0
LINE
8
DEFAULT_255_2_778
10
32.614848
20
83.5965958
11
32.850348
21
83.3825958
0
LINE
8
DEFAULT_255_2_778
10
32.850348
20
83.3825958
11
31.936948
21
82.3821958
0
LINE
8
DEFAULT_255_2_778
10
31.936948
20
82.3821958
11
32.939748
21
81.4711958
0
LINE
8
DEFAULT_255_2_778
10
29.462048
20
82.3715958
11
29.462048
21
82.3715958
0
LINE
8
DEFAULT_255_2_778
10
27.3357938
20
95.2424469
11
34.3445938
21
95.2424469
0
LINE
8
DEFAULT_255_2_778
10
27.3357938
20
96.1957469
11
34.3445938
21
96.1957469
0
ARC
8
DEFAULT_255_2_778
10
31.7061696
20
91.2732931
40
2.2441243
50
158.1911588
51
180.0892915
0
ARC
8
DEFAULT_255_2_778
10
31.7042163
20
91.2699763
40
2.2435465
50
101.2143948
51
158.0939859
0
ARC
8
DEFAULT_255_2_778
10
31.7104851
20
91.2308984
40
2.2830977
50
89.9657983
51
101.1779855
0
ARC
8
DEFAULT_255_2_778
10
31.7153946
20
91.2541302
40
2.2598684
50
68.6434011
51
90.0899184
0
ARC
8
DEFAULT_255_2_778
10
31.7212749
20
91.2727409
40
2.2403947
50
9.7301689
51
68.610131
0
ARC
8
DEFAULT_255_2_778
10
31.6903064
20
91.2708373
40
2.2712418
50
359.9737263
51
9.645465
0
ARC
8
DEFAULT_255_2_778
10
31.7174007
20
91.2662999
40
2.2441501
50
338.1913813
51
0.0892536
0
ARC
8
DEFAULT_255_2_778
10
31.7193907
20
91.2695822
40
2.2435251
50
281.2159759
51
338.0946755
0
ARC
8
DEFAULT_255_2_778
10
31.7132088
20
91.3083846
40
2.2827891
50
269.9658446
51
281.1787412
0
ARC
8
DEFAULT_255_2_778
10
31.7082944
20
91.2857167
40
2.2601237
50
248.6446222
51
270.090086
0
ARC
8
DEFAULT_255_2_778
10
31.702299
20
91.2668538
40
2.2403732
50
189.7303443
51
248.6117554
0
ARC
8
DEFAULT_255_2_778
10
31.7332896
20
91.2687543
40
2.2712418
50
179.9737264
51
189.6454652
0
LINE
8
DEFAULT_255_2_778
10
32.939748
20
90.3693958
11
32.725148
21
90.1344958
0
LINE
8
DEFAULT_255_2_778
10
32.725148
20
90.1344958
11
31.722348
21
91.0453958
0
LINE
8
DEFAULT_255_2_778
10
31.722348
20
91.0453958
11
30.809048
21
90.0449958
0
LINE
8
DEFAULT_255_2_778
10
30.809048
20
90.0449958
11
30.573548
21
90.2590958
0
LINE
8
DEFAULT_255_2_778
10
30.573548
20
90.2590958
11
31.486948
21
91.2594958
0
LINE
8
DEFAULT_255_2_778
10
31.486948
20
91.2594958
11
30.484148
21
92.1703958
0
LINE
8
DEFAULT_255_2_778
10
30.484148
20
92.1703958
11
30.698748
21
92.4053958
0
LINE
8
DEFAULT_255_2_778
10
30.698748
20
92.4053958
11
31.701548
21
91.4943958
0
LINE
8
DEFAULT_255_2_778
10
31.701548
20
91.4943958
11
32.614848
21
92.4947958
0
LINE
8
DEFAULT_255_2_778
10
32.614848
20
92.4947958
11
32.850348
21
92.2807958
0
LINE
8
DEFAULT_255_2_778
10
32.850348
20
92.2807958
11
31.936948
21
91.2803958
0
LINE
8
DEFAULT_255_2_778
10
31.936948
20
91.2803958
11
32.939748
21
90.3693958
0
LINE
8
DEFAULT_255_2_778
10
29.462048
20
91.2697958
11
29.462048
21
91.2697958
0
ARC
8
DEFAULT_255_2_778
10
31.7061696
20
100.1716931
40
2.2441243
50
158.1911588
51
180.0892915
0
ARC
8
DEFAULT_255_2_778
10
31.7042163
20
100.1683763
40
2.2435465
50
101.2143948
51
158.0939859
0
ARC
8
DEFAULT_255_2_778
10
31.7104851
20
100.1292984
40
2.2830977
50
89.9657983
51
101.1779855
0
ARC
8
DEFAULT_255_2_778
10
31.7153946
20
100.1525302
40
2.2598684
50
68.6434011
51
90.0899184
0
ARC
8
DEFAULT_255_2_778
10
31.7212749
20
100.1711409
40
2.2403947
50
9.7301689
51
68.610131
0
ARC
8
DEFAULT_255_2_778
10
31.6903064
20
100.1692373
40
2.2712418
50
359.9737263
51
9.645465
0
ARC
8
DEFAULT_255_2_778
10
31.7174007
20
100.1646999
40
2.2441501
50
338.1913813
51
0.0892536
0
ARC
8
DEFAULT_255_2_778
10
31.7193907
20
100.1679822
40
2.2435251
50
281.2159759
51
338.0946755
0
ARC
8
DEFAULT_255_2_778
10
31.7132088
20
100.2067846
40
2.2827891
50
269.9658446
51
281.1787412
0
ARC
8
DEFAULT_255_2_778
10
31.7082944
20
100.1841167
40
2.2601237
50
248.6446222
51
270.090086
0
ARC
8
DEFAULT_255_2_778
10
31.702299
20
100.1652538
40
2.2403732
50
189.7303443
51
248.6117554
0
ARC
8
DEFAULT_255_2_778
10
31.7332896
20
100.1671543
40
2.2712418
50
179.9737264
51
189.6454652
0
LINE
8
DEFAULT_255_2_778
10
32.939748
20
99.2677958
11
32.725148
21
99.0328958
0
LINE
8
DEFAULT_255_2_778
10
32.725148
20
99.0328958
11
31.722348
21
99.9437958
0
LINE
8
DEFAULT_255_2_778
10
31.722348
20
99.9437958
11
30.809048
21
98.9433958
0
LINE
8
DEFAULT_255_2_778
10
30.809048
20
98.9433958
11
30.573548
21
99.1574958
0
LINE
8
DEFAULT_255_2_778
10
30.573548
20
99.1574958
11
31.486948
21
100.1578958
0
LINE
8
DEFAULT_255_2_778
10
31.486948
20
100.1578958
11
30.484148
21
101.0687958
0
LINE
8
DEFAULT_255_2_778
10
30.484148
20
101.0687958
11
30.698748
21
101.3037958
0
LINE
8
DEFAULT_255_2_778
10
30.698748
20
101.3037958
11
31.701548
21
100.3927958
0
LINE
8
DEFAULT_255_2_778
10
31.701548
20
100.3927958
11
32.614848
21
101.3931958
0
LINE
8
DEFAULT_255_2_778
10
32.614848
20
101.3931958
11
32.850348
21
101.1791958
0
LINE
8
DEFAULT_255_2_778
10
32.850348
20
101.1791958
11
31.936948
21
100.1787958
0
LINE
8
DEFAULT_255_2_778
10
31.936948
20
100.1787958
11
32.939748
21
99.2677958
0
LINE
8
DEFAULT_255_2_778
10
29.462048
20
100.1681958
11
29.462048
21
100.1681958
0
LINE
8
DEFAULT_255_2_778
10
27.3357938
20
103.8507
11
34.3445938
21
103.8507
0
LINE
8
DEFAULT_255_2_778
10
20.3269876
20
7.1704
11
27.2579876
21
7.1704
0
LINE
8
DEFAULT_255_2_778
10
34.3446521
20
108.9074
11
31.7575521
21
108.9074
0
ARC
8
DEFAULT_255_2_778
10
29.5021696
20
108.9108931
40
2.2441243
50
158.1911588
51
180.0892915
0
ARC
8
DEFAULT_255_2_778
10
29.5002163
20
108.9075763
40
2.2435465
50
101.2143948
51
158.0939859
0
ARC
8
DEFAULT_255_2_778
10
29.5064851
20
108.8684984
40
2.2830977
50
89.9657983
51
101.1779855
0
ARC
8
DEFAULT_255_2_778
10
29.5113946
20
108.8917302
40
2.2598684
50
68.6434011
51
90.0899184
0
ARC
8
DEFAULT_255_2_778
10
29.5172749
20
108.9103409
40
2.2403947
50
9.7301689
51
68.610131
0
ARC
8
DEFAULT_255_2_778
10
29.4863064
20
108.9084373
40
2.2712418
50
359.9737263
51
9.645465
0
ARC
8
DEFAULT_255_2_778
10
29.5134007
20
108.9038999
40
2.2441501
50
338.1913813
51
0.0892536
0
ARC
8
DEFAULT_255_2_778
10
29.5153907
20
108.9071822
40
2.2435251
50
281.2159759
51
338.0946755
0
ARC
8
DEFAULT_255_2_778
10
29.5092088
20
108.9459846
40
2.2827891
50
269.9658446
51
281.1787412
0
ARC
8
DEFAULT_255_2_778
10
29.5042944
20
108.9233167
40
2.2601237
50
248.6446222
51
270.090086
0
ARC
8
DEFAULT_255_2_778
10
29.498299
20
108.9044538
40
2.2403732
50
189.7303443
51
248.6117554
0
ARC
8
DEFAULT_255_2_778
10
29.5292896
20
108.9063543
40
2.2712418
50
179.9737264
51
189.6454652
0
LINE
8
DEFAULT_255_2_778
10
30.735748
20
108.0069958
11
30.521148
21
107.7720958
0
LINE
8
DEFAULT_255_2_778
10
30.521148
20
107.7720958
11
29.518348
21
108.6829958
0
LINE
8
DEFAULT_255_2_778
10
29.518348
20
108.6829958
11
28.605048
21
107.6825958
0
LINE
8
DEFAULT_255_2_778
10
28.605048
20
107.6825958
11
28.369548
21
107.8966958
0
LINE
8
DEFAULT_255_2_778
10
28.369548
20
107.8966958
11
29.282948
21
108.8970958
0
LINE
8
DEFAULT_255_2_778
10
29.282948
20
108.8970958
11
28.280148
21
109.8079958
0
LINE
8
DEFAULT_255_2_778
10
28.280148
20
109.8079958
11
28.494748
21
110.0429958
0
LINE
8
DEFAULT_255_2_778
10
28.494748
20
110.0429958
11
29.497448
21
109.1319958
0
LINE
8
DEFAULT_255_2_778
10
29.497448
20
109.1319958
11
30.410848
21
110.1323958
0
LINE
8
DEFAULT_255_2_778
10
30.410848
20
110.1323958
11
30.646348
21
109.9183958
0
LINE
8
DEFAULT_255_2_778
10
30.646348
20
109.9183958
11
29.732948
21
108.9179958
0
LINE
8
DEFAULT_255_2_778
10
29.732948
20
108.9179958
11
30.735748
21
108.0069958
0
LINE
8
DEFAULT_255_2_778
10
27.258048
20
108.9073958
11
27.258048
21
108.9073958
0
LINE
8
DEFAULT_255_2_778
10
34.3446521
20
7.1704
11
31.7575521
21
7.1704
0
ARC
8
DEFAULT_255_2_778
10
29.5021696
20
7.1738931
40
2.2441243
50
158.1911588
51
180.0892915
0
ARC
8
DEFAULT_255_2_778
10
29.5002163
20
7.1705763
40
2.2435465
50
101.2143948
51
158.0939859
0
ARC
8
DEFAULT_255_2_778
10
29.5064851
20
7.1314984
40
2.2830977
50
89.9657983
51
101.1779855
0
ARC
8
DEFAULT_255_2_778
10
29.5113946
20
7.1547302
40
2.2598684
50
68.6434011
51
90.0899184
0
ARC
8
DEFAULT_255_2_778
10
29.5172749
20
7.1733409
40
2.2403947
50
9.7301689
51
68.610131
0
ARC
8
DEFAULT_255_2_778
10
29.4863064
20
7.1714373
40
2.2712418
50
359.9737263
51
9.645465
0
ARC
8
DEFAULT_255_2_778
10
29.5134007
20
7.1668999
40
2.2441501
50
338.1913813
51
0.0892536
0
ARC
8
DEFAULT_255_2_778
10
29.5153907
20
7.1701822
40
2.2435251
50
281.2159759
51
338.0946755
0
ARC
8
DEFAULT_255_2_778
10
29.5092088
20
7.2089846
40
2.2827891
50
269.9658446
51
281.1787412
0
ARC
8
DEFAULT_255_2_778
10
29.5042944
20
7.1863167
40
2.2601237
50
248.6446222
51
270.090086
0
ARC
8
DEFAULT_255_2_778
10
29.498299
20
7.1674538
40
2.2403732
50
189.7303443
51
248.6117554
0
ARC
8
DEFAULT_255_2_778
10
29.5292896
20
7.1693543
40
2.2712418
50
179.9737264
51
189.6454652
0
LINE
8
DEFAULT_255_2_778
10
30.735748
20
6.2700958
11
30.521148
21
6.0350958
0
LINE
8
DEFAULT_255_2_778
10
30.521148
20
6.0350958
11
29.518348
21
6.9459958
0
LINE
8
DEFAULT_255_2_778
10
29.518348
20
6.9459958
11
28.605048
21
5.9455958
0
LINE
8
DEFAULT_255_2_778
10
28.605048
20
5.9455958
11
28.369548
21
6.1596958
0
LINE
8
DEFAULT_255_2_778
10
28.369548
20
6.1596958
11
29.282948
21
7.1600958
0
LINE
8
DEFAULT_255_2_778
10
29.282948
20
7.1600958
11
28.280148
21
8.0710958
0
LINE
8
DEFAULT_255_2_778
10
28.280148
20
8.0710958
11
28.494748
21
8.3059958
0
LINE
8
DEFAULT_255_2_778
10
28.494748
20
8.3059958
11
29.497448
21
7.3950958
0
LINE
8
DEFAULT_255_2_778
10
29.497448
20
7.3950958
11
30.410848
21
8.3954958
0
LINE
8
DEFAULT_255_2_778
10
30.410848
20
8.3954958
11
30.646348
21
8.1813958
0
LINE
8
DEFAULT_255_2_778
10
30.646348
20
8.1813958
11
29.732948
21
7.1809958
0
LINE
8
DEFAULT_255_2_778
10
29.732948
20
7.1809958
11
30.735748
21
6.2700958
0
LINE
8
DEFAULT_255_2_778
10
27.258048
20
7.1703958
11
27.258048
21
7.1703958
0
ENDSEC
0
EOF