0
SECTION
2
HEADER
9
$MEASUREMENT
70
1
0
ENDSEC
0
SECTION
2
TABLES
0
TABLE
2
LTYPE
0
LTYPE
72
65
70
64
2
CONTINUOUS
3
______
73
0
40
0
0
ENDTAB
0
TABLE
2
LAYER
0
LAYER
2
DEFAULT_255_2_778
70
0
62
255
6
CONTINUOUS
0
ENDTAB
0
ENDSEC
0
SECTION
2
ENTITIES
0
ARC
8
DEFAULT_255_2_778
10
3.4189668
20
146.683447
40
3.1627365
50
161.9660677
51
180.0555584
0
ARC
8
DEFAULT_255_2_778
10
3.4448406
20
146.6659922
40
3.1927545
50
105.1017479
51
161.8119628
0
ARC
8
DEFAULT_255_2_778
10
3.4450792
20
146.6506478
40
3.2076333
50
89.9544059
51
105.0344536
0
ARC
8
DEFAULT_255_2_778
10
33.0677906
20
146.6568399
40
3.201442
50
72.1148689
51
90.0583238
0
ARC
8
DEFAULT_255_2_778
10
33.0685885
20
146.6679315
40
3.1906423
50
15.4367011
51
72.0673344
0
ARC
8
DEFAULT_255_2_778
10
33.0869494
20
146.6828637
40
3.1689834
50
359.9550976
51
15.2648244
0
ARC
8
DEFAULT_255_2_778
10
33.0928396
20
3.0330942
40
3.1630937
50
341.9670939
51
0.0558999
0
ARC
8
DEFAULT_255_2_778
10
33.0675247
20
3.0503697
40
3.1925245
50
285.1346865
51
341.8129234
0
ARC
8
DEFAULT_255_2_778
10
33.067098
20
3.0661522
40
3.2078732
50
269.9541636
51
285.0684435
0
ARC
8
DEFAULT_255_2_778
10
3.4443932
20
3.0594888
40
3.2012102
50
252.1152887
51
270.0579641
0
ARC
8
DEFAULT_255_2_778
10
3.4436589
20
3.0487326
40
3.1907493
50
195.439388
51
252.0685214
0
ARC
8
DEFAULT_255_2_778
10
3.4251235
20
3.0336904
40
3.1688928
50
179.9549828
51
195.2664478
0
LINE
8
DEFAULT_255_2_778
10
3.4476318
20
149.8582802
11
33.0645318
21
149.8582802
0
LINE
8
DEFAULT_255_2_778
10
36.2559318
20
146.6803802
11
36.2559318
21
3.0361802
0
LINE
8
DEFAULT_255_2_778
10
33.0645318
20
-0.1417198
11
3.4476318
21
-0.1417198
0
LINE
8
DEFAULT_255_2_778
10
0.2562318
20
3.0361802
11
0.2562318
21
146.6803802
0
ARC
8
DEFAULT_255_2_778
10
32.2779042
20
3.61834
40
2.5271592
50
339.1283339
51
0.0658688
0
ARC
8
DEFAULT_255_2_778
10
32.2541562
20
3.6332796
40
2.5546775
50
282.0150055
51
339.0050162
0
ARC
8
DEFAULT_255_2_778
10
32.2532222
20
3.6533323
40
2.5744875
50
269.9674958
51
281.9424342
0
LINE
8
DEFAULT_255_2_778
10
34.8050617
20
116.3816453
11
34.8050617
21
3.6212453
0
LINE
8
DEFAULT_255_2_778
10
32.2517617
20
1.0788453
11
17.7121617
21
1.0788453
0
LINE
8
DEFAULT_255_2_778
10
17.7121617
20
1.0788453
11
17.7121617
21
-0.1416547
0
LINE
8
DEFAULT_255_2_778
10
12.4009065
20
28.6278
11
27.0329065
21
28.6278
0
LINE
8
DEFAULT_255_2_778
10
12.4009065
20
46.9023
11
27.0329065
21
46.9023
0
LINE
8
DEFAULT_255_2_778
10
12.4009065
20
37.7652
11
27.0329065
21
37.7652
0
LINE
8
DEFAULT_255_2_778
10
11.1470763
20
56.0397
11
27.0328763
21
56.0397
0
LINE
8
DEFAULT_255_2_778
10
11.2613263
20
92.5863
11
27.0328263
21
92.5863
0
LINE
8
DEFAULT_255_2_778
10
12.4009065
20
83.449
11
27.0329065
21
83.449
0
LINE
8
DEFAULT_255_2_778
10
12.4009065
20
74.3118
11
27.0329065
21
74.3118
0
LINE
8
DEFAULT_255_2_778
10
36.2561995
20
116.3816594
11
0.2561995
21
116.3816594
0
LINE
8
DEFAULT_255_2_778
10
36.2561995
20
117.6365594
11
0.2561995
21
117.6365594
0
LINE
8
DEFAULT_255_2_778
10
11.0668596
20
100.0085146
11
11.0668596
21
101.7235146
0
LINE
8
DEFAULT_255_2_778
10
11.0668596
20
101.7235146
11
27.0331596
21
101.7235146
0
ARC
8
DEFAULT_255_2_778
10
3.3831606
20
120.6471904
40
0.516601
50
60.9007738
51
91.1607162
0
ARC
8
DEFAULT_255_2_778
10
3.416129
20
120.7158907
40
0.4405629
50
26.5896221
51
60.3020671
0
ARC
8
DEFAULT_255_2_778
10
3.2707185
20
120.6454249
40
0.6021379
50
359.1874039
51
26.392435
0
ARC
8
DEFAULT_255_2_778
10
3.2682405
20
120.5513026
40
0.6047034
50
333.8171975
51
1.2681232
0
ARC
8
DEFAULT_255_2_778
10
3.4229751
20
120.4787307
40
0.4338361
50
299.1349073
51
333.401293
0
ARC
8
DEFAULT_255_2_778
10
3.3727056
20
120.585328
40
0.5514787
50
269.3444325
51
298.3048002
0
ARC
8
DEFAULT_255_2_778
10
3.373919
20
120.5206495
40
0.3653489
50
267.7375038
51
304.7226819
0
ARC
8
DEFAULT_255_2_778
10
3.4003826
20
120.466545
40
0.30594
50
306.4210309
51
318.2400135
0
ARC
8
DEFAULT_255_2_778
10
3.3319181
20
120.5146818
40
0.3891908
50
319.6668314
51
354.6729948
0
ARC
8
DEFAULT_255_2_778
10
3.0353639
20
120.5652444
40
0.689536
50
352.7771113
51
0.1945185
0
ARC
8
DEFAULT_255_2_778
10
3.1763337
20
120.6462234
40
0.54871
50
358.6697936
51
20.484752
0
ARC
8
DEFAULT_255_2_778
10
3.3745455
20
120.7139267
40
0.3393909
50
21.4882143
51
40.0887413
0
ARC
8
DEFAULT_255_2_778
10
3.3937463
20
120.7194179
40
0.321269
50
41.5448495
51
91.654909
0
ARC
8
DEFAULT_255_2_778
10
3.371729
20
120.5224789
40
0.5182305
50
88.5914103
51
89.4508601
0
LINE
8
DEFAULT_255_2_778
10
3.3666958
20
120.0338854
11
3.0525958
21
120.0338854
0
LINE
8
DEFAULT_255_2_778
10
3.0525958
20
120.0338854
11
3.0525958
21
121.1636854
0
LINE
8
DEFAULT_255_2_778
10
3.0525958
20
121.1636854
11
3.3726958
21
121.1636854
0
LINE
8
DEFAULT_255_2_778
10
3.8727958
20
120.6368854
11
3.8727958
21
120.5646854
0
LINE
8
DEFAULT_255_2_778
10
3.3663958
20
120.0338854
11
3.3666958
21
120.0338854
0
LINE
8
DEFAULT_255_2_778
10
3.3766958
20
121.0408854
11
3.2020958
21
121.0408854
0
LINE
8
DEFAULT_255_2_778
10
3.2020958
20
121.0408854
11
3.2020958
21
120.1555854
0
LINE
8
DEFAULT_255_2_778
10
3.2020958
20
120.1555854
11
3.3594958
21
120.1555854
0
LINE
8
DEFAULT_255_2_778
10
3.7248958
20
120.5675854
11
3.7248958
21
120.6334854
0
LINE
8
DEFAULT_255_2_778
10
3.3766958
20
121.0406854
11
3.3766958
21
121.0408854
0
LINE
8
DEFAULT_255_2_778
10
4.6700573
20
121.1636854
11
4.6700573
21
120.4132854
0
LINE
8
DEFAULT_255_2_778
10
4.6700573
20
120.4132854
11
4.8274573
21
120.4132854
0
LINE
8
DEFAULT_255_2_778
10
4.8274573
20
120.4132854
11
4.8274573
21
120.2960854
0
LINE
8
DEFAULT_255_2_778
10
4.8274573
20
120.2960854
11
4.6700573
21
120.2960854
0
LINE
8
DEFAULT_255_2_778
10
4.6700573
20
120.2960854
11
4.6700573
21
120.0338854
0
LINE
8
DEFAULT_255_2_778
10
4.6700573
20
120.0338854
11
4.5250573
21
120.0338854
0
LINE
8
DEFAULT_255_2_778
10
4.5250573
20
120.0338854
11
4.5250573
21
120.2960854
0
LINE
8
DEFAULT_255_2_778
10
4.5250573
20
120.2960854
11
4.0085573
21
120.2960854
0
LINE
8
DEFAULT_255_2_778
10
4.0085573
20
120.2960854
11
4.0085573
21
120.3807854
0
LINE
8
DEFAULT_255_2_778
10
4.0085573
20
120.3807854
11
4.5165573
21
121.1636854
0
LINE
8
DEFAULT_255_2_778
10
4.5165573
20
121.1636854
11
4.6700573
21
121.1636854
0
LINE
8
DEFAULT_255_2_778
10
4.6700573
20
121.1636854
11
4.6700573
21
121.1636854
0
LINE
8
DEFAULT_255_2_778
10
4.5078573
20
120.9363854
11
4.1720573
21
120.4135854
0
LINE
8
DEFAULT_255_2_778
10
4.1720573
20
120.4135854
11
4.5250573
21
120.4135854
0
LINE
8
DEFAULT_255_2_778
10
4.5250573
20
120.4135854
11
4.5250573
21
120.9675854
0
LINE
8
DEFAULT_255_2_778
10
4.5250573
20
120.9675854
11
4.5078573
21
120.9366854
0
LINE
8
DEFAULT_255_2_778
10
4.5078573
20
120.9366854
11
4.5078573
21
120.9363854
0
LINE
8
DEFAULT_255_2_778
10
5.2724969
20
120.5726052
11
5.2724969
21
120.4554052
0
LINE
8
DEFAULT_255_2_778
10
5.2724969
20
120.4554052
11
4.8922969
21
120.4554052
0
LINE
8
DEFAULT_255_2_778
10
4.8922969
20
120.4554052
11
4.8922969
21
120.5726052
0
LINE
8
DEFAULT_255_2_778
10
4.8922969
20
120.5726052
11
5.2724969
21
120.5726052
0
LINE
8
DEFAULT_255_2_778
10
5.2724969
20
120.5726052
11
5.2724969
21
120.5726052
0
LINE
8
DEFAULT_255_2_778
10
5.8714479
20
121.1692635
11
5.8714479
21
120.0342635
0
LINE
8
DEFAULT_255_2_778
10
5.8714479
20
120.0342635
11
5.7264479
21
120.0342635
0
LINE
8
DEFAULT_255_2_778
10
5.7264479
20
120.0342635
11
5.7264479
21
120.9909635
0
LINE
8
DEFAULT_255_2_778
10
5.7264479
20
120.9909635
11
5.4359479
21
120.8845635
0
LINE
8
DEFAULT_255_2_778
10
5.4359479
20
120.8845635
11
5.4359479
21
121.0150635
0
LINE
8
DEFAULT_255_2_778
10
5.4359479
20
121.0150635
11
5.8489479
21
121.1695635
0
LINE
8
DEFAULT_255_2_778
10
5.8489479
20
121.1695635
11
5.8714479
21
121.1695635
0
LINE
8
DEFAULT_255_2_778
10
5.8714479
20
121.1695635
11
5.8714479
21
121.1692635
0
ARC
8
DEFAULT_255_2_778
10
6.8261185
20
120.64168
40
0.4011669
50
89.0139875
51
123.7801706
0
ARC
8
DEFAULT_255_2_778
10
6.7928999
20
120.7073711
40
0.3282172
50
125.3364859
51
133.970675
0
ARC
8
DEFAULT_255_2_778
10
6.8449476
20
120.6675868
40
0.3931091
50
135.4045207
51
173.4116982
0
ARC
8
DEFAULT_255_2_778
10
7.0766895
20
120.6172594
40
0.6295303
50
171.2809182
51
174.930482
0
ARC
8
DEFAULT_255_2_778
10
6.6795144
20
120.4670986
40
0.3085444
50
87.2492461
51
138.1666045
0
ARC
8
DEFAULT_255_2_778
10
6.7060396
20
120.4806295
40
0.2948909
50
40.3065162
51
92.2772981
0
ARC
8
DEFAULT_255_2_778
10
6.6238817
20
120.4222367
40
0.3954109
50
358.8478608
51
39.05795
0
ARC
8
DEFAULT_255_2_778
10
6.417763
20
120.4028139
40
0.601559
50
359.9974809
51
1.092731
0
ARC
8
DEFAULT_255_2_778
10
6.5904743
20
120.3888721
40
0.4290733
50
330.0188811
51
1.8584993
0
ARC
8
DEFAULT_255_2_778
10
6.6749536
20
120.3504742
40
0.3368294
50
317.6087935
51
328.4953202
0
ARC
8
DEFAULT_255_2_778
10
6.6825637
20
120.3474326
40
0.3291709
50
267.4505949
51
317.1067468
0
ARC
8
DEFAULT_255_2_778
10
6.659494
20
120.3429147
40
0.3244367
50
217.9964253
51
271.4885426
0
ARC
8
DEFAULT_255_2_778
10
6.7776278
20
120.4347429
40
0.4740627
50
181.5278073
51
217.9529716
0
ARC
8
DEFAULT_255_2_778
10
7.0198028
20
120.4637818
40
0.717281
50
179.9675972
51
183.331113
0
ARC
8
DEFAULT_255_2_778
10
7.3627067
20
120.5318878
40
1.0602608
50
167.0332303
51
180.6863328
0
ARC
8
DEFAULT_255_2_778
10
6.8831616
20
120.646993
40
0.5671345
50
142.0215885
51
167.4946115
0
ARC
8
DEFAULT_255_2_778
10
6.7865207
20
120.7039108
40
0.4561668
50
95.9325682
51
140.1869363
0
ARC
8
DEFAULT_255_2_778
10
6.8431299
20
120.4147402
40
0.7501049
50
90.7110019
51
97.9508868
0
ARC
8
DEFAULT_255_2_778
10
6.6696736
20
120.4252316
40
0.2302567
50
89.8386919
51
126.0954755
0
ARC
8
DEFAULT_255_2_778
10
6.6634479
20
120.4211533
40
0.2300046
50
124.2434684
51
159.8493547
0
ARC
8
DEFAULT_255_2_778
10
6.8449009
20
120.4346104
40
0.3975975
50
178.1007745
51
206.8124011
0
ARC
8
DEFAULT_255_2_778
10
6.7332646
20
120.3877582
40
0.2769613
50
208.5795391
51
216.5328867
0
ARC
8
DEFAULT_255_2_778
10
6.669223
20
120.3270475
40
0.1896627
50
213.311166
51
269.6975568
0
ARC
8
DEFAULT_255_2_778
10
6.6758016
20
120.3208207
40
0.1835898
50
267.6338052
51
322.4327573
0
ARC
8
DEFAULT_255_2_778
10
6.5828651
20
120.3820246
40
0.294683
50
324.017599
51
2.696384
0
ARC
8
DEFAULT_255_2_778
10
6.5827938
20
120.4098585
40
0.2947594
50
357.2832673
51
36.2102112
0
ARC
8
DEFAULT_255_2_778
10
6.6758477
20
120.4738737
40
0.1818917
50
37.2562409
51
91.6778686
0
LINE
8
DEFAULT_255_2_778
10
6.8338219
20
121.1644875
11
6.8594219
21
121.1644875
0
LINE
8
DEFAULT_255_2_778
10
6.8594219
20
121.1644875
11
6.8594219
21
121.0427875
0
LINE
8
DEFAULT_255_2_778
10
6.8594219
20
121.0427875
11
6.8330219
21
121.0427875
0
LINE
8
DEFAULT_255_2_778
10
6.3025219
20
120.4641875
11
6.3025219
21
120.5191875
0
LINE
8
DEFAULT_255_2_778
10
6.8338219
20
121.1647875
11
6.8338219
21
121.1644875
0
LINE
8
DEFAULT_255_2_778
10
6.4475219
20
120.5003875
11
6.4475219
21
120.4477875
0
LINE
8
DEFAULT_255_2_778
10
6.6705219
20
120.6556875
11
6.6703219
21
120.6554875
0
LINE
8
DEFAULT_255_2_778
10
8.099299
20
121.1636854
11
8.099299
21
120.0338854
0
LINE
8
DEFAULT_255_2_778
10
8.099299
20
120.0338854
11
7.948999
21
120.0338854
0
LINE
8
DEFAULT_255_2_778
10
7.948999
20
120.0338854
11
7.377799
21
120.9043854
0
LINE
8
DEFAULT_255_2_778
10
7.377799
20
120.9043854
11
7.377799
21
120.0338854
0
LINE
8
DEFAULT_255_2_778
10
7.377799
20
120.0338854
11
7.227499
21
120.0338854
0
LINE
8
DEFAULT_255_2_778
10
7.227499
20
120.0338854
11
7.227499
21
121.1636854
0
LINE
8
DEFAULT_255_2_778
10
7.227499
20
121.1636854
11
7.377799
21
121.1636854
0
LINE
8
DEFAULT_255_2_778
10
7.377799
20
121.1636854
11
7.950599
21
120.2892854
0
LINE
8
DEFAULT_255_2_778
10
7.950599
20
120.2892854
11
7.950599
21
121.1636854
0
LINE
8
DEFAULT_255_2_778
10
7.950599
20
121.1636854
11
8.099299
21
121.1636854
0
LINE
8
DEFAULT_255_2_778
10
8.099299
20
121.1636854
11
8.099299
21
121.1636854
0
ARC
8
DEFAULT_255_2_778
10
8.6954606
20
120.6471904
40
0.516601
50
60.9007738
51
91.1607162
0
ARC
8
DEFAULT_255_2_778
10
8.728429
20
120.7158907
40
0.4405629
50
26.5896221
51
60.3020671
0
ARC
8
DEFAULT_255_2_778
10
8.5830185
20
120.6454249
40
0.6021379
50
359.1874039
51
26.392435
0
ARC
8
DEFAULT_255_2_778
10
8.5805405
20
120.5513026
40
0.6047034
50
333.8171975
51
1.2681232
0
ARC
8
DEFAULT_255_2_778
10
8.7352751
20
120.4787307
40
0.4338361
50
299.1349073
51
333.401293
0
ARC
8
DEFAULT_255_2_778
10
8.6850056
20
120.585328
40
0.5514787
50
269.3444325
51
298.3048002
0
ARC
8
DEFAULT_255_2_778
10
8.686219
20
120.5206495
40
0.3653489
50
267.7375038
51
304.7226819
0
ARC
8
DEFAULT_255_2_778
10
8.7126826
20
120.466545
40
0.30594
50
306.4210309
51
318.2400135
0
ARC
8
DEFAULT_255_2_778
10
8.6442181
20
120.5146818
40
0.3891908
50
319.6668314
51
354.6729948
0
ARC
8
DEFAULT_255_2_778
10
8.3476639
20
120.5652444
40
0.689536
50
352.7771113
51
0.1945185
0
ARC
8
DEFAULT_255_2_778
10
8.4886337
20
120.6462234
40
0.54871
50
358.6697936
51
20.484752
0
ARC
8
DEFAULT_255_2_778
10
8.6868455
20
120.7139267
40
0.3393909
50
21.4882143
51
40.0887413
0
ARC
8
DEFAULT_255_2_778
10
8.7060463
20
120.7194179
40
0.321269
50
41.5448495
51
91.654909
0
ARC
8
DEFAULT_255_2_778
10
8.684029
20
120.5224789
40
0.5182305
50
88.5914103
51
89.4508601
0
LINE
8
DEFAULT_255_2_778
10
8.6789958
20
120.0338854
11
8.3648958
21
120.0338854
0
LINE
8
DEFAULT_255_2_778
10
8.3648958
20
120.0338854
11
8.3648958
21
121.1636854
0
LINE
8
DEFAULT_255_2_778
10
8.3648958
20
121.1636854
11
8.6849958
21
121.1636854
0
LINE
8
DEFAULT_255_2_778
10
9.1850958
20
120.6368854
11
9.1850958
21
120.5646854
0
LINE
8
DEFAULT_255_2_778
10
8.6786958
20
120.0338854
11
8.6789958
21
120.0338854
0
LINE
8
DEFAULT_255_2_778
10
8.6889958
20
121.0408854
11
8.5143958
21
121.0408854
0
LINE
8
DEFAULT_255_2_778
10
8.5143958
20
121.0408854
11
8.5143958
21
120.1555854
0
LINE
8
DEFAULT_255_2_778
10
8.5143958
20
120.1555854
11
8.6717958
21
120.1555854
0
LINE
8
DEFAULT_255_2_778
10
9.0371958
20
120.5675854
11
9.0371958
21
120.6334854
0
LINE
8
DEFAULT_255_2_778
10
8.6889958
20
121.0406854
11
8.6889958
21
121.0408854
0
ARC
8
DEFAULT_255_2_778
10
8.8080351
20
121.437088
40
1.2915372
50
317.9389223
51
324.14781
0
ARC
8
DEFAULT_255_2_778
10
9.4514809
20
120.970211
40
0.496559
50
324.3271699
51
331.3666166
0
ARC
8
DEFAULT_255_2_778
10
9.6543714
20
120.8607782
40
0.2660431
50
331.1133044
51
359.7803597
0
ARC
8
DEFAULT_255_2_778
10
9.718639
20
120.8673742
40
0.2019172
50
357.8384105
51
42.8747704
0
ARC
8
DEFAULT_255_2_778
10
9.7318071
20
120.8731764
40
0.1883781
50
44.3067162
51
92.6149708
0
ARC
8
DEFAULT_255_2_778
10
9.709843
20
120.8380917
40
0.2236666
50
86.5731364
51
133.4535965
0
ARC
8
DEFAULT_255_2_778
10
9.7282765
20
120.8447867
40
0.2321822
50
137.8964882
51
183.4391719
0
ARC
8
DEFAULT_255_2_778
10
9.6849171
20
120.844166
40
0.3328707
50
134.1373055
51
182.2912146
0
ARC
8
DEFAULT_255_2_778
10
9.7006107
20
120.8121538
40
0.3669395
50
89.358112
51
132.4148057
0
ARC
8
DEFAULT_255_2_778
10
9.7229129
20
120.6047085
40
0.5746498
50
89.9900639
51
91.8140859
0
ARC
8
DEFAULT_255_2_778
10
9.7365018
20
120.7844607
40
0.395128
50
61.2950571
51
91.9564036
0
ARC
8
DEFAULT_255_2_778
10
9.7802324
20
120.8822563
40
0.2884757
50
48.0661859
51
59.5837609
0
ARC
8
DEFAULT_255_2_778
10
9.783695
20
120.8887138
40
0.2813632
50
357.6054552
51
47.7119564
0
ARC
8
DEFAULT_255_2_778
10
9.6859154
20
120.8897204
40
0.379112
50
331.1269887
51
358.0708853
0
ARC
8
DEFAULT_255_2_778
10
9.2187892
20
121.1293674
40
0.9040256
50
319.6075411
51
332.1223432
0
ARC
8
DEFAULT_255_2_778
10
8.7312953
20
121.5196592
40
1.528343
50
317.1242581
51
320.3067342
0
LINE
8
DEFAULT_255_2_778
10
10.1175125
20
120.1514583
11
10.1175125
21
120.0342583
0
LINE
8
DEFAULT_255_2_778
10
10.1175125
20
120.0342583
11
9.3743125
21
120.0342583
0
LINE
8
DEFAULT_255_2_778
10
9.3743125
20
120.0342583
11
9.3743125
21
120.1374583
0
LINE
8
DEFAULT_255_2_778
10
9.3743125
20
120.1374583
11
9.7669125
21
120.5718583
0
LINE
8
DEFAULT_255_2_778
10
9.4965125
20
120.8308583
11
9.3523125
21
120.8308583
0
LINE
8
DEFAULT_255_2_778
10
9.8513125
20
120.4797583
11
9.5473125
21
120.1517583
0
LINE
8
DEFAULT_255_2_778
10
9.5473125
20
120.1517583
11
10.1169125
21
120.1517583
0
LINE
8
DEFAULT_255_2_778
10
10.1169125
20
120.1517583
11
10.1175125
21
120.1514583
0
LINE
8
DEFAULT_255_2_778
10
3.4886479
20
147.5577635
11
3.4886479
21
146.4227635
0
LINE
8
DEFAULT_255_2_778
10
3.4886479
20
146.4227635
11
3.3436479
21
146.4227635
0
LINE
8
DEFAULT_255_2_778
10
3.3436479
20
146.4227635
11
3.3436479
21
147.3794635
0
LINE
8
DEFAULT_255_2_778
10
3.3436479
20
147.3794635
11
3.0531479
21
147.2730635
0
LINE
8
DEFAULT_255_2_778
10
3.0531479
20
147.2730635
11
3.0531479
21
147.4035635
0
LINE
8
DEFAULT_255_2_778
10
3.0531479
20
147.4035635
11
3.4661479
21
147.5580635
0
LINE
8
DEFAULT_255_2_778
10
3.4661479
20
147.5580635
11
3.4886479
21
147.5580635
0
LINE
8
DEFAULT_255_2_778
10
3.4886479
20
147.5580635
11
3.4886479
21
147.5577635
0
ARC
8
DEFAULT_255_2_778
10
3.3449351
20
147.825588
40
1.2915372
50
317.9389223
51
324.14781
0
ARC
8
DEFAULT_255_2_778
10
3.9883809
20
147.358711
40
0.496559
50
324.3271699
51
331.3666166
0
ARC
8
DEFAULT_255_2_778
10
4.1912714
20
147.2492782
40
0.2660431
50
331.1133044
51
359.7803597
0
ARC
8
DEFAULT_255_2_778
10
4.255539
20
147.2558742
40
0.2019172
50
357.8384105
51
42.8747704
0
ARC
8
DEFAULT_255_2_778
10
4.2687071
20
147.2616764
40
0.1883781
50
44.3067162
51
92.6149708
0
ARC
8
DEFAULT_255_2_778
10
4.246743
20
147.2265917
40
0.2236666
50
86.5731364
51
133.4535965
0
ARC
8
DEFAULT_255_2_778
10
4.2651765
20
147.2332867
40
0.2321822
50
137.8964882
51
183.4391719
0
ARC
8
DEFAULT_255_2_778
10
4.2218171
20
147.232666
40
0.3328707
50
134.1373055
51
182.2912146
0
ARC
8
DEFAULT_255_2_778
10
4.2375107
20
147.2006538
40
0.3669395
50
89.358112
51
132.4148057
0
ARC
8
DEFAULT_255_2_778
10
4.2598129
20
146.9932085
40
0.5746498
50
89.9900639
51
91.8140859
0
ARC
8
DEFAULT_255_2_778
10
4.2734018
20
147.1729607
40
0.395128
50
61.2950571
51
91.9564036
0
ARC
8
DEFAULT_255_2_778
10
4.3171324
20
147.2707563
40
0.2884757
50
48.0661859
51
59.5837609
0
ARC
8
DEFAULT_255_2_778
10
4.320595
20
147.2772138
40
0.2813632
50
357.6054552
51
47.7119564
0
ARC
8
DEFAULT_255_2_778
10
4.2228154
20
147.2782204
40
0.379112
50
331.1269887
51
358.0708853
0
ARC
8
DEFAULT_255_2_778
10
3.7556892
20
147.5178674
40
0.9040256
50
319.6075411
51
332.1223432
0
ARC
8
DEFAULT_255_2_778
10
3.2681953
20
147.9081592
40
1.528343
50
317.1242581
51
320.3067342
0
LINE
8
DEFAULT_255_2_778
10
4.6544125
20
146.5399583
11
4.6544125
21
146.4227583
0
LINE
8
DEFAULT_255_2_778
10
4.6544125
20
146.4227583
11
3.9112125
21
146.4227583
0
LINE
8
DEFAULT_255_2_778
10
3.9112125
20
146.4227583
11
3.9112125
21
146.5259583
0
LINE
8
DEFAULT_255_2_778
10
3.9112125
20
146.5259583
11
4.3038125
21
146.9603583
0
LINE
8
DEFAULT_255_2_778
10
4.0334125
20
147.2193583
11
3.8892125
21
147.2193583
0
LINE
8
DEFAULT_255_2_778
10
4.3882125
20
146.8682583
11
4.0842125
21
146.5402583
0
LINE
8
DEFAULT_255_2_778
10
4.0842125
20
146.5402583
11
4.6538125
21
146.5402583
0
LINE
8
DEFAULT_255_2_778
10
4.6538125
20
146.5402583
11
4.6544125
21
146.5399583
0
LINE
8
DEFAULT_255_2_778
10
5.1218969
20
146.9611052
11
5.1218969
21
146.8439052
0
LINE
8
DEFAULT_255_2_778
10
5.1218969
20
146.8439052
11
4.7416969
21
146.8439052
0
LINE
8
DEFAULT_255_2_778
10
4.7416969
20
146.8439052
11
4.7416969
21
146.9611052
0
LINE
8
DEFAULT_255_2_778
10
4.7416969
20
146.9611052
11
5.1218969
21
146.9611052
0
LINE
8
DEFAULT_255_2_778
10
5.1218969
20
146.9611052
11
5.1218969
21
146.9611052
0
ARC
8
DEFAULT_255_2_778
10
4.6811351
20
147.825588
40
1.2915372
50
317.9389223
51
324.14781
0
ARC
8
DEFAULT_255_2_778
10
5.3245809
20
147.358711
40
0.496559
50
324.3271699
51
331.3666166
0
ARC
8
DEFAULT_255_2_778
10
5.5274714
20
147.2492782
40
0.2660431
50
331.1133044
51
359.7803597
0
ARC
8
DEFAULT_255_2_778
10
5.591739
20
147.2558742
40
0.2019172
50
357.8384105
51
42.8747704
0
ARC
8
DEFAULT_255_2_778
10
5.6049071
20
147.2616764
40
0.1883781
50
44.3067162
51
92.6149708
0
ARC
8
DEFAULT_255_2_778
10
5.582943
20
147.2265917
40
0.2236666
50
86.5731364
51
133.4535965
0
ARC
8
DEFAULT_255_2_778
10
5.6013765
20
147.2332867
40
0.2321822
50
137.8964882
51
183.4391719
0
ARC
8
DEFAULT_255_2_778
10
5.5580171
20
147.232666
40
0.3328707
50
134.1373055
51
182.2912146
0
ARC
8
DEFAULT_255_2_778
10
5.5737107
20
147.2006538
40
0.3669395
50
89.358112
51
132.4148057
0
ARC
8
DEFAULT_255_2_778
10
5.5960129
20
146.9932085
40
0.5746498
50
89.9900639
51
91.8140859
0
ARC
8
DEFAULT_255_2_778
10
5.6096018
20
147.1729607
40
0.395128
50
61.2950571
51
91.9564036
0
ARC
8
DEFAULT_255_2_778
10
5.6533324
20
147.2707563
40
0.2884757
50
48.0661859
51
59.5837609
0
ARC
8
DEFAULT_255_2_778
10
5.656795
20
147.2772138
40
0.2813632
50
357.6054552
51
47.7119564
0
ARC
8
DEFAULT_255_2_778
10
5.5590154
20
147.2782204
40
0.379112
50
331.1269887
51
358.0708853
0
ARC
8
DEFAULT_255_2_778
10
5.0918892
20
147.5178674
40
0.9040256
50
319.6075411
51
332.1223432
0
ARC
8
DEFAULT_255_2_778
10
4.6043953
20
147.9081592
40
1.528343
50
317.1242581
51
320.3067342
0
LINE
8
DEFAULT_255_2_778
10
5.9906125
20
146.5399583
11
5.9906125
21
146.4227583
0
LINE
8
DEFAULT_255_2_778
10
5.9906125
20
146.4227583
11
5.2474125
21
146.4227583
0
LINE
8
DEFAULT_255_2_778
10
5.2474125
20
146.4227583
11
5.2474125
21
146.5259583
0
LINE
8
DEFAULT_255_2_778
10
5.2474125
20
146.5259583
11
5.6400125
21
146.9603583
0
LINE
8
DEFAULT_255_2_778
10
5.3696125
20
147.2193583
11
5.2254125
21
147.2193583
0
LINE
8
DEFAULT_255_2_778
10
5.7244125
20
146.8682583
11
5.4204125
21
146.5402583
0
LINE
8
DEFAULT_255_2_778
10
5.4204125
20
146.5402583
11
5.9900125
21
146.5402583
0
LINE
8
DEFAULT_255_2_778
10
5.9900125
20
146.5402583
11
5.9906125
21
146.5399583
0
LINE
8
DEFAULT_255_2_778
10
6.7518573
20
147.5521854
11
6.7518573
21
146.8017854
0
LINE
8
DEFAULT_255_2_778
10
6.7518573
20
146.8017854
11
6.9092573
21
146.8017854
0
LINE
8
DEFAULT_255_2_778
10
6.9092573
20
146.8017854
11
6.9092573
21
146.6845854
0
LINE
8
DEFAULT_255_2_778
10
6.9092573
20
146.6845854
11
6.7518573
21
146.6845854
0
LINE
8
DEFAULT_255_2_778
10
6.7518573
20
146.6845854
11
6.7518573
21
146.4223854
0
LINE
8
DEFAULT_255_2_778
10
6.7518573
20
146.4223854
11
6.6068573
21
146.4223854
0
LINE
8
DEFAULT_255_2_778
10
6.6068573
20
146.4223854
11
6.6068573
21
146.6845854
0
LINE
8
DEFAULT_255_2_778
10
6.6068573
20
146.6845854
11
6.0903573
21
146.6845854
0
LINE
8
DEFAULT_255_2_778
10
6.0903573
20
146.6845854
11
6.0903573
21
146.7692854
0
LINE
8
DEFAULT_255_2_778
10
6.0903573
20
146.7692854
11
6.5983573
21
147.5521854
0
LINE
8
DEFAULT_255_2_778
10
6.5983573
20
147.5521854
11
6.7518573
21
147.5521854
0
LINE
8
DEFAULT_255_2_778
10
6.7518573
20
147.5521854
11
6.7518573
21
147.5521854
0
LINE
8
DEFAULT_255_2_778
10
6.5896573
20
147.3248854
11
6.2538573
21
146.8020854
0
LINE
8
DEFAULT_255_2_778
10
6.2538573
20
146.8020854
11
6.6068573
21
146.8020854
0
LINE
8
DEFAULT_255_2_778
10
6.6068573
20
146.8020854
11
6.6068573
21
147.3558854
0
LINE
8
DEFAULT_255_2_778
10
6.6068573
20
147.3558854
11
6.5896573
21
147.3248854
0
LINE
8
DEFAULT_255_2_778
10
6.5896573
20
147.3248854
11
6.5896573
21
147.3248854
0
LINE
8
DEFAULT_255_2_778
10
7.1296313
20
147.5521854
11
7.4521313
21
146.6202854
0
LINE
8
DEFAULT_255_2_778
10
7.4521313
20
146.6202854
11
7.7762313
21
147.5521854
0
LINE
8
DEFAULT_255_2_778
10
7.7762313
20
147.5521854
11
7.9397313
21
147.5521854
0
LINE
8
DEFAULT_255_2_778
10
7.9397313
20
147.5521854
11
7.5190313
21
146.4223854
0
LINE
8
DEFAULT_255_2_778
10
7.5190313
20
146.4223854
11
7.3865313
21
146.4223854
0
LINE
8
DEFAULT_255_2_778
10
7.3865313
20
146.4223854
11
6.9666313
21
147.5521854
0
LINE
8
DEFAULT_255_2_778
10
6.9666313
20
147.5521854
11
7.1293313
21
147.5521854
0
LINE
8
DEFAULT_255_2_778
10
7.1293313
20
147.5521854
11
7.1296313
21
147.5521854
0
ARC
8
DEFAULT_255_2_778
10
8.4227606
20
147.0356904
40
0.516601
50
60.9007738
51
91.1607162
0
ARC
8
DEFAULT_255_2_778
10
8.455729
20
147.1043907
40
0.4405629
50
26.5896221
51
60.3020671
0
ARC
8
DEFAULT_255_2_778
10
8.3103185
20
147.0339249
40
0.6021379
50
359.1874039
51
26.392435
0
ARC
8
DEFAULT_255_2_778
10
8.3078405
20
146.9398026
40
0.6047034
50
333.8171975
51
1.2681232
0
ARC
8
DEFAULT_255_2_778
10
8.4625751
20
146.8672307
40
0.4338361
50
299.1349073
51
333.401293
0
ARC
8
DEFAULT_255_2_778
10
8.4123056
20
146.973828
40
0.5514787
50
269.3444325
51
298.3048002
0
ARC
8
DEFAULT_255_2_778
10
8.413519
20
146.9091495
40
0.3653489
50
267.7375038
51
304.7226819
0
ARC
8
DEFAULT_255_2_778
10
8.4399826
20
146.855045
40
0.30594
50
306.4210309
51
318.2400135
0
ARC
8
DEFAULT_255_2_778
10
8.3715181
20
146.9031818
40
0.3891908
50
319.6668314
51
354.6729948
0
ARC
8
DEFAULT_255_2_778
10
8.0749639
20
146.9537444
40
0.689536
50
352.7771113
51
0.1945185
0
ARC
8
DEFAULT_255_2_778
10
8.2159337
20
147.0347234
40
0.54871
50
358.6697936
51
20.484752
0
ARC
8
DEFAULT_255_2_778
10
8.4141455
20
147.1024267
40
0.3393909
50
21.4882143
51
40.0887413
0
ARC
8
DEFAULT_255_2_778
10
8.4333463
20
147.1079179
40
0.321269
50
41.5448495
51
91.654909
0
ARC
8
DEFAULT_255_2_778
10
8.411329
20
146.9109789
40
0.5182305
50
88.5914103
51
89.4508601
0
LINE
8
DEFAULT_255_2_778
10
8.4062958
20
146.4223854
11
8.0921958
21
146.4223854
0
LINE
8
DEFAULT_255_2_778
10
8.0921958
20
146.4223854
11
8.0921958
21
147.5521854
0
LINE
8
DEFAULT_255_2_778
10
8.0921958
20
147.5521854
11
8.4122958
21
147.5521854
0
LINE
8
DEFAULT_255_2_778
10
8.9123958
20
147.0253854
11
8.9123958
21
146.9531854
0
LINE
8
DEFAULT_255_2_778
10
8.4059958
20
146.4223854
11
8.4062958
21
146.4223854
0
LINE
8
DEFAULT_255_2_778
10
8.4162958
20
147.4293854
11
8.2416958
21
147.4293854
0
LINE
8
DEFAULT_255_2_778
10
8.2416958
20
147.4293854
11
8.2416958
21
146.5440854
0
LINE
8
DEFAULT_255_2_778
10
8.2416958
20
146.5440854
11
8.3990958
21
146.5440854
0
LINE
8
DEFAULT_255_2_778
10
8.7644958
20
146.9560854
11
8.7644958
21
147.0219854
0
LINE
8
DEFAULT_255_2_778
10
8.4162958
20
147.4291854
11
8.4162958
21
147.4293854
0
ARC
8
DEFAULT_255_2_778
10
9.5285697
20
146.8197526
40
0.4458648
50
323.2673495
51
355.0519713
0
ARC
8
DEFAULT_255_2_778
10
9.6064213
20
146.7728983
40
0.3555634
50
311.060041
51
321.8151593
0
ARC
8
DEFAULT_255_2_778
10
9.5734521
20
146.8257745
40
0.4172058
50
271.6099969
51
309.7041449
0
ARC
8
DEFAULT_255_2_778
10
9.5432513
20
147.0649405
40
0.6575449
50
269.9583125
51
273.6554421
0
ARC
8
DEFAULT_255_2_778
10
9.5279957
20
146.8078629
40
0.4007396
50
219.9023818
51
272.1132562
0
ARC
8
DEFAULT_255_2_778
10
9.6272257
20
146.8813748
40
0.5240696
50
185.5287863
51
219.1085929
0
ARC
8
DEFAULT_255_2_778
10
9.9354865
20
146.9327165
40
0.8361168
50
179.8438056
51
186.9956201
0
ARC
8
DEFAULT_255_2_778
10
9.7402489
20
147.057122
40
0.6410166
50
155.7111544
51
181.2001599
0
ARC
8
DEFAULT_255_2_778
10
9.5407407
20
147.1468806
40
0.4222473
50
122.1458531
51
155.6770069
0
ARC
8
DEFAULT_255_2_778
10
9.5468695
20
147.1209085
40
0.4475819
50
88.8217737
51
121.0410606
0
ARC
8
DEFAULT_255_2_778
10
9.5701321
20
147.1273272
40
0.4412927
50
59.684238
51
91.8257046
0
ARC
8
DEFAULT_255_2_778
10
9.6067736
20
147.207898
40
0.3533598
50
47.3738442
51
58.2185388
0
ARC
8
DEFAULT_255_2_778
10
9.5599103
20
147.1704921
40
0.4127203
50
5.3508346
51
46.1035379
0
ARC
8
DEFAULT_255_2_778
10
9.3478901
20
147.1264946
40
0.6283792
50
5.7816282
51
7.5427996
0
ARC
8
DEFAULT_255_2_778
10
9.4236871
20
147.1442565
40
0.4016756
50
6.5098119
51
29.0842325
0
ARC
8
DEFAULT_255_2_778
10
9.5936582
20
147.2321739
40
0.2104804
50
30.6607053
51
46.6762464
0
ARC
8
DEFAULT_255_2_778
10
9.5745235
20
147.194825
40
0.2510529
50
49.3486845
51
91.7359043
0
ARC
8
DEFAULT_255_2_778
10
9.5561367
20
147.0088208
40
0.4370748
50
88.5864792
51
90.0083576
0
ARC
8
DEFAULT_255_2_778
10
9.5447136
20
147.1777994
40
0.2683369
50
87.5738178
51
142.7302383
0
ARC
8
DEFAULT_255_2_778
10
9.6543387
20
147.105314
40
0.3995655
50
143.9781703
51
173.1420884
0
ARC
8
DEFAULT_255_2_778
10
10.0004323
20
147.0439256
40
0.7507697
50
171.644372
51
180.2999085
0
ARC
8
DEFAULT_255_2_778
10
9.8430389
20
146.9179996
40
0.5935039
50
178.7645824
51
199.2800727
0
ARC
8
DEFAULT_255_2_778
10
9.6275797
20
146.8494396
40
0.367547
50
200.2819764
51
215.1004573
0
ARC
8
DEFAULT_255_2_778
10
9.5331908
20
146.7791242
40
0.2499121
50
214.3545129
51
272.1973701
0
ARC
8
DEFAULT_255_2_778
10
9.5553843
20
146.8588638
40
0.3297093
50
267.8079004
51
295.9503658
0
ARC
8
DEFAULT_255_2_778
10
9.6059126
20
146.7379232
40
0.198993
50
298.1071816
51
310.0940555
0
ARC
8
DEFAULT_255_2_778
10
9.5607852
20
146.7708622
40
0.2536045
50
313.1019868
51
346.8798932
0
ARC
8
DEFAULT_255_2_778
10
9.2679525
20
146.8653596
40
0.5608263
50
344.2677374
51
351.3999551
0
LINE
8
DEFAULT_255_2_778
10
9.8224729
20
146.7812958
11
9.9727729
21
146.7812958
0
LINE
8
DEFAULT_255_2_778
10
9.0993729
20
146.9349958
11
9.0993729
21
147.0436958
0
LINE
8
DEFAULT_255_2_778
10
9.9730729
20
147.1897958
11
9.8227729
21
147.1897958
0
LINE
8
DEFAULT_255_2_778
10
9.2496729
20
147.0399958
11
9.2496729
21
146.9307958
0
LINE
8
DEFAULT_255_2_778
10
9.8224729
20
146.7814958
11
9.8224729
21
146.7812958
0
LINE
8
DEFAULT_255_2_778
10
7.6087208
20
143.7734531
11
7.6087208
21
143.6509531
0
LINE
8
DEFAULT_255_2_778
10
7.6087208
20
143.6509531
11
7.2441208
21
143.6509531
0
LINE
8
DEFAULT_255_2_778
10
7.2441208
20
143.6509531
11
7.2441208
21
142.6439531
0
LINE
8
DEFAULT_255_2_778
10
7.2441208
20
142.6439531
11
7.0954208
21
142.6439531
0
LINE
8
DEFAULT_255_2_778
10
7.0954208
20
142.6439531
11
7.0954208
21
143.6509531
0
LINE
8
DEFAULT_255_2_778
10
7.0954208
20
143.6509531
11
6.7316208
21
143.6509531
0
LINE
8
DEFAULT_255_2_778
10
6.7316208
20
143.6509531
11
6.7316208
21
143.7734531
0
LINE
8
DEFAULT_255_2_778
10
6.7316208
20
143.7734531
11
7.6090208
21
143.7734531
0
LINE
8
DEFAULT_255_2_778
10
7.6090208
20
143.7734531
11
7.6087208
21
143.7734531
0
ARC
8
DEFAULT_255_2_778
10
8.1603842
20
143.190248
40
0.5832702
50
73.0526851
51
91.2224461
0
ARC
8
DEFAULT_255_2_778
10
8.2407639
20
143.4642906
40
0.2977133
50
51.5624697
51
72.4768146
0
ARC
8
DEFAULT_255_2_778
10
8.2510927
20
143.4945974
40
0.2677693
50
358.2424045
51
49.2616027
0
ARC
8
DEFAULT_255_2_778
10
8.0583249
20
143.472657
40
0.4606157
50
359.9910922
51
1.7078206
0
ARC
8
DEFAULT_255_2_778
10
8.2906189
20
143.4691349
40
0.2283478
50
323.2739849
51
0.865817
0
ARC
8
DEFAULT_255_2_778
10
8.2399392
20
143.5103344
40
0.2936172
50
292.1496112
51
322.7440493
0
ARC
8
DEFAULT_255_2_778
10
8.2843899
20
142.9824752
40
0.2643467
50
36.8433936
51
75.4857688
0
ARC
8
DEFAULT_255_2_778
10
8.271033
20
142.9769091
40
0.2783963
50
358.5543235
51
36.1117732
0
ARC
8
DEFAULT_255_2_778
10
8.2482786
20
142.9545044
40
0.3014547
50
312.115061
51
2.9246586
0
ARC
8
DEFAULT_255_2_778
10
8.217397
20
143.0136367
40
0.3664119
50
274.459541
51
309.4953436
0
ARC
8
DEFAULT_255_2_778
10
8.1725413
20
143.2942078
40
0.650025
50
269.8412847
51
276.478818
0
ARC
8
DEFAULT_255_2_778
10
8.1873032
20
143.0029773
40
0.2380672
50
266.782322
51
309.5025034
0
ARC
8
DEFAULT_255_2_778
10
8.2098853
20
142.9581144
40
0.1894127
50
312.8662119
51
2.9872567
0
ARC
8
DEFAULT_255_2_778
10
8.1952342
20
142.9814468
40
0.2042505
50
356.2211065
51
39.9886394
0
ARC
8
DEFAULT_255_2_778
10
8.2082179
20
142.9637136
40
0.2068644
50
46.0742141
51
88.8759085
0
ARC
8
DEFAULT_255_2_778
10
8.1770847
20
142.74358
40
0.428406
50
85.2881366
51
90.0995172
0
ARC
8
DEFAULT_255_2_778
10
8.1649271
20
143.5279638
40
0.2369919
50
267.052457
51
307.6347982
0
ARC
8
DEFAULT_255_2_778
10
8.2050717
20
143.465864
40
0.1634156
50
309.7840542
51
2.4274532
0
ARC
8
DEFAULT_255_2_778
10
8.2073184
20
143.4868433
40
0.1616348
50
355.0104942
51
48.1727734
0
ARC
8
DEFAULT_255_2_778
10
8.2366213
20
143.5087685
40
0.1259621
50
51.4558672
51
52.1906364
0
ARC
8
DEFAULT_255_2_778
10
8.1826194
20
143.4175685
40
0.2314994
50
55.4704019
51
88.3498731
0
ARC
8
DEFAULT_255_2_778
10
8.148963
20
143.1462854
40
0.504301
50
85.4138667
51
90.1161507
0
LINE
8
DEFAULT_255_2_778
10
8.1704406
20
142.6435854
11
7.7770406
21
142.6435854
0
LINE
8
DEFAULT_255_2_778
10
7.7770406
20
142.6435854
11
7.7770406
21
143.7733854
0
LINE
8
DEFAULT_255_2_778
10
7.7770406
20
143.7733854
11
8.1479406
21
143.7733854
0
LINE
8
DEFAULT_255_2_778
10
8.1707406
20
142.6441854
11
8.1704406
21
142.6435854
0
LINE
8
DEFAULT_255_2_778
10
8.1760406
20
143.1719854
11
7.9268406
21
143.1719854
0
LINE
8
DEFAULT_255_2_778
10
7.9268406
20
143.1719854
11
7.9268406
21
142.7652854
0
LINE
8
DEFAULT_255_2_778
10
7.9268406
20
142.7652854
11
8.1739406
21
142.7652854
0
LINE
8
DEFAULT_255_2_778
10
8.1763406
20
143.1719854
11
8.1760406
21
143.1719854
0
LINE
8
DEFAULT_255_2_778
10
7.9268406
20
143.6505854
11
7.9268406
21
143.2912854
0
LINE
8
DEFAULT_255_2_778
10
7.9268406
20
143.2912854
11
8.1527406
21
143.2912854
0
LINE
8
DEFAULT_255_2_778
10
8.1479406
20
143.6505854
11
7.9268406
21
143.6505854
0
LINE
8
DEFAULT_255_2_778
10
7.9268406
20
143.6505854
11
7.9268406
21
143.6505854
0
LINE
8
DEFAULT_255_2_778
10
26.8765552
20
147.5521854
11
26.8765552
21
146.4223854
0
LINE
8
DEFAULT_255_2_778
10
26.8765552
20
146.4223854
11
26.7270552
21
146.4223854
0
LINE
8
DEFAULT_255_2_778
10
26.7270552
20
146.4223854
11
26.7270552
21
147.5521854
0
LINE
8
DEFAULT_255_2_778
10
26.7270552
20
147.5521854
11
26.8765552
21
147.5521854
0
LINE
8
DEFAULT_255_2_778
10
26.8765552
20
147.5521854
11
26.8765552
21
147.5521854
0
LINE
8
DEFAULT_255_2_778
10
28.021899
20
147.5521854
11
28.021899
21
146.4223854
0
LINE
8
DEFAULT_255_2_778
10
28.021899
20
146.4223854
11
27.871599
21
146.4223854
0
LINE
8
DEFAULT_255_2_778
10
27.871599
20
146.4223854
11
27.300399
21
147.2928854
0
LINE
8
DEFAULT_255_2_778
10
27.300399
20
147.2928854
11
27.300399
21
146.4223854
0
LINE
8
DEFAULT_255_2_778
10
27.300399
20
146.4223854
11
27.150099
21
146.4223854
0
LINE
8
DEFAULT_255_2_778
10
27.150099
20
146.4223854
11
27.150099
21
147.5521854
0
LINE
8
DEFAULT_255_2_778
10
27.150099
20
147.5521854
11
27.300399
21
147.5521854
0
LINE
8
DEFAULT_255_2_778
10
27.300399
20
147.5521854
11
27.873199
21
146.6777854
0
LINE
8
DEFAULT_255_2_778
10
27.873199
20
146.6777854
11
27.873199
21
147.5521854
0
LINE
8
DEFAULT_255_2_778
10
27.873199
20
147.5521854
11
28.021899
21
147.5521854
0
LINE
8
DEFAULT_255_2_778
10
28.021899
20
147.5521854
11
28.021899
21
147.5521854
0
ARC
8
DEFAULT_255_2_778
10
28.7193357
20
147.0596772
40
0.4929794
50
66.4803376
51
91.510017
0
ARC
8
DEFAULT_255_2_778
10
28.7767279
20
147.210147
40
0.33219
50
48.1996688
51
65.1999653
0
ARC
8
DEFAULT_255_2_778
10
28.7836944
20
147.2198691
40
0.3203016
50
357.7305362
51
47.9694764
0
ARC
8
DEFAULT_255_2_778
10
28.767271
20
147.1929142
40
0.3367764
50
324.2985776
51
2.428682
0
ARC
8
DEFAULT_255_2_778
10
28.8176555
20
147.1677066
40
0.2812921
50
310.5548572
51
322.4789099
0
ARC
8
DEFAULT_255_2_778
10
28.7617847
20
147.2484418
40
0.3790923
50
275.9004873
51
309.0368789
0
ARC
8
DEFAULT_255_2_778
10
28.7076073
20
147.5591999
40
0.6941205
50
269.7637199
51
277.7121589
0
ARC
8
DEFAULT_255_2_778
10
28.7191023
20
147.2877609
40
0.3012458
50
267.5728556
51
298.1910068
0
ARC
8
DEFAULT_255_2_778
10
28.7655369
20
147.1845991
40
0.1885466
50
300.564542
51
311.407976
0
ARC
8
DEFAULT_255_2_778
10
28.7493695
20
147.1922614
40
0.2051085
50
313.3799326
51
3.7245947
0
ARC
8
DEFAULT_255_2_778
10
28.7420813
20
147.2151079
40
0.2121773
50
357.4277144
51
45.7091881
0
ARC
8
DEFAULT_255_2_778
10
28.7231587
20
147.1774645
40
0.2526577
50
48.5998427
51
91.8857102
0
LINE
8
DEFAULT_255_2_778
10
28.7047448
20
146.8647854
11
28.4375448
21
146.8647854
0
LINE
8
DEFAULT_255_2_778
10
28.4375448
20
146.8647854
11
28.4375448
21
146.4226854
0
LINE
8
DEFAULT_255_2_778
10
28.4375448
20
146.4226854
11
28.2880448
21
146.4226854
0
LINE
8
DEFAULT_255_2_778
10
28.2880448
20
146.4226854
11
28.2880448
21
147.5524854
0
LINE
8
DEFAULT_255_2_778
10
28.2880448
20
147.5524854
11
28.7063448
21
147.5524854
0
LINE
8
DEFAULT_255_2_778
10
28.7047448
20
146.8650854
11
28.7047448
21
146.8647854
0
LINE
8
DEFAULT_255_2_778
10
28.4375448
20
147.4296854
11
28.4375448
21
146.9867854
0
LINE
8
DEFAULT_255_2_778
10
28.4375448
20
146.9867854
11
28.7063448
21
146.9867854
0
LINE
8
DEFAULT_255_2_778
10
28.7148448
20
147.4299854
11
28.4375448
21
147.4299854
0
LINE
8
DEFAULT_255_2_778
10
28.4375448
20
147.4299854
11
28.4375448
21
147.4296854
0
ARC
8
DEFAULT_255_2_778
10
29.7335646
20
146.7725269
40
0.3596193
50
315.9875893
51
1.8375447
0
ARC
8
DEFAULT_255_2_778
10
29.7131404
20
146.8096072
40
0.4002666
50
273.4099789
51
314.20133
0
ARC
8
DEFAULT_255_2_778
10
29.6767025
20
147.0182239
40
0.6111514
50
274.1282684
51
275.6572722
0
ARC
8
DEFAULT_255_2_778
10
29.6673765
20
146.8784921
40
0.4716305
50
242.9165995
51
271.6551525
0
ARC
8
DEFAULT_255_2_778
10
29.621422
20
146.7694352
40
0.3537179
50
227.8822921
51
241.5012452
0
ARC
8
DEFAULT_255_2_778
10
29.6267405
20
146.7659691
40
0.3547692
50
178.4386682
51
226.8696785
0
ARC
8
DEFAULT_255_2_778
10
29.8258318
20
146.7874882
40
0.5538556
50
180.520344
51
181.2262419
0
ARC
8
DEFAULT_255_2_778
10
29.6851021
20
146.7731579
40
0.2652782
50
176.9530958
51
218.5834841
0
ARC
8
DEFAULT_255_2_778
10
29.6374896
20
146.7457222
40
0.2111103
50
220.8223888
51
224.8797257
0
ARC
8
DEFAULT_255_2_778
10
29.6601407
20
146.7816718
40
0.2527057
50
227.0319852
51
271.2264046
0
ARC
8
DEFAULT_255_2_778
10
29.6808891
20
146.9718404
40
0.443082
50
268.0159925
51
270.0142073
0
ARC
8
DEFAULT_255_2_778
10
29.6942267
20
146.8147284
40
0.2862758
50
267.3516249
51
302.5123392
0
ARC
8
DEFAULT_255_2_778
10
29.7324297
20
146.7393351
40
0.2023358
50
304.8652723
51
314.9984994
0
ARC
8
DEFAULT_255_2_778
10
29.6903141
20
146.7683815
40
0.2528237
50
317.0935551
51
2.306366
0
ARC
8
DEFAULT_255_2_778
10
29.5081486
20
146.7861205
40
0.4348502
50
359.0032383
51
0.0049848
0
LINE
8
DEFAULT_255_2_778
10
29.942699
20
147.5521583
11
30.092999
21
147.5521583
0
LINE
8
DEFAULT_255_2_778
10
30.092999
20
147.5521583
11
30.092999
21
146.7840583
0
LINE
8
DEFAULT_255_2_778
10
29.720699
20
146.4086583
11
29.680999
21
146.4070583
0
LINE
8
DEFAULT_255_2_778
10
29.271999
20
146.7824583
11
29.271999
21
147.5521583
0
LINE
8
DEFAULT_255_2_778
10
29.271999
20
147.5521583
11
29.420199
21
147.5521583
0
LINE
8
DEFAULT_255_2_778
10
29.420199
20
147.5521583
11
29.420199
21
146.7872583
0
LINE
8
DEFAULT_255_2_778
10
29.942999
20
146.7861583
11
29.942999
21
147.5521583
0
LINE
8
DEFAULT_255_2_778
10
29.942999
20
147.5521583
11
29.942699
21
147.5521583
0
LINE
8
DEFAULT_255_2_778
10
31.1130208
20
147.5522531
11
31.1130208
21
147.4297531
0
LINE
8
DEFAULT_255_2_778
10
31.1130208
20
147.4297531
11
30.7484208
21
147.4297531
0
LINE
8
DEFAULT_255_2_778
10
30.7484208
20
147.4297531
11
30.7484208
21
146.4227531
0
LINE
8
DEFAULT_255_2_778
10
30.7484208
20
146.4227531
11
30.5997208
21
146.4227531
0
LINE
8
DEFAULT_255_2_778
10
30.5997208
20
146.4227531
11
30.5997208
21
147.4297531
0
LINE
8
DEFAULT_255_2_778
10
30.5997208
20
147.4297531
11
30.2359208
21
147.4297531
0
LINE
8
DEFAULT_255_2_778
10
30.2359208
20
147.4297531
11
30.2359208
21
147.5522531
0
LINE
8
DEFAULT_255_2_778
10
30.2359208
20
147.5522531
11
31.1133208
21
147.5522531
0
LINE
8
DEFAULT_255_2_778
10
31.1133208
20
147.5522531
11
31.1130208
21
147.5522531
0
LINE
8
DEFAULT_255_2_778
10
34.0012023
20
116.3816203
11
34.0012023
21
1.9348203
0
LINE
8
DEFAULT_255_2_778
10
34.0012023
20
1.9348203
11
19.8698023
21
1.9348203
0
LINE
8
DEFAULT_255_2_778
10
19.8698023
20
1.9348203
11
19.8698023
21
116.3816203
0
LINE
8
DEFAULT_255_2_778
10
27.0329
20
106.6891237
11
27.0329
21
10.3533237
0
LINE
8
DEFAULT_255_2_778
10
19.8697678
20
20.6821417
11
27.0328678
21
20.6821417
0
LINE
8
DEFAULT_255_2_778
10
19.8697678
20
19.4904417
11
27.0328678
21
19.4904417
0
LINE
8
DEFAULT_255_2_778
10
26.4680105
20
5.9723
11
19.8698105
21
5.9723
0
LINE
8
DEFAULT_255_2_778
10
19.8698023
20
9.1613417
11
34.0012023
21
9.1613417
0
LINE
8
DEFAULT_255_2_778
10
19.8698023
20
10.3530417
11
34.0012023
21
10.3530417
0
LINE
8
DEFAULT_255_2_778
10
19.8697678
20
11.545
11
27.0328678
21
11.545
0
LINE
8
DEFAULT_255_2_778
10
27.0328668
20
24.4585417
11
34.0009668
21
24.4585417
0
LINE
8
DEFAULT_255_2_778
10
27.0328668
20
23.2668417
11
34.0009668
21
23.2668417
0
LINE
8
DEFAULT_255_2_778
10
27.0328668
20
14.1297417
11
34.0009668
21
14.1297417
0
LINE
8
DEFAULT_255_2_778
10
27.0328668
20
15.3214417
11
34.0009668
21
15.3214417
0
ARC
8
DEFAULT_255_2_778
10
23.8473032
20
24.658498
40
2.7807826
50
160.8068966
51
180.0747372
0
ARC
8
DEFAULT_255_2_778
10
23.8471686
20
24.6516751
40
2.7829059
50
103.05012
51
160.6733195
0
ARC
8
DEFAULT_255_2_778
10
23.8570432
20
24.6036908
40
2.8318809
50
89.9558967
51
103.0255285
0
ARC
8
DEFAULT_255_2_778
10
23.8629203
20
24.6191678
40
2.8164053
50
71.4945568
51
90.0752172
0
ARC
8
DEFAULT_255_2_778
10
23.8734974
20
24.6544963
40
2.7795467
50
13.898971
51
71.4701721
0
ARC
8
DEFAULT_255_2_778
10
23.8567582
20
24.6571518
40
2.7951656
50
359.9532431
51
13.7637115
0
ARC
8
DEFAULT_255_2_778
10
23.8703744
20
24.6512053
40
2.781551
50
340.80957
51
0.0755023
0
ARC
8
DEFAULT_255_2_778
10
23.8715627
20
24.6576602
40
2.7825579
50
283.0810675
51
340.6759992
0
ARC
8
DEFAULT_255_2_778
10
23.861418
20
24.7063619
40
2.8322921
50
269.9555971
51
283.0579835
0
ARC
8
DEFAULT_255_2_778
10
23.8555233
20
24.6904444
40
2.8163761
50
251.4944084
51
270.0752663
0
ARC
8
DEFAULT_255_2_778
10
23.8449712
20
24.6551461
40
2.779554
50
193.8976473
51
251.4697322
0
ARC
8
DEFAULT_255_2_778
10
23.8619811
20
24.6525867
40
2.795459
50
179.9531866
51
193.7629872
0
LINE
8
DEFAULT_255_2_778
10
22.462423
20
25.5059708
11
23.295123
21
24.6603708
0
LINE
8
DEFAULT_255_2_778
10
23.295123
20
24.6603708
11
22.440523
21
23.8261708
0
LINE
8
DEFAULT_255_2_778
10
22.440523
20
23.8261708
11
22.999023
21
23.2588708
0
LINE
8
DEFAULT_255_2_778
10
22.999023
20
23.2588708
11
23.853623
21
24.0930708
0
LINE
8
DEFAULT_255_2_778
10
23.853623
20
24.0930708
11
24.696823
21
23.2366708
0
LINE
8
DEFAULT_255_2_778
10
24.696823
20
23.2366708
11
25.255423
21
23.8038708
0
LINE
8
DEFAULT_255_2_778
10
25.255423
20
23.8038708
11
24.423323
21
24.6492708
0
LINE
8
DEFAULT_255_2_778
10
24.423323
20
24.6492708
11
25.277923
21
25.4834708
0
LINE
8
DEFAULT_255_2_778
10
25.277923
20
25.4834708
11
24.719323
21
26.0507708
0
LINE
8
DEFAULT_255_2_778
10
24.719323
20
26.0507708
11
23.864723
21
25.2164708
0
LINE
8
DEFAULT_255_2_778
10
23.864723
20
25.2164708
11
23.021523
21
26.0729708
0
LINE
8
DEFAULT_255_2_778
10
23.021523
20
26.0729708
11
22.462423
21
25.5059708
0
LINE
8
DEFAULT_255_2_778
10
21.066523
20
24.6548708
11
21.066523
21
24.6548708
0
ARC
8
DEFAULT_255_2_778
10
30.8113673
20
19.2977038
40
2.7810466
50
160.8078142
51
180.0748487
0
ARC
8
DEFAULT_255_2_778
10
30.8109763
20
19.2909914
40
2.7828914
50
103.0503532
51
160.6746508
0
ARC
8
DEFAULT_255_2_778
10
30.8208423
20
19.2430059
40
2.8318657
50
89.955879
51
103.0255817
0
ARC
8
DEFAULT_255_2_778
10
30.8267227
20
19.2584971
40
2.8163761
50
71.4944084
51
90.0752663
0
ARC
8
DEFAULT_255_2_778
10
30.8372748
20
19.2937954
40
2.779554
50
13.8976473
51
71.4697322
0
ARC
8
DEFAULT_255_2_778
10
30.8202649
20
19.2963548
40
2.795459
50
359.9531866
51
13.7629872
0
ARC
8
DEFAULT_255_2_778
10
30.8344402
20
19.2904109
40
2.7812852
50
340.8086434
51
0.075394
0
ARC
8
DEFAULT_255_2_778
10
30.8353711
20
19.2969761
40
2.7825716
50
283.0808242
51
340.6746713
0
ARC
8
DEFAULT_255_2_778
10
30.8252188
20
19.3456772
40
2.8323071
50
269.9555801
51
283.0578953
0
ARC
8
DEFAULT_255_2_778
10
30.8193257
20
19.3297737
40
2.8164053
50
251.4945568
51
270.0752172
0
ARC
8
DEFAULT_255_2_778
10
30.8087486
20
19.2944452
40
2.7795467
50
193.898971
51
251.4701721
0
ARC
8
DEFAULT_255_2_778
10
30.8254878
20
19.2917897
40
2.7951656
50
179.9532431
51
193.7637115
0
LINE
8
DEFAULT_255_2_778
10
29.426223
20
20.1452708
11
30.258923
21
19.2996708
0
LINE
8
DEFAULT_255_2_778
10
30.258923
20
19.2996708
11
29.404323
21
18.4654708
0
LINE
8
DEFAULT_255_2_778
10
29.404323
20
18.4654708
11
29.962823
21
17.8981708
0
LINE
8
DEFAULT_255_2_778
10
29.962823
20
17.8981708
11
30.817423
21
18.7323708
0
LINE
8
DEFAULT_255_2_778
10
30.817423
20
18.7323708
11
31.660623
21
17.8759708
0
LINE
8
DEFAULT_255_2_778
10
31.660623
20
17.8759708
11
32.219223
21
18.4431708
0
LINE
8
DEFAULT_255_2_778
10
32.219223
20
18.4431708
11
31.387123
21
19.2885708
0
LINE
8
DEFAULT_255_2_778
10
31.387123
20
19.2885708
11
32.241723
21
20.1227708
0
LINE
8
DEFAULT_255_2_778
10
32.241723
20
20.1227708
11
31.683123
21
20.6900708
0
LINE
8
DEFAULT_255_2_778
10
31.683123
20
20.6900708
11
30.828523
21
19.8557708
0
LINE
8
DEFAULT_255_2_778
10
30.828523
20
19.8557708
11
29.985323
21
20.7122708
0
LINE
8
DEFAULT_255_2_778
10
29.985323
20
20.7122708
11
29.426223
21
20.1452708
0
LINE
8
DEFAULT_255_2_778
10
28.030323
20
19.2940708
11
28.030323
21
19.2940708
0
LINE
8
DEFAULT_255_2_778
10
19.8697678
20
48.094
11
27.0328678
21
48.094
0
LINE
8
DEFAULT_255_2_778
10
19.8697678
20
38.9569
11
27.0328678
21
38.9569
0
LINE
8
DEFAULT_255_2_778
10
19.8697678
20
29.8195
11
27.0328678
21
29.8195
0
LINE
8
DEFAULT_255_2_778
10
19.8697678
20
57.2314
11
27.0328678
21
57.2314
0
ARC
8
DEFAULT_255_2_778
10
23.8475673
20
42.9332038
40
2.7810466
50
160.8078142
51
180.0748487
0
ARC
8
DEFAULT_255_2_778
10
23.8471763
20
42.9264914
40
2.7828914
50
103.0503532
51
160.6746508
0
ARC
8
DEFAULT_255_2_778
10
23.8570423
20
42.8785059
40
2.8318657
50
89.955879
51
103.0255817
0
ARC
8
DEFAULT_255_2_778
10
23.8629227
20
42.8939971
40
2.8163761
50
71.4944084
51
90.0752663
0
ARC
8
DEFAULT_255_2_778
10
23.8734748
20
42.9292954
40
2.779554
50
13.8976473
51
71.4697322
0
ARC
8
DEFAULT_255_2_778
10
23.8564649
20
42.9318548
40
2.795459
50
359.9531866
51
13.7629872
0
ARC
8
DEFAULT_255_2_778
10
23.8706402
20
42.9259109
40
2.7812852
50
340.8086434
51
0.075394
0
ARC
8
DEFAULT_255_2_778
10
23.8715711
20
42.9324761
40
2.7825716
50
283.0808242
51
340.6746713
0
ARC
8
DEFAULT_255_2_778
10
23.8614188
20
42.9811772
40
2.8323071
50
269.9555801
51
283.0578953
0
ARC
8
DEFAULT_255_2_778
10
23.8555257
20
42.9652737
40
2.8164053
50
251.4945568
51
270.0752172
0
ARC
8
DEFAULT_255_2_778
10
23.8449486
20
42.9299452
40
2.7795467
50
193.898971
51
251.4701721
0
ARC
8
DEFAULT_255_2_778
10
23.8616878
20
42.9272897
40
2.7951656
50
179.9532431
51
193.7637115
0
LINE
8
DEFAULT_255_2_778
10
22.462423
20
43.7807708
11
23.295123
21
42.9351708
0
LINE
8
DEFAULT_255_2_778
10
23.295123
20
42.9351708
11
22.440523
21
42.1009708
0
LINE
8
DEFAULT_255_2_778
10
22.440523
20
42.1009708
11
22.999023
21
41.5336708
0
LINE
8
DEFAULT_255_2_778
10
22.999023
20
41.5336708
11
23.853623
21
42.3678708
0
LINE
8
DEFAULT_255_2_778
10
23.853623
20
42.3678708
11
24.696823
21
41.5114708
0
LINE
8
DEFAULT_255_2_778
10
24.696823
20
41.5114708
11
25.255423
21
42.0786708
0
LINE
8
DEFAULT_255_2_778
10
25.255423
20
42.0786708
11
24.423323
21
42.9240708
0
LINE
8
DEFAULT_255_2_778
10
24.423323
20
42.9240708
11
25.277923
21
43.7582708
0
LINE
8
DEFAULT_255_2_778
10
25.277923
20
43.7582708
11
24.719323
21
44.3255708
0
LINE
8
DEFAULT_255_2_778
10
24.719323
20
44.3255708
11
23.864723
21
43.4912708
0
LINE
8
DEFAULT_255_2_778
10
23.864723
20
43.4912708
11
23.021523
21
44.3477708
0
LINE
8
DEFAULT_255_2_778
10
23.021523
20
44.3477708
11
22.462423
21
43.7807708
0
LINE
8
DEFAULT_255_2_778
10
21.066523
20
42.9295708
11
21.066523
21
42.9295708
0
LINE
8
DEFAULT_255_2_778
10
27.0328668
20
42.7319417
11
34.0009668
21
42.7319417
0
LINE
8
DEFAULT_255_2_778
10
27.0328668
20
41.5402417
11
34.0009668
21
41.5402417
0
LINE
8
DEFAULT_255_2_778
10
27.0328668
20
32.4034417
11
34.0009668
21
32.4034417
0
LINE
8
DEFAULT_255_2_778
10
27.0328668
20
33.5951417
11
34.0009668
21
33.5951417
0
ARC
8
DEFAULT_255_2_778
10
30.8113673
20
28.4346038
40
2.7810466
50
160.8078142
51
180.0748487
0
ARC
8
DEFAULT_255_2_778
10
30.8109763
20
28.4278914
40
2.7828914
50
103.0503532
51
160.6746508
0
ARC
8
DEFAULT_255_2_778
10
30.8208423
20
28.3799059
40
2.8318657
50
89.955879
51
103.0255817
0
ARC
8
DEFAULT_255_2_778
10
30.8267227
20
28.3953971
40
2.8163761
50
71.4944084
51
90.0752663
0
ARC
8
DEFAULT_255_2_778
10
30.8372748
20
28.4306954
40
2.779554
50
13.8976473
51
71.4697322
0
ARC
8
DEFAULT_255_2_778
10
30.8202649
20
28.4332548
40
2.795459
50
359.9531866
51
13.7629872
0
ARC
8
DEFAULT_255_2_778
10
30.8344402
20
28.4273109
40
2.7812852
50
340.8086434
51
0.075394
0
ARC
8
DEFAULT_255_2_778
10
30.8353711
20
28.4338761
40
2.7825716
50
283.0808242
51
340.6746713
0
ARC
8
DEFAULT_255_2_778
10
30.8252188
20
28.4825772
40
2.8323071
50
269.9555801
51
283.0578953
0
ARC
8
DEFAULT_255_2_778
10
30.8193257
20
28.4666737
40
2.8164053
50
251.4945568
51
270.0752172
0
ARC
8
DEFAULT_255_2_778
10
30.8087486
20
28.4313452
40
2.7795467
50
193.898971
51
251.4701721
0
ARC
8
DEFAULT_255_2_778
10
30.8254878
20
28.4286897
40
2.7951656
50
179.9532431
51
193.7637115
0
LINE
8
DEFAULT_255_2_778
10
29.426223
20
29.2821708
11
30.258923
21
28.4365708
0
LINE
8
DEFAULT_255_2_778
10
30.258923
20
28.4365708
11
29.404323
21
27.6023708
0
LINE
8
DEFAULT_255_2_778
10
29.404323
20
27.6023708
11
29.962823
21
27.0350708
0
LINE
8
DEFAULT_255_2_778
10
29.962823
20
27.0350708
11
30.817423
21
27.8692708
0
LINE
8
DEFAULT_255_2_778
10
30.817423
20
27.8692708
11
31.660623
21
27.0128708
0
LINE
8
DEFAULT_255_2_778
10
31.660623
20
27.0128708
11
32.219223
21
27.5800708
0
LINE
8
DEFAULT_255_2_778
10
32.219223
20
27.5800708
11
31.387123
21
28.4254708
0
LINE
8
DEFAULT_255_2_778
10
31.387123
20
28.4254708
11
32.241723
21
29.2596708
0
LINE
8
DEFAULT_255_2_778
10
32.241723
20
29.2596708
11
31.683123
21
29.8269708
0
LINE
8
DEFAULT_255_2_778
10
31.683123
20
29.8269708
11
30.828523
21
28.9926708
0
LINE
8
DEFAULT_255_2_778
10
30.828523
20
28.9926708
11
29.985323
21
29.8491708
0
LINE
8
DEFAULT_255_2_778
10
29.985323
20
29.8491708
11
29.426223
21
29.2821708
0
LINE
8
DEFAULT_255_2_778
10
28.030323
20
28.4309708
11
28.030323
21
28.4309708
0
LINE
8
DEFAULT_255_2_778
10
27.0328668
20
51.8685417
11
34.0009668
21
51.8685417
0
LINE
8
DEFAULT_255_2_778
10
27.0328668
20
50.6768417
11
34.0009668
21
50.6768417
0
LINE
8
DEFAULT_255_2_778
10
19.8697678
20
84.6406
11
27.0328678
21
84.6406
0
LINE
8
DEFAULT_255_2_778
10
19.8697678
20
75.5035
11
27.0328678
21
75.5035
0
LINE
8
DEFAULT_255_2_778
10
19.8697678
20
66.3661417
11
27.0328678
21
66.3661417
0
LINE
8
DEFAULT_255_2_778
10
19.8697678
20
65.1744417
11
27.0328678
21
65.1744417
0
LINE
8
DEFAULT_255_2_778
10
27.0328668
20
61.0051417
11
34.0009668
21
61.0051417
0
LINE
8
DEFAULT_255_2_778
10
27.0328668
20
59.8134417
11
34.0009668
21
59.8134417
0
LINE
8
DEFAULT_255_2_778
10
27.0328668
20
70.1425417
11
34.0009668
21
70.1425417
0
LINE
8
DEFAULT_255_2_778
10
27.0328668
20
68.9508417
11
34.0009668
21
68.9508417
0
ARC
8
DEFAULT_255_2_778
10
23.8475673
20
70.3425038
40
2.7810466
50
160.8078142
51
180.0748487
0
ARC
8
DEFAULT_255_2_778
10
23.8471763
20
70.3357914
40
2.7828914
50
103.0503532
51
160.6746508
0
ARC
8
DEFAULT_255_2_778
10
23.8570423
20
70.2878059
40
2.8318657
50
89.955879
51
103.0255817
0
ARC
8
DEFAULT_255_2_778
10
23.8629227
20
70.3032971
40
2.8163761
50
71.4944084
51
90.0752663
0
ARC
8
DEFAULT_255_2_778
10
23.8734748
20
70.3385954
40
2.779554
50
13.8976473
51
71.4697322
0
ARC
8
DEFAULT_255_2_778
10
23.8564649
20
70.3411548
40
2.795459
50
359.9531866
51
13.7629872
0
ARC
8
DEFAULT_255_2_778
10
23.8706402
20
70.3352109
40
2.7812852
50
340.8086434
51
0.075394
0
ARC
8
DEFAULT_255_2_778
10
23.8715711
20
70.3417761
40
2.7825716
50
283.0808242
51
340.6746713
0
ARC
8
DEFAULT_255_2_778
10
23.8614188
20
70.3904772
40
2.8323071
50
269.9555801
51
283.0578953
0
ARC
8
DEFAULT_255_2_778
10
23.8555257
20
70.3745737
40
2.8164053
50
251.4945568
51
270.0752172
0
ARC
8
DEFAULT_255_2_778
10
23.8449486
20
70.3392452
40
2.7795467
50
193.898971
51
251.4701721
0
ARC
8
DEFAULT_255_2_778
10
23.8616878
20
70.3365897
40
2.7951656
50
179.9532431
51
193.7637115
0
LINE
8
DEFAULT_255_2_778
10
22.462423
20
71.1900708
11
23.295123
21
70.3444708
0
LINE
8
DEFAULT_255_2_778
10
23.295123
20
70.3444708
11
22.440523
21
69.5102708
0
LINE
8
DEFAULT_255_2_778
10
22.440523
20
69.5102708
11
22.999023
21
68.9429708
0
LINE
8
DEFAULT_255_2_778
10
22.999023
20
68.9429708
11
23.853623
21
69.7771708
0
LINE
8
DEFAULT_255_2_778
10
23.853623
20
69.7771708
11
24.696823
21
68.9207708
0
LINE
8
DEFAULT_255_2_778
10
24.696823
20
68.9207708
11
25.255423
21
69.4879708
0
LINE
8
DEFAULT_255_2_778
10
25.255423
20
69.4879708
11
24.423323
21
70.3333708
0
LINE
8
DEFAULT_255_2_778
10
24.423323
20
70.3333708
11
25.277923
21
71.1675708
0
LINE
8
DEFAULT_255_2_778
10
25.277923
20
71.1675708
11
24.719323
21
71.7348708
0
LINE
8
DEFAULT_255_2_778
10
24.719323
20
71.7348708
11
23.864723
21
70.9005708
0
LINE
8
DEFAULT_255_2_778
10
23.864723
20
70.9005708
11
23.021523
21
71.7570708
0
LINE
8
DEFAULT_255_2_778
10
23.021523
20
71.7570708
11
22.462423
21
71.1900708
0
LINE
8
DEFAULT_255_2_778
10
21.066523
20
70.3388708
11
21.066523
21
70.3388708
0
ARC
8
DEFAULT_255_2_778
10
30.8111032
20
64.981598
40
2.7807826
50
160.8068966
51
180.0747372
0
ARC
8
DEFAULT_255_2_778
10
30.8109686
20
64.9747751
40
2.7829059
50
103.05012
51
160.6733195
0
ARC
8
DEFAULT_255_2_778
10
30.8208432
20
64.9267908
40
2.8318809
50
89.9558967
51
103.0255285
0
ARC
8
DEFAULT_255_2_778
10
30.8267203
20
64.9422678
40
2.8164053
50
71.4945568
51
90.0752172
0
ARC
8
DEFAULT_255_2_778
10
30.8372974
20
64.9775963
40
2.7795467
50
13.898971
51
71.4701721
0
ARC
8
DEFAULT_255_2_778
10
30.8205582
20
64.9802518
40
2.7951656
50
359.9532431
51
13.7637115
0
ARC
8
DEFAULT_255_2_778
10
30.8341744
20
64.9743053
40
2.781551
50
340.80957
51
0.0755023
0
ARC
8
DEFAULT_255_2_778
10
30.8353627
20
64.9807602
40
2.7825579
50
283.0810675
51
340.6759992
0
ARC
8
DEFAULT_255_2_778
10
30.825218
20
65.0294619
40
2.8322921
50
269.9555971
51
283.0579835
0
ARC
8
DEFAULT_255_2_778
10
30.8193233
20
65.0135444
40
2.8163761
50
251.4944084
51
270.0752663
0
ARC
8
DEFAULT_255_2_778
10
30.8087712
20
64.9782461
40
2.779554
50
193.8976473
51
251.4697322
0
ARC
8
DEFAULT_255_2_778
10
30.8257811
20
64.9756867
40
2.795459
50
179.9531866
51
193.7629872
0
LINE
8
DEFAULT_255_2_778
10
29.426223
20
65.8290708
11
30.258923
21
64.9834708
0
LINE
8
DEFAULT_255_2_778
10
30.258923
20
64.9834708
11
29.404323
21
64.1492708
0
LINE
8
DEFAULT_255_2_778
10
29.404323
20
64.1492708
11
29.962823
21
63.5819708
0
LINE
8
DEFAULT_255_2_778
10
29.962823
20
63.5819708
11
30.817423
21
64.4161708
0
LINE
8
DEFAULT_255_2_778
10
30.817423
20
64.4161708
11
31.660623
21
63.5597708
0
LINE
8
DEFAULT_255_2_778
10
31.660623
20
63.5597708
11
32.219223
21
64.1269708
0
LINE
8
DEFAULT_255_2_778
10
32.219223
20
64.1269708
11
31.387123
21
64.9723708
0
LINE
8
DEFAULT_255_2_778
10
31.387123
20
64.9723708
11
32.241723
21
65.8065708
0
LINE
8
DEFAULT_255_2_778
10
32.241723
20
65.8065708
11
31.683123
21
66.3738708
0
LINE
8
DEFAULT_255_2_778
10
31.683123
20
66.3738708
11
30.828523
21
65.5395708
0
LINE
8
DEFAULT_255_2_778
10
30.828523
20
65.5395708
11
29.985323
21
66.3960708
0
LINE
8
DEFAULT_255_2_778
10
29.985323
20
66.3960708
11
29.426223
21
65.8290708
0
LINE
8
DEFAULT_255_2_778
10
28.030323
20
64.9779708
11
28.030323
21
64.9779708
0
ARC
8
DEFAULT_255_2_778
10
30.8113673
20
74.1186038
40
2.7810466
50
160.8078142
51
180.0748487
0
ARC
8
DEFAULT_255_2_778
10
30.8109763
20
74.1118914
40
2.7828914
50
103.0503532
51
160.6746508
0
ARC
8
DEFAULT_255_2_778
10
30.8208423
20
74.0639059
40
2.8318657
50
89.955879
51
103.0255817
0
ARC
8
DEFAULT_255_2_778
10
30.8267227
20
74.0793971
40
2.8163761
50
71.4944084
51
90.0752663
0
ARC
8
DEFAULT_255_2_778
10
30.8372748
20
74.1146954
40
2.779554
50
13.8976473
51
71.4697322
0
ARC
8
DEFAULT_255_2_778
10
30.8202649
20
74.1172548
40
2.795459
50
359.9531866
51
13.7629872
0
ARC
8
DEFAULT_255_2_778
10
30.8344402
20
74.1113109
40
2.7812852
50
340.8086434
51
0.075394
0
ARC
8
DEFAULT_255_2_778
10
30.8353711
20
74.1178761
40
2.7825716
50
283.0808242
51
340.6746713
0
ARC
8
DEFAULT_255_2_778
10
30.8252188
20
74.1665772
40
2.8323071
50
269.9555801
51
283.0578953
0
ARC
8
DEFAULT_255_2_778
10
30.8193257
20
74.1506737
40
2.8164053
50
251.4945568
51
270.0752172
0
ARC
8
DEFAULT_255_2_778
10
30.8087486
20
74.1153452
40
2.7795467
50
193.898971
51
251.4701721
0
ARC
8
DEFAULT_255_2_778
10
30.8254878
20
74.1126897
40
2.7951656
50
179.9532431
51
193.7637115
0
LINE
8
DEFAULT_255_2_778
10
29.426223
20
74.9661708
11
30.258923
21
74.1205708
0
LINE
8
DEFAULT_255_2_778
10
30.258923
20
74.1205708
11
29.404323
21
73.2863708
0
LINE
8
DEFAULT_255_2_778
10
29.404323
20
73.2863708
11
29.962823
21
72.7190708
0
LINE
8
DEFAULT_255_2_778
10
29.962823
20
72.7190708
11
30.817423
21
73.5532708
0
LINE
8
DEFAULT_255_2_778
10
30.817423
20
73.5532708
11
31.660623
21
72.6968708
0
LINE
8
DEFAULT_255_2_778
10
31.660623
20
72.6968708
11
32.219223
21
73.2640708
0
LINE
8
DEFAULT_255_2_778
10
32.219223
20
73.2640708
11
31.387123
21
74.1094708
0
LINE
8
DEFAULT_255_2_778
10
31.387123
20
74.1094708
11
32.241723
21
74.9436708
0
LINE
8
DEFAULT_255_2_778
10
32.241723
20
74.9436708
11
31.683123
21
75.5109708
0
LINE
8
DEFAULT_255_2_778
10
31.683123
20
75.5109708
11
30.828523
21
74.6766708
0
LINE
8
DEFAULT_255_2_778
10
30.828523
20
74.6766708
11
29.985323
21
75.5331708
0
LINE
8
DEFAULT_255_2_778
10
29.985323
20
75.5331708
11
29.426223
21
74.9661708
0
LINE
8
DEFAULT_255_2_778
10
28.030323
20
74.1149708
11
28.030323
21
74.1149708
0
LINE
8
DEFAULT_255_2_778
10
27.0328668
20
88.4157417
11
34.0009668
21
88.4157417
0
LINE
8
DEFAULT_255_2_778
10
27.0328668
20
87.2240417
11
34.0009668
21
87.2240417
0
LINE
8
DEFAULT_255_2_778
10
27.0328668
20
78.0874417
11
34.0009668
21
78.0874417
0
LINE
8
DEFAULT_255_2_778
10
27.0328668
20
79.2791417
11
34.0009668
21
79.2791417
0
ARC
8
DEFAULT_255_2_778
10
23.8475673
20
88.6170038
40
2.7810466
50
160.8078142
51
180.0748487
0
ARC
8
DEFAULT_255_2_778
10
23.8471763
20
88.6102914
40
2.7828914
50
103.0503532
51
160.6746508
0
ARC
8
DEFAULT_255_2_778
10
23.8570423
20
88.5623059
40
2.8318657
50
89.955879
51
103.0255817
0
ARC
8
DEFAULT_255_2_778
10
23.8629227
20
88.5777971
40
2.8163761
50
71.4944084
51
90.0752663
0
ARC
8
DEFAULT_255_2_778
10
23.8734748
20
88.6130954
40
2.779554
50
13.8976473
51
71.4697322
0
ARC
8
DEFAULT_255_2_778
10
23.8564649
20
88.6156548
40
2.795459
50
359.9531866
51
13.7629872
0
ARC
8
DEFAULT_255_2_778
10
23.8706402
20
88.6097109
40
2.7812852
50
340.8086434
51
0.075394
0
ARC
8
DEFAULT_255_2_778
10
23.8715711
20
88.6162761
40
2.7825716
50
283.0808242
51
340.6746713
0
ARC
8
DEFAULT_255_2_778
10
23.8614188
20
88.6649772
40
2.8323071
50
269.9555801
51
283.0578953
0
ARC
8
DEFAULT_255_2_778
10
23.8555257
20
88.6490737
40
2.8164053
50
251.4945568
51
270.0752172
0
ARC
8
DEFAULT_255_2_778
10
23.8449486
20
88.6137452
40
2.7795467
50
193.898971
51
251.4701721
0
ARC
8
DEFAULT_255_2_778
10
23.8616878
20
88.6110897
40
2.7951656
50
179.9532431
51
193.7637115
0
LINE
8
DEFAULT_255_2_778
10
22.462423
20
89.4645708
11
23.295123
21
88.6189708
0
LINE
8
DEFAULT_255_2_778
10
23.295123
20
88.6189708
11
22.440523
21
87.7847708
0
LINE
8
DEFAULT_255_2_778
10
22.440523
20
87.7847708
11
22.999023
21
87.2174708
0
LINE
8
DEFAULT_255_2_778
10
22.999023
20
87.2174708
11
23.853623
21
88.0516708
0
LINE
8
DEFAULT_255_2_778
10
23.853623
20
88.0516708
11
24.696823
21
87.1952708
0
LINE
8
DEFAULT_255_2_778
10
24.696823
20
87.1952708
11
25.255423
21
87.7624708
0
LINE
8
DEFAULT_255_2_778
10
25.255423
20
87.7624708
11
24.423323
21
88.6078708
0
LINE
8
DEFAULT_255_2_778
10
24.423323
20
88.6078708
11
25.277923
21
89.4420708
0
LINE
8
DEFAULT_255_2_778
10
25.277923
20
89.4420708
11
24.719323
21
90.0093708
0
LINE
8
DEFAULT_255_2_778
10
24.719323
20
90.0093708
11
23.864723
21
89.1750708
0
LINE
8
DEFAULT_255_2_778
10
23.864723
20
89.1750708
11
23.021523
21
90.0315708
0
LINE
8
DEFAULT_255_2_778
10
23.021523
20
90.0315708
11
22.462423
21
89.4645708
0
LINE
8
DEFAULT_255_2_778
10
21.066523
20
88.6133708
11
21.066523
21
88.6133708
0
LINE
8
DEFAULT_255_2_778
10
26.4680105
20
111.6072
11
19.8698105
21
111.6072
0
LINE
8
DEFAULT_255_2_778
10
19.8697678
20
93.778
11
27.0328678
21
93.778
0
LINE
8
DEFAULT_255_2_778
10
19.8697678
20
102.9151
11
27.0328678
21
102.9151
0
LINE
8
DEFAULT_255_2_778
10
19.8698023
20
107.8808417
11
34.0012023
21
107.8808417
0
LINE
8
DEFAULT_255_2_778
10
19.8698023
20
106.6891417
11
34.0012023
21
106.6891417
0
LINE
8
DEFAULT_255_2_778
10
27.0328668
20
97.5523417
11
34.0009668
21
97.5523417
0
LINE
8
DEFAULT_255_2_778
10
27.0328668
20
96.3606417
11
34.0009668
21
96.3606417
0
LINE
8
DEFAULT_255_2_778
10
27.0328668
20
105.4975
11
34.0009668
21
105.4975
0
LINE
8
DEFAULT_255_2_778
10
34.0012688
20
5.9723
11
32.0533688
21
5.9723
0
ARC
8
DEFAULT_255_2_778
10
23.8475673
20
15.5218038
40
2.7810466
50
160.8078142
51
180.0748487
0
ARC
8
DEFAULT_255_2_778
10
23.8471763
20
15.5150914
40
2.7828914
50
103.0503532
51
160.6746508
0
ARC
8
DEFAULT_255_2_778
10
23.8570423
20
15.4671059
40
2.8318657
50
89.955879
51
103.0255817
0
ARC
8
DEFAULT_255_2_778
10
23.8629227
20
15.4825971
40
2.8163761
50
71.4944084
51
90.0752663
0
ARC
8
DEFAULT_255_2_778
10
23.8734748
20
15.5178954
40
2.779554
50
13.8976473
51
71.4697322
0
ARC
8
DEFAULT_255_2_778
10
23.8564649
20
15.5204548
40
2.795459
50
359.9531866
51
13.7629872
0
ARC
8
DEFAULT_255_2_778
10
23.8706402
20
15.5145109
40
2.7812852
50
340.8086434
51
0.075394
0
ARC
8
DEFAULT_255_2_778
10
23.8715711
20
15.5210761
40
2.7825716
50
283.0808242
51
340.6746713
0
ARC
8
DEFAULT_255_2_778
10
23.8614188
20
15.5697772
40
2.8323071
50
269.9555801
51
283.0578953
0
ARC
8
DEFAULT_255_2_778
10
23.8555257
20
15.5538737
40
2.8164053
50
251.4945568
51
270.0752172
0
ARC
8
DEFAULT_255_2_778
10
23.8449486
20
15.5185452
40
2.7795467
50
193.898971
51
251.4701721
0
ARC
8
DEFAULT_255_2_778
10
23.8616878
20
15.5158897
40
2.7951656
50
179.9532431
51
193.7637115
0
LINE
8
DEFAULT_255_2_778
10
22.462423
20
16.3693708
11
23.295123
21
15.5237708
0
LINE
8
DEFAULT_255_2_778
10
23.295123
20
15.5237708
11
22.440523
21
14.6895708
0
LINE
8
DEFAULT_255_2_778
10
22.440523
20
14.6895708
11
22.999023
21
14.1222708
0
LINE
8
DEFAULT_255_2_778
10
22.999023
20
14.1222708
11
23.853623
21
14.9564708
0
LINE
8
DEFAULT_255_2_778
10
23.853623
20
14.9564708
11
24.696823
21
14.1000708
0
LINE
8
DEFAULT_255_2_778
10
24.696823
20
14.1000708
11
25.255423
21
14.6672708
0
LINE
8
DEFAULT_255_2_778
10
25.255423
20
14.6672708
11
24.423323
21
15.5126708
0
LINE
8
DEFAULT_255_2_778
10
24.423323
20
15.5126708
11
25.277923
21
16.3468708
0
LINE
8
DEFAULT_255_2_778
10
25.277923
20
16.3468708
11
24.719323
21
16.9141708
0
LINE
8
DEFAULT_255_2_778
10
24.719323
20
16.9141708
11
23.864723
21
16.0798708
0
LINE
8
DEFAULT_255_2_778
10
23.864723
20
16.0798708
11
23.021523
21
16.9363708
0
LINE
8
DEFAULT_255_2_778
10
23.021523
20
16.9363708
11
22.462423
21
16.3693708
0
LINE
8
DEFAULT_255_2_778
10
21.066523
20
15.5181708
11
21.066523
21
15.5181708
0
ARC
8
DEFAULT_255_2_778
10
23.8475673
20
33.7958038
40
2.7810466
50
160.8078142
51
180.0748487
0
ARC
8
DEFAULT_255_2_778
10
23.8471763
20
33.7890914
40
2.7828914
50
103.0503532
51
160.6746508
0
ARC
8
DEFAULT_255_2_778
10
23.8570423
20
33.7411059
40
2.8318657
50
89.955879
51
103.0255817
0
ARC
8
DEFAULT_255_2_778
10
23.8629227
20
33.7565971
40
2.8163761
50
71.4944084
51
90.0752663
0
ARC
8
DEFAULT_255_2_778
10
23.8734748
20
33.7918954
40
2.779554
50
13.8976473
51
71.4697322
0
ARC
8
DEFAULT_255_2_778
10
23.8564649
20
33.7944548
40
2.795459
50
359.9531866
51
13.7629872
0
ARC
8
DEFAULT_255_2_778
10
23.8706402
20
33.7885109
40
2.7812852
50
340.8086434
51
0.075394
0
ARC
8
DEFAULT_255_2_778
10
23.8715711
20
33.7950761
40
2.7825716
50
283.0808242
51
340.6746713
0
ARC
8
DEFAULT_255_2_778
10
23.8614188
20
33.8437772
40
2.8323071
50
269.9555801
51
283.0578953
0
ARC
8
DEFAULT_255_2_778
10
23.8555257
20
33.8278737
40
2.8164053
50
251.4945568
51
270.0752172
0
ARC
8
DEFAULT_255_2_778
10
23.8449486
20
33.7925452
40
2.7795467
50
193.898971
51
251.4701721
0
ARC
8
DEFAULT_255_2_778
10
23.8616878
20
33.7898897
40
2.7951656
50
179.9532431
51
193.7637115
0
LINE
8
DEFAULT_255_2_778
10
22.462423
20
34.6433708
11
23.295123
21
33.7977708
0
LINE
8
DEFAULT_255_2_778
10
23.295123
20
33.7977708
11
22.440523
21
32.9635708
0
LINE
8
DEFAULT_255_2_778
10
22.440523
20
32.9635708
11
22.999023
21
32.3962708
0
LINE
8
DEFAULT_255_2_778
10
22.999023
20
32.3962708
11
23.853623
21
33.2304708
0
LINE
8
DEFAULT_255_2_778
10
23.853623
20
33.2304708
11
24.696823
21
32.3740708
0
LINE
8
DEFAULT_255_2_778
10
24.696823
20
32.3740708
11
25.255423
21
32.9412708
0
LINE
8
DEFAULT_255_2_778
10
25.255423
20
32.9412708
11
24.423323
21
33.7866708
0
LINE
8
DEFAULT_255_2_778
10
24.423323
20
33.7866708
11
25.277923
21
34.6208708
0
LINE
8
DEFAULT_255_2_778
10
25.277923
20
34.6208708
11
24.719323
21
35.1881708
0
LINE
8
DEFAULT_255_2_778
10
24.719323
20
35.1881708
11
23.864723
21
34.3538708
0
LINE
8
DEFAULT_255_2_778
10
23.864723
20
34.3538708
11
23.021523
21
35.2103708
0
LINE
8
DEFAULT_255_2_778
10
23.021523
20
35.2103708
11
22.462423
21
34.6433708
0
LINE
8
DEFAULT_255_2_778
10
21.066523
20
33.7921708
11
21.066523
21
33.7921708
0
ARC
8
DEFAULT_255_2_778
10
30.8113673
20
37.5712038
40
2.7810466
50
160.8078142
51
180.0748487
0
ARC
8
DEFAULT_255_2_778
10
30.8109763
20
37.5644914
40
2.7828914
50
103.0503532
51
160.6746508
0
ARC
8
DEFAULT_255_2_778
10
30.8208423
20
37.5165059
40
2.8318657
50
89.955879
51
103.0255817
0
ARC
8
DEFAULT_255_2_778
10
30.8267227
20
37.5319971
40
2.8163761
50
71.4944084
51
90.0752663
0
ARC
8
DEFAULT_255_2_778
10
30.8372748
20
37.5672954
40
2.779554
50
13.8976473
51
71.4697322
0
ARC
8
DEFAULT_255_2_778
10
30.8202649
20
37.5698548
40
2.795459
50
359.9531866
51
13.7629872
0
ARC
8
DEFAULT_255_2_778
10
30.8344402
20
37.5639109
40
2.7812852
50
340.8086434
51
0.075394
0
ARC
8
DEFAULT_255_2_778
10
30.8353711
20
37.5704761
40
2.7825716
50
283.0808242
51
340.6746713
0
ARC
8
DEFAULT_255_2_778
10
30.8252188
20
37.6191772
40
2.8323071
50
269.9555801
51
283.0578953
0
ARC
8
DEFAULT_255_2_778
10
30.8193257
20
37.6032737
40
2.8164053
50
251.4945568
51
270.0752172
0
ARC
8
DEFAULT_255_2_778
10
30.8087486
20
37.5679452
40
2.7795467
50
193.898971
51
251.4701721
0
ARC
8
DEFAULT_255_2_778
10
30.8254878
20
37.5652897
40
2.7951656
50
179.9532431
51
193.7637115
0
LINE
8
DEFAULT_255_2_778
10
29.426223
20
38.4187708
11
30.258923
21
37.5731708
0
LINE
8
DEFAULT_255_2_778
10
30.258923
20
37.5731708
11
29.404323
21
36.7389708
0
LINE
8
DEFAULT_255_2_778
10
29.404323
20
36.7389708
11
29.962823
21
36.1716708
0
LINE
8
DEFAULT_255_2_778
10
29.962823
20
36.1716708
11
30.817423
21
37.0058708
0
LINE
8
DEFAULT_255_2_778
10
30.817423
20
37.0058708
11
31.660623
21
36.1494708
0
LINE
8
DEFAULT_255_2_778
10
31.660623
20
36.1494708
11
32.219223
21
36.7166708
0
LINE
8
DEFAULT_255_2_778
10
32.219223
20
36.7166708
11
31.387123
21
37.5620708
0
LINE
8
DEFAULT_255_2_778
10
31.387123
20
37.5620708
11
32.241723
21
38.3962708
0
LINE
8
DEFAULT_255_2_778
10
32.241723
20
38.3962708
11
31.683123
21
38.9635708
0
LINE
8
DEFAULT_255_2_778
10
31.683123
20
38.9635708
11
30.828523
21
38.1292708
0
LINE
8
DEFAULT_255_2_778
10
30.828523
20
38.1292708
11
29.985323
21
38.9857708
0
LINE
8
DEFAULT_255_2_778
10
29.985323
20
38.9857708
11
29.426223
21
38.4187708
0
LINE
8
DEFAULT_255_2_778
10
28.030323
20
37.5675708
11
28.030323
21
37.5675708
0
ARC
8
DEFAULT_255_2_778
10
30.8113673
20
46.7080038
40
2.7810466
50
160.8078142
51
180.0748487
0
ARC
8
DEFAULT_255_2_778
10
30.8109763
20
46.7012914
40
2.7828914
50
103.0503532
51
160.6746508
0
ARC
8
DEFAULT_255_2_778
10
30.8208423
20
46.6533059
40
2.8318657
50
89.955879
51
103.0255817
0
ARC
8
DEFAULT_255_2_778
10
30.8267227
20
46.6687971
40
2.8163761
50
71.4944084
51
90.0752663
0
ARC
8
DEFAULT_255_2_778
10
30.8372748
20
46.7040954
40
2.779554
50
13.8976473
51
71.4697322
0
ARC
8
DEFAULT_255_2_778
10
30.8202649
20
46.7066548
40
2.795459
50
359.9531866
51
13.7629872
0
ARC
8
DEFAULT_255_2_778
10
30.8344402
20
46.7007109
40
2.7812852
50
340.8086434
51
0.075394
0
ARC
8
DEFAULT_255_2_778
10
30.8353711
20
46.7072761
40
2.7825716
50
283.0808242
51
340.6746713
0
ARC
8
DEFAULT_255_2_778
10
30.8252188
20
46.7559772
40
2.8323071
50
269.9555801
51
283.0578953
0
ARC
8
DEFAULT_255_2_778
10
30.8193257
20
46.7400737
40
2.8164053
50
251.4945568
51
270.0752172
0
ARC
8
DEFAULT_255_2_778
10
30.8087486
20
46.7047452
40
2.7795467
50
193.898971
51
251.4701721
0
ARC
8
DEFAULT_255_2_778
10
30.8254878
20
46.7020897
40
2.7951656
50
179.9532431
51
193.7637115
0
LINE
8
DEFAULT_255_2_778
10
29.426223
20
47.5555708
11
30.258923
21
46.7099708
0
LINE
8
DEFAULT_255_2_778
10
30.258923
20
46.7099708
11
29.404323
21
45.8757708
0
LINE
8
DEFAULT_255_2_778
10
29.404323
20
45.8757708
11
29.962823
21
45.3084708
0
LINE
8
DEFAULT_255_2_778
10
29.962823
20
45.3084708
11
30.817423
21
46.1426708
0
LINE
8
DEFAULT_255_2_778
10
30.817423
20
46.1426708
11
31.660623
21
45.2862708
0
LINE
8
DEFAULT_255_2_778
10
31.660623
20
45.2862708
11
32.219223
21
45.8534708
0
LINE
8
DEFAULT_255_2_778
10
32.219223
20
45.8534708
11
31.387123
21
46.6988708
0
LINE
8
DEFAULT_255_2_778
10
31.387123
20
46.6988708
11
32.241723
21
47.5330708
0
LINE
8
DEFAULT_255_2_778
10
32.241723
20
47.5330708
11
31.683123
21
48.1003708
0
LINE
8
DEFAULT_255_2_778
10
31.683123
20
48.1003708
11
30.828523
21
47.2660708
0
LINE
8
DEFAULT_255_2_778
10
30.828523
20
47.2660708
11
29.985323
21
48.1225708
0
LINE
8
DEFAULT_255_2_778
10
29.985323
20
48.1225708
11
29.426223
21
47.5555708
0
LINE
8
DEFAULT_255_2_778
10
28.030323
20
46.7043708
11
28.030323
21
46.7043708
0
ARC
8
DEFAULT_255_2_778
10
23.8475673
20
52.0703038
40
2.7810466
50
160.8078142
51
180.0748487
0
ARC
8
DEFAULT_255_2_778
10
23.8471763
20
52.0635914
40
2.7828914
50
103.0503532
51
160.6746508
0
ARC
8
DEFAULT_255_2_778
10
23.8570423
20
52.0156059
40
2.8318657
50
89.955879
51
103.0255817
0
ARC
8
DEFAULT_255_2_778
10
23.8629227
20
52.0310971
40
2.8163761
50
71.4944084
51
90.0752663
0
ARC
8
DEFAULT_255_2_778
10
23.8734748
20
52.0663954
40
2.779554
50
13.8976473
51
71.4697322
0
ARC
8
DEFAULT_255_2_778
10
23.8564649
20
52.0689548
40
2.795459
50
359.9531866
51
13.7629872
0
ARC
8
DEFAULT_255_2_778
10
23.8706402
20
52.0630109
40
2.7812852
50
340.8086434
51
0.075394
0
ARC
8
DEFAULT_255_2_778
10
23.8715711
20
52.0695761
40
2.7825716
50
283.0808242
51
340.6746713
0
ARC
8
DEFAULT_255_2_778
10
23.8614188
20
52.1182772
40
2.8323071
50
269.9555801
51
283.0578953
0
ARC
8
DEFAULT_255_2_778
10
23.8555257
20
52.1023737
40
2.8164053
50
251.4945568
51
270.0752172
0
ARC
8
DEFAULT_255_2_778
10
23.8449486
20
52.0670452
40
2.7795467
50
193.898971
51
251.4701721
0
ARC
8
DEFAULT_255_2_778
10
23.8616878
20
52.0643897
40
2.7951656
50
179.9532431
51
193.7637115
0
LINE
8
DEFAULT_255_2_778
10
22.462423
20
52.9178708
11
23.295123
21
52.0722708
0
LINE
8
DEFAULT_255_2_778
10
23.295123
20
52.0722708
11
22.440523
21
51.2380708
0
LINE
8
DEFAULT_255_2_778
10
22.440523
20
51.2380708
11
22.999023
21
50.6707708
0
LINE
8
DEFAULT_255_2_778
10
22.999023
20
50.6707708
11
23.853623
21
51.5049708
0
LINE
8
DEFAULT_255_2_778
10
23.853623
20
51.5049708
11
24.696823
21
50.6485708
0
LINE
8
DEFAULT_255_2_778
10
24.696823
20
50.6485708
11
25.255423
21
51.2157708
0
LINE
8
DEFAULT_255_2_778
10
25.255423
20
51.2157708
11
24.423323
21
52.0611708
0
LINE
8
DEFAULT_255_2_778
10
24.423323
20
52.0611708
11
25.277923
21
52.8953708
0
LINE
8
DEFAULT_255_2_778
10
25.277923
20
52.8953708
11
24.719323
21
53.4626708
0
LINE
8
DEFAULT_255_2_778
10
24.719323
20
53.4626708
11
23.864723
21
52.6283708
0
LINE
8
DEFAULT_255_2_778
10
23.864723
20
52.6283708
11
23.021523
21
53.4848708
0
LINE
8
DEFAULT_255_2_778
10
23.021523
20
53.4848708
11
22.462423
21
52.9178708
0
LINE
8
DEFAULT_255_2_778
10
21.066523
20
52.0666708
11
21.066523
21
52.0666708
0
ARC
8
DEFAULT_255_2_778
10
30.8113673
20
55.8446038
40
2.7810466
50
160.8078142
51
180.0748487
0
ARC
8
DEFAULT_255_2_778
10
30.8109763
20
55.8378914
40
2.7828914
50
103.0503532
51
160.6746508
0
ARC
8
DEFAULT_255_2_778
10
30.8208423
20
55.7899059
40
2.8318657
50
89.955879
51
103.0255817
0
ARC
8
DEFAULT_255_2_778
10
30.8267227
20
55.8053971
40
2.8163761
50
71.4944084
51
90.0752663
0
ARC
8
DEFAULT_255_2_778
10
30.8372748
20
55.8406954
40
2.779554
50
13.8976473
51
71.4697322
0
ARC
8
DEFAULT_255_2_778
10
30.8202649
20
55.8432548
40
2.795459
50
359.9531866
51
13.7629872
0
ARC
8
DEFAULT_255_2_778
10
30.8344402
20
55.8373109
40
2.7812852
50
340.8086434
51
0.075394
0
ARC
8
DEFAULT_255_2_778
10
30.8353711
20
55.8438761
40
2.7825716
50
283.0808242
51
340.6746713
0
ARC
8
DEFAULT_255_2_778
10
30.8252188
20
55.8925772
40
2.8323071
50
269.9555801
51
283.0578953
0
ARC
8
DEFAULT_255_2_778
10
30.8193257
20
55.8766737
40
2.8164053
50
251.4945568
51
270.0752172
0
ARC
8
DEFAULT_255_2_778
10
30.8087486
20
55.8413452
40
2.7795467
50
193.898971
51
251.4701721
0
ARC
8
DEFAULT_255_2_778
10
30.8254878
20
55.8386897
40
2.7951656
50
179.9532431
51
193.7637115
0
LINE
8
DEFAULT_255_2_778
10
29.426223
20
56.6921708
11
30.258923
21
55.8465708
0
LINE
8
DEFAULT_255_2_778
10
30.258923
20
55.8465708
11
29.404323
21
55.0123708
0
LINE
8
DEFAULT_255_2_778
10
29.404323
20
55.0123708
11
29.962823
21
54.4450708
0
LINE
8
DEFAULT_255_2_778
10
29.962823
20
54.4450708
11
30.817423
21
55.2792708
0
LINE
8
DEFAULT_255_2_778
10
30.817423
20
55.2792708
11
31.660623
21
54.4228708
0
LINE
8
DEFAULT_255_2_778
10
31.660623
20
54.4228708
11
32.219223
21
54.9900708
0
LINE
8
DEFAULT_255_2_778
10
32.219223
20
54.9900708
11
31.387123
21
55.8354708
0
LINE
8
DEFAULT_255_2_778
10
31.387123
20
55.8354708
11
32.241723
21
56.6696708
0
LINE
8
DEFAULT_255_2_778
10
32.241723
20
56.6696708
11
31.683123
21
57.2369708
0
LINE
8
DEFAULT_255_2_778
10
31.683123
20
57.2369708
11
30.828523
21
56.4026708
0
LINE
8
DEFAULT_255_2_778
10
30.828523
20
56.4026708
11
29.985323
21
57.2591708
0
LINE
8
DEFAULT_255_2_778
10
29.985323
20
57.2591708
11
29.426223
21
56.6921708
0
LINE
8
DEFAULT_255_2_778
10
28.030323
20
55.8409708
11
28.030323
21
55.8409708
0
ARC
8
DEFAULT_255_2_778
10
23.8473032
20
61.205698
40
2.7807826
50
160.8068966
51
180.0747372
0
ARC
8
DEFAULT_255_2_778
10
23.8471686
20
61.1988751
40
2.7829059
50
103.05012
51
160.6733195
0
ARC
8
DEFAULT_255_2_778
10
23.8570432
20
61.1508908
40
2.8318809
50
89.9558967
51
103.0255285
0
ARC
8
DEFAULT_255_2_778
10
23.8629203
20
61.1663678
40
2.8164053
50
71.4945568
51
90.0752172
0
ARC
8
DEFAULT_255_2_778
10
23.8734974
20
61.2016963
40
2.7795467
50
13.898971
51
71.4701721
0
ARC
8
DEFAULT_255_2_778
10
23.8567582
20
61.2043518
40
2.7951656
50
359.9532431
51
13.7637115
0
ARC
8
DEFAULT_255_2_778
10
23.8703744
20
61.1984053
40
2.781551
50
340.80957
51
0.0755023
0
ARC
8
DEFAULT_255_2_778
10
23.8715627
20
61.2048602
40
2.7825579
50
283.0810675
51
340.6759992
0
ARC
8
DEFAULT_255_2_778
10
23.861418
20
61.2535619
40
2.8322921
50
269.9555971
51
283.0579835
0
ARC
8
DEFAULT_255_2_778
10
23.8555233
20
61.2376444
40
2.8163761
50
251.4944084
51
270.0752663
0
ARC
8
DEFAULT_255_2_778
10
23.8449712
20
61.2023461
40
2.779554
50
193.8976473
51
251.4697322
0
ARC
8
DEFAULT_255_2_778
10
23.8619811
20
61.1997867
40
2.795459
50
179.9531866
51
193.7629872
0
LINE
8
DEFAULT_255_2_778
10
22.462423
20
62.0531708
11
23.295123
21
61.2075708
0
LINE
8
DEFAULT_255_2_778
10
23.295123
20
61.2075708
11
22.440523
21
60.3733708
0
LINE
8
DEFAULT_255_2_778
10
22.440523
20
60.3733708
11
22.999023
21
59.8060708
0
LINE
8
DEFAULT_255_2_778
10
22.999023
20
59.8060708
11
23.853623
21
60.6402708
0
LINE
8
DEFAULT_255_2_778
10
23.853623
20
60.6402708
11
24.696823
21
59.7838708
0
LINE
8
DEFAULT_255_2_778
10
24.696823
20
59.7838708
11
25.255423
21
60.3510708
0
LINE
8
DEFAULT_255_2_778
10
25.255423
20
60.3510708
11
24.423323
21
61.1964708
0
LINE
8
DEFAULT_255_2_778
10
24.423323
20
61.1964708
11
25.277923
21
62.0306708
0
LINE
8
DEFAULT_255_2_778
10
25.277923
20
62.0306708
11
24.719323
21
62.5979708
0
LINE
8
DEFAULT_255_2_778
10
24.719323
20
62.5979708
11
23.864723
21
61.7636708
0
LINE
8
DEFAULT_255_2_778
10
23.864723
20
61.7636708
11
23.021523
21
62.6201708
0
LINE
8
DEFAULT_255_2_778
10
23.021523
20
62.6201708
11
22.462423
21
62.0531708
0
LINE
8
DEFAULT_255_2_778
10
21.066523
20
61.2020708
11
21.066523
21
61.2020708
0
ARC
8
DEFAULT_255_2_778
10
23.8475673
20
79.4798038
40
2.7810466
50
160.8078142
51
180.0748487
0
ARC
8
DEFAULT_255_2_778
10
23.8471763
20
79.4730914
40
2.7828914
50
103.0503532
51
160.6746508
0
ARC
8
DEFAULT_255_2_778
10
23.8570423
20
79.4251059
40
2.8318657
50
89.955879
51
103.0255817
0
ARC
8
DEFAULT_255_2_778
10
23.8629227
20
79.4405971
40
2.8163761
50
71.4944084
51
90.0752663
0
ARC
8
DEFAULT_255_2_778
10
23.8734748
20
79.4758954
40
2.779554
50
13.8976473
51
71.4697322
0
ARC
8
DEFAULT_255_2_778
10
23.8564649
20
79.4784548
40
2.795459
50
359.9531866
51
13.7629872
0
ARC
8
DEFAULT_255_2_778
10
23.8706402
20
79.4725109
40
2.7812852
50
340.8086434
51
0.075394
0
ARC
8
DEFAULT_255_2_778
10
23.8715711
20
79.4790761
40
2.7825716
50
283.0808242
51
340.6746713
0
ARC
8
DEFAULT_255_2_778
10
23.8614188
20
79.5277772
40
2.8323071
50
269.9555801
51
283.0578953
0
ARC
8
DEFAULT_255_2_778
10
23.8555257
20
79.5118737
40
2.8164053
50
251.4945568
51
270.0752172
0
ARC
8
DEFAULT_255_2_778
10
23.8449486
20
79.4765452
40
2.7795467
50
193.898971
51
251.4701721
0
ARC
8
DEFAULT_255_2_778
10
23.8616878
20
79.4738897
40
2.7951656
50
179.9532431
51
193.7637115
0
LINE
8
DEFAULT_255_2_778
10
22.462423
20
80.3273708
11
23.295123
21
79.4817708
0
LINE
8
DEFAULT_255_2_778
10
23.295123
20
79.4817708
11
22.440523
21
78.6475708
0
LINE
8
DEFAULT_255_2_778
10
22.440523
20
78.6475708
11
22.999023
21
78.0802708
0
LINE
8
DEFAULT_255_2_778
10
22.999023
20
78.0802708
11
23.853623
21
78.9144708
0
LINE
8
DEFAULT_255_2_778
10
23.853623
20
78.9144708
11
24.696823
21
78.0580708
0
LINE
8
DEFAULT_255_2_778
10
24.696823
20
78.0580708
11
25.255423
21
78.6252708
0
LINE
8
DEFAULT_255_2_778
10
25.255423
20
78.6252708
11
24.423323
21
79.4706708
0
LINE
8
DEFAULT_255_2_778
10
24.423323
20
79.4706708
11
25.277923
21
80.3048708
0
LINE
8
DEFAULT_255_2_778
10
25.277923
20
80.3048708
11
24.719323
21
80.8721708
0
LINE
8
DEFAULT_255_2_778
10
24.719323
20
80.8721708
11
23.864723
21
80.0378708
0
LINE
8
DEFAULT_255_2_778
10
23.864723
20
80.0378708
11
23.021523
21
80.8943708
0
LINE
8
DEFAULT_255_2_778
10
23.021523
20
80.8943708
11
22.462423
21
80.3273708
0
LINE
8
DEFAULT_255_2_778
10
21.066523
20
79.4761708
11
21.066523
21
79.4761708
0
ARC
8
DEFAULT_255_2_778
10
30.8113673
20
83.2552038
40
2.7810466
50
160.8078142
51
180.0748487
0
ARC
8
DEFAULT_255_2_778
10
30.8109763
20
83.2484914
40
2.7828914
50
103.0503532
51
160.6746508
0
ARC
8
DEFAULT_255_2_778
10
30.8208423
20
83.2005059
40
2.8318657
50
89.955879
51
103.0255817
0
ARC
8
DEFAULT_255_2_778
10
30.8267227
20
83.2159971
40
2.8163761
50
71.4944084
51
90.0752663
0
ARC
8
DEFAULT_255_2_778
10
30.8372748
20
83.2512954
40
2.779554
50
13.8976473
51
71.4697322
0
ARC
8
DEFAULT_255_2_778
10
30.8202649
20
83.2538548
40
2.795459
50
359.9531866
51
13.7629872
0
ARC
8
DEFAULT_255_2_778
10
30.8344402
20
83.2479109
40
2.7812852
50
340.8086434
51
0.075394
0
ARC
8
DEFAULT_255_2_778
10
30.8353711
20
83.2544761
40
2.7825716
50
283.0808242
51
340.6746713
0
ARC
8
DEFAULT_255_2_778
10
30.8252188
20
83.3031772
40
2.8323071
50
269.9555801
51
283.0578953
0
ARC
8
DEFAULT_255_2_778
10
30.8193257
20
83.2872737
40
2.8164053
50
251.4945568
51
270.0752172
0
ARC
8
DEFAULT_255_2_778
10
30.8087486
20
83.2519452
40
2.7795467
50
193.898971
51
251.4701721
0
ARC
8
DEFAULT_255_2_778
10
30.8254878
20
83.2492897
40
2.7951656
50
179.9532431
51
193.7637115
0
LINE
8
DEFAULT_255_2_778
10
29.426223
20
84.1027708
11
30.258923
21
83.2571708
0
LINE
8
DEFAULT_255_2_778
10
30.258923
20
83.2571708
11
29.404323
21
82.4229708
0
LINE
8
DEFAULT_255_2_778
10
29.404323
20
82.4229708
11
29.962823
21
81.8556708
0
LINE
8
DEFAULT_255_2_778
10
29.962823
20
81.8556708
11
30.817423
21
82.6898708
0
LINE
8
DEFAULT_255_2_778
10
30.817423
20
82.6898708
11
31.660623
21
81.8334708
0
LINE
8
DEFAULT_255_2_778
10
31.660623
20
81.8334708
11
32.219223
21
82.4006708
0
LINE
8
DEFAULT_255_2_778
10
32.219223
20
82.4006708
11
31.387123
21
83.2460708
0
LINE
8
DEFAULT_255_2_778
10
31.387123
20
83.2460708
11
32.241723
21
84.0802708
0
LINE
8
DEFAULT_255_2_778
10
32.241723
20
84.0802708
11
31.683123
21
84.6475708
0
LINE
8
DEFAULT_255_2_778
10
31.683123
20
84.6475708
11
30.828523
21
83.8132708
0
LINE
8
DEFAULT_255_2_778
10
30.828523
20
83.8132708
11
29.985323
21
84.6697708
0
LINE
8
DEFAULT_255_2_778
10
29.985323
20
84.6697708
11
29.426223
21
84.1027708
0
LINE
8
DEFAULT_255_2_778
10
28.030323
20
83.2515708
11
28.030323
21
83.2515708
0
ARC
8
DEFAULT_255_2_778
10
30.8113673
20
92.3918038
40
2.7810466
50
160.8078142
51
180.0748487
0
ARC
8
DEFAULT_255_2_778
10
30.8109763
20
92.3850914
40
2.7828914
50
103.0503532
51
160.6746508
0
ARC
8
DEFAULT_255_2_778
10
30.8208423
20
92.3371059
40
2.8318657
50
89.955879
51
103.0255817
0
ARC
8
DEFAULT_255_2_778
10
30.8267227
20
92.3525971
40
2.8163761
50
71.4944084
51
90.0752663
0
ARC
8
DEFAULT_255_2_778
10
30.8372748
20
92.3878954
40
2.779554
50
13.8976473
51
71.4697322
0
ARC
8
DEFAULT_255_2_778
10
30.8202649
20
92.3904548
40
2.795459
50
359.9531866
51
13.7629872
0
ARC
8
DEFAULT_255_2_778
10
30.8344402
20
92.3845109
40
2.7812852
50
340.8086434
51
0.075394
0
ARC
8
DEFAULT_255_2_778
10
30.8353711
20
92.3910761
40
2.7825716
50
283.0808242
51
340.6746713
0
ARC
8
DEFAULT_255_2_778
10
30.8252188
20
92.4397772
40
2.8323071
50
269.9555801
51
283.0578953
0
ARC
8
DEFAULT_255_2_778
10
30.8193257
20
92.4238737
40
2.8164053
50
251.4945568
51
270.0752172
0
ARC
8
DEFAULT_255_2_778
10
30.8087486
20
92.3885452
40
2.7795467
50
193.898971
51
251.4701721
0
ARC
8
DEFAULT_255_2_778
10
30.8254878
20
92.3858897
40
2.7951656
50
179.9532431
51
193.7637115
0
LINE
8
DEFAULT_255_2_778
10
29.426223
20
93.2393708
11
30.258923
21
92.3937708
0
LINE
8
DEFAULT_255_2_778
10
30.258923
20
92.3937708
11
29.404323
21
91.5595708
0
LINE
8
DEFAULT_255_2_778
10
29.404323
20
91.5595708
11
29.962823
21
90.9922708
0
LINE
8
DEFAULT_255_2_778
10
29.962823
20
90.9922708
11
30.817423
21
91.8264708
0
LINE
8
DEFAULT_255_2_778
10
30.817423
20
91.8264708
11
31.660623
21
90.9700708
0
LINE
8
DEFAULT_255_2_778
10
31.660623
20
90.9700708
11
32.219223
21
91.5372708
0
LINE
8
DEFAULT_255_2_778
10
32.219223
20
91.5372708
11
31.387123
21
92.3826708
0
LINE
8
DEFAULT_255_2_778
10
31.387123
20
92.3826708
11
32.241723
21
93.2168708
0
LINE
8
DEFAULT_255_2_778
10
32.241723
20
93.2168708
11
31.683123
21
93.7841708
0
LINE
8
DEFAULT_255_2_778
10
31.683123
20
93.7841708
11
30.828523
21
92.9498708
0
LINE
8
DEFAULT_255_2_778
10
30.828523
20
92.9498708
11
29.985323
21
93.8063708
0
LINE
8
DEFAULT_255_2_778
10
29.985323
20
93.8063708
11
29.426223
21
93.2393708
0
LINE
8
DEFAULT_255_2_778
10
28.030323
20
92.3881708
11
28.030323
21
92.3881708
0
ARC
8
DEFAULT_255_2_778
10
23.8475673
20
97.7543038
40
2.7810466
50
160.8078142
51
180.0748487
0
ARC
8
DEFAULT_255_2_778
10
23.8471763
20
97.7475914
40
2.7828914
50
103.0503532
51
160.6746508
0
ARC
8
DEFAULT_255_2_778
10
23.8570423
20
97.6996059
40
2.8318657
50
89.955879
51
103.0255817
0
ARC
8
DEFAULT_255_2_778
10
23.8629227
20
97.7150971
40
2.8163761
50
71.4944084
51
90.0752663
0
ARC
8
DEFAULT_255_2_778
10
23.8734748
20
97.7503954
40
2.779554
50
13.8976473
51
71.4697322
0
ARC
8
DEFAULT_255_2_778
10
23.8564649
20
97.7529548
40
2.795459
50
359.9531866
51
13.7629872
0
ARC
8
DEFAULT_255_2_778
10
23.8706402
20
97.7470109
40
2.7812852
50
340.8086434
51
0.075394
0
ARC
8
DEFAULT_255_2_778
10
23.8715711
20
97.7535761
40
2.7825716
50
283.0808242
51
340.6746713
0
ARC
8
DEFAULT_255_2_778
10
23.8614188
20
97.8022772
40
2.8323071
50
269.9555801
51
283.0578953
0
ARC
8
DEFAULT_255_2_778
10
23.8555257
20
97.7863737
40
2.8164053
50
251.4945568
51
270.0752172
0
ARC
8
DEFAULT_255_2_778
10
23.8449486
20
97.7510452
40
2.7795467
50
193.898971
51
251.4701721
0
ARC
8
DEFAULT_255_2_778
10
23.8616878
20
97.7483897
40
2.7951656
50
179.9532431
51
193.7637115
0
LINE
8
DEFAULT_255_2_778
10
22.462423
20
98.6018708
11
23.295123
21
97.7562708
0
LINE
8
DEFAULT_255_2_778
10
23.295123
20
97.7562708
11
22.440523
21
96.9220708
0
LINE
8
DEFAULT_255_2_778
10
22.440523
20
96.9220708
11
22.999023
21
96.3547708
0
LINE
8
DEFAULT_255_2_778
10
22.999023
20
96.3547708
11
23.853623
21
97.1889708
0
LINE
8
DEFAULT_255_2_778
10
23.853623
20
97.1889708
11
24.696823
21
96.3325708
0
LINE
8
DEFAULT_255_2_778
10
24.696823
20
96.3325708
11
25.255423
21
96.8997708
0
LINE
8
DEFAULT_255_2_778
10
25.255423
20
96.8997708
11
24.423323
21
97.7451708
0
LINE
8
DEFAULT_255_2_778
10
24.423323
20
97.7451708
11
25.277923
21
98.5793708
0
LINE
8
DEFAULT_255_2_778
10
25.277923
20
98.5793708
11
24.719323
21
99.1466708
0
LINE
8
DEFAULT_255_2_778
10
24.719323
20
99.1466708
11
23.864723
21
98.3123708
0
LINE
8
DEFAULT_255_2_778
10
23.864723
20
98.3123708
11
23.021523
21
99.1688708
0
LINE
8
DEFAULT_255_2_778
10
23.021523
20
99.1688708
11
22.462423
21
98.6018708
0
LINE
8
DEFAULT_255_2_778
10
21.066523
20
97.7506708
11
21.066523
21
97.7506708
0
ARC
8
DEFAULT_255_2_778
10
30.8113673
20
101.5284038
40
2.7810466
50
160.8078142
51
180.0748487
0
ARC
8
DEFAULT_255_2_778
10
30.8109763
20
101.5216914
40
2.7828914
50
103.0503532
51
160.6746508
0
ARC
8
DEFAULT_255_2_778
10
30.8208423
20
101.4737059
40
2.8318657
50
89.955879
51
103.0255817
0
ARC
8
DEFAULT_255_2_778
10
30.8267227
20
101.4891971
40
2.8163761
50
71.4944084
51
90.0752663
0
ARC
8
DEFAULT_255_2_778
10
30.8372748
20
101.5244954
40
2.779554
50
13.8976473
51
71.4697322
0
ARC
8
DEFAULT_255_2_778
10
30.8202649
20
101.5270548
40
2.795459
50
359.9531866
51
13.7629872
0
ARC
8
DEFAULT_255_2_778
10
30.8344402
20
101.5211109
40
2.7812852
50
340.8086434
51
0.075394
0
ARC
8
DEFAULT_255_2_778
10
30.8353711
20
101.5276761
40
2.7825716
50
283.0808242
51
340.6746713
0
ARC
8
DEFAULT_255_2_778
10
30.8252188
20
101.5763772
40
2.8323071
50
269.9555801
51
283.0578953
0
ARC
8
DEFAULT_255_2_778
10
30.8193257
20
101.5604737
40
2.8164053
50
251.4945568
51
270.0752172
0
ARC
8
DEFAULT_255_2_778
10
30.8087486
20
101.5251452
40
2.7795467
50
193.898971
51
251.4701721
0
ARC
8
DEFAULT_255_2_778
10
30.8254878
20
101.5224897
40
2.7951656
50
179.9532431
51
193.7637115
0
LINE
8
DEFAULT_255_2_778
10
29.426223
20
102.3759708
11
30.258923
21
101.5303708
0
LINE
8
DEFAULT_255_2_778
10
30.258923
20
101.5303708
11
29.404323
21
100.6961708
0
LINE
8
DEFAULT_255_2_778
10
29.404323
20
100.6961708
11
29.962823
21
100.1288708
0
LINE
8
DEFAULT_255_2_778
10
29.962823
20
100.1288708
11
30.817423
21
100.9630708
0
LINE
8
DEFAULT_255_2_778
10
30.817423
20
100.9630708
11
31.660623
21
100.1066708
0
LINE
8
DEFAULT_255_2_778
10
31.660623
20
100.1066708
11
32.219223
21
100.6738708
0
LINE
8
DEFAULT_255_2_778
10
32.219223
20
100.6738708
11
31.387123
21
101.5192708
0
LINE
8
DEFAULT_255_2_778
10
31.387123
20
101.5192708
11
32.241723
21
102.3534708
0
LINE
8
DEFAULT_255_2_778
10
32.241723
20
102.3534708
11
31.683123
21
102.9207708
0
LINE
8
DEFAULT_255_2_778
10
31.683123
20
102.9207708
11
30.828523
21
102.0864708
0
LINE
8
DEFAULT_255_2_778
10
30.828523
20
102.0864708
11
29.985323
21
102.9429708
0
LINE
8
DEFAULT_255_2_778
10
29.985323
20
102.9429708
11
29.426223
21
102.3759708
0
LINE
8
DEFAULT_255_2_778
10
28.030323
20
101.5247708
11
28.030323
21
101.5247708
0
LINE
8
DEFAULT_255_2_778
10
34.0012688
20
111.6072
11
32.0533688
21
111.6072
0
ARC
8
DEFAULT_255_2_778
10
29.2567566
20
111.642352
40
2.8158836
50
251.4928316
51
270.0746024
0
ARC
8
DEFAULT_255_2_778
10
29.2464392
20
111.6078417
40
2.7798833
50
193.9035497
51
251.4687039
0
ARC
8
DEFAULT_255_2_778
10
29.2623752
20
111.6048981
40
2.7946532
50
179.9534053
51
193.7664608
0
ARC
8
DEFAULT_255_2_778
10
29.2492716
20
111.6108362
40
2.781551
50
160.80957
51
180.0755023
0
ARC
8
DEFAULT_255_2_778
10
29.2480833
20
111.6043813
40
2.7825579
50
103.0810675
51
160.6759992
0
ARC
8
DEFAULT_255_2_778
10
29.258228
20
111.5556796
40
2.8322921
50
89.9555971
51
103.0579835
0
ARC
8
DEFAULT_255_2_778
10
29.2641227
20
111.5715971
40
2.8163761
50
71.4944084
51
90.0752663
0
ARC
8
DEFAULT_255_2_778
10
29.2746748
20
111.6068954
40
2.779554
50
13.8976473
51
71.4697322
0
ARC
8
DEFAULT_255_2_778
10
29.2576649
20
111.6094548
40
2.795459
50
359.9531866
51
13.7629872
0
ARC
8
DEFAULT_255_2_778
10
29.2718402
20
111.6035109
40
2.7812852
50
340.8086434
51
0.075394
0
ARC
8
DEFAULT_255_2_778
10
29.2727711
20
111.6100761
40
2.7825716
50
283.0808242
51
340.6746713
0
ARC
8
DEFAULT_255_2_778
10
29.2626188
20
111.6587772
40
2.8323071
50
269.9555801
51
283.0578953
0
LINE
8
DEFAULT_255_2_778
10
30.098023
20
110.1890708
11
29.254823
21
111.0454708
0
LINE
8
DEFAULT_255_2_778
10
29.254823
20
111.0454708
11
28.400223
21
110.2112708
0
LINE
8
DEFAULT_255_2_778
10
28.400223
20
110.2112708
11
27.841723
21
110.7785708
0
LINE
8
DEFAULT_255_2_778
10
27.841723
20
110.7785708
11
28.696323
21
111.6127708
0
LINE
8
DEFAULT_255_2_778
10
28.696323
20
111.6127708
11
27.864223
21
112.4580708
0
LINE
8
DEFAULT_255_2_778
10
27.864223
20
112.4580708
11
28.422723
21
113.0253708
0
LINE
8
DEFAULT_255_2_778
10
28.422723
20
113.0253708
11
29.265923
21
112.1688708
0
LINE
8
DEFAULT_255_2_778
10
29.265923
20
112.1688708
11
30.120523
21
113.0031708
0
LINE
8
DEFAULT_255_2_778
10
30.120523
20
113.0031708
11
30.679123
21
112.4358708
0
LINE
8
DEFAULT_255_2_778
10
30.679123
20
112.4358708
11
29.824523
21
111.6016708
0
LINE
8
DEFAULT_255_2_778
10
29.824523
20
111.6016708
11
30.657123
21
110.7560708
0
LINE
8
DEFAULT_255_2_778
10
30.657123
20
110.7560708
11
30.098023
21
110.1890708
0
LINE
8
DEFAULT_255_2_778
10
29.260423
20
108.8264708
11
29.260423
21
108.8264708
0
ARC
8
DEFAULT_255_2_778
10
29.2570566
20
6.007452
40
2.8158836
50
251.4928316
51
270.0746024
0
ARC
8
DEFAULT_255_2_778
10
29.2467392
20
5.9729417
40
2.7798833
50
193.9035497
51
251.4687039
0
ARC
8
DEFAULT_255_2_778
10
29.2626752
20
5.9699981
40
2.7946532
50
179.9534053
51
193.7664608
0
ARC
8
DEFAULT_255_2_778
10
29.2495716
20
5.9759362
40
2.781551
50
160.80957
51
180.0755023
0
ARC
8
DEFAULT_255_2_778
10
29.2483833
20
5.9694813
40
2.7825579
50
103.0810675
51
160.6759992
0
ARC
8
DEFAULT_255_2_778
10
29.258528
20
5.9207796
40
2.8322921
50
89.9555971
51
103.0579835
0
ARC
8
DEFAULT_255_2_778
10
29.2644227
20
5.9366971
40
2.8163761
50
71.4944084
51
90.0752663
0
ARC
8
DEFAULT_255_2_778
10
29.2749748
20
5.9719954
40
2.779554
50
13.8976473
51
71.4697322
0
ARC
8
DEFAULT_255_2_778
10
29.2579649
20
5.9745548
40
2.795459
50
359.9531866
51
13.7629872
0
ARC
8
DEFAULT_255_2_778
10
29.2721402
20
5.9686109
40
2.7812852
50
340.8086434
51
0.075394
0
ARC
8
DEFAULT_255_2_778
10
29.2730711
20
5.9751761
40
2.7825716
50
283.0808242
51
340.6746713
0
ARC
8
DEFAULT_255_2_778
10
29.2629188
20
6.0238772
40
2.8323071
50
269.9555801
51
283.0578953
0
LINE
8
DEFAULT_255_2_778
10
29.824823
20
5.9667708
11
30.679423
21
6.8009708
0
LINE
8
DEFAULT_255_2_778
10
30.679423
20
6.8009708
11
30.120823
21
7.3682708
0
LINE
8
DEFAULT_255_2_778
10
30.120823
20
7.3682708
11
29.266223
21
6.5339708
0
LINE
8
DEFAULT_255_2_778
10
29.266223
20
6.5339708
11
28.423023
21
7.3904708
0
LINE
8
DEFAULT_255_2_778
10
28.423023
20
7.3904708
11
27.863923
21
6.8234708
0
LINE
8
DEFAULT_255_2_778
10
27.863923
20
6.8234708
11
28.696623
21
5.9778708
0
LINE
8
DEFAULT_255_2_778
10
28.696623
20
5.9778708
11
27.842023
21
5.1436708
0
LINE
8
DEFAULT_255_2_778
10
27.842023
20
5.1436708
11
28.400523
21
4.5763708
0
LINE
8
DEFAULT_255_2_778
10
28.400523
20
4.5763708
11
29.255123
21
5.4105708
0
LINE
8
DEFAULT_255_2_778
10
29.255123
20
5.4105708
11
30.098323
21
4.5540708
0
LINE
8
DEFAULT_255_2_778
10
30.098323
20
4.5540708
11
30.656923
21
5.1213708
0
LINE
8
DEFAULT_255_2_778
10
30.656923
20
5.1213708
11
29.824823
21
5.9667708
0
LINE
8
DEFAULT_255_2_778
10
29.260723
20
3.1915708
11
29.260723
21
3.1915708
0
LINE
8
DEFAULT_255_2_778
10
4.9195573
20
112.0609854
11
4.9195573
21
111.3105854
0
LINE
8
DEFAULT_255_2_778
10
4.9195573
20
111.3105854
11
5.0769573
21
111.3105854
0
LINE
8
DEFAULT_255_2_778
10
5.0769573
20
111.3105854
11
5.0769573
21
111.1933854
0
LINE
8
DEFAULT_255_2_778
10
5.0769573
20
111.1933854
11
4.9195573
21
111.1933854
0
LINE
8
DEFAULT_255_2_778
10
4.9195573
20
111.1933854
11
4.9195573
21
110.9311854
0
LINE
8
DEFAULT_255_2_778
10
4.9195573
20
110.9311854
11
4.7745573
21
110.9311854
0
LINE
8
DEFAULT_255_2_778
10
4.7745573
20
110.9311854
11
4.7745573
21
111.1933854
0
LINE
8
DEFAULT_255_2_778
10
4.7745573
20
111.1933854
11
4.2580573
21
111.1933854
0
LINE
8
DEFAULT_255_2_778
10
4.2580573
20
111.1933854
11
4.2580573
21
111.2780854
0
LINE
8
DEFAULT_255_2_778
10
4.2580573
20
111.2780854
11
4.7660573
21
112.0609854
0
LINE
8
DEFAULT_255_2_778
10
4.7660573
20
112.0609854
11
4.9195573
21
112.0609854
0
LINE
8
DEFAULT_255_2_778
10
4.9195573
20
112.0609854
11
4.9195573
21
112.0609854
0
LINE
8
DEFAULT_255_2_778
10
4.7573573
20
111.8336854
11
4.4215573
21
111.3108854
0
LINE
8
DEFAULT_255_2_778
10
4.4215573
20
111.3108854
11
4.7745573
21
111.3108854
0
LINE
8
DEFAULT_255_2_778
10
4.7745573
20
111.3108854
11
4.7745573
21
111.8648854
0
LINE
8
DEFAULT_255_2_778
10
4.7745573
20
111.8648854
11
4.7573573
21
111.8339854
0
LINE
8
DEFAULT_255_2_778
10
4.7573573
20
111.8339854
11
4.7573573
21
111.8336854
0
LINE
8
DEFAULT_255_2_778
10
5.5219969
20
111.4699052
11
5.5219969
21
111.3527052
0
LINE
8
DEFAULT_255_2_778
10
5.5219969
20
111.3527052
11
5.1417969
21
111.3527052
0
LINE
8
DEFAULT_255_2_778
10
5.1417969
20
111.3527052
11
5.1417969
21
111.4699052
0
LINE
8
DEFAULT_255_2_778
10
5.1417969
20
111.4699052
11
5.5219969
21
111.4699052
0
LINE
8
DEFAULT_255_2_778
10
5.5219969
20
111.4699052
11
5.5219969
21
111.4699052
0
LINE
8
DEFAULT_255_2_778
10
6.1210479
20
112.0665635
11
6.1210479
21
110.9315635
0
LINE
8
DEFAULT_255_2_778
10
6.1210479
20
110.9315635
11
5.9760479
21
110.9315635
0
LINE
8
DEFAULT_255_2_778
10
5.9760479
20
110.9315635
11
5.9760479
21
111.8882635
0
LINE
8
DEFAULT_255_2_778
10
5.9760479
20
111.8882635
11
5.6855479
21
111.7818635
0
LINE
8
DEFAULT_255_2_778
10
5.6855479
20
111.7818635
11
5.6855479
21
111.9123635
0
LINE
8
DEFAULT_255_2_778
10
5.6855479
20
111.9123635
11
6.0985479
21
112.0668635
0
LINE
8
DEFAULT_255_2_778
10
6.0985479
20
112.0668635
11
6.1210479
21
112.0668635
0
LINE
8
DEFAULT_255_2_778
10
6.1210479
20
112.0668635
11
6.1210479
21
112.0665635
0
ARC
8
DEFAULT_255_2_778
10
5.9773351
20
112.334388
40
1.2915372
50
317.9389223
51
324.14781
0
ARC
8
DEFAULT_255_2_778
10
6.6207809
20
111.867511
40
0.496559
50
324.3271699
51
331.3666166
0
ARC
8
DEFAULT_255_2_778
10
6.8236714
20
111.7580782
40
0.2660431
50
331.1133044
51
359.7803597
0
ARC
8
DEFAULT_255_2_778
10
6.887939
20
111.7646742
40
0.2019172
50
357.8384105
51
42.8747704
0
ARC
8
DEFAULT_255_2_778
10
6.9011071
20
111.7704764
40
0.1883781
50
44.3067162
51
92.6149708
0
ARC
8
DEFAULT_255_2_778
10
6.879143
20
111.7353917
40
0.2236666
50
86.5731364
51
133.4535965
0
ARC
8
DEFAULT_255_2_778
10
6.8975765
20
111.7420867
40
0.2321822
50
137.8964882
51
183.4391719
0
ARC
8
DEFAULT_255_2_778
10
6.8542171
20
111.741466
40
0.3328707
50
134.1373055
51
182.2912146
0
ARC
8
DEFAULT_255_2_778
10
6.8699107
20
111.7094538
40
0.3669395
50
89.358112
51
132.4148057
0
ARC
8
DEFAULT_255_2_778
10
6.8922129
20
111.5020085
40
0.5746498
50
89.9900639
51
91.8140859
0
ARC
8
DEFAULT_255_2_778
10
6.9058018
20
111.6817607
40
0.395128
50
61.2950571
51
91.9564036
0
ARC
8
DEFAULT_255_2_778
10
6.9495324
20
111.7795563
40
0.2884757
50
48.0661859
51
59.5837609
0
ARC
8
DEFAULT_255_2_778
10
6.952995
20
111.7860138
40
0.2813632
50
357.6054552
51
47.7119564
0
ARC
8
DEFAULT_255_2_778
10
6.8552154
20
111.7870204
40
0.379112
50
331.1269887
51
358.0708853
0
ARC
8
DEFAULT_255_2_778
10
6.3880892
20
112.0266674
40
0.9040256
50
319.6075411
51
332.1223432
0
ARC
8
DEFAULT_255_2_778
10
5.9005953
20
112.4169592
40
1.528343
50
317.1242581
51
320.3067342
0
LINE
8
DEFAULT_255_2_778
10
7.2868125
20
111.0487583
11
7.2868125
21
110.9315583
0
LINE
8
DEFAULT_255_2_778
10
7.2868125
20
110.9315583
11
6.5436125
21
110.9315583
0
LINE
8
DEFAULT_255_2_778
10
6.5436125
20
110.9315583
11
6.5436125
21
111.0347583
0
LINE
8
DEFAULT_255_2_778
10
6.5436125
20
111.0347583
11
6.9362125
21
111.4691583
0
LINE
8
DEFAULT_255_2_778
10
6.6658125
20
111.7281583
11
6.5216125
21
111.7281583
0
LINE
8
DEFAULT_255_2_778
10
7.0206125
20
111.3770583
11
6.7166125
21
111.0490583
0
LINE
8
DEFAULT_255_2_778
10
6.7166125
20
111.0490583
11
7.2862125
21
111.0490583
0
LINE
8
DEFAULT_255_2_778
10
7.2862125
20
111.0490583
11
7.2868125
21
111.0487583
0
ARC
8
DEFAULT_255_2_778
10
7.8303981
20
111.4751692
40
0.3114825
50
87.5485964
51
139.450211
0
ARC
8
DEFAULT_255_2_778
10
7.8573698
20
111.5080854
40
0.2786158
50
54.7550675
51
92.8079542
0
ARC
8
DEFAULT_255_2_778
10
7.8787358
20
111.5574369
40
0.2262501
50
24.5571647
51
51.9607164
0
ARC
8
DEFAULT_255_2_778
10
8.3441549
20
111.4704019
40
0.3165348
50
118.3141057
51
145.1086767
0
ARC
8
DEFAULT_255_2_778
10
8.3452186
20
111.4621521
40
0.3243158
50
88.5684542
51
117.7882606
0
ARC
8
DEFAULT_255_2_778
10
8.366326
20
111.4685742
40
0.3180585
50
61.079788
51
92.3434248
0
ARC
8
DEFAULT_255_2_778
10
8.3887056
20
111.5444464
40
0.2414318
50
5.8834874
51
57.0177065
0
ARC
8
DEFAULT_255_2_778
10
8.1317581
20
111.4879938
40
0.5036959
50
0.6566811
51
9.2771363
0
ARC
8
DEFAULT_255_2_778
10
8.2859368
20
111.4977021
40
0.2056604
50
356.5334427
51
32.9780086
0
ARC
8
DEFAULT_255_2_778
10
8.35907
20
111.5360918
40
0.1236483
50
36.5034261
51
42.7136482
0
ARC
8
DEFAULT_255_2_778
10
8.3387865
20
111.5009535
40
0.1628343
50
46.9606809
51
90.4508324
0
ARC
8
DEFAULT_255_2_778
10
8.3117481
20
111.2891389
40
0.3755281
50
86.0670476
51
90.0804405
0
ARC
8
DEFAULT_255_2_778
10
8.3047684
20
111.4722881
40
0.1924867
50
88.0790093
51
131.2231929
0
ARC
8
DEFAULT_255_2_778
10
8.309978
20
111.474585
40
0.1942681
50
132.8254521
51
175.8432233
0
ARC
8
DEFAULT_255_2_778
10
7.7752187
20
111.4947065
40
0.196522
50
356.2538927
51
36.5572194
0
ARC
8
DEFAULT_255_2_778
10
7.8093892
20
111.4949983
40
0.1700942
50
43.3499382
51
93.0622656
0
ARC
8
DEFAULT_255_2_778
10
7.7913772
20
111.3238934
40
0.3410731
50
88.5004727
51
90.0094593
0
ARC
8
DEFAULT_255_2_778
10
7.7762781
20
111.4728578
40
0.1926969
50
85.5226964
51
158.1527901
0
LINE
8
DEFAULT_255_2_778
10
7.4535208
20
111.7707667
11
7.5897208
21
111.7707667
0
LINE
8
DEFAULT_255_2_778
10
7.5897208
20
111.7707667
11
7.5937208
21
111.6776667
0
LINE
8
DEFAULT_255_2_778
10
8.6354208
20
111.4937667
11
8.6354208
21
110.9312667
0
LINE
8
DEFAULT_255_2_778
10
8.6354208
20
110.9312667
11
8.4912208
21
110.9312667
0
LINE
8
DEFAULT_255_2_778
10
8.4912208
20
110.9312667
11
8.4912208
21
111.4852667
0
LINE
8
DEFAULT_255_2_778
10
8.1162208
20
111.4886667
11
8.1162208
21
110.9317667
0
LINE
8
DEFAULT_255_2_778
10
8.1162208
20
110.9317667
11
7.9713208
21
110.9317667
0
LINE
8
DEFAULT_255_2_778
10
7.9713208
20
110.9317667
11
7.9713208
21
111.4818667
0
LINE
8
DEFAULT_255_2_778
10
7.5974208
20
111.5445667
11
7.5974208
21
110.9314667
0
LINE
8
DEFAULT_255_2_778
10
7.5974208
20
110.9314667
11
7.4532208
21
110.9314667
0
LINE
8
DEFAULT_255_2_778
10
7.4532208
20
110.9314667
11
7.4532208
21
111.7710667
0
LINE
8
DEFAULT_255_2_778
10
7.4532208
20
111.7710667
11
7.4535208
21
111.7707667
0
LINE
8
DEFAULT_255_2_778
10
9.6100958
20
110.9311854
11
9.5018958
21
111.2259854
0
LINE
8
DEFAULT_255_2_778
10
9.5018958
20
111.2259854
11
9.0266958
21
111.2259854
0
LINE
8
DEFAULT_255_2_778
10
9.0266958
20
111.2259854
11
8.9200958
21
110.9311854
0
LINE
8
DEFAULT_255_2_778
10
8.9200958
20
110.9311854
11
8.7657958
21
110.9311854
0
LINE
8
DEFAULT_255_2_778
10
8.7657958
20
110.9311854
11
9.1988958
21
112.0609854
0
LINE
8
DEFAULT_255_2_778
10
9.1988958
20
112.0609854
11
9.3298958
21
112.0609854
0
LINE
8
DEFAULT_255_2_778
10
9.3298958
20
112.0609854
11
9.7637958
21
110.9311854
0
LINE
8
DEFAULT_255_2_778
10
9.7637958
20
110.9311854
11
9.6102958
21
110.9311854
0
LINE
8
DEFAULT_255_2_778
10
9.6102958
20
110.9311854
11
9.6100958
21
110.9311854
0
LINE
8
DEFAULT_255_2_778
10
9.2639958
20
111.8770854
11
9.0716958
21
111.3486854
0
LINE
8
DEFAULT_255_2_778
10
9.0716958
20
111.3486854
11
9.4573958
21
111.3486854
0
LINE
8
DEFAULT_255_2_778
10
9.4573958
20
111.3486854
11
9.2642958
21
111.8770854
0
LINE
8
DEFAULT_255_2_778
10
9.2642958
20
111.8770854
11
9.2639958
21
111.8770854
0
LINE
8
DEFAULT_255_2_778
10
1.7352479
20
114.8732635
11
1.7352479
21
113.7382635
0
LINE
8
DEFAULT_255_2_778
10
1.7352479
20
113.7382635
11
1.5902479
21
113.7382635
0
LINE
8
DEFAULT_255_2_778
10
1.5902479
20
113.7382635
11
1.5902479
21
114.6949635
0
LINE
8
DEFAULT_255_2_778
10
1.5902479
20
114.6949635
11
1.2997479
21
114.5885635
0
LINE
8
DEFAULT_255_2_778
10
1.2997479
20
114.5885635
11
1.2997479
21
114.7190635
0
LINE
8
DEFAULT_255_2_778
10
1.2997479
20
114.7190635
11
1.7127479
21
114.8735635
0
LINE
8
DEFAULT_255_2_778
10
1.7127479
20
114.8735635
11
1.7352479
21
114.8735635
0
LINE
8
DEFAULT_255_2_778
10
1.7352479
20
114.8735635
11
1.7352479
21
114.8732635
0
ARC
8
DEFAULT_255_2_778
10
1.8575419
20
114.207643
40
1.0115205
50
348.8531957
51
0.7017289
0
ARC
8
DEFAULT_255_2_778
10
2.4098814
20
114.0931753
40
0.4475057
50
326.369508
51
349.5609794
0
ARC
8
DEFAULT_255_2_778
10
2.5427995
20
114.0207669
40
0.2970311
50
270.0338382
51
323.798241
0
ARC
8
DEFAULT_255_2_778
10
2.5124302
20
114.2387898
40
0.5159588
50
269.9618255
51
273.3938901
0
ARC
8
DEFAULT_255_2_778
10
2.4983501
20
114.0738624
40
0.3512998
50
238.0735162
51
272.2409187
0
ARC
8
DEFAULT_255_2_778
10
2.4651712
20
114.0027693
40
0.2735779
50
215.8016672
51
236.0968711
0
ARC
8
DEFAULT_255_2_778
10
2.6186436
20
114.1001533
40
0.4551473
50
190.0314997
51
214.4425585
0
ARC
8
DEFAULT_255_2_778
10
3.1154202
20
114.2044951
40
0.9626411
50
180.2240215
51
190.9965475
0
ARC
8
DEFAULT_255_2_778
10
3.1399415
20
114.4044246
40
0.9872304
50
168.7166274
51
180.7076853
0
ARC
8
DEFAULT_255_2_778
10
2.6043899
20
114.5167041
40
0.4400937
50
146.0580946
51
169.4095666
0
ARC
8
DEFAULT_255_2_778
10
2.4775265
20
114.5851312
40
0.2969741
50
90.683831
51
143.3431084
0
ARC
8
DEFAULT_255_2_778
10
2.5100057
20
114.3625598
40
0.5207718
50
89.9471064
51
93.9665057
0
ARC
8
DEFAULT_255_2_778
10
2.5238726
20
114.5165153
40
0.3670601
50
60.694034
51
92.0899579
0
ARC
8
DEFAULT_255_2_778
10
2.5657024
20
114.6089411
40
0.266133
50
36.3363395
51
58.8069834
0
ARC
8
DEFAULT_255_2_778
10
2.4250238
20
114.520016
40
0.4323061
50
10.2119061
51
34.7826154
0
ARC
8
DEFAULT_255_2_778
10
1.8925313
20
114.4074592
40
0.9764556
50
359.9338147
51
11.1724149
0
ARC
8
DEFAULT_255_2_778
10
1.9067139
20
114.4286834
40
0.8181613
50
359.1559602
51
10.8280238
0
ARC
8
DEFAULT_255_2_778
10
2.402296
20
114.5255084
40
0.3132195
50
10.4621231
51
30.0239048
0
ARC
8
DEFAULT_255_2_778
10
2.5230499
20
114.5891545
40
0.1769023
50
31.7455299
51
93.975127
0
ARC
8
DEFAULT_255_2_778
10
2.498656
20
114.5909029
40
0.1751489
50
86.0286259
51
148.4565241
0
ARC
8
DEFAULT_255_2_778
10
2.6685298
20
114.5049693
40
0.3652132
50
150.9097357
51
173.5470526
0
ARC
8
DEFAULT_255_2_778
10
3.1719084
20
114.4254792
40
0.8746237
50
172.0786243
51
179.8852267
0
ARC
8
DEFAULT_255_2_778
10
3.1059783
20
114.1858602
40
0.8087761
50
179.1731681
51
191.1092606
0
ARC
8
DEFAULT_255_2_778
10
2.6357649
20
114.0919124
40
0.3292758
50
190.8332213
51
210.0287946
0
ARC
8
DEFAULT_255_2_778
10
2.5034284
20
114.0166419
40
0.1770375
50
210.3713932
51
272.9003908
0
ARC
8
DEFAULT_255_2_778
10
2.52256
20
114.0140142
40
0.1744799
50
266.6573063
51
328.2232447
0
ARC
8
DEFAULT_255_2_778
10
2.3652348
20
114.0979373
40
0.3526057
50
330.093159
51
352.701402
0
ARC
8
DEFAULT_255_2_778
10
1.8457567
20
114.1861478
40
0.8793439
50
351.3003089
51
359.6731338
0
LINE
8
DEFAULT_255_2_778
10
2.8689865
20
114.4063312
11
2.8689865
21
114.2200312
0
LINE
8
DEFAULT_255_2_778
10
2.1527865
20
114.2007312
11
2.1527865
21
114.3922312
0
LINE
8
DEFAULT_255_2_778
10
2.8689865
20
114.4063312
11
2.8689865
21
114.4063312
0
LINE
8
DEFAULT_255_2_778
10
2.7247865
20
114.1814312
11
2.7247865
21
114.4166312
0
LINE
8
DEFAULT_255_2_778
10
2.2972865
20
114.4272312
11
2.2972865
21
114.1975312
0
LINE
8
DEFAULT_255_2_778
10
2.7250865
20
114.1811312
11
2.7247865
21
114.1814312
0
ARC
8
DEFAULT_255_2_778
10
3.1613064
20
113.8166476
40
0.0896499
50
138.7478302
51
181.909457
0
ARC
8
DEFAULT_255_2_778
10
3.154164
20
113.8161323
40
0.0847733
50
85.6416519
51
135.3008966
0
ARC
8
DEFAULT_255_2_778
10
3.166722
20
113.8132984
40
0.0875758
50
45.4986163
51
94.004469
0
ARC
8
DEFAULT_255_2_778
10
3.1633458
20
113.8164658
40
0.0878053
50
358.1690888
51
42.4771849
0
ARC
8
DEFAULT_255_2_778
10
3.1681066
20
113.8112603
40
0.0830343
50
316.2685905
51
1.6563875
0
ARC
8
DEFAULT_255_2_778
10
3.1668876
20
113.8187455
40
0.0892065
50
265.9622662
51
313.3346272
0
ARC
8
DEFAULT_255_2_778
10
3.1539988
20
113.815824
40
0.0863169
50
225.8782535
51
274.3902105
0
ARC
8
DEFAULT_255_2_778
10
3.1563723
20
113.8110709
40
0.0847056
50
178.2481453
51
222.485479
0
LINE
8
DEFAULT_255_2_778
10
3.0717063
20
113.8136604
11
3.0717063
21
113.8136604
0
ARC
8
DEFAULT_255_2_778
10
2.9073028
20
115.141088
40
1.2915372
50
317.9389223
51
324.14781
0
ARC
8
DEFAULT_255_2_778
10
3.5507486
20
114.674211
40
0.496559
50
324.3271699
51
331.3666166
0
ARC
8
DEFAULT_255_2_778
10
3.7536391
20
114.5647782
40
0.2660431
50
331.1133044
51
359.7803597
0
ARC
8
DEFAULT_255_2_778
10
3.8179067
20
114.5713742
40
0.2019172
50
357.8384105
51
42.8747704
0
ARC
8
DEFAULT_255_2_778
10
3.8310748
20
114.5771764
40
0.1883781
50
44.3067162
51
92.6149708
0
ARC
8
DEFAULT_255_2_778
10
3.8091107
20
114.5420917
40
0.2236666
50
86.5731364
51
133.4535965
0
ARC
8
DEFAULT_255_2_778
10
3.8275442
20
114.5487867
40
0.2321822
50
137.8964882
51
183.4391719
0
ARC
8
DEFAULT_255_2_778
10
3.7841848
20
114.548166
40
0.3328707
50
134.1373055
51
182.2912146
0
ARC
8
DEFAULT_255_2_778
10
3.7998784
20
114.5161538
40
0.3669395
50
89.358112
51
132.4148057
0
ARC
8
DEFAULT_255_2_778
10
3.8221806
20
114.3087085
40
0.5746498
50
89.9900639
51
91.8140859
0
ARC
8
DEFAULT_255_2_778
10
3.8357695
20
114.4884607
40
0.395128
50
61.2950571
51
91.9564036
0
ARC
8
DEFAULT_255_2_778
10
3.8795001
20
114.5862563
40
0.2884757
50
48.0661859
51
59.5837609
0
ARC
8
DEFAULT_255_2_778
10
3.8829627
20
114.5927138
40
0.2813632
50
357.6054552
51
47.7119564
0
ARC
8
DEFAULT_255_2_778
10
3.7851831
20
114.5937204
40
0.379112
50
331.1269887
51
358.0708853
0
ARC
8
DEFAULT_255_2_778
10
3.318057
20
114.8333674
40
0.9040256
50
319.6075411
51
332.1223432
0
ARC
8
DEFAULT_255_2_778
10
2.830563
20
115.2236592
40
1.528343
50
317.1242581
51
320.3067342
0
LINE
8
DEFAULT_255_2_778
10
4.2169802
20
113.8554583
11
4.2169802
21
113.7382583
0
LINE
8
DEFAULT_255_2_778
10
4.2169802
20
113.7382583
11
3.4735802
21
113.7382583
0
LINE
8
DEFAULT_255_2_778
10
3.4735802
20
113.7382583
11
3.4735802
21
113.8414583
0
LINE
8
DEFAULT_255_2_778
10
3.4735802
20
113.8414583
11
3.8661802
21
114.2758583
0
LINE
8
DEFAULT_255_2_778
10
3.5957802
20
114.5348583
11
3.4515802
21
114.5348583
0
LINE
8
DEFAULT_255_2_778
10
3.9505802
20
114.1837583
11
3.6465802
21
113.8557583
0
LINE
8
DEFAULT_255_2_778
10
3.6465802
20
113.8557583
11
4.2161802
21
113.8557583
0
LINE
8
DEFAULT_255_2_778
10
4.2161802
20
113.8557583
11
4.2169802
21
113.8554583
0
LINE
8
DEFAULT_255_2_778
10
4.6845969
20
114.2766052
11
4.6845969
21
114.1594052
0
LINE
8
DEFAULT_255_2_778
10
4.6845969
20
114.1594052
11
4.3043969
21
114.1594052
0
LINE
8
DEFAULT_255_2_778
10
4.3043969
20
114.1594052
11
4.3043969
21
114.2766052
0
LINE
8
DEFAULT_255_2_778
10
4.3043969
20
114.2766052
11
4.6845969
21
114.2766052
0
LINE
8
DEFAULT_255_2_778
10
4.6845969
20
114.2766052
11
4.6845969
21
114.2766052
0
ARC
8
DEFAULT_255_2_778
10
4.2435028
20
115.141088
40
1.2915372
50
317.9389223
51
324.14781
0
ARC
8
DEFAULT_255_2_778
10
4.8869486
20
114.674211
40
0.496559
50
324.3271699
51
331.3666166
0
ARC
8
DEFAULT_255_2_778
10
5.0898391
20
114.5647782
40
0.2660431
50
331.1133044
51
359.7803597
0
ARC
8
DEFAULT_255_2_778
10
5.1541067
20
114.5713742
40
0.2019172
50
357.8384105
51
42.8747704
0
ARC
8
DEFAULT_255_2_778
10
5.1672748
20
114.5771764
40
0.1883781
50
44.3067162
51
92.6149708
0
ARC
8
DEFAULT_255_2_778
10
5.1453107
20
114.5420917
40
0.2236666
50
86.5731364
51
133.4535965
0
ARC
8
DEFAULT_255_2_778
10
5.1637442
20
114.5487867
40
0.2321822
50
137.8964882
51
183.4391719
0
ARC
8
DEFAULT_255_2_778
10
5.1203848
20
114.548166
40
0.3328707
50
134.1373055
51
182.2912146
0
ARC
8
DEFAULT_255_2_778
10
5.1360784
20
114.5161538
40
0.3669395
50
89.358112
51
132.4148057
0
ARC
8
DEFAULT_255_2_778
10
5.1583806
20
114.3087085
40
0.5746498
50
89.9900639
51
91.8140859
0
ARC
8
DEFAULT_255_2_778
10
5.1719695
20
114.4884607
40
0.395128
50
61.2950571
51
91.9564036
0
ARC
8
DEFAULT_255_2_778
10
5.2157001
20
114.5862563
40
0.2884757
50
48.0661859
51
59.5837609
0
ARC
8
DEFAULT_255_2_778
10
5.2191627
20
114.5927138
40
0.2813632
50
357.6054552
51
47.7119564
0
ARC
8
DEFAULT_255_2_778
10
5.1213831
20
114.5937204
40
0.379112
50
331.1269887
51
358.0708853
0
ARC
8
DEFAULT_255_2_778
10
4.654257
20
114.8333674
40
0.9040256
50
319.6075411
51
332.1223432
0
ARC
8
DEFAULT_255_2_778
10
4.166763
20
115.2236592
40
1.528343
50
317.1242581
51
320.3067342
0
LINE
8
DEFAULT_255_2_778
10
5.5531802
20
113.8554583
11
5.5531802
21
113.7382583
0
LINE
8
DEFAULT_255_2_778
10
5.5531802
20
113.7382583
11
4.8097802
21
113.7382583
0
LINE
8
DEFAULT_255_2_778
10
4.8097802
20
113.7382583
11
4.8097802
21
113.8414583
0
LINE
8
DEFAULT_255_2_778
10
4.8097802
20
113.8414583
11
5.2023802
21
114.2758583
0
LINE
8
DEFAULT_255_2_778
10
4.9319802
20
114.5348583
11
4.7877802
21
114.5348583
0
LINE
8
DEFAULT_255_2_778
10
5.2867802
20
114.1837583
11
4.9827802
21
113.8557583
0
LINE
8
DEFAULT_255_2_778
10
4.9827802
20
113.8557583
11
5.5523802
21
113.8557583
0
LINE
8
DEFAULT_255_2_778
10
5.5523802
20
113.8557583
11
5.5531802
21
113.8554583
0
ARC
8
DEFAULT_255_2_778
10
6.2382185
20
114.34568
40
0.4011669
50
89.0139875
51
123.7801706
0
ARC
8
DEFAULT_255_2_778
10
6.2049999
20
114.4113711
40
0.3282172
50
125.3364859
51
133.970675
0
ARC
8
DEFAULT_255_2_778
10
6.2570476
20
114.3715868
40
0.3931091
50
135.4045207
51
173.4116982
0
ARC
8
DEFAULT_255_2_778
10
6.4887895
20
114.3212594
40
0.6295303
50
171.2809182
51
174.930482
0
ARC
8
DEFAULT_255_2_778
10
6.0916144
20
114.1710986
40
0.3085444
50
87.2492461
51
138.1666045
0
ARC
8
DEFAULT_255_2_778
10
6.1181396
20
114.1846295
40
0.2948909
50
40.3065162
51
92.2772981
0
ARC
8
DEFAULT_255_2_778
10
6.0359817
20
114.1262367
40
0.3954109
50
358.8478608
51
39.05795
0
ARC
8
DEFAULT_255_2_778
10
5.829863
20
114.1068139
40
0.601559
50
359.9974809
51
1.092731
0
ARC
8
DEFAULT_255_2_778
10
6.0025743
20
114.0928721
40
0.4290733
50
330.0188811
51
1.8584993
0
ARC
8
DEFAULT_255_2_778
10
6.0870536
20
114.0544742
40
0.3368294
50
317.6087935
51
328.4953202
0
ARC
8
DEFAULT_255_2_778
10
6.0946637
20
114.0514326
40
0.3291709
50
267.4505949
51
317.1067468
0
ARC
8
DEFAULT_255_2_778
10
6.071594
20
114.0469147
40
0.3244367
50
217.9964253
51
271.4885426
0
ARC
8
DEFAULT_255_2_778
10
6.1897278
20
114.1387429
40
0.4740627
50
181.5278073
51
217.9529716
0
ARC
8
DEFAULT_255_2_778
10
6.4319028
20
114.1677818
40
0.717281
50
179.9675972
51
183.331113
0
ARC
8
DEFAULT_255_2_778
10
6.7748067
20
114.2358878
40
1.0602608
50
167.0332303
51
180.6863328
0
ARC
8
DEFAULT_255_2_778
10
6.2952616
20
114.350993
40
0.5671345
50
142.0215885
51
167.4946115
0
ARC
8
DEFAULT_255_2_778
10
6.1986207
20
114.4079108
40
0.4561668
50
95.9325682
51
140.1869363
0
ARC
8
DEFAULT_255_2_778
10
6.2552299
20
114.1187402
40
0.7501049
50
90.7110019
51
97.9508868
0
ARC
8
DEFAULT_255_2_778
10
6.0817736
20
114.1292316
40
0.2302567
50
89.8386919
51
126.0954755
0
ARC
8
DEFAULT_255_2_778
10
6.0755479
20
114.1251533
40
0.2300046
50
124.2434684
51
159.8493547
0
ARC
8
DEFAULT_255_2_778
10
6.2570009
20
114.1386104
40
0.3975975
50
178.1007745
51
206.8124011
0
ARC
8
DEFAULT_255_2_778
10
6.1453646
20
114.0917582
40
0.2769613
50
208.5795391
51
216.5328867
0
ARC
8
DEFAULT_255_2_778
10
6.081323
20
114.0310475
40
0.1896627
50
213.311166
51
269.6975568
0
ARC
8
DEFAULT_255_2_778
10
6.0879016
20
114.0248207
40
0.1835898
50
267.6338052
51
322.4327573
0
ARC
8
DEFAULT_255_2_778
10
5.9949651
20
114.0860246
40
0.294683
50
324.017599
51
2.696384
0
ARC
8
DEFAULT_255_2_778
10
5.9948938
20
114.1138585
40
0.2947594
50
357.2832673
51
36.2102112
0
ARC
8
DEFAULT_255_2_778
10
6.0879477
20
114.1778737
40
0.1818917
50
37.2562409
51
91.6778686
0
LINE
8
DEFAULT_255_2_778
10
6.2459219
20
114.8684875
11
6.2715219
21
114.8684875
0
LINE
8
DEFAULT_255_2_778
10
6.2715219
20
114.8684875
11
6.2715219
21
114.7467875
0
LINE
8
DEFAULT_255_2_778
10
6.2715219
20
114.7467875
11
6.2451219
21
114.7467875
0
LINE
8
DEFAULT_255_2_778
10
5.7146219
20
114.1681875
11
5.7146219
21
114.2231875
0
LINE
8
DEFAULT_255_2_778
10
6.2459219
20
114.8687875
11
6.2459219
21
114.8684875
0
LINE
8
DEFAULT_255_2_778
10
5.8596219
20
114.2043875
11
5.8596219
21
114.1517875
0
LINE
8
DEFAULT_255_2_778
10
6.0826219
20
114.3596875
11
6.0824219
21
114.3594875
0
ARC
8
DEFAULT_255_2_778
10
6.7096064
20
113.8166476
40
0.0896499
50
138.7478302
51
181.909457
0
ARC
8
DEFAULT_255_2_778
10
6.702464
20
113.8161323
40
0.0847733
50
85.6416519
51
135.3008966
0
ARC
8
DEFAULT_255_2_778
10
6.715022
20
113.8132984
40
0.0875758
50
45.4986163
51
94.004469
0
ARC
8
DEFAULT_255_2_778
10
6.7116458
20
113.8164658
40
0.0878053
50
358.1690888
51
42.4771849
0
ARC
8
DEFAULT_255_2_778
10
6.7164066
20
113.8112603
40
0.0830343
50
316.2685905
51
1.6563875
0
ARC
8
DEFAULT_255_2_778
10
6.7151876
20
113.8187455
40
0.0892065
50
265.9622662
51
313.3346272
0
ARC
8
DEFAULT_255_2_778
10
6.7022988
20
113.815824
40
0.0863169
50
225.8782535
51
274.3902105
0
ARC
8
DEFAULT_255_2_778
10
6.7046723
20
113.8110709
40
0.0847056
50
178.2481453
51
222.485479
0
LINE
8
DEFAULT_255_2_778
10
6.6200063
20
113.8136604
11
6.6200063
21
113.8136604
0
LINE
8
DEFAULT_255_2_778
10
7.6304573
20
114.8676854
11
7.6304573
21
114.1172854
0
LINE
8
DEFAULT_255_2_778
10
7.6304573
20
114.1172854
11
7.7878573
21
114.1172854
0
LINE
8
DEFAULT_255_2_778
10
7.7878573
20
114.1172854
11
7.7878573
21
114.0000854
0
LINE
8
DEFAULT_255_2_778
10
7.7878573
20
114.0000854
11
7.6304573
21
114.0000854
0
LINE
8
DEFAULT_255_2_778
10
7.6304573
20
114.0000854
11
7.6304573
21
113.7378854
0
LINE
8
DEFAULT_255_2_778
10
7.6304573
20
113.7378854
11
7.4854573
21
113.7378854
0
LINE
8
DEFAULT_255_2_778
10
7.4854573
20
113.7378854
11
7.4854573
21
114.0000854
0
LINE
8
DEFAULT_255_2_778
10
7.4854573
20
114.0000854
11
6.9689573
21
114.0000854
0
LINE
8
DEFAULT_255_2_778
10
6.9689573
20
114.0000854
11
6.9689573
21
114.0847854
0
LINE
8
DEFAULT_255_2_778
10
6.9689573
20
114.0847854
11
7.4769573
21
114.8676854
0
LINE
8
DEFAULT_255_2_778
10
7.4769573
20
114.8676854
11
7.6304573
21
114.8676854
0
LINE
8
DEFAULT_255_2_778
10
7.6304573
20
114.8676854
11
7.6304573
21
114.8676854
0
LINE
8
DEFAULT_255_2_778
10
7.4682573
20
114.6403854
11
7.1324573
21
114.1175854
0
LINE
8
DEFAULT_255_2_778
10
7.1324573
20
114.1175854
11
7.4854573
21
114.1175854
0
LINE
8
DEFAULT_255_2_778
10
7.4854573
20
114.1175854
11
7.4854573
21
114.6715854
0
LINE
8
DEFAULT_255_2_778
10
7.4854573
20
114.6715854
11
7.4682573
21
114.6406854
0
LINE
8
DEFAULT_255_2_778
10
7.4682573
20
114.6406854
11
7.4682573
21
114.6403854
0
LINE
8
DEFAULT_255_2_778
10
8.0083313
20
114.8676854
11
8.3308313
21
113.9357854
0
LINE
8
DEFAULT_255_2_778
10
8.3308313
20
113.9357854
11
8.6549313
21
114.8676854
0
LINE
8
DEFAULT_255_2_778
10
8.6549313
20
114.8676854
11
8.8184313
21
114.8676854
0
LINE
8
DEFAULT_255_2_778
10
8.8184313
20
114.8676854
11
8.3977313
21
113.7378854
0
LINE
8
DEFAULT_255_2_778
10
8.3977313
20
113.7378854
11
8.2652313
21
113.7378854
0
LINE
8
DEFAULT_255_2_778
10
8.2652313
20
113.7378854
11
7.8453313
21
114.8676854
0
LINE
8
DEFAULT_255_2_778
10
7.8453313
20
114.8676854
11
8.0080313
21
114.8676854
0
LINE
8
DEFAULT_255_2_778
10
8.0080313
20
114.8676854
11
8.0083313
21
114.8676854
0
ARC
8
DEFAULT_255_2_778
10
9.3013606
20
114.3511904
40
0.516601
50
60.9007738
51
91.1607162
0
ARC
8
DEFAULT_255_2_778
10
9.334329
20
114.4198907
40
0.4405629
50
26.5896221
51
60.3020671
0
ARC
8
DEFAULT_255_2_778
10
9.1889185
20
114.3494249
40
0.6021379
50
359.1874039
51
26.392435
0
ARC
8
DEFAULT_255_2_778
10
9.1864405
20
114.2553026
40
0.6047034
50
333.8171975
51
1.2681232
0
ARC
8
DEFAULT_255_2_778
10
9.3411751
20
114.1827307
40
0.4338361
50
299.1349073
51
333.401293
0
ARC
8
DEFAULT_255_2_778
10
9.2909056
20
114.289328
40
0.5514787
50
269.3444325
51
298.3048002
0
ARC
8
DEFAULT_255_2_778
10
9.292119
20
114.2246495
40
0.3653489
50
267.7375038
51
304.7226819
0
ARC
8
DEFAULT_255_2_778
10
9.3185826
20
114.170545
40
0.30594
50
306.4210309
51
318.2400135
0
ARC
8
DEFAULT_255_2_778
10
9.2501181
20
114.2186818
40
0.3891908
50
319.6668314
51
354.6729948
0
ARC
8
DEFAULT_255_2_778
10
8.9535639
20
114.2692444
40
0.689536
50
352.7771113
51
0.1945185
0
ARC
8
DEFAULT_255_2_778
10
9.0945337
20
114.3502234
40
0.54871
50
358.6697936
51
20.484752
0
ARC
8
DEFAULT_255_2_778
10
9.2927455
20
114.4179267
40
0.3393909
50
21.4882143
51
40.0887413
0
ARC
8
DEFAULT_255_2_778
10
9.3119463
20
114.4234179
40
0.321269
50
41.5448495
51
91.654909
0
ARC
8
DEFAULT_255_2_778
10
9.289929
20
114.2264789
40
0.5182305
50
88.5914103
51
89.4508601
0
LINE
8
DEFAULT_255_2_778
10
9.2848958
20
113.7378854
11
8.9707958
21
113.7378854
0
LINE
8
DEFAULT_255_2_778
10
8.9707958
20
113.7378854
11
8.9707958
21
114.8676854
0
LINE
8
DEFAULT_255_2_778
10
8.9707958
20
114.8676854
11
9.2908958
21
114.8676854
0
LINE
8
DEFAULT_255_2_778
10
9.7909958
20
114.3408854
11
9.7909958
21
114.2686854
0
LINE
8
DEFAULT_255_2_778
10
9.2845958
20
113.7378854
11
9.2848958
21
113.7378854
0
LINE
8
DEFAULT_255_2_778
10
9.2948958
20
114.7448854
11
9.1202958
21
114.7448854
0
LINE
8
DEFAULT_255_2_778
10
9.1202958
20
114.7448854
11
9.1202958
21
113.8595854
0
LINE
8
DEFAULT_255_2_778
10
9.1202958
20
113.8595854
11
9.2776958
21
113.8595854
0
LINE
8
DEFAULT_255_2_778
10
9.6430958
20
114.2715854
11
9.6430958
21
114.3374854
0
LINE
8
DEFAULT_255_2_778
10
9.2948958
20
114.7446854
11
9.2948958
21
114.7448854
0
ARC
8
DEFAULT_255_2_778
10
10.4072697
20
114.1351526
40
0.4458648
50
323.2673495
51
355.0519713
0
ARC
8
DEFAULT_255_2_778
10
10.4851213
20
114.0882983
40
0.3555634
50
311.060041
51
321.8151593
0
ARC
8
DEFAULT_255_2_778
10
10.4521521
20
114.1411745
40
0.4172058
50
271.6099969
51
309.7041449
0
ARC
8
DEFAULT_255_2_778
10
10.4219513
20
114.3803405
40
0.6575449
50
269.9583125
51
273.6554421
0
ARC
8
DEFAULT_255_2_778
10
10.4066957
20
114.1232629
40
0.4007396
50
219.9023818
51
272.1132562
0
ARC
8
DEFAULT_255_2_778
10
10.5059257
20
114.1967748
40
0.5240696
50
185.5287863
51
219.1085929
0
ARC
8
DEFAULT_255_2_778
10
10.8141865
20
114.2481165
40
0.8361168
50
179.8438056
51
186.9956201
0
ARC
8
DEFAULT_255_2_778
10
10.6189489
20
114.372522
40
0.6410166
50
155.7111544
51
181.2001599
0
ARC
8
DEFAULT_255_2_778
10
10.4194407
20
114.4622806
40
0.4222473
50
122.1458531
51
155.6770069
0
ARC
8
DEFAULT_255_2_778
10
10.4255695
20
114.4363085
40
0.4475819
50
88.8217737
51
121.0410606
0
ARC
8
DEFAULT_255_2_778
10
10.4488321
20
114.4427272
40
0.4412927
50
59.684238
51
91.8257046
0
ARC
8
DEFAULT_255_2_778
10
10.4854736
20
114.523298
40
0.3533598
50
47.3738442
51
58.2185388
0
ARC
8
DEFAULT_255_2_778
10
10.4386103
20
114.4858921
40
0.4127203
50
5.3508346
51
46.1035379
0
ARC
8
DEFAULT_255_2_778
10
10.2265901
20
114.4418946
40
0.6283792
50
5.7816282
51
7.5427996
0
ARC
8
DEFAULT_255_2_778
10
10.3023871
20
114.4596565
40
0.4016756
50
6.5098119
51
29.0842325
0
ARC
8
DEFAULT_255_2_778
10
10.4723582
20
114.5475739
40
0.2104804
50
30.6607053
51
46.6762464
0
ARC
8
DEFAULT_255_2_778
10
10.4532235
20
114.510225
40
0.2510529
50
49.3486845
51
91.7359043
0
ARC
8
DEFAULT_255_2_778
10
10.4348367
20
114.3242208
40
0.4370748
50
88.5864792
51
90.0083576
0
ARC
8
DEFAULT_255_2_778
10
10.4234136
20
114.4931994
40
0.2683369
50
87.5738178
51
142.7302383
0
ARC
8
DEFAULT_255_2_778
10
10.5330387
20
114.420714
40
0.3995655
50
143.9781703
51
173.1420884
0
ARC
8
DEFAULT_255_2_778
10
10.8791323
20
114.3593256
40
0.7507697
50
171.644372
51
180.2999085
0
ARC
8
DEFAULT_255_2_778
10
10.7217389
20
114.2333996
40
0.5935039
50
178.7645824
51
199.2800727
0
ARC
8
DEFAULT_255_2_778
10
10.5062797
20
114.1648396
40
0.367547
50
200.2819764
51
215.1004573
0
ARC
8
DEFAULT_255_2_778
10
10.4118908
20
114.0945242
40
0.2499121
50
214.3545129
51
272.1973701
0
ARC
8
DEFAULT_255_2_778
10
10.4340843
20
114.1742638
40
0.3297093
50
267.8079004
51
295.9503658
0
ARC
8
DEFAULT_255_2_778
10
10.4846126
20
114.0533232
40
0.198993
50
298.1071816
51
310.0940555
0
ARC
8
DEFAULT_255_2_778
10
10.4394852
20
114.0862622
40
0.2536045
50
313.1019868
51
346.8798932
0
ARC
8
DEFAULT_255_2_778
10
10.1466525
20
114.1807596
40
0.5608263
50
344.2677374
51
351.3999551
0
LINE
8
DEFAULT_255_2_778
10
10.7011729
20
114.0966958
11
10.8514729
21
114.0966958
0
LINE
8
DEFAULT_255_2_778
10
9.9780729
20
114.2503958
11
9.9780729
21
114.3590958
0
LINE
8
DEFAULT_255_2_778
10
10.8517729
20
114.5051958
11
10.7014729
21
114.5051958
0
LINE
8
DEFAULT_255_2_778
10
10.1283729
20
114.3553958
11
10.1283729
21
114.2461958
0
LINE
8
DEFAULT_255_2_778
10
10.7011729
20
114.0968958
11
10.7011729
21
114.0966958
0
LINE
8
DEFAULT_255_2_778
10
4.4390823
20
138.1468708
11
4.4390823
21
139.8983708
0
LINE
8
DEFAULT_255_2_778
10
4.4390823
20
139.8983708
11
8.5154823
21
139.8983708
0
LINE
8
DEFAULT_255_2_778
10
11.8508584
20
139.8983708
11
18.7067584
21
139.8983708
0
LINE
8
DEFAULT_255_2_778
10
18.7067584
20
139.8983708
11
18.7067584
21
138.1468708
0
ARC
8
DEFAULT_255_2_778
10
4.4295419
20
136.655143
40
1.0115205
50
348.8531957
51
0.7017289
0
ARC
8
DEFAULT_255_2_778
10
4.9818814
20
136.5406753
40
0.4475057
50
326.369508
51
349.5609794
0
ARC
8
DEFAULT_255_2_778
10
5.1147995
20
136.4682669
40
0.2970311
50
270.0338382
51
323.798241
0
ARC
8
DEFAULT_255_2_778
10
5.0844302
20
136.6862898
40
0.5159588
50
269.9618255
51
273.3938901
0
ARC
8
DEFAULT_255_2_778
10
5.0703501
20
136.5213624
40
0.3512998
50
238.0735162
51
272.2409187
0
ARC
8
DEFAULT_255_2_778
10
5.0371712
20
136.4502693
40
0.2735779
50
215.8016672
51
236.0968711
0
ARC
8
DEFAULT_255_2_778
10
5.1906436
20
136.5476533
40
0.4551473
50
190.0314997
51
214.4425585
0
ARC
8
DEFAULT_255_2_778
10
5.6874202
20
136.6519951
40
0.9626411
50
180.2240215
51
190.9965475
0
ARC
8
DEFAULT_255_2_778
10
5.7119415
20
136.8519246
40
0.9872304
50
168.7166274
51
180.7076853
0
ARC
8
DEFAULT_255_2_778
10
5.1763899
20
136.9642041
40
0.4400937
50
146.0580946
51
169.4095666
0
ARC
8
DEFAULT_255_2_778
10
5.0495265
20
137.0326312
40
0.2969741
50
90.683831
51
143.3431084
0
ARC
8
DEFAULT_255_2_778
10
5.0820057
20
136.8100598
40
0.5207718
50
89.9471064
51
93.9665057
0
ARC
8
DEFAULT_255_2_778
10
5.0958726
20
136.9640153
40
0.3670601
50
60.694034
51
92.0899579
0
ARC
8
DEFAULT_255_2_778
10
5.1377024
20
137.0564411
40
0.266133
50
36.3363395
51
58.8069834
0
ARC
8
DEFAULT_255_2_778
10
4.9970238
20
136.967516
40
0.4323061
50
10.2119061
51
34.7826154
0
ARC
8
DEFAULT_255_2_778
10
4.4645313
20
136.8549592
40
0.9764556
50
359.9338147
51
11.1724149
0
ARC
8
DEFAULT_255_2_778
10
4.4787139
20
136.8761834
40
0.8181613
50
359.1559602
51
10.8280238
0
ARC
8
DEFAULT_255_2_778
10
4.974296
20
136.9730084
40
0.3132195
50
10.4621231
51
30.0239048
0
ARC
8
DEFAULT_255_2_778
10
5.0950499
20
137.0366545
40
0.1769023
50
31.7455299
51
93.975127
0
ARC
8
DEFAULT_255_2_778
10
5.070656
20
137.0384029
40
0.1751489
50
86.0286259
51
148.4565241
0
ARC
8
DEFAULT_255_2_778
10
5.2405298
20
136.9524693
40
0.3652132
50
150.9097357
51
173.5470526
0
ARC
8
DEFAULT_255_2_778
10
5.7439084
20
136.8729792
40
0.8746237
50
172.0786243
51
179.8852267
0
ARC
8
DEFAULT_255_2_778
10
5.6779783
20
136.6333602
40
0.8087761
50
179.1731681
51
191.1092606
0
ARC
8
DEFAULT_255_2_778
10
5.2077649
20
136.5394124
40
0.3292758
50
190.8332213
51
210.0287946
0
ARC
8
DEFAULT_255_2_778
10
5.0754284
20
136.4641419
40
0.1770375
50
210.3713932
51
272.9003908
0
ARC
8
DEFAULT_255_2_778
10
5.09456
20
136.4615142
40
0.1744799
50
266.6573063
51
328.2232447
0
ARC
8
DEFAULT_255_2_778
10
4.9372348
20
136.5454373
40
0.3526057
50
330.093159
51
352.701402
0
ARC
8
DEFAULT_255_2_778
10
4.4177567
20
136.6336478
40
0.8793439
50
351.3003089
51
359.6731338
0
LINE
8
DEFAULT_255_2_778
10
5.4409865
20
136.8538312
11
5.4409865
21
136.6675312
0
LINE
8
DEFAULT_255_2_778
10
4.7247865
20
136.6482312
11
4.7247865
21
136.8397312
0
LINE
8
DEFAULT_255_2_778
10
5.4409865
20
136.8538312
11
5.4409865
21
136.8538312
0
LINE
8
DEFAULT_255_2_778
10
5.2967865
20
136.6289312
11
5.2967865
21
136.8641312
0
LINE
8
DEFAULT_255_2_778
10
4.8692865
20
136.8747312
11
4.8692865
21
136.6450312
0
LINE
8
DEFAULT_255_2_778
10
5.2970865
20
136.6286312
11
5.2967865
21
136.6289312
0
ARC
8
DEFAULT_255_2_778
10
4.9430964
20
126.0264965
40
0.2390325
50
267.6586574
51
309.1255963
0
ARC
8
DEFAULT_255_2_778
10
4.9740474
20
125.9732815
40
0.1784762
50
312.1990396
51
2.6597166
0
ARC
8
DEFAULT_255_2_778
10
4.9363916
20
125.9943398
40
0.2163173
50
356.6139944
51
34.6705992
0
ARC
8
DEFAULT_255_2_778
10
4.9779656
20
125.9995459
40
0.1802077
50
40.84043
51
91.2497039
0
ARC
8
DEFAULT_255_2_778
10
4.9538932
20
125.8129637
40
0.3672999
50
86.8564149
51
90.0408598
0
ARC
8
DEFAULT_255_2_778
10
4.9433511
20
125.9732779
40
0.2072408
50
87.1566718
51
132.0925807
0
ARC
8
DEFAULT_255_2_778
10
4.9338559
20
125.9943204
40
0.1853955
50
134.2747912
51
182.459795
0
ARC
8
DEFAULT_255_2_778
10
4.8918683
20
125.992486
40
0.2875022
50
131.0313238
51
181.2202277
0
ARC
8
DEFAULT_255_2_778
10
4.9403258
20
125.9383791
40
0.3601303
50
87.8826625
51
131.1958898
0
ARC
8
DEFAULT_255_2_778
10
4.9668215
20
125.9018574
40
0.3966255
50
62.1627031
51
91.9057925
0
ARC
8
DEFAULT_255_2_778
10
5.0122776
20
126.0057746
40
0.2836299
50
47.1052853
51
60.479795
0
ARC
8
DEFAULT_255_2_778
10
4.9941168
20
125.9968137
40
0.3026418
50
357.6153098
51
45.7410322
0
ARC
8
DEFAULT_255_2_778
10
4.8056021
20
125.9783927
40
0.4909289
50
359.9965957
51
0.6802499
0
ARC
8
DEFAULT_255_2_778
10
5.0488774
20
125.9818989
40
0.2476791
50
323.7556323
51
359.1821219
0
ARC
8
DEFAULT_255_2_778
10
5.0122501
20
126.0004221
40
0.2882488
50
291.5721537
51
325.090754
0
ARC
8
DEFAULT_255_2_778
10
5.0422353
20
125.4642551
40
0.278671
50
37.69833
51
74.1744866
0
ARC
8
DEFAULT_255_2_778
10
5.0434151
20
125.4764148
40
0.2704483
50
358.2092755
51
35.8125345
0
ARC
8
DEFAULT_255_2_778
10
5.006533
20
125.4536443
40
0.3075318
50
312.4325108
51
2.6687543
0
ARC
8
DEFAULT_255_2_778
10
4.9718434
20
125.5104899
40
0.3731118
50
268.0904083
51
310.4739903
0
ARC
8
DEFAULT_255_2_778
10
4.9544611
20
125.6993571
40
0.5617936
50
269.9969579
51
270.5047692
0
ARC
8
DEFAULT_255_2_778
10
4.9398974
20
125.5337175
40
0.3964205
50
235.9708777
51
272.1010855
0
ARC
8
DEFAULT_255_2_778
10
4.9101681
20
125.4741207
40
0.3305073
50
229.2968907
51
234.460255
0
ARC
8
DEFAULT_255_2_778
10
4.8793861
20
125.4404887
40
0.2849402
50
177.9334975
51
229.5790126
0
ARC
8
DEFAULT_255_2_778
10
4.9239812
20
125.4429024
40
0.1845174
50
177.5582336
51
226.9960457
0
ARC
8
DEFAULT_255_2_778
10
4.9433209
20
125.4770063
40
0.2228351
50
229.3409556
51
272.9351456
0
ARC
8
DEFAULT_255_2_778
10
4.9680899
20
125.4804531
40
0.226384
50
266.6170816
51
307.4000944
0
ARC
8
DEFAULT_255_2_778
10
4.9998569
20
125.4255424
40
0.1636689
50
310.2422248
51
314.4790619
0
ARC
8
DEFAULT_255_2_778
10
4.9618985
20
125.4506535
40
0.2083975
50
317.0889491
51
3.8272051
0
ARC
8
DEFAULT_255_2_778
10
4.9805984
20
125.4763016
40
0.1895965
50
356.4505031
51
47.400208
0
ARC
8
DEFAULT_255_2_778
10
4.955779
20
125.4218497
40
0.247178
50
51.7128498
51
88.7107062
0
ARC
8
DEFAULT_255_2_778
10
4.9274422
20
125.2056009
40
0.4646025
50
85.8158593
51
89.2490676
0
LINE
8
DEFAULT_255_2_778
10
4.8251313
20
125.6703635
11
4.8251313
21
125.7876635
0
LINE
8
DEFAULT_255_2_778
10
4.8251313
20
125.7876635
11
4.9333313
21
125.7876635
0
LINE
8
DEFAULT_255_2_778
10
4.7486313
20
125.9863635
11
4.6044313
21
125.9863635
0
LINE
8
DEFAULT_255_2_778
10
4.5946313
20
125.4507635
11
4.7396313
21
125.4507635
0
LINE
8
DEFAULT_255_2_778
10
4.9335313
20
125.6701635
11
4.8253313
21
125.6701635
0
LINE
8
DEFAULT_255_2_778
10
4.8253313
20
125.6701635
11
4.8251313
21
125.6703635
0
ARC
8
DEFAULT_255_2_778
10
4.0493351
20
130.195288
40
1.2915372
50
317.9389223
51
324.14781
0
ARC
8
DEFAULT_255_2_778
10
4.6927809
20
129.728411
40
0.496559
50
324.3271699
51
331.3666166
0
ARC
8
DEFAULT_255_2_778
10
4.8956714
20
129.6189782
40
0.2660431
50
331.1133044
51
359.7803597
0
ARC
8
DEFAULT_255_2_778
10
4.959939
20
129.6255742
40
0.2019172
50
357.8384105
51
42.8747704
0
ARC
8
DEFAULT_255_2_778
10
4.9731071
20
129.6313764
40
0.1883781
50
44.3067162
51
92.6149708
0
ARC
8
DEFAULT_255_2_778
10
4.951143
20
129.5962917
40
0.2236666
50
86.5731364
51
133.4535965
0
ARC
8
DEFAULT_255_2_778
10
4.9695765
20
129.6029867
40
0.2321822
50
137.8964882
51
183.4391719
0
ARC
8
DEFAULT_255_2_778
10
4.9262171
20
129.602366
40
0.3328707
50
134.1373055
51
182.2912146
0
ARC
8
DEFAULT_255_2_778
10
4.9419107
20
129.5703538
40
0.3669395
50
89.358112
51
132.4148057
0
ARC
8
DEFAULT_255_2_778
10
4.9642129
20
129.3629085
40
0.5746498
50
89.9900639
51
91.8140859
0
ARC
8
DEFAULT_255_2_778
10
4.9778018
20
129.5426607
40
0.395128
50
61.2950571
51
91.9564036
0
ARC
8
DEFAULT_255_2_778
10
5.0215324
20
129.6404563
40
0.2884757
50
48.0661859
51
59.5837609
0
ARC
8
DEFAULT_255_2_778
10
5.024995
20
129.6469138
40
0.2813632
50
357.6054552
51
47.7119564
0
ARC
8
DEFAULT_255_2_778
10
4.9272154
20
129.6479204
40
0.379112
50
331.1269887
51
358.0708853
0
ARC
8
DEFAULT_255_2_778
10
4.4600892
20
129.8875674
40
0.9040256
50
319.6075411
51
332.1223432
0
ARC
8
DEFAULT_255_2_778
10
3.9725953
20
130.2778592
40
1.528343
50
317.1242581
51
320.3067342
0
LINE
8
DEFAULT_255_2_778
10
5.3588125
20
128.9096583
11
5.3588125
21
128.7924583
0
LINE
8
DEFAULT_255_2_778
10
5.3588125
20
128.7924583
11
4.6156125
21
128.7924583
0
LINE
8
DEFAULT_255_2_778
10
4.6156125
20
128.7924583
11
4.6156125
21
128.8956583
0
LINE
8
DEFAULT_255_2_778
10
4.6156125
20
128.8956583
11
5.0082125
21
129.3300583
0
LINE
8
DEFAULT_255_2_778
10
4.7378125
20
129.5890583
11
4.5936125
21
129.5890583
0
LINE
8
DEFAULT_255_2_778
10
5.0926125
20
129.2379583
11
4.7886125
21
128.9099583
0
LINE
8
DEFAULT_255_2_778
10
4.7886125
20
128.9099583
11
5.3582125
21
128.9099583
0
LINE
8
DEFAULT_255_2_778
10
5.3582125
20
128.9099583
11
5.3588125
21
128.9096583
0
LINE
8
DEFAULT_255_2_778
10
5.2034479
20
133.4535635
11
5.2034479
21
132.3185635
0
LINE
8
DEFAULT_255_2_778
10
5.2034479
20
132.3185635
11
5.0584479
21
132.3185635
0
LINE
8
DEFAULT_255_2_778
10
5.0584479
20
132.3185635
11
5.0584479
21
133.2752635
0
LINE
8
DEFAULT_255_2_778
10
5.0584479
20
133.2752635
11
4.7679479
21
133.1688635
0
LINE
8
DEFAULT_255_2_778
10
4.7679479
20
133.1688635
11
4.7679479
21
133.2993635
0
LINE
8
DEFAULT_255_2_778
10
4.7679479
20
133.2993635
11
5.1809479
21
133.4538635
0
LINE
8
DEFAULT_255_2_778
10
5.1809479
20
133.4538635
11
5.2034479
21
133.4538635
0
LINE
8
DEFAULT_255_2_778
10
5.2034479
20
133.4538635
11
5.2034479
21
133.4535635
0
LINE
8
DEFAULT_255_2_778
10
12.7232188
20
126.2823854
11
12.7232188
21
126.2016854
0
LINE
8
DEFAULT_255_2_778
10
12.7232188
20
126.2016854
11
12.2533188
21
125.1525854
0
LINE
8
DEFAULT_255_2_778
10
12.2533188
20
125.1525854
11
12.1022188
21
125.1525854
0
LINE
8
DEFAULT_255_2_778
10
12.1022188
20
125.1525854
11
12.5705188
21
126.1643854
0
LINE
8
DEFAULT_255_2_778
10
12.5705188
20
126.1643854
11
11.9564188
21
126.1643854
0
LINE
8
DEFAULT_255_2_778
10
11.9564188
20
126.1643854
11
11.9564188
21
126.2823854
0
LINE
8
DEFAULT_255_2_778
10
11.9564188
20
126.2823854
11
12.7232188
21
126.2823854
0
LINE
8
DEFAULT_255_2_778
10
12.7232188
20
126.2823854
11
12.7232188
21
126.2823854
0
LINE
8
DEFAULT_255_2_778
10
12.5990573
20
137.3154854
11
12.5990573
21
136.5650854
0
LINE
8
DEFAULT_255_2_778
10
12.5990573
20
136.5650854
11
12.7564573
21
136.5650854
0
LINE
8
DEFAULT_255_2_778
10
12.7564573
20
136.5650854
11
12.7564573
21
136.4478854
0
LINE
8
DEFAULT_255_2_778
10
12.7564573
20
136.4478854
11
12.5990573
21
136.4478854
0
LINE
8
DEFAULT_255_2_778
10
12.5990573
20
136.4478854
11
12.5990573
21
136.1856854
0
LINE
8
DEFAULT_255_2_778
10
12.5990573
20
136.1856854
11
12.4540573
21
136.1856854
0
LINE
8
DEFAULT_255_2_778
10
12.4540573
20
136.1856854
11
12.4540573
21
136.4478854
0
LINE
8
DEFAULT_255_2_778
10
12.4540573
20
136.4478854
11
11.9375573
21
136.4478854
0
LINE
8
DEFAULT_255_2_778
10
11.9375573
20
136.4478854
11
11.9375573
21
136.5325854
0
LINE
8
DEFAULT_255_2_778
10
11.9375573
20
136.5325854
11
12.4455573
21
137.3154854
0
LINE
8
DEFAULT_255_2_778
10
12.4455573
20
137.3154854
11
12.5990573
21
137.3154854
0
LINE
8
DEFAULT_255_2_778
10
12.5990573
20
137.3154854
11
12.5990573
21
137.3154854
0
LINE
8
DEFAULT_255_2_778
10
12.4368573
20
137.0881854
11
12.1010573
21
136.5653854
0
LINE
8
DEFAULT_255_2_778
10
12.1010573
20
136.5653854
11
12.4540573
21
136.5653854
0
LINE
8
DEFAULT_255_2_778
10
12.4540573
20
136.5653854
11
12.4540573
21
137.1193854
0
LINE
8
DEFAULT_255_2_778
10
12.4540573
20
137.1193854
11
12.4368573
21
137.0884854
0
LINE
8
DEFAULT_255_2_778
10
12.4368573
20
137.0884854
11
12.4368573
21
137.0881854
0
ARC
8
DEFAULT_255_2_778
10
12.3856184
20
132.5756445
40
0.3670671
50
89.023513
51
119.9298836
0
ARC
8
DEFAULT_255_2_778
10
12.4062512
20
132.6289841
40
0.3140036
50
42.3606977
51
92.6243068
0
ARC
8
DEFAULT_255_2_778
10
12.3502223
20
132.5956378
40
0.3781003
50
1.7434394
51
40.3733835
0
ARC
8
DEFAULT_255_2_778
10
12.1180494
20
132.5653914
40
0.6115248
50
359.9500573
51
3.9147187
0
ARC
8
DEFAULT_255_2_778
10
12.3009243
20
132.5515108
40
0.4288574
50
332.2908736
51
1.7835346
0
ARC
8
DEFAULT_255_2_778
10
12.4043368
20
132.5068156
40
0.3166363
50
316.6994377
51
330.7497881
0
ARC
8
DEFAULT_255_2_778
10
12.3960113
20
132.5250763
40
0.3353047
50
270.0428124
51
315.404128
0
ARC
8
DEFAULT_255_2_778
10
12.370391
20
132.7349928
40
0.5458345
50
269.9772192
51
272.7166604
0
ARC
8
DEFAULT_255_2_778
10
12.355107
20
132.5488332
40
0.3599904
50
230.2000628
51
272.3987502
0
ARC
8
DEFAULT_255_2_778
10
12.3467588
20
132.5172116
40
0.3306415
50
182.6614846
51
227.8032393
0
ARC
8
DEFAULT_255_2_778
10
12.3793181
20
132.5196056
40
0.2272383
50
184.4793443
51
226.2130076
0
ARC
8
DEFAULT_255_2_778
10
12.359784
20
132.5225853
40
0.2164765
50
230.495185
51
272.7510182
0
ARC
8
DEFAULT_255_2_778
10
12.3797027
20
132.5005665
40
0.1944418
50
267.191074
51
319.6438783
0
ARC
8
DEFAULT_255_2_778
10
12.3132763
20
132.5406373
40
0.2712954
50
322.2801113
51
0.1066125
0
ARC
8
DEFAULT_255_2_778
10
12.1081681
20
132.5630324
40
0.4769058
50
357.3691627
51
0.0271432
0
ARC
8
DEFAULT_255_2_778
10
12.3235755
20
132.5758465
40
0.2618013
50
357.2439844
51
40.3233693
0
ARC
8
DEFAULT_255_2_778
10
12.3671323
20
132.6032735
40
0.2109709
50
42.2995503
51
92.4064531
0
ARC
8
DEFAULT_255_2_778
10
12.3453446
20
132.5713882
40
0.2430143
50
86.9501987
51
122.8335792
0
ARC
8
DEFAULT_255_2_778
10
12.3082742
20
132.6440792
40
0.1620471
50
125.7570427
51
127.2562587
0
LINE
8
DEFAULT_255_2_778
10
12.172274
20
132.7415583
11
12.056974
21
132.7709583
0
LINE
8
DEFAULT_255_2_778
10
12.056974
20
132.7709583
11
12.114674
21
133.3342583
0
LINE
8
DEFAULT_255_2_778
10
12.114674
20
133.3342583
11
12.695874
21
133.3342583
0
LINE
8
DEFAULT_255_2_778
10
12.695874
20
133.3342583
11
12.695874
21
133.2016583
0
LINE
8
DEFAULT_255_2_778
10
12.695874
20
133.2016583
11
12.236874
21
133.2016583
0
LINE
8
DEFAULT_255_2_778
10
12.236874
20
133.2016583
11
12.202474
21
132.8937583
0
LINE
8
DEFAULT_255_2_778
10
12.016474
20
132.5018583
11
12.152774
21
132.5018583
0
LINE
8
DEFAULT_255_2_778
10
12.210174
20
132.7730583
11
12.172074
21
132.7421583
0
LINE
8
DEFAULT_255_2_778
10
12.172074
20
132.7421583
11
12.172274
21
132.7415583
0
ARC
8
DEFAULT_255_2_778
10
12.5228185
20
129.40018
40
0.4011669
50
89.0139875
51
123.7801706
0
ARC
8
DEFAULT_255_2_778
10
12.4895999
20
129.4658711
40
0.3282172
50
125.3364859
51
133.970675
0
ARC
8
DEFAULT_255_2_778
10
12.5416476
20
129.4260868
40
0.3931091
50
135.4045207
51
173.4116982
0
ARC
8
DEFAULT_255_2_778
10
12.7733895
20
129.3757594
40
0.6295303
50
171.2809182
51
174.930482
0
ARC
8
DEFAULT_255_2_778
10
12.3762144
20
129.2255986
40
0.3085444
50
87.2492461
51
138.1666045
0
ARC
8
DEFAULT_255_2_778
10
12.4027396
20
129.2391295
40
0.2948909
50
40.3065162
51
92.2772981
0
ARC
8
DEFAULT_255_2_778
10
12.3205817
20
129.1807367
40
0.3954109
50
358.8478608
51
39.05795
0
ARC
8
DEFAULT_255_2_778
10
12.114463
20
129.1613139
40
0.601559
50
359.9974809
51
1.092731
0
ARC
8
DEFAULT_255_2_778
10
12.2871743
20
129.1473721
40
0.4290733
50
330.0188811
51
1.8584993
0
ARC
8
DEFAULT_255_2_778
10
12.3716536
20
129.1089742
40
0.3368294
50
317.6087935
51
328.4953202
0
ARC
8
DEFAULT_255_2_778
10
12.3792637
20
129.1059326
40
0.3291709
50
267.4505949
51
317.1067468
0
ARC
8
DEFAULT_255_2_778
10
12.356194
20
129.1014147
40
0.3244367
50
217.9964253
51
271.4885426
0
ARC
8
DEFAULT_255_2_778
10
12.4743278
20
129.1932429
40
0.4740627
50
181.5278073
51
217.9529716
0
ARC
8
DEFAULT_255_2_778
10
12.7165028
20
129.2222818
40
0.717281
50
179.9675972
51
183.331113
0
ARC
8
DEFAULT_255_2_778
10
13.0594067
20
129.2903878
40
1.0602608
50
167.0332303
51
180.6863328
0
ARC
8
DEFAULT_255_2_778
10
12.5798616
20
129.405493
40
0.5671345
50
142.0215885
51
167.4946115
0
ARC
8
DEFAULT_255_2_778
10
12.4832207
20
129.4624108
40
0.4561668
50
95.9325682
51
140.1869363
0
ARC
8
DEFAULT_255_2_778
10
12.5398299
20
129.1732402
40
0.7501049
50
90.7110019
51
97.9508868
0
ARC
8
DEFAULT_255_2_778
10
12.3663736
20
129.1837316
40
0.2302567
50
89.8386919
51
126.0954755
0
ARC
8
DEFAULT_255_2_778
10
12.3601479
20
129.1796533
40
0.2300046
50
124.2434684
51
159.8493547
0
ARC
8
DEFAULT_255_2_778
10
12.5416009
20
129.1931104
40
0.3975975
50
178.1007745
51
206.8124011
0
ARC
8
DEFAULT_255_2_778
10
12.4299646
20
129.1462582
40
0.2769613
50
208.5795391
51
216.5328867
0
ARC
8
DEFAULT_255_2_778
10
12.365923
20
129.0855475
40
0.1896627
50
213.311166
51
269.6975568
0
ARC
8
DEFAULT_255_2_778
10
12.3725016
20
129.0793207
40
0.1835898
50
267.6338052
51
322.4327573
0
ARC
8
DEFAULT_255_2_778
10
12.2795651
20
129.1405246
40
0.294683
50
324.017599
51
2.696384
0
ARC
8
DEFAULT_255_2_778
10
12.2794938
20
129.1683585
40
0.2947594
50
357.2832673
51
36.2102112
0
ARC
8
DEFAULT_255_2_778
10
12.3725477
20
129.2323737
40
0.1818917
50
37.2562409
51
91.6778686
0
LINE
8
DEFAULT_255_2_778
10
12.5305219
20
129.9229875
11
12.5561219
21
129.9229875
0
LINE
8
DEFAULT_255_2_778
10
12.5561219
20
129.9229875
11
12.5561219
21
129.8012875
0
LINE
8
DEFAULT_255_2_778
10
12.5561219
20
129.8012875
11
12.5297219
21
129.8012875
0
LINE
8
DEFAULT_255_2_778
10
11.9992219
20
129.2226875
11
11.9992219
21
129.2776875
0
LINE
8
DEFAULT_255_2_778
10
12.5305219
20
129.9232875
11
12.5305219
21
129.9229875
0
LINE
8
DEFAULT_255_2_778
10
12.1442219
20
129.2588875
11
12.1442219
21
129.2062875
0
LINE
8
DEFAULT_255_2_778
10
12.3672219
20
129.4141875
11
12.3670219
21
129.4139875
0
LINE
8
DEFAULT_255_2_778
10
10.3540958
20
139.7808854
11
10.2458958
21
140.0756854
0
LINE
8
DEFAULT_255_2_778
10
10.2458958
20
140.0756854
11
9.7706958
21
140.0756854
0
LINE
8
DEFAULT_255_2_778
10
9.7706958
20
140.0756854
11
9.6640958
21
139.7808854
0
LINE
8
DEFAULT_255_2_778
10
9.6640958
20
139.7808854
11
9.5097958
21
139.7808854
0
LINE
8
DEFAULT_255_2_778
10
9.5097958
20
139.7808854
11
9.9428958
21
140.9106854
0
LINE
8
DEFAULT_255_2_778
10
9.9428958
20
140.9106854
11
10.0738958
21
140.9106854
0
LINE
8
DEFAULT_255_2_778
10
10.0738958
20
140.9106854
11
10.5077958
21
139.7808854
0
LINE
8
DEFAULT_255_2_778
10
10.5077958
20
139.7808854
11
10.3542958
21
139.7808854
0
LINE
8
DEFAULT_255_2_778
10
10.3542958
20
139.7808854
11
10.3540958
21
139.7808854
0
LINE
8
DEFAULT_255_2_778
10
10.0079958
20
140.7267854
11
9.8156958
21
140.1983854
0
LINE
8
DEFAULT_255_2_778
10
9.8156958
20
140.1983854
11
10.2013958
21
140.1983854
0
LINE
8
DEFAULT_255_2_778
10
10.2013958
20
140.1983854
11
10.0082958
21
140.7267854
0
LINE
8
DEFAULT_255_2_778
10
10.0082958
20
140.7267854
11
10.0079958
21
140.7267854
0
LINE
8
DEFAULT_255_2_778
10
20.5598011
20
138.1468708
11
20.5598011
21
139.8983708
0
LINE
8
DEFAULT_255_2_778
10
20.5598011
20
139.8983708
11
25.3776011
21
139.8983708
0
LINE
8
DEFAULT_255_2_778
10
28.8981584
20
139.8983708
11
34.1792584
21
139.8983708
0
LINE
8
DEFAULT_255_2_778
10
34.1792584
20
139.8983708
11
34.1792584
21
138.1468708
0
ARC
8
DEFAULT_255_2_778
10
21.1564964
20
126.0261965
40
0.2390325
50
267.6586574
51
309.1255963
0
ARC
8
DEFAULT_255_2_778
10
21.1874474
20
125.9729815
40
0.1784762
50
312.1990396
51
2.6597166
0
ARC
8
DEFAULT_255_2_778
10
21.1497916
20
125.9940398
40
0.2163173
50
356.6139944
51
34.6705992
0
ARC
8
DEFAULT_255_2_778
10
21.1913656
20
125.9992459
40
0.1802077
50
40.84043
51
91.2497039
0
ARC
8
DEFAULT_255_2_778
10
21.1672932
20
125.8126637
40
0.3672999
50
86.8564149
51
90.0408598
0
ARC
8
DEFAULT_255_2_778
10
21.1567511
20
125.9729779
40
0.2072408
50
87.1566718
51
132.0925807
0
ARC
8
DEFAULT_255_2_778
10
21.1472559
20
125.9940204
40
0.1853955
50
134.2747912
51
182.459795
0
ARC
8
DEFAULT_255_2_778
10
21.1052683
20
125.992186
40
0.2875022
50
131.0313238
51
181.2202277
0
ARC
8
DEFAULT_255_2_778
10
21.1537258
20
125.9380791
40
0.3601303
50
87.8826625
51
131.1958898
0
ARC
8
DEFAULT_255_2_778
10
21.1802215
20
125.9015574
40
0.3966255
50
62.1627031
51
91.9057925
0
ARC
8
DEFAULT_255_2_778
10
21.2256776
20
126.0054746
40
0.2836299
50
47.1052853
51
60.479795
0
ARC
8
DEFAULT_255_2_778
10
21.2075168
20
125.9965137
40
0.3026418
50
357.6153098
51
45.7410322
0
ARC
8
DEFAULT_255_2_778
10
21.0190021
20
125.9780927
40
0.4909289
50
359.9965957
51
0.6802499
0
ARC
8
DEFAULT_255_2_778
10
21.2622774
20
125.9815989
40
0.2476791
50
323.7556323
51
359.1821219
0
ARC
8
DEFAULT_255_2_778
10
21.2256501
20
126.0001221
40
0.2882488
50
291.5721537
51
325.090754
0
ARC
8
DEFAULT_255_2_778
10
21.2556353
20
125.4639551
40
0.278671
50
37.69833
51
74.1744866
0
ARC
8
DEFAULT_255_2_778
10
21.2568151
20
125.4761148
40
0.2704483
50
358.2092755
51
35.8125345
0
ARC
8
DEFAULT_255_2_778
10
21.219933
20
125.4533443
40
0.3075318
50
312.4325108
51
2.6687543
0
ARC
8
DEFAULT_255_2_778
10
21.1852434
20
125.5101899
40
0.3731118
50
268.0904083
51
310.4739903
0
ARC
8
DEFAULT_255_2_778
10
21.1678611
20
125.6990571
40
0.5617936
50
269.9969579
51
270.5047692
0
ARC
8
DEFAULT_255_2_778
10
21.1532974
20
125.5334175
40
0.3964205
50
235.9708777
51
272.1010855
0
ARC
8
DEFAULT_255_2_778
10
21.1235681
20
125.4738207
40
0.3305073
50
229.2968907
51
234.460255
0
ARC
8
DEFAULT_255_2_778
10
21.0927861
20
125.4401887
40
0.2849402
50
177.9334975
51
229.5790126
0
ARC
8
DEFAULT_255_2_778
10
21.1373812
20
125.4426024
40
0.1845174
50
177.5582336
51
226.9960457
0
ARC
8
DEFAULT_255_2_778
10
21.1567209
20
125.4767063
40
0.2228351
50
229.3409556
51
272.9351456
0
ARC
8
DEFAULT_255_2_778
10
21.1814899
20
125.4801531
40
0.226384
50
266.6170816
51
307.4000944
0
ARC
8
DEFAULT_255_2_778
10
21.2132569
20
125.4252424
40
0.1636689
50
310.2422248
51
314.4790619
0
ARC
8
DEFAULT_255_2_778
10
21.1752985
20
125.4503535
40
0.2083975
50
317.0889491
51
3.8272051
0
ARC
8
DEFAULT_255_2_778
10
21.1939984
20
125.4760016
40
0.1895965
50
356.4505031
51
47.400208
0
ARC
8
DEFAULT_255_2_778
10
21.169179
20
125.4215497
40
0.247178
50
51.7128498
51
88.7107062
0
ARC
8
DEFAULT_255_2_778
10
21.1408422
20
125.2053009
40
0.4646025
50
85.8158593
51
89.2490676
0
LINE
8
DEFAULT_255_2_778
10
21.0385313
20
125.6700635
11
21.0385313
21
125.7873635
0
LINE
8
DEFAULT_255_2_778
10
21.0385313
20
125.7873635
11
21.1467313
21
125.7873635
0
LINE
8
DEFAULT_255_2_778
10
20.9620313
20
125.9860635
11
20.8178313
21
125.9860635
0
LINE
8
DEFAULT_255_2_778
10
20.8080313
20
125.4504635
11
20.9530313
21
125.4504635
0
LINE
8
DEFAULT_255_2_778
10
21.1469313
20
125.6698635
11
21.0387313
21
125.6698635
0
LINE
8
DEFAULT_255_2_778
10
21.0387313
20
125.6698635
11
21.0385313
21
125.6700635
0
LINE
8
DEFAULT_255_2_778
10
28.9366188
20
126.2823854
11
28.9366188
21
126.2016854
0
LINE
8
DEFAULT_255_2_778
10
28.9366188
20
126.2016854
11
28.4667188
21
125.1525854
0
LINE
8
DEFAULT_255_2_778
10
28.4667188
20
125.1525854
11
28.3156188
21
125.1525854
0
LINE
8
DEFAULT_255_2_778
10
28.3156188
20
125.1525854
11
28.7839188
21
126.1643854
0
LINE
8
DEFAULT_255_2_778
10
28.7839188
20
126.1643854
11
28.1698188
21
126.1643854
0
LINE
8
DEFAULT_255_2_778
10
28.1698188
20
126.1643854
11
28.1698188
21
126.2823854
0
LINE
8
DEFAULT_255_2_778
10
28.1698188
20
126.2823854
11
28.9366188
21
126.2823854
0
LINE
8
DEFAULT_255_2_778
10
28.9366188
20
126.2823854
11
28.9366188
21
126.2823854
0
ARC
8
DEFAULT_255_2_778
10
20.2629351
20
130.195288
40
1.2915372
50
317.9389223
51
324.14781
0
ARC
8
DEFAULT_255_2_778
10
20.9063809
20
129.728411
40
0.496559
50
324.3271699
51
331.3666166
0
ARC
8
DEFAULT_255_2_778
10
21.1092714
20
129.6189782
40
0.2660431
50
331.1133044
51
359.7803597
0
ARC
8
DEFAULT_255_2_778
10
21.173539
20
129.6255742
40
0.2019172
50
357.8384105
51
42.8747704
0
ARC
8
DEFAULT_255_2_778
10
21.1867071
20
129.6313764
40
0.1883781
50
44.3067162
51
92.6149708
0
ARC
8
DEFAULT_255_2_778
10
21.164743
20
129.5962917
40
0.2236666
50
86.5731364
51
133.4535965
0
ARC
8
DEFAULT_255_2_778
10
21.1831765
20
129.6029867
40
0.2321822
50
137.8964882
51
183.4391719
0
ARC
8
DEFAULT_255_2_778
10
21.1398171
20
129.602366
40
0.3328707
50
134.1373055
51
182.2912146
0
ARC
8
DEFAULT_255_2_778
10
21.1555107
20
129.5703538
40
0.3669395
50
89.358112
51
132.4148057
0
ARC
8
DEFAULT_255_2_778
10
21.1778129
20
129.3629085
40
0.5746498
50
89.9900639
51
91.8140859
0
ARC
8
DEFAULT_255_2_778
10
21.1914018
20
129.5426607
40
0.395128
50
61.2950571
51
91.9564036
0
ARC
8
DEFAULT_255_2_778
10
21.2351324
20
129.6404563
40
0.2884757
50
48.0661859
51
59.5837609
0
ARC
8
DEFAULT_255_2_778
10
21.238595
20
129.6469138
40
0.2813632
50
357.6054552
51
47.7119564
0
ARC
8
DEFAULT_255_2_778
10
21.1408154
20
129.6479204
40
0.379112
50
331.1269887
51
358.0708853
0
ARC
8
DEFAULT_255_2_778
10
20.6736892
20
129.8875674
40
0.9040256
50
319.6075411
51
332.1223432
0
ARC
8
DEFAULT_255_2_778
10
20.1861953
20
130.2778592
40
1.528343
50
317.1242581
51
320.3067342
0
LINE
8
DEFAULT_255_2_778
10
21.5724125
20
128.9096583
11
21.5724125
21
128.7924583
0
LINE
8
DEFAULT_255_2_778
10
21.5724125
20
128.7924583
11
20.8292125
21
128.7924583
0
LINE
8
DEFAULT_255_2_778
10
20.8292125
20
128.7924583
11
20.8292125
21
128.8956583
0
LINE
8
DEFAULT_255_2_778
10
20.8292125
20
128.8956583
11
21.2218125
21
129.3300583
0
LINE
8
DEFAULT_255_2_778
10
20.9514125
20
129.5890583
11
20.8072125
21
129.5890583
0
LINE
8
DEFAULT_255_2_778
10
21.3062125
20
129.2379583
11
21.0022125
21
128.9099583
0
LINE
8
DEFAULT_255_2_778
10
21.0022125
20
128.9099583
11
21.5718125
21
128.9099583
0
LINE
8
DEFAULT_255_2_778
10
21.5718125
20
128.9099583
11
21.5724125
21
128.9096583
0
LINE
8
DEFAULT_255_2_778
10
21.4168479
20
133.4535635
11
21.4168479
21
132.3185635
0
LINE
8
DEFAULT_255_2_778
10
21.4168479
20
132.3185635
11
21.2718479
21
132.3185635
0
LINE
8
DEFAULT_255_2_778
10
21.2718479
20
132.3185635
11
21.2718479
21
133.2752635
0
LINE
8
DEFAULT_255_2_778
10
21.2718479
20
133.2752635
11
20.9813479
21
133.1688635
0
LINE
8
DEFAULT_255_2_778
10
20.9813479
20
133.1688635
11
20.9813479
21
133.2993635
0
LINE
8
DEFAULT_255_2_778
10
20.9813479
20
133.2993635
11
21.3943479
21
133.4538635
0
LINE
8
DEFAULT_255_2_778
10
21.3943479
20
133.4538635
11
21.4168479
21
133.4538635
0
LINE
8
DEFAULT_255_2_778
10
21.4168479
20
133.4538635
11
21.4168479
21
133.4535635
0
ARC
8
DEFAULT_255_2_778
10
20.6429419
20
136.655143
40
1.0115205
50
348.8531957
51
0.7017289
0
ARC
8
DEFAULT_255_2_778
10
21.1952814
20
136.5406753
40
0.4475057
50
326.369508
51
349.5609794
0
ARC
8
DEFAULT_255_2_778
10
21.3281995
20
136.4682669
40
0.2970311
50
270.0338382
51
323.798241
0
ARC
8
DEFAULT_255_2_778
10
21.2978302
20
136.6862898
40
0.5159588
50
269.9618255
51
273.3938901
0
ARC
8
DEFAULT_255_2_778
10
21.2837501
20
136.5213624
40
0.3512998
50
238.0735162
51
272.2409187
0
ARC
8
DEFAULT_255_2_778
10
21.2505712
20
136.4502693
40
0.2735779
50
215.8016672
51
236.0968711
0
ARC
8
DEFAULT_255_2_778
10
21.4040436
20
136.5476533
40
0.4551473
50
190.0314997
51
214.4425585
0
ARC
8
DEFAULT_255_2_778
10
21.9008202
20
136.6519951
40
0.9626411
50
180.2240215
51
190.9965475
0
ARC
8
DEFAULT_255_2_778
10
21.9253415
20
136.8519246
40
0.9872304
50
168.7166274
51
180.7076853
0
ARC
8
DEFAULT_255_2_778
10
21.3897899
20
136.9642041
40
0.4400937
50
146.0580946
51
169.4095666
0
ARC
8
DEFAULT_255_2_778
10
21.2629265
20
137.0326312
40
0.2969741
50
90.683831
51
143.3431084
0
ARC
8
DEFAULT_255_2_778
10
21.2954057
20
136.8100598
40
0.5207718
50
89.9471064
51
93.9665057
0
ARC
8
DEFAULT_255_2_778
10
21.3092726
20
136.9640153
40
0.3670601
50
60.694034
51
92.0899579
0
ARC
8
DEFAULT_255_2_778
10
21.3511024
20
137.0564411
40
0.266133
50
36.3363395
51
58.8069834
0
ARC
8
DEFAULT_255_2_778
10
21.2104238
20
136.967516
40
0.4323061
50
10.2119061
51
34.7826154
0
ARC
8
DEFAULT_255_2_778
10
20.6779313
20
136.8549592
40
0.9764556
50
359.9338147
51
11.1724149
0
ARC
8
DEFAULT_255_2_778
10
20.6921139
20
136.8761834
40
0.8181613
50
359.1559602
51
10.8280238
0
ARC
8
DEFAULT_255_2_778
10
21.187696
20
136.9730084
40
0.3132195
50
10.4621231
51
30.0239048
0
ARC
8
DEFAULT_255_2_778
10
21.3084499
20
137.0366545
40
0.1769023
50
31.7455299
51
93.975127
0
ARC
8
DEFAULT_255_2_778
10
21.284056
20
137.0384029
40
0.1751489
50
86.0286259
51
148.4565241
0
ARC
8
DEFAULT_255_2_778
10
21.4539298
20
136.9524693
40
0.3652132
50
150.9097357
51
173.5470526
0
ARC
8
DEFAULT_255_2_778
10
21.9573084
20
136.8729792
40
0.8746237
50
172.0786243
51
179.8852267
0
ARC
8
DEFAULT_255_2_778
10
21.8913783
20
136.6333602
40
0.8087761
50
179.1731681
51
191.1092606
0
ARC
8
DEFAULT_255_2_778
10
21.4211649
20
136.5394124
40
0.3292758
50
190.8332213
51
210.0287946
0
ARC
8
DEFAULT_255_2_778
10
21.2887765
20
136.464056
40
0.1769492
50
210.3558861
51
272.8862587
0
ARC
8
DEFAULT_255_2_778
10
21.3079376
20
136.4613648
40
0.1743352
50
266.6289901
51
328.2515609
0
ARC
8
DEFAULT_255_2_778
10
21.1510982
20
136.5454705
40
0.3521339
50
330.0427674
51
352.686127
0
ARC
8
DEFAULT_255_2_778
10
20.6328473
20
136.6336268
40
0.8776533
50
351.2848025
51
359.6738703
0
LINE
8
DEFAULT_255_2_778
10
21.6543865
20
136.8538312
11
21.6543865
21
136.6675312
0
LINE
8
DEFAULT_255_2_778
10
20.9381865
20
136.6482312
11
20.9381865
21
136.8397312
0
LINE
8
DEFAULT_255_2_778
10
21.6543865
20
136.8538312
11
21.6543865
21
136.8538312
0
LINE
8
DEFAULT_255_2_778
10
21.5101865
20
136.6289312
11
21.5101865
21
136.8641312
0
LINE
8
DEFAULT_255_2_778
10
21.0826865
20
136.8747312
11
21.0826865
21
136.6450312
0
LINE
8
DEFAULT_255_2_778
10
21.5104865
20
136.6286312
11
21.5101865
21
136.6289312
0
ARC
8
DEFAULT_255_2_778
10
27.1426842
20
140.143048
40
0.5832702
50
73.0526851
51
91.2224461
0
ARC
8
DEFAULT_255_2_778
10
27.2230639
20
140.4170906
40
0.2977133
50
51.5624697
51
72.4768146
0
ARC
8
DEFAULT_255_2_778
10
27.2333927
20
140.4473974
40
0.2677693
50
358.2424045
51
49.2616027
0
ARC
8
DEFAULT_255_2_778
10
27.0406249
20
140.425457
40
0.4606157
50
359.9910922
51
1.7078206
0
ARC
8
DEFAULT_255_2_778
10
27.2729189
20
140.4219349
40
0.2283478
50
323.2739849
51
0.865817
0
ARC
8
DEFAULT_255_2_778
10
27.2222392
20
140.4631344
40
0.2936172
50
292.1496112
51
322.7440493
0
ARC
8
DEFAULT_255_2_778
10
27.2666899
20
139.9352752
40
0.2643467
50
36.8433936
51
75.4857688
0
ARC
8
DEFAULT_255_2_778
10
27.253333
20
139.9297091
40
0.2783963
50
358.5543235
51
36.1117732
0
ARC
8
DEFAULT_255_2_778
10
27.2305786
20
139.9073044
40
0.3014547
50
312.115061
51
2.9246586
0
ARC
8
DEFAULT_255_2_778
10
27.199697
20
139.9664367
40
0.3664119
50
274.459541
51
309.4953436
0
ARC
8
DEFAULT_255_2_778
10
27.1548413
20
140.2470078
40
0.650025
50
269.8412847
51
276.478818
0
ARC
8
DEFAULT_255_2_778
10
27.1696032
20
139.9557773
40
0.2380672
50
266.782322
51
309.5025034
0
ARC
8
DEFAULT_255_2_778
10
27.1921853
20
139.9109144
40
0.1894127
50
312.8662119
51
2.9872567
0
ARC
8
DEFAULT_255_2_778
10
27.1775342
20
139.9342468
40
0.2042505
50
356.2211065
51
39.9886394
0
ARC
8
DEFAULT_255_2_778
10
27.1905179
20
139.9165136
40
0.2068644
50
46.0742141
51
88.8759085
0
ARC
8
DEFAULT_255_2_778
10
27.1593847
20
139.69638
40
0.428406
50
85.2881366
51
90.0995172
0
ARC
8
DEFAULT_255_2_778
10
27.1472271
20
140.4807638
40
0.2369919
50
267.052457
51
307.6347982
0
ARC
8
DEFAULT_255_2_778
10
27.1873717
20
140.418664
40
0.1634156
50
309.7840542
51
2.4274532
0
ARC
8
DEFAULT_255_2_778
10
27.1896184
20
140.4396433
40
0.1616348
50
355.0104942
51
48.1727734
0
ARC
8
DEFAULT_255_2_778
10
27.2189213
20
140.4615685
40
0.1259621
50
51.4558672
51
52.1906364
0
ARC
8
DEFAULT_255_2_778
10
27.1649194
20
140.3703685
40
0.2314994
50
55.4704019
51
88.3498731
0
ARC
8
DEFAULT_255_2_778
10
27.131263
20
140.0990854
40
0.504301
50
85.4138667
51
90.1161507
0
LINE
8
DEFAULT_255_2_778
10
27.1527406
20
139.5963854
11
26.7593406
21
139.5963854
0
LINE
8
DEFAULT_255_2_778
10
26.7593406
20
139.5963854
11
26.7593406
21
140.7261854
0
LINE
8
DEFAULT_255_2_778
10
26.7593406
20
140.7261854
11
27.1302406
21
140.7261854
0
LINE
8
DEFAULT_255_2_778
10
27.1530406
20
139.5969854
11
27.1527406
21
139.5963854
0
LINE
8
DEFAULT_255_2_778
10
27.1583406
20
140.1247854
11
26.9091406
21
140.1247854
0
LINE
8
DEFAULT_255_2_778
10
26.9091406
20
140.1247854
11
26.9091406
21
139.7180854
0
LINE
8
DEFAULT_255_2_778
10
26.9091406
20
139.7180854
11
27.1562406
21
139.7180854
0
LINE
8
DEFAULT_255_2_778
10
27.1586406
20
140.1247854
11
27.1583406
21
140.1247854
0
LINE
8
DEFAULT_255_2_778
10
26.9091406
20
140.6033854
11
26.9091406
21
140.2440854
0
LINE
8
DEFAULT_255_2_778
10
26.9091406
20
140.2440854
11
27.1350406
21
140.2440854
0
LINE
8
DEFAULT_255_2_778
10
27.1302406
20
140.6033854
11
26.9091406
21
140.6033854
0
LINE
8
DEFAULT_255_2_778
10
26.9091406
20
140.6033854
11
26.9091406
21
140.6033854
0
ARC
8
DEFAULT_255_2_778
10
28.7362185
20
129.39988
40
0.4011669
50
89.0139875
51
123.7801706
0
ARC
8
DEFAULT_255_2_778
10
28.7029999
20
129.4655711
40
0.3282172
50
125.3364859
51
133.970675
0
ARC
8
DEFAULT_255_2_778
10
28.7550476
20
129.4257868
40
0.3931091
50
135.4045207
51
173.4116982
0
ARC
8
DEFAULT_255_2_778
10
28.9867895
20
129.3754594
40
0.6295303
50
171.2809182
51
174.930482
0
ARC
8
DEFAULT_255_2_778
10
28.5896144
20
129.2252986
40
0.3085444
50
87.2492461
51
138.1666045
0
ARC
8
DEFAULT_255_2_778
10
28.6161396
20
129.2388295
40
0.2948909
50
40.3065162
51
92.2772981
0
ARC
8
DEFAULT_255_2_778
10
28.5339817
20
129.1804367
40
0.3954109
50
358.8478608
51
39.05795
0
ARC
8
DEFAULT_255_2_778
10
28.327863
20
129.1610139
40
0.601559
50
359.9974809
51
1.092731
0
ARC
8
DEFAULT_255_2_778
10
28.5005743
20
129.1470721
40
0.4290733
50
330.0188811
51
1.8584993
0
ARC
8
DEFAULT_255_2_778
10
28.5850536
20
129.1086742
40
0.3368294
50
317.6087935
51
328.4953202
0
ARC
8
DEFAULT_255_2_778
10
28.5926637
20
129.1056326
40
0.3291709
50
267.4505949
51
317.1067468
0
ARC
8
DEFAULT_255_2_778
10
28.569594
20
129.1011147
40
0.3244367
50
217.9964253
51
271.4885426
0
ARC
8
DEFAULT_255_2_778
10
28.6877278
20
129.1929429
40
0.4740627
50
181.5278073
51
217.9529716
0
ARC
8
DEFAULT_255_2_778
10
28.9299028
20
129.2219818
40
0.717281
50
179.9675972
51
183.331113
0
ARC
8
DEFAULT_255_2_778
10
29.2728067
20
129.2900878
40
1.0602608
50
167.0332303
51
180.6863328
0
ARC
8
DEFAULT_255_2_778
10
28.7932616
20
129.405193
40
0.5671345
50
142.0215885
51
167.4946115
0
ARC
8
DEFAULT_255_2_778
10
28.6966207
20
129.4621108
40
0.4561668
50
95.9325682
51
140.1869363
0
ARC
8
DEFAULT_255_2_778
10
28.7532299
20
129.1729402
40
0.7501049
50
90.7110019
51
97.9508868
0
ARC
8
DEFAULT_255_2_778
10
28.5797736
20
129.1834316
40
0.2302567
50
89.8386919
51
126.0954755
0
ARC
8
DEFAULT_255_2_778
10
28.5735479
20
129.1793533
40
0.2300046
50
124.2434684
51
159.8493547
0
ARC
8
DEFAULT_255_2_778
10
28.7550009
20
129.1928104
40
0.3975975
50
178.1007745
51
206.8124011
0
ARC
8
DEFAULT_255_2_778
10
28.6433646
20
129.1459582
40
0.2769613
50
208.5795391
51
216.5328867
0
ARC
8
DEFAULT_255_2_778
10
28.579323
20
129.0852475
40
0.1896627
50
213.311166
51
269.6975568
0
ARC
8
DEFAULT_255_2_778
10
28.5859016
20
129.0790207
40
0.1835898
50
267.6338052
51
322.4327573
0
ARC
8
DEFAULT_255_2_778
10
28.4929651
20
129.1402246
40
0.294683
50
324.017599
51
2.696384
0
ARC
8
DEFAULT_255_2_778
10
28.4928938
20
129.1680585
40
0.2947594
50
357.2832673
51
36.2102112
0
ARC
8
DEFAULT_255_2_778
10
28.5859477
20
129.2320737
40
0.1818917
50
37.2562409
51
91.6778686
0
LINE
8
DEFAULT_255_2_778
10
28.7439219
20
129.9226875
11
28.7695219
21
129.9226875
0
LINE
8
DEFAULT_255_2_778
10
28.7695219
20
129.9226875
11
28.7695219
21
129.8009875
0
LINE
8
DEFAULT_255_2_778
10
28.7695219
20
129.8009875
11
28.7431219
21
129.8009875
0
LINE
8
DEFAULT_255_2_778
10
28.2126219
20
129.2223875
11
28.2126219
21
129.2773875
0
LINE
8
DEFAULT_255_2_778
10
28.7439219
20
129.9229875
11
28.7439219
21
129.9226875
0
LINE
8
DEFAULT_255_2_778
10
28.3576219
20
129.2585875
11
28.3576219
21
129.2059875
0
LINE
8
DEFAULT_255_2_778
10
28.5806219
20
129.4138875
11
28.5804219
21
129.4136875
0
ARC
8
DEFAULT_255_2_778
10
28.5990184
20
132.5756445
40
0.3670671
50
89.023513
51
119.9298836
0
ARC
8
DEFAULT_255_2_778
10
28.6196512
20
132.6289841
40
0.3140036
50
42.3606977
51
92.6243068
0
ARC
8
DEFAULT_255_2_778
10
28.5636223
20
132.5956378
40
0.3781003
50
1.7434394
51
40.3733835
0
ARC
8
DEFAULT_255_2_778
10
28.3314494
20
132.5653914
40
0.6115248
50
359.9500573
51
3.9147187
0
ARC
8
DEFAULT_255_2_778
10
28.5143243
20
132.5515108
40
0.4288574
50
332.2908736
51
1.7835346
0
ARC
8
DEFAULT_255_2_778
10
28.6177368
20
132.5068156
40
0.3166363
50
316.6994377
51
330.7497881
0
ARC
8
DEFAULT_255_2_778
10
28.6094113
20
132.5250763
40
0.3353047
50
270.0428124
51
315.404128
0
ARC
8
DEFAULT_255_2_778
10
28.583791
20
132.7349928
40
0.5458345
50
269.9772192
51
272.7166604
0
ARC
8
DEFAULT_255_2_778
10
28.568507
20
132.5488332
40
0.3599904
50
230.2000628
51
272.3987502
0
ARC
8
DEFAULT_255_2_778
10
28.5601588
20
132.5172116
40
0.3306415
50
182.6614846
51
227.8032393
0
ARC
8
DEFAULT_255_2_778
10
28.5927181
20
132.5196056
40
0.2272383
50
184.4793443
51
226.2130076
0
ARC
8
DEFAULT_255_2_778
10
28.573184
20
132.5225853
40
0.2164765
50
230.495185
51
272.7510182
0
ARC
8
DEFAULT_255_2_778
10
28.5931027
20
132.5005665
40
0.1944418
50
267.191074
51
319.6438783
0
ARC
8
DEFAULT_255_2_778
10
28.5266763
20
132.5406373
40
0.2712954
50
322.2801113
51
0.1066125
0
ARC
8
DEFAULT_255_2_778
10
28.3215681
20
132.5630324
40
0.4769058
50
357.3691627
51
0.0271432
0
ARC
8
DEFAULT_255_2_778
10
28.5369755
20
132.5758465
40
0.2618013
50
357.2439844
51
40.3233693
0
ARC
8
DEFAULT_255_2_778
10
28.5805323
20
132.6032735
40
0.2109709
50
42.2995503
51
92.4064531
0
ARC
8
DEFAULT_255_2_778
10
28.5587446
20
132.5713882
40
0.2430143
50
86.9501987
51
122.8335792
0
ARC
8
DEFAULT_255_2_778
10
28.5216742
20
132.6440792
40
0.1620471
50
125.7570427
51
127.2562587
0
LINE
8
DEFAULT_255_2_778
10
28.385674
20
132.7415583
11
28.270374
21
132.7709583
0
LINE
8
DEFAULT_255_2_778
10
28.270374
20
132.7709583
11
28.328074
21
133.3342583
0
LINE
8
DEFAULT_255_2_778
10
28.328074
20
133.3342583
11
28.909274
21
133.3342583
0
LINE
8
DEFAULT_255_2_778
10
28.909274
20
133.3342583
11
28.909274
21
133.2016583
0
LINE
8
DEFAULT_255_2_778
10
28.909274
20
133.2016583
11
28.450274
21
133.2016583
0
LINE
8
DEFAULT_255_2_778
10
28.450274
20
133.2016583
11
28.415874
21
132.8937583
0
LINE
8
DEFAULT_255_2_778
10
28.229874
20
132.5018583
11
28.366174
21
132.5018583
0
LINE
8
DEFAULT_255_2_778
10
28.423574
20
132.7730583
11
28.385474
21
132.7421583
0
LINE
8
DEFAULT_255_2_778
10
28.385474
20
132.7421583
11
28.385674
21
132.7415583
0
LINE
8
DEFAULT_255_2_778
10
28.8127573
20
137.3154854
11
28.8127573
21
136.5650854
0
LINE
8
DEFAULT_255_2_778
10
28.8127573
20
136.5650854
11
28.9701573
21
136.5650854
0
LINE
8
DEFAULT_255_2_778
10
28.9701573
20
136.5650854
11
28.9701573
21
136.4478854
0
LINE
8
DEFAULT_255_2_778
10
28.9701573
20
136.4478854
11
28.8127573
21
136.4478854
0
LINE
8
DEFAULT_255_2_778
10
28.8127573
20
136.4478854
11
28.8127573
21
136.1856854
0
LINE
8
DEFAULT_255_2_778
10
28.8127573
20
136.1856854
11
28.6677573
21
136.1856854
0
LINE
8
DEFAULT_255_2_778
10
28.6677573
20
136.1856854
11
28.6677573
21
136.4478854
0
LINE
8
DEFAULT_255_2_778
10
28.6677573
20
136.4478854
11
28.1512573
21
136.4478854
0
LINE
8
DEFAULT_255_2_778
10
28.1512573
20
136.4478854
11
28.1512573
21
136.5325854
0
LINE
8
DEFAULT_255_2_778
10
28.1512573
20
136.5325854
11
28.6592573
21
137.3154854
0
LINE
8
DEFAULT_255_2_778
10
28.6592573
20
137.3154854
11
28.8127573
21
137.3154854
0
LINE
8
DEFAULT_255_2_778
10
28.8127573
20
137.3154854
11
28.8127573
21
137.3154854
0
LINE
8
DEFAULT_255_2_778
10
28.6505573
20
137.0881854
11
28.3147573
21
136.5653854
0
LINE
8
DEFAULT_255_2_778
10
28.3147573
20
136.5653854
11
28.6677573
21
136.5653854
0
LINE
8
DEFAULT_255_2_778
10
28.6677573
20
136.5653854
11
28.6677573
21
137.1193854
0
LINE
8
DEFAULT_255_2_778
10
28.6677573
20
137.1193854
11
28.6505573
21
137.0884854
0
LINE
8
DEFAULT_255_2_778
10
28.6505573
20
137.0884854
11
28.6505573
21
137.0881854
0
LINE
8
DEFAULT_255_2_778
10
9.696072
20
100.8741735
11
9.696072
21
101.7237735
0
LINE
8
DEFAULT_255_2_778
10
9.696072
20
101.7237735
11
3.911972
21
101.7237735
0
LINE
8
DEFAULT_255_2_778
10
3.911972
20
101.7237735
11
3.911972
21
65.1750735
0
LINE
8
DEFAULT_255_2_778
10
3.911972
20
65.1750735
11
7.861172
21
65.1750735
0
LINE
8
DEFAULT_255_2_778
10
7.8612146
20
70.3391
11
3.9120146
21
70.3391
0
ARC
8
DEFAULT_255_2_778
10
3.9120038
20
74.3118711
40
0.2179975
50
89.9993524
51
180.0006476
0
ARC
8
DEFAULT_255_2_778
10
3.9120088
20
74.3118711
40
0.2179975
50
359.9993524
51
90.0006476
0
ARC
8
DEFAULT_255_2_778
10
3.9120088
20
74.3118662
40
0.2179975
50
269.9993524
51
0.0006476
0
ARC
8
DEFAULT_255_2_778
10
3.9120038
20
74.3118662
40
0.2179975
50
179.9993524
51
270.0006476
0
ARC
8
DEFAULT_255_2_778
10
3.9120038
20
70.3391711
40
0.2179975
50
89.9993524
51
180.0006476
0
ARC
8
DEFAULT_255_2_778
10
3.9120088
20
70.3391711
40
0.2179975
50
359.9993524
51
90.0006476
0
ARC
8
DEFAULT_255_2_778
10
3.9120088
20
70.3391662
40
0.2179975
50
269.9993524
51
0.0006476
0
ARC
8
DEFAULT_255_2_778
10
3.9120038
20
70.3391662
40
0.2179975
50
179.9993524
51
270.0006476
0
LINE
8
DEFAULT_255_2_778
10
3.6940063
20
74.3118686
11
3.6940063
21
74.3118686
0
LINE
8
DEFAULT_255_2_778
10
3.6940063
20
70.3391686
11
3.6940063
21
70.3391686
0
LINE
8
DEFAULT_255_2_778
10
7.8612063
20
74.3118686
11
3.9120063
21
74.3118686
0
LINE
8
DEFAULT_255_2_778
10
7.8612063
20
79.4762686
11
3.9120063
21
79.4762686
0
ARC
8
DEFAULT_255_2_778
10
3.9120038
20
83.4492711
40
0.2179975
50
89.9993524
51
180.0006476
0
ARC
8
DEFAULT_255_2_778
10
3.9120088
20
83.4492711
40
0.2179975
50
359.9993524
51
90.0006476
0
ARC
8
DEFAULT_255_2_778
10
3.9120088
20
83.4492662
40
0.2179975
50
269.9993524
51
0.0006476
0
ARC
8
DEFAULT_255_2_778
10
3.9120038
20
83.4492662
40
0.2179975
50
179.9993524
51
270.0006476
0
ARC
8
DEFAULT_255_2_778
10
3.9120038
20
79.4765711
40
0.2179975
50
89.9993524
51
180.0006476
0
ARC
8
DEFAULT_255_2_778
10
3.9120088
20
79.4765711
40
0.2179975
50
359.9993524
51
90.0006476
0
ARC
8
DEFAULT_255_2_778
10
3.9120088
20
79.4765662
40
0.2179975
50
269.9993524
51
0.0006476
0
ARC
8
DEFAULT_255_2_778
10
3.9120038
20
79.4765662
40
0.2179975
50
179.9993524
51
270.0006476
0
LINE
8
DEFAULT_255_2_778
10
3.6940063
20
83.4492686
11
3.6940063
21
83.4492686
0
LINE
8
DEFAULT_255_2_778
10
3.6940063
20
79.4765686
11
3.6940063
21
79.4765686
0
LINE
8
DEFAULT_255_2_778
10
7.8612063
20
83.4492686
11
3.9120063
21
83.4492686
0
LINE
8
DEFAULT_255_2_778
10
7.8612063
20
88.6136686
11
3.9120063
21
88.6136686
0
LINE
8
DEFAULT_255_2_778
10
19.8697386
20
65.1750687
11
12.4008386
21
65.1750687
0
LINE
8
DEFAULT_255_2_778
10
19.8697386
20
70.3391687
11
12.4008386
21
70.3391687
0
LINE
8
DEFAULT_255_2_778
10
19.8697386
20
88.6136
11
12.4008386
21
88.6136
0
LINE
8
DEFAULT_255_2_778
10
19.8697386
20
79.4762
11
12.4008386
21
79.4762
0
LINE
8
DEFAULT_255_2_778
10
11.0665292
20
101.7237146
11
11.0665292
21
103.4387146
0
LINE
8
DEFAULT_255_2_778
10
9.6960292
20
101.7237146
11
9.6960292
21
102.5732146
0
LINE
8
DEFAULT_255_2_778
10
15.7909979
20
94.8498292
11
15.7909979
21
94.0902292
0
LINE
8
DEFAULT_255_2_778
10
15.7909979
20
94.0902292
11
15.9502979
21
94.0902292
0
LINE
8
DEFAULT_255_2_778
10
15.9502979
20
94.0902292
11
15.9502979
21
93.9717292
0
LINE
8
DEFAULT_255_2_778
10
15.9502979
20
93.9717292
11
15.7909979
21
93.9717292
0
LINE
8
DEFAULT_255_2_778
10
15.7909979
20
93.9717292
11
15.7909979
21
93.7060292
0
LINE
8
DEFAULT_255_2_778
10
15.7909979
20
93.7060292
11
15.6441979
21
93.7060292
0
LINE
8
DEFAULT_255_2_778
10
15.6441979
20
93.7060292
11
15.6441979
21
93.9717292
0
LINE
8
DEFAULT_255_2_778
10
15.6441979
20
93.9717292
11
15.1210979
21
93.9717292
0
LINE
8
DEFAULT_255_2_778
10
15.1210979
20
93.9717292
11
15.1210979
21
94.0574292
0
LINE
8
DEFAULT_255_2_778
10
15.1210979
20
94.0574292
11
15.6353979
21
94.8501292
0
LINE
8
DEFAULT_255_2_778
10
15.6353979
20
94.8501292
11
15.7907979
21
94.8501292
0
LINE
8
DEFAULT_255_2_778
10
15.7907979
20
94.8501292
11
15.7909979
21
94.8498292
0
LINE
8
DEFAULT_255_2_778
10
15.6269979
20
94.6196292
11
15.2869979
21
94.0902292
0
LINE
8
DEFAULT_255_2_778
10
15.2869979
20
94.0902292
11
15.6443979
21
94.0902292
0
LINE
8
DEFAULT_255_2_778
10
15.6443979
20
94.0902292
11
15.6443979
21
94.6511292
0
LINE
8
DEFAULT_255_2_778
10
15.6443979
20
94.6511292
11
15.6269979
21
94.6196292
0
LINE
8
DEFAULT_255_2_778
10
15.6269979
20
94.6196292
11
15.6269979
21
94.6196292
0
LINE
8
DEFAULT_255_2_778
10
15.9166563
20
67.4379969
11
15.9166563
21
67.3561969
0
LINE
8
DEFAULT_255_2_778
10
15.9166563
20
67.3561969
11
15.4409563
21
66.2941969
0
LINE
8
DEFAULT_255_2_778
10
15.4409563
20
66.2941969
11
15.2879563
21
66.2941969
0
LINE
8
DEFAULT_255_2_778
10
15.2879563
20
66.2941969
11
15.7621563
21
67.3186969
0
LINE
8
DEFAULT_255_2_778
10
15.7621563
20
67.3186969
11
15.1403563
21
67.3186969
0
LINE
8
DEFAULT_255_2_778
10
15.1403563
20
67.3186969
11
15.1403563
21
67.4379969
0
LINE
8
DEFAULT_255_2_778
10
15.1403563
20
67.4379969
11
15.9166563
21
67.4379969
0
LINE
8
DEFAULT_255_2_778
10
15.9166563
20
67.4379969
11
15.9166563
21
67.4379969
0
ARC
8
DEFAULT_255_2_778
10
15.5068605
20
72.342444
40
0.2414368
50
267.6672536
51
309.2237981
0
ARC
8
DEFAULT_255_2_778
10
15.5382116
20
72.2893325
40
0.1807067
50
312.1731643
51
2.5928319
0
ARC
8
DEFAULT_255_2_778
10
15.5000634
20
72.3104166
40
0.2190507
50
356.6214363
51
34.6204727
0
ARC
8
DEFAULT_255_2_778
10
15.5422874
20
72.3157824
40
0.1823083
50
40.7838399
51
91.252833
0
ARC
8
DEFAULT_255_2_778
10
15.5179058
20
72.127116
40
0.3714913
50
86.8527794
51
90.0420191
0
ARC
8
DEFAULT_255_2_778
10
15.5070624
20
72.2891821
40
0.2096918
50
87.110392
51
132.0433452
0
ARC
8
DEFAULT_255_2_778
10
15.4977769
20
72.310585
40
0.1877261
50
134.3139649
51
182.5272597
0
ARC
8
DEFAULT_255_2_778
10
15.4554681
20
72.3087231
40
0.2913054
50
131.109866
51
181.2620125
0
ARC
8
DEFAULT_255_2_778
10
15.5039352
20
72.2542447
40
0.3642203
50
87.8446321
51
131.2196188
0
ARC
8
DEFAULT_255_2_778
10
15.530955
20
72.2167293
40
0.401699
50
62.1768115
51
91.9004716
0
ARC
8
DEFAULT_255_2_778
10
15.5768472
20
72.3217124
40
0.287556
50
47.143279
51
60.5001367
0
ARC
8
DEFAULT_255_2_778
10
15.5591042
20
72.3132632
40
0.3059041
50
357.798902
51
45.7833941
0
ARC
8
DEFAULT_255_2_778
10
15.3701814
20
72.2944393
40
0.4946518
50
359.9962909
51
0.8195393
0
ARC
8
DEFAULT_255_2_778
10
15.6145082
20
72.2978975
40
0.2503495
50
323.7624496
51
359.2011991
0
ARC
8
DEFAULT_255_2_778
10
15.5763367
20
72.3176723
40
0.2929019
50
291.6362562
51
325.0564864
0
ARC
8
DEFAULT_255_2_778
10
15.6072485
20
71.7738935
40
0.2822442
50
37.6778855
51
74.1503405
0
ARC
8
DEFAULT_255_2_778
10
15.6085179
20
71.7862227
40
0.273851
50
358.1971607
51
35.798283
0
ARC
8
DEFAULT_255_2_778
10
15.5716339
20
71.7630832
40
0.3109389
50
312.383195
51
2.6772793
0
ARC
8
DEFAULT_255_2_778
10
15.5360002
20
71.8208957
40
0.3778742
50
268.099995
51
310.4648162
0
ARC
8
DEFAULT_255_2_778
10
15.5184179
20
72.018432
40
0.5752249
50
270.001536
51
270.5033897
0
ARC
8
DEFAULT_255_2_778
10
15.5037976
20
71.8433651
40
0.4004254
50
235.7689573
51
272.094651
0
ARC
8
DEFAULT_255_2_778
10
15.4746975
20
71.7851123
40
0.3360067
50
229.2651871
51
234.2836035
0
ARC
8
DEFAULT_255_2_778
10
15.4429838
20
71.7504279
40
0.2890333
50
177.961864
51
229.5421295
0
ARC
8
DEFAULT_255_2_778
10
15.48724
20
71.7527461
40
0.1864766
50
177.5531558
51
227.071437
0
ARC
8
DEFAULT_255_2_778
10
15.5073449
20
71.7875586
40
0.2258386
50
229.3526626
51
272.8904924
0
ARC
8
DEFAULT_255_2_778
10
15.5321153
20
71.7912745
40
0.2296575
50
266.659539
51
307.0407642
0
ARC
8
DEFAULT_255_2_778
10
15.564369
20
71.7349684
40
0.1654863
50
309.8715229
51
314.535628
0
ARC
8
DEFAULT_255_2_778
10
15.5251036
20
71.7609849
40
0.2117944
50
317.1720678
51
3.7961862
0
ARC
8
DEFAULT_255_2_778
10
15.5448471
20
71.7869569
40
0.1919585
50
356.4309533
51
47.3780581
0
ARC
8
DEFAULT_255_2_778
10
15.5197919
20
71.731962
40
0.2501001
50
51.6898854
51
88.7013919
0
ARC
8
DEFAULT_255_2_778
10
15.4912564
20
71.5142081
40
0.4690385
50
85.8181308
51
89.2576449
0
LINE
8
DEFAULT_255_2_778
10
15.3875333
20
71.9827073
11
15.3875333
21
72.1012073
0
LINE
8
DEFAULT_255_2_778
10
15.3875333
20
72.1012073
11
15.4970333
21
72.1012073
0
LINE
8
DEFAULT_255_2_778
10
15.3102333
20
72.3023073
11
15.1642333
21
72.3023073
0
LINE
8
DEFAULT_255_2_778
10
15.1541333
20
71.7607073
11
15.3009333
21
71.7607073
0
LINE
8
DEFAULT_255_2_778
10
15.4973333
20
71.9832073
11
15.3877333
21
71.9832073
0
LINE
8
DEFAULT_255_2_778
10
15.3877333
20
71.9832073
11
15.3875333
21
71.9827073
0
ARC
8
DEFAULT_255_2_778
10
15.7144077
20
76.045584
40
0.4073043
50
89.041099
51
123.420495
0
ARC
8
DEFAULT_255_2_778
10
15.6808148
20
76.1126781
40
0.3329215
50
124.955079
51
133.9579694
0
ARC
8
DEFAULT_255_2_778
10
15.7310767
20
76.0742119
40
0.3956131
50
135.3311247
51
173.1835001
0
ARC
8
DEFAULT_255_2_778
10
15.9644021
20
76.0230225
40
0.6337874
50
171.0916606
51
175.0026783
0
ARC
8
DEFAULT_255_2_778
10
15.5657463
20
75.8700266
40
0.3122641
50
87.2507614
51
138.1826405
0
ARC
8
DEFAULT_255_2_778
10
15.5925734
20
75.8840825
40
0.2980843
50
40.2372286
51
92.2782201
0
ARC
8
DEFAULT_255_2_778
10
15.5100677
20
75.8247407
40
0.3994793
50
359.0099245
51
39.0905035
0
ARC
8
DEFAULT_255_2_778
10
15.3032572
20
75.8049677
40
0.6063668
50
359.9965523
51
1.2162081
0
ARC
8
DEFAULT_255_2_778
10
15.4734038
20
75.7910298
40
0.4364416
50
330.4296137
51
1.8252766
0
ARC
8
DEFAULT_255_2_778
10
15.5609931
20
75.7516422
40
0.3409412
50
317.6651301
51
328.9224717
0
ARC
8
DEFAULT_255_2_778
10
15.5689281
20
75.7487205
40
0.3331229
50
267.4356996
51
317.1174655
0
ARC
8
DEFAULT_255_2_778
10
15.5453964
20
75.7442472
40
0.3284293
50
217.9811147
51
271.505286
0
ARC
8
DEFAULT_255_2_778
10
15.6646062
20
75.8374133
40
0.4797267
50
181.5386863
51
217.9898197
0
ARC
8
DEFAULT_255_2_778
10
15.9087453
20
75.866721
40
0.7249215
50
179.9675799
51
183.3364123
0
ARC
8
DEFAULT_255_2_778
10
16.260326
20
75.9356007
40
1.0765765
50
167.1684401
51
180.674288
0
ARC
8
DEFAULT_255_2_778
10
15.772132
20
76.0519097
40
0.5747652
50
142.0302652
51
167.6652415
0
ARC
8
DEFAULT_255_2_778
10
15.6736387
20
76.1101275
40
0.4615354
50
95.9166786
51
140.2047818
0
ARC
8
DEFAULT_255_2_778
10
15.7310043
20
75.8168607
40
0.7596273
50
90.6999942
51
97.9407407
0
ARC
8
DEFAULT_255_2_778
10
15.5559141
20
75.8263187
40
0.2344129
50
89.8998088
51
125.9714949
0
ARC
8
DEFAULT_255_2_778
10
15.5489398
20
75.8238207
40
0.2324468
50
124.2182773
51
159.918913
0
ARC
8
DEFAULT_255_2_778
10
15.7343546
20
75.8371048
40
0.4039407
50
178.151979
51
206.5272642
0
ARC
8
DEFAULT_255_2_778
10
15.621722
20
75.7903163
40
0.2823952
50
208.2402767
51
216.5025052
0
ARC
8
DEFAULT_255_2_778
10
15.5550226
20
75.7276052
40
0.1917766
50
213.2943769
51
269.701647
0
ARC
8
DEFAULT_255_2_778
10
15.5618246
20
75.7215628
40
0.1858953
50
267.595011
51
322.357804
0
ARC
8
DEFAULT_255_2_778
10
15.4668403
20
75.783186
40
0.2988848
50
324.1243793
51
2.5754351
0
ARC
8
DEFAULT_255_2_778
10
15.2427635
20
75.7975308
40
0.5226604
50
359.8997434
51
0.0000422
0
ARC
8
DEFAULT_255_2_778
10
15.4663149
20
75.8115575
40
0.2994378
50
357.3151655
51
36.1109141
0
ARC
8
DEFAULT_255_2_778
10
15.5619094
20
75.8773608
40
0.1834554
50
37.1033697
51
91.7446717
0
LINE
8
DEFAULT_255_2_778
10
15.722024
20
76.5761312
11
15.747924
21
76.5761312
0
LINE
8
DEFAULT_255_2_778
10
15.747924
20
76.5761312
11
15.747924
21
76.4528312
0
LINE
8
DEFAULT_255_2_778
10
15.747924
20
76.4528312
11
15.721224
21
76.4528312
0
LINE
8
DEFAULT_255_2_778
10
15.183824
20
75.8671312
11
15.183824
21
75.9229312
0
LINE
8
DEFAULT_255_2_778
10
15.721724
20
76.5764312
11
15.722024
21
76.5761312
0
LINE
8
DEFAULT_255_2_778
10
15.330624
20
75.9036312
11
15.330624
21
75.8501312
0
LINE
8
DEFAULT_255_2_778
10
15.556324
20
76.0607312
11
15.556324
21
76.0607312
0
ARC
8
DEFAULT_255_2_778
10
15.5753418
20
84.9439023
40
0.3719854
50
89.0297693
51
119.9126259
0
ARC
8
DEFAULT_255_2_778
10
15.5961917
20
84.9982686
40
0.317899
50
42.4014035
51
92.6234891
0
ARC
8
DEFAULT_255_2_778
10
15.5399359
20
84.9652165
40
0.3819678
50
1.8384194
51
40.3718355
0
ARC
8
DEFAULT_255_2_778
10
15.301116
20
84.9338108
40
0.6221248
50
359.9469118
51
4.0242185
0
ARC
8
DEFAULT_255_2_778
10
15.4886498
20
84.919734
40
0.4348004
50
332.3371179
51
1.7792975
0
ARC
8
DEFAULT_255_2_778
10
15.5936743
20
84.8744043
40
0.3208512
50
316.767617
51
330.7991784
0
ARC
8
DEFAULT_255_2_778
10
15.5860146
20
84.8927493
40
0.3390948
50
270.0228664
51
315.3956028
0
ARC
8
DEFAULT_255_2_778
10
15.5599651
20
85.106244
40
0.5532096
50
269.9767565
51
272.7129751
0
ARC
8
DEFAULT_255_2_778
10
15.5443741
20
84.9164829
40
0.3637733
50
230.1428414
51
272.4210062
0
ARC
8
DEFAULT_255_2_778
10
15.5355728
20
84.8849231
40
0.3341775
50
182.6050479
51
227.8327979
0
ARC
8
DEFAULT_255_2_778
10
15.570776
20
84.8884026
40
0.2316887
50
184.6215915
51
226.0374953
0
ARC
8
DEFAULT_255_2_778
10
15.5495147
20
84.8903566
40
0.2189706
50
230.4010295
51
272.7290729
0
ARC
8
DEFAULT_255_2_778
10
15.5695841
20
84.8690622
40
0.1976632
50
267.2035903
51
319.4787083
0
ARC
8
DEFAULT_255_2_778
10
15.5025567
20
84.908665
40
0.2746754
50
322.2844033
51
0.086138
0
ARC
8
DEFAULT_255_2_778
10
15.2961385
20
84.9312109
40
0.4816021
50
357.3659254
51
0.02658
0
ARC
8
DEFAULT_255_2_778
10
15.5136672
20
84.9442244
40
0.264383
50
357.2271281
51
40.38807
0
ARC
8
DEFAULT_255_2_778
10
15.5570213
20
84.9715307
40
0.2137924
50
42.343032
51
92.4074939
0
ARC
8
DEFAULT_255_2_778
10
15.5352032
20
84.9375153
40
0.2479516
50
87.0322479
51
122.1550976
0
ARC
8
DEFAULT_255_2_778
10
15.497164
20
85.0134504
40
0.1636254
50
125.0309032
51
127.2860124
0
LINE
8
DEFAULT_255_2_778
10
15.3589406
20
85.1124344
11
15.2422406
21
85.1423344
0
LINE
8
DEFAULT_255_2_778
10
15.2422406
20
85.1423344
11
15.3007406
21
85.7127344
0
LINE
8
DEFAULT_255_2_778
10
15.3007406
20
85.7127344
11
15.8891406
21
85.7127344
0
LINE
8
DEFAULT_255_2_778
10
15.8891406
20
85.7127344
11
15.8891406
21
85.5783344
0
LINE
8
DEFAULT_255_2_778
10
15.8891406
20
85.5783344
11
15.4245406
21
85.5783344
0
LINE
8
DEFAULT_255_2_778
10
15.4245406
20
85.5783344
11
15.3898406
21
85.2663344
0
LINE
8
DEFAULT_255_2_778
10
15.2017406
20
84.8697344
11
15.3398406
21
84.8697344
0
LINE
8
DEFAULT_255_2_778
10
15.3980406
20
85.1436344
11
15.3594406
21
85.1121344
0
LINE
8
DEFAULT_255_2_778
10
15.3594406
20
85.1121344
11
15.3589406
21
85.1124344
0
ARC
8
DEFAULT_255_2_778
10
14.5795219
20
82.0352126
40
1.3366327
50
317.992579
51
324.0679547
0
ARC
8
DEFAULT_255_2_778
10
15.2479017
20
81.5489003
40
0.5100585
50
324.2422378
51
331.1646624
0
ARC
8
DEFAULT_255_2_778
10
15.459367
20
81.4330777
40
0.2689529
50
331.0524379
51
359.7708634
0
ARC
8
DEFAULT_255_2_778
10
15.5235376
20
81.4395883
40
0.2049206
50
357.8784146
51
42.8313616
0
ARC
8
DEFAULT_255_2_778
10
15.5371431
20
81.4455328
40
0.1909642
50
44.2987323
51
92.5887936
0
ARC
8
DEFAULT_255_2_778
10
15.5150252
20
81.4102016
40
0.2265027
50
86.5849209
51
133.4627901
0
ARC
8
DEFAULT_255_2_778
10
15.5331778
20
81.4169334
40
0.2347797
50
137.8124144
51
183.4262527
0
ARC
8
DEFAULT_255_2_778
10
15.4890315
20
81.4165089
40
0.336489
50
134.087378
51
182.317542
0
ARC
8
DEFAULT_255_2_778
10
15.5056282
20
81.3832059
40
0.3721272
50
89.3715647
51
132.3550323
0
ARC
8
DEFAULT_255_2_778
10
15.5281171
20
81.1736903
40
0.5819116
50
89.9900944
51
91.8127188
0
ARC
8
DEFAULT_255_2_778
10
15.5417136
20
81.3550838
40
0.4007456
50
61.4491159
51
91.9299116
0
ARC
8
DEFAULT_255_2_778
10
15.5856666
20
81.4539119
40
0.2930559
50
48.0898098
51
59.7624284
0
ARC
8
DEFAULT_255_2_778
10
15.5902427
20
81.4611378
40
0.2846254
50
357.5965945
51
47.8037299
0
ARC
8
DEFAULT_255_2_778
10
15.4909668
20
81.4621244
40
0.3838685
50
331.1256093
51
358.0708697
0
ARC
8
DEFAULT_255_2_778
10
15.0179691
20
81.7047973
40
0.915386
50
319.605741
51
332.1210195
0
ARC
8
DEFAULT_255_2_778
10
14.524403
20
82.0999714
40
1.5474927
50
317.1223
51
320.3050287
0
LINE
8
DEFAULT_255_2_778
10
15.9278177
20
80.7147021
11
15.9278177
21
80.5962021
0
LINE
8
DEFAULT_255_2_778
10
15.9278177
20
80.5962021
11
15.1750177
21
80.5962021
0
LINE
8
DEFAULT_255_2_778
10
15.1750177
20
80.5962021
11
15.1750177
21
80.7007021
0
LINE
8
DEFAULT_255_2_778
10
15.1750177
20
80.7007021
11
15.5727177
21
81.1407021
0
LINE
8
DEFAULT_255_2_778
10
15.2988177
20
81.4029021
11
15.1528177
21
81.4029021
0
LINE
8
DEFAULT_255_2_778
10
15.6584177
20
81.0470021
11
15.3507177
21
80.7147021
0
LINE
8
DEFAULT_255_2_778
10
15.3507177
20
80.7147021
11
15.9275177
21
80.7147021
0
LINE
8
DEFAULT_255_2_778
10
15.9275177
20
80.7147021
11
15.9278177
21
80.7147021
0
LINE
8
DEFAULT_255_2_778
10
15.6547698
20
90.882675
11
15.6547698
21
89.733375
0
LINE
8
DEFAULT_255_2_778
10
15.6547698
20
89.733375
11
15.5078698
21
89.733375
0
LINE
8
DEFAULT_255_2_778
10
15.5078698
20
89.733375
11
15.5078698
21
90.701975
0
LINE
8
DEFAULT_255_2_778
10
15.5078698
20
90.701975
11
15.2136698
21
90.594275
0
LINE
8
DEFAULT_255_2_778
10
15.2136698
20
90.594275
11
15.2136698
21
90.726275
0
LINE
8
DEFAULT_255_2_778
10
15.2136698
20
90.726275
11
15.6316698
21
90.882675
0
LINE
8
DEFAULT_255_2_778
10
15.6316698
20
90.882675
11
15.6544698
21
90.882675
0
LINE
8
DEFAULT_255_2_778
10
15.6544698
20
90.882675
11
15.6547698
21
90.882675
0
ARC
8
DEFAULT_255_2_778
10
14.8681231
20
99.3460692
40
1.0271395
50
348.9616945
51
0.6882565
0
ARC
8
DEFAULT_255_2_778
10
15.4287788
20
99.2307052
40
0.4548061
50
326.398181
51
349.7029301
0
ARC
8
DEFAULT_255_2_778
10
15.5649532
20
99.156376
40
0.3005521
50
270.0240256
51
323.8328475
0
ARC
8
DEFAULT_255_2_778
10
15.534134
20
99.3776707
40
0.5227636
50
269.9621358
51
273.393628
0
ARC
8
DEFAULT_255_2_778
10
15.5200989
20
99.2120741
40
0.357429
50
238.5386167
51
272.194978
0
ARC
8
DEFAULT_255_2_778
10
15.4859002
20
99.1381495
40
0.276683
50
215.7985554
51
236.5892447
0
ARC
8
DEFAULT_255_2_778
10
15.6423036
20
99.2370124
40
0.4615055
50
190.0177657
51
214.3954548
0
ARC
8
DEFAULT_255_2_778
10
16.1452013
20
99.3424788
40
0.9752195
50
180.2157087
51
190.9800219
0
ARC
8
DEFAULT_255_2_778
10
16.1691361
20
99.5450809
40
0.9992241
50
168.7133755
51
180.709524
0
ARC
8
DEFAULT_255_2_778
10
15.6260817
20
99.6589809
40
0.4444129
50
146.0134068
51
169.4111567
0
ARC
8
DEFAULT_255_2_778
10
15.4988618
20
99.7280002
40
0.3006654
50
90.6922062
51
143.3660746
0
ARC
8
DEFAULT_255_2_778
10
15.5316993
20
99.5029944
40
0.5269129
50
89.9467997
51
93.9688511
0
ARC
8
DEFAULT_255_2_778
10
15.5454907
20
99.6568613
40
0.3732831
50
61.1123542
51
92.0421924
0
ARC
8
DEFAULT_255_2_778
10
15.5880902
20
99.7520243
40
0.2695215
50
36.3059789
51
59.2681195
0
ARC
8
DEFAULT_255_2_778
10
15.4465668
20
99.662541
40
0.4367096
50
10.3463523
51
34.7728597
0
ARC
8
DEFAULT_255_2_778
10
14.909152
20
99.5482671
40
0.9860376
50
359.9151747
51
11.2701321
0
ARC
8
DEFAULT_255_2_778
10
14.9215421
20
99.5694391
40
0.8277339
50
359.1671238
51
10.7786373
0
ARC
8
DEFAULT_255_2_778
10
15.4221424
20
99.6670003
40
0.3177278
50
10.3782902
51
30.1131461
0
ARC
8
DEFAULT_255_2_778
10
15.5445276
20
99.7318058
40
0.1794262
50
31.819449
51
93.9433183
0
ARC
8
DEFAULT_255_2_778
10
15.5198932
20
99.7342684
40
0.1769666
50
86.0159695
51
148.5098197
0
ARC
8
DEFAULT_255_2_778
10
15.6887968
20
99.6477267
40
0.3664852
50
150.7664629
51
173.2694954
0
ARC
8
DEFAULT_255_2_778
10
16.1939873
20
99.566324
40
0.8780009
50
171.8576041
51
179.8771047
0
ARC
8
DEFAULT_255_2_778
10
16.1358839
20
99.3237873
40
0.8199806
50
179.1740564
51
191.0948226
0
ARC
8
DEFAULT_255_2_778
10
15.6590016
20
99.2286288
40
0.3337033
50
190.8180489
51
209.9940148
0
ARC
8
DEFAULT_255_2_778
10
15.5245501
20
99.1522448
40
0.179076
50
210.3328988
51
272.9571777
0
ARC
8
DEFAULT_255_2_778
10
15.5440845
20
99.1499112
40
0.176804
50
266.6615585
51
328.2243819
0
ARC
8
DEFAULT_255_2_778
10
15.3848335
20
99.23469
40
0.3570246
50
330.1165994
51
352.728226
0
ARC
8
DEFAULT_255_2_778
10
14.8568962
20
99.324134
40
0.892306
50
351.3218375
51
359.6836479
0
LINE
8
DEFAULT_255_2_778
10
15.8951886
20
99.5470073
11
15.8951886
21
99.3584073
0
LINE
8
DEFAULT_255_2_778
10
15.1699886
20
99.3388073
11
15.1699886
21
99.5327073
0
LINE
8
DEFAULT_255_2_778
10
15.8951886
20
99.5468073
11
15.8951886
21
99.5470073
0
LINE
8
DEFAULT_255_2_778
10
15.7491886
20
99.3192073
11
15.7491886
21
99.5574073
0
LINE
8
DEFAULT_255_2_778
10
15.3159886
20
99.5682073
11
15.3159886
21
99.3356073
0
LINE
8
DEFAULT_255_2_778
10
15.7491886
20
99.3192073
11
15.7491886
21
99.3192073
0
ARC
8
DEFAULT_255_2_778
10
14.7306748
20
103.2451551
40
0.4521606
50
323.6149343
51
355.0499651
0
ARC
8
DEFAULT_255_2_778
10
14.8110024
20
103.1971943
40
0.359156
50
311.025189
51
322.1725986
0
ARC
8
DEFAULT_255_2_778
10
14.7776216
20
103.2494166
40
0.4205627
50
271.8851946
51
309.7860199
0
ARC
8
DEFAULT_255_2_778
10
14.7461999
20
103.4922622
40
0.6647229
50
269.9525146
51
273.9039382
0
ARC
8
DEFAULT_255_2_778
10
14.7307165
20
103.2328271
40
0.4055626
50
219.8704709
51
272.1100628
0
ARC
8
DEFAULT_255_2_778
10
14.830861
20
103.3075783
40
0.5303865
50
185.5405791
51
219.1329668
0
ARC
8
DEFAULT_255_2_778
10
15.1419324
20
103.3594318
40
0.8452866
50
179.8435712
51
187.0032903
0
ARC
8
DEFAULT_255_2_778
10
14.9463232
20
103.4855553
40
0.649819
50
155.7701742
51
181.20943
0
ARC
8
DEFAULT_255_2_778
10
14.7418317
20
103.5771493
40
0.4257521
50
122.0426194
51
155.7166518
0
ARC
8
DEFAULT_255_2_778
10
14.7496674
20
103.5496061
40
0.4533264
50
88.839467
51
121.0351122
0
ARC
8
DEFAULT_255_2_778
10
14.7727902
20
103.553901
40
0.4491549
50
60.4138501
51
91.7786835
0
ARC
8
DEFAULT_255_2_778
10
14.8111802
20
103.6397796
40
0.3556338
50
47.3236238
51
58.9610532
0
ARC
8
DEFAULT_255_2_778
10
14.7645206
20
103.6012214
40
0.4156903
50
5.6187649
51
46.1978822
0
ARC
8
DEFAULT_255_2_778
10
14.550077
20
103.5560505
40
0.6339792
50
5.7656165
51
7.7844799
0
ARC
8
DEFAULT_255_2_778
10
14.6218871
20
103.5731666
40
0.4095188
50
6.530158
51
28.6306892
0
ARC
8
DEFAULT_255_2_778
10
14.7972573
20
103.6626439
40
0.2127884
50
30.1102165
51
46.7526842
0
ARC
8
DEFAULT_255_2_778
10
14.7774951
20
103.6250677
40
0.2539528
50
49.3143917
51
91.7308919
0
ARC
8
DEFAULT_255_2_778
10
14.7588975
20
103.4367624
40
0.4422772
50
88.5843019
51
90.0062898
0
ARC
8
DEFAULT_255_2_778
10
14.7472647
20
103.6081648
40
0.2711223
50
87.5511718
51
142.7855628
0
ARC
8
DEFAULT_255_2_778
10
14.8585661
20
103.5340629
40
0.4046622
50
143.9611071
51
173.1227145
0
ARC
8
DEFAULT_255_2_778
10
15.2074181
20
103.4721095
40
0.7586795
50
171.6321569
51
180.2998143
0
ARC
8
DEFAULT_255_2_778
10
15.0513592
20
103.3444721
40
0.6027455
50
178.7862601
51
199.0396064
0
ARC
8
DEFAULT_255_2_778
10
14.8308115
20
103.2749795
40
0.3716461
50
200.0042169
51
215.1266815
0
ARC
8
DEFAULT_255_2_778
10
14.7354596
20
103.203506
40
0.2525601
50
214.3115912
51
272.2440707
0
ARC
8
DEFAULT_255_2_778
10
14.7579894
20
103.2861094
40
0.3352083
50
267.8389133
51
295.7365552
0
ARC
8
DEFAULT_255_2_778
10
14.8090963
20
103.1628598
40
0.2021311
50
297.8578854
51
310.0093508
0
ARC
8
DEFAULT_255_2_778
10
14.7668913
20
103.1930882
40
0.2527474
50
312.9331834
51
346.3722766
0
ARC
8
DEFAULT_255_2_778
10
14.4726308
20
103.289671
40
0.5620155
50
343.8704891
51
351.4834762
0
LINE
8
DEFAULT_255_2_778
10
15.029049
20
103.2061396
11
15.181149
21
103.2061396
0
LINE
8
DEFAULT_255_2_778
10
14.296649
20
103.3617396
11
14.296649
21
103.4718396
0
LINE
8
DEFAULT_255_2_778
10
15.180849
20
103.6197396
11
15.028749
21
103.6197396
0
LINE
8
DEFAULT_255_2_778
10
14.448749
20
103.4681396
11
14.448749
21
103.3572396
0
LINE
8
DEFAULT_255_2_778
10
15.028449
20
103.2064396
11
15.029049
21
103.2061396
0
LINE
8
DEFAULT_255_2_778
10
16.1318458
20
102.8433969
11
16.0222458
21
103.1418969
0
LINE
8
DEFAULT_255_2_778
10
16.0222458
20
103.1418969
11
15.5410458
21
103.1418969
0
LINE
8
DEFAULT_255_2_778
10
15.5410458
20
103.1418969
11
15.4330458
21
102.8433969
0
LINE
8
DEFAULT_255_2_778
10
15.4330458
20
102.8433969
11
15.2769458
21
102.8433969
0
LINE
8
DEFAULT_255_2_778
10
15.2769458
20
102.8433969
11
15.7156458
21
103.9871969
0
LINE
8
DEFAULT_255_2_778
10
15.7156458
20
103.9871969
11
15.8481458
21
103.9871969
0
LINE
8
DEFAULT_255_2_778
10
15.8481458
20
103.9871969
11
16.2876458
21
102.8433969
0
LINE
8
DEFAULT_255_2_778
10
16.2876458
20
102.8433969
11
16.1323458
21
102.8433969
0
LINE
8
DEFAULT_255_2_778
10
16.1323458
20
102.8433969
11
16.1318458
21
102.8433969
0
LINE
8
DEFAULT_255_2_778
10
15.7815458
20
103.8008969
11
15.5867458
21
103.2658969
0
LINE
8
DEFAULT_255_2_778
10
15.5867458
20
103.2658969
11
15.9773458
21
103.2658969
0
LINE
8
DEFAULT_255_2_778
10
15.9773458
20
103.2658969
11
15.7817458
21
103.8008969
0
LINE
8
DEFAULT_255_2_778
10
15.7817458
20
103.8008969
11
15.7815458
21
103.8008969
0
ARC
8
DEFAULT_255_2_778
10
3.9119375
20
88.6138522
40
0.2171616
50
270.0207012
51
330.0058438
0
ARC
8
DEFAULT_255_2_778
10
3.912484
20
88.6137396
40
0.216632
50
329.9593688
51
0.0167907
0
ARC
8
DEFAULT_255_2_778
10
3.9677922
20
88.6138929
40
0.1613239
50
359.9680982
51
0.0957056
0
ARC
8
DEFAULT_255_2_778
10
3.9120755
20
88.6138324
40
0.2170405
50
0.0871091
51
30.0115841
0
ARC
8
DEFAULT_255_2_778
10
3.9119278
20
88.6136124
40
0.2172783
50
30.0423641
51
89.9767551
0
ARC
8
DEFAULT_255_2_778
10
3.912034
20
88.6137338
40
0.2171568
50
90.0047402
51
149.9761063
0
ARC
8
DEFAULT_255_2_778
10
3.9119565
20
88.6138324
40
0.2170404
50
149.9884159
51
179.9128909
0
ARC
8
DEFAULT_255_2_778
10
3.8562398
20
88.6138929
40
0.1613238
50
179.9042944
51
180.0319018
0
ARC
8
DEFAULT_255_2_778
10
3.911548
20
88.6137396
40
0.216632
50
179.9832093
51
210.0406312
0
ARC
8
DEFAULT_255_2_778
10
3.9120244
20
88.6137308
40
0.2170401
50
209.9756382
51
269.9977825
0
LINE
8
DEFAULT_255_2_778
10
3.912016
20
88.3966906
11
3.912016
21
88.3966906
0
LINE
8
DEFAULT_255_2_778
10
4.1299928
20
92.5863
11
7.7941928
21
92.5863
0
ARC
8
DEFAULT_255_2_778
10
8.1048833
20
92.5862941
40
0.3079668
50
269.7519553
51
0.0067215
0
ARC
8
DEFAULT_255_2_778
10
8.1049467
20
92.58643
40
0.3079034
50
359.9814187
51
90.2598952
0
ARC
8
DEFAULT_255_2_778
10
8.1020898
20
92.5864938
40
0.3078399
50
89.7282187
51
180.0304489
0
ARC
8
DEFAULT_255_2_778
10
8.1021533
20
92.5862304
40
0.3079033
50
179.9814246
51
270.2599079
0
ARC
8
DEFAULT_255_2_778
10
8.1021533
20
92.5862304
40
0.3079033
50
179.9814246
51
270.2599079
0
ARC
8
DEFAULT_255_2_778
10
8.1048833
20
92.5862941
40
0.3079668
50
269.7519553
51
0.0067215
0
ARC
8
DEFAULT_255_2_778
10
8.1049467
20
92.58643
40
0.3079034
50
359.9814187
51
90.2598952
0
ARC
8
DEFAULT_255_2_778
10
8.1020898
20
92.5864938
40
0.3078399
50
89.7282187
51
180.0304489
0
ARC
8
DEFAULT_255_2_778
10
10.9534467
20
92.5862305
40
0.3079035
50
269.7401144
51
0.0185531
0
ARC
8
DEFAULT_255_2_778
10
10.9535101
20
92.5864937
40
0.30784
50
359.9695734
51
90.2717406
0
ARC
8
DEFAULT_255_2_778
10
10.9506533
20
92.5864302
40
0.3079032
50
89.7400797
51
180.0186102
0
ARC
8
DEFAULT_255_2_778
10
10.9507168
20
92.5862941
40
0.3079668
50
179.9932785
51
270.2480447
0
LINE
8
DEFAULT_255_2_778
10
8.10355
20
92.2783302
11
8.10355
21
92.2783302
0
LINE
8
DEFAULT_255_2_778
10
7.79425
20
92.5863302
11
7.79425
21
92.5863302
0
LINE
8
DEFAULT_255_2_778
10
10.95205
20
92.2783302
11
10.95205
21
92.2783302
0
LINE
8
DEFAULT_255_2_778
10
7.92545
20
93.4814302
11
11.14865
21
93.4814302
0
ARC
8
DEFAULT_255_2_778
10
3.9119858
20
92.5866191
40
0.2179975
50
359.9993524
51
90.0006476
0
ARC
8
DEFAULT_255_2_778
10
3.9119809
20
92.5866191
40
0.2179975
50
89.9993524
51
180.0006476
0
ARC
8
DEFAULT_255_2_778
10
3.9119809
20
92.5866142
40
0.2179975
50
179.9993524
51
270.0006476
0
ARC
8
DEFAULT_255_2_778
10
3.9119858
20
92.5866142
40
0.2179975
50
269.9993524
51
0.0006476
0
ARC
8
DEFAULT_255_2_778
10
3.9119858
20
92.5866142
40
0.2179975
50
269.9993524
51
0.0006476
0
ARC
8
DEFAULT_255_2_778
10
3.9119809
20
92.5866142
40
0.2179975
50
179.9993524
51
270.0006476
0
ARC
8
DEFAULT_255_2_778
10
3.9119809
20
92.5866191
40
0.2179975
50
89.9993524
51
180.0006476
0
ARC
8
DEFAULT_255_2_778
10
3.9119858
20
92.5866191
40
0.2179975
50
359.9993524
51
90.0006476
0
LINE
8
DEFAULT_255_2_778
10
3.9119833
20
92.5866167
11
4.1299833
21
92.5866167
0
LINE
8
DEFAULT_255_2_778
10
4.1299833
20
92.5866167
11
4.1299833
21
92.5866167
0
LINE
8
DEFAULT_255_2_778
10
4.13
20
97.751
11
7.0002
21
97.751
0
LINE
8
DEFAULT_255_2_778
10
19.8698189
20
97.751
11
10.4670189
21
97.751
0
ARC
8
DEFAULT_255_2_778
10
10.1592101
20
97.7508937
40
0.30784
50
359.9695734
51
90.2717406
0
ARC
8
DEFAULT_255_2_778
10
10.1563533
20
97.7508302
40
0.3079032
50
89.7400797
51
180.0186102
0
ARC
8
DEFAULT_255_2_778
10
10.1564168
20
97.7506941
40
0.3079668
50
179.9932785
51
270.2480447
0
ARC
8
DEFAULT_255_2_778
10
10.1591467
20
97.7506305
40
0.3079035
50
269.7401144
51
0.0185531
0
ARC
8
DEFAULT_255_2_778
10
10.1591468
20
97.7506302
40
0.3079032
50
269.7400828
51
0.0185979
0
ARC
8
DEFAULT_255_2_778
10
10.1564168
20
97.7506941
40
0.3079668
50
179.9932785
51
270.2480447
0
ARC
8
DEFAULT_255_2_778
10
10.1563534
20
97.75083
40
0.3079034
50
89.7401048
51
180.0185813
0
ARC
8
DEFAULT_255_2_778
10
10.1592103
20
97.7508938
40
0.3078399
50
359.969551
51
90.2717816
0
ARC
8
DEFAULT_255_2_778
10
7.30779
20
97.7508936
40
0.30784
50
89.7282438
51
180.03042
0
ARC
8
DEFAULT_255_2_778
10
7.310647
20
97.7508303
40
0.3079031
50
359.9813805
51
90.2599427
0
ARC
8
DEFAULT_255_2_778
10
7.3105833
20
97.7506941
40
0.3079668
50
269.7519553
51
0.0067215
0
ARC
8
DEFAULT_255_2_778
10
7.3078533
20
97.7506304
40
0.3079033
50
179.9814219
51
270.2599144
0
ARC
8
DEFAULT_255_2_778
10
7.3078533
20
97.7506304
40
0.3079033
50
179.9814246
51
270.2599079
0
ARC
8
DEFAULT_255_2_778
10
7.3105833
20
97.7506941
40
0.3079668
50
269.7519553
51
0.0067215
0
ARC
8
DEFAULT_255_2_778
10
7.3106467
20
97.75083
40
0.3079034
50
359.9814187
51
90.2598952
0
ARC
8
DEFAULT_255_2_778
10
7.3077898
20
97.7508938
40
0.3078399
50
89.7282187
51
180.0304489
0
LINE
8
DEFAULT_255_2_778
10
10.46705
20
97.7507302
11
10.46705
21
97.7507302
0
LINE
8
DEFAULT_255_2_778
10
10.46705
20
97.7507302
11
10.46705
21
97.7507302
0
LINE
8
DEFAULT_255_2_778
10
6.99995
20
97.7507302
11
6.99995
21
97.7507302
0
LINE
8
DEFAULT_255_2_778
10
6.99995
20
97.7507302
11
6.99995
21
97.7507302
0
LINE
8
DEFAULT_255_2_778
10
7.13115
20
98.6458302
11
10.35435
21
98.6458302
0
ARC
8
DEFAULT_255_2_778
10
3.9119858
20
97.7510191
40
0.2179975
50
359.9993524
51
90.0006476
0
ARC
8
DEFAULT_255_2_778
10
3.9119809
20
97.7510191
40
0.2179975
50
89.9993524
51
180.0006476
0
ARC
8
DEFAULT_255_2_778
10
3.9119809
20
97.7510142
40
0.2179975
50
179.9993524
51
270.0006476
0
ARC
8
DEFAULT_255_2_778
10
3.9119858
20
97.7510142
40
0.2179975
50
269.9993524
51
0.0006476
0
ARC
8
DEFAULT_255_2_778
10
3.9119858
20
97.7510142
40
0.2179975
50
269.9993524
51
0.0006476
0
ARC
8
DEFAULT_255_2_778
10
3.9119809
20
97.7510142
40
0.2179975
50
179.9993524
51
270.0006476
0
ARC
8
DEFAULT_255_2_778
10
3.9119809
20
97.7510191
40
0.2179975
50
89.9993524
51
180.0006476
0
ARC
8
DEFAULT_255_2_778
10
3.9119858
20
97.7510191
40
0.2179975
50
359.9993524
51
90.0006476
0
LINE
8
DEFAULT_255_2_778
10
3.9119833
20
97.7510167
11
4.1299833
21
97.7510167
0
LINE
8
DEFAULT_255_2_778
10
4.1299833
20
97.7510167
11
4.1299833
21
97.7510167
0
LINE
8
DEFAULT_255_2_778
10
9.696072
20
60.3526797
11
9.696072
21
61.2022797
0
LINE
8
DEFAULT_255_2_778
10
9.696072
20
61.2022797
11
3.911972
21
61.2022797
0
LINE
8
DEFAULT_255_2_778
10
3.911972
20
61.2022797
11
3.911972
21
24.6550797
0
LINE
8
DEFAULT_255_2_778
10
3.911972
20
24.6550797
11
7.861172
21
24.6550797
0
LINE
8
DEFAULT_255_2_778
10
19.8697386
20
24.6551
11
12.4008386
21
24.6551
0
LINE
8
DEFAULT_255_2_778
10
6.8422698
20
52.067
11
3.9119698
21
52.067
0
LINE
8
DEFAULT_255_2_778
10
7.8612146
20
28.6278
11
3.9120146
21
28.6278
0
ARC
8
DEFAULT_255_2_778
10
3.9120038
20
33.7924711
40
0.2179975
50
89.9993524
51
180.0006476
0
ARC
8
DEFAULT_255_2_778
10
3.9120088
20
33.7924711
40
0.2179975
50
359.9993524
51
90.0006476
0
ARC
8
DEFAULT_255_2_778
10
3.9120088
20
33.7924662
40
0.2179975
50
269.9993524
51
0.0006476
0
ARC
8
DEFAULT_255_2_778
10
3.9120038
20
33.7924662
40
0.2179975
50
179.9993524
51
270.0006476
0
ARC
8
DEFAULT_255_2_778
10
3.9120038
20
28.6280711
40
0.2179975
50
89.9993524
51
180.0006476
0
ARC
8
DEFAULT_255_2_778
10
3.9120088
20
28.6280711
40
0.2179975
50
359.9993524
51
90.0006476
0
ARC
8
DEFAULT_255_2_778
10
3.9120088
20
28.6280662
40
0.2179975
50
269.9993524
51
0.0006476
0
ARC
8
DEFAULT_255_2_778
10
3.9120038
20
28.6280662
40
0.2179975
50
179.9993524
51
270.0006476
0
LINE
8
DEFAULT_255_2_778
10
3.6940063
20
33.7924686
11
3.6940063
21
33.7924686
0
LINE
8
DEFAULT_255_2_778
10
3.6940063
20
28.6280686
11
3.6940063
21
28.6280686
0
LINE
8
DEFAULT_255_2_778
10
7.8612063
20
33.7924686
11
3.9120063
21
33.7924686
0
LINE
8
DEFAULT_255_2_778
10
7.8612063
20
37.7651686
11
3.9120063
21
37.7651686
0
ARC
8
DEFAULT_255_2_778
10
3.9120038
20
42.9296711
40
0.2179975
50
89.9993524
51
180.0006476
0
ARC
8
DEFAULT_255_2_778
10
3.9120088
20
42.9296711
40
0.2179975
50
359.9993524
51
90.0006476
0
ARC
8
DEFAULT_255_2_778
10
3.9120088
20
42.9296662
40
0.2179975
50
269.9993524
51
0.0006476
0
ARC
8
DEFAULT_255_2_778
10
3.9120038
20
42.9296662
40
0.2179975
50
179.9993524
51
270.0006476
0
ARC
8
DEFAULT_255_2_778
10
3.9120038
20
37.7652711
40
0.2179975
50
89.9993524
51
180.0006476
0
ARC
8
DEFAULT_255_2_778
10
3.9120088
20
37.7652711
40
0.2179975
50
359.9993524
51
90.0006476
0
ARC
8
DEFAULT_255_2_778
10
3.9120088
20
37.7652662
40
0.2179975
50
269.9993524
51
0.0006476
0
ARC
8
DEFAULT_255_2_778
10
3.9120038
20
37.7652662
40
0.2179975
50
179.9993524
51
270.0006476
0
LINE
8
DEFAULT_255_2_778
10
3.6940063
20
42.9296686
11
3.6940063
21
42.9296686
0
LINE
8
DEFAULT_255_2_778
10
3.6940063
20
37.7652686
11
3.6940063
21
37.7652686
0
LINE
8
DEFAULT_255_2_778
10
7.8612063
20
42.9296686
11
3.9120063
21
42.9296686
0
LINE
8
DEFAULT_255_2_778
10
7.8612063
20
46.9023686
11
3.9120063
21
46.9023686
0
ARC
8
DEFAULT_255_2_778
10
3.9120663
20
46.9026087
40
0.2180829
50
90.021783
51
180.0044935
0
ARC
8
DEFAULT_255_2_778
10
3.9119004
20
46.9026087
40
0.2180829
50
359.9955065
51
89.978217
0
ARC
8
DEFAULT_255_2_778
10
3.9119858
20
46.9025891
40
0.2179975
50
269.9993524
51
0.0006476
0
ARC
8
DEFAULT_255_2_778
10
3.9119809
20
46.9025891
40
0.2179975
50
179.9993524
51
270.0006476
0
ARC
8
DEFAULT_255_2_778
10
3.9119809
20
52.0651941
40
0.2179975
50
89.9993524
51
180.0006476
0
ARC
8
DEFAULT_255_2_778
10
3.9119858
20
52.0651941
40
0.2179975
50
359.9993524
51
90.0006476
0
ARC
8
DEFAULT_255_2_778
10
3.9119858
20
52.0651891
40
0.2179975
50
269.9993524
51
0.0006476
0
ARC
8
DEFAULT_255_2_778
10
3.9119809
20
52.0651891
40
0.2179975
50
179.9993524
51
270.0006476
0
LINE
8
DEFAULT_255_2_778
10
3.6939833
20
46.9025916
11
3.6939833
21
46.9025916
0
LINE
8
DEFAULT_255_2_778
10
3.6939833
20
52.0651916
11
3.6939833
21
52.0651916
0
LINE
8
DEFAULT_255_2_778
10
19.8697918
20
61.2022146
11
11.0665918
21
61.2022146
0
LINE
8
DEFAULT_255_2_778
10
11.0665918
20
61.2022146
11
11.0665918
21
59.4872146
0
LINE
8
DEFAULT_255_2_778
10
19.8697386
20
42.9296
11
12.4008386
21
42.9296
0
LINE
8
DEFAULT_255_2_778
10
19.8697386
20
33.7925
11
12.4008386
21
33.7925
0
LINE
8
DEFAULT_255_2_778
10
19.869873
20
52.067
11
10.309373
21
52.067
0
LINE
8
DEFAULT_255_2_778
10
11.0665292
20
61.2020146
11
11.0665292
21
62.9170146
0
LINE
8
DEFAULT_255_2_778
10
9.6960292
20
61.2020146
11
9.6960292
21
62.0515146
0
ARC
8
DEFAULT_255_2_778
10
15.5068605
20
26.658444
40
0.2414368
50
267.6672536
51
309.2237981
0
ARC
8
DEFAULT_255_2_778
10
15.5382116
20
26.6053325
40
0.1807067
50
312.1731643
51
2.5928319
0
ARC
8
DEFAULT_255_2_778
10
15.5000634
20
26.6264166
40
0.2190507
50
356.6214363
51
34.6204727
0
ARC
8
DEFAULT_255_2_778
10
15.5422874
20
26.6317824
40
0.1823083
50
40.7838399
51
91.252833
0
ARC
8
DEFAULT_255_2_778
10
15.5179058
20
26.443116
40
0.3714913
50
86.8527794
51
90.0420191
0
ARC
8
DEFAULT_255_2_778
10
15.5070624
20
26.6051821
40
0.2096918
50
87.110392
51
132.0433452
0
ARC
8
DEFAULT_255_2_778
10
15.4977769
20
26.626585
40
0.1877261
50
134.3139649
51
182.5272597
0
ARC
8
DEFAULT_255_2_778
10
15.4554681
20
26.6247231
40
0.2913054
50
131.109866
51
181.2620125
0
ARC
8
DEFAULT_255_2_778
10
15.5039352
20
26.5702447
40
0.3642203
50
87.8446321
51
131.2196188
0
ARC
8
DEFAULT_255_2_778
10
15.530955
20
26.5327293
40
0.401699
50
62.1768115
51
91.9004716
0
ARC
8
DEFAULT_255_2_778
10
15.5768472
20
26.6377124
40
0.287556
50
47.143279
51
60.5001367
0
ARC
8
DEFAULT_255_2_778
10
15.5591042
20
26.6292632
40
0.3059041
50
357.798902
51
45.7833941
0
ARC
8
DEFAULT_255_2_778
10
15.3701814
20
26.6104393
40
0.4946518
50
359.9962909
51
0.8195393
0
ARC
8
DEFAULT_255_2_778
10
15.6145082
20
26.6138975
40
0.2503495
50
323.7624496
51
359.2011991
0
ARC
8
DEFAULT_255_2_778
10
15.5763367
20
26.6336723
40
0.2929019
50
291.6362562
51
325.0564864
0
ARC
8
DEFAULT_255_2_778
10
15.6072485
20
26.0898935
40
0.2822442
50
37.6778855
51
74.1503405
0
ARC
8
DEFAULT_255_2_778
10
15.6085179
20
26.1022227
40
0.273851
50
358.1971607
51
35.798283
0
ARC
8
DEFAULT_255_2_778
10
15.5716339
20
26.0790832
40
0.3109389
50
312.383195
51
2.6772793
0
ARC
8
DEFAULT_255_2_778
10
15.5360002
20
26.1368957
40
0.3778742
50
268.099995
51
310.4648162
0
ARC
8
DEFAULT_255_2_778
10
15.5184179
20
26.334432
40
0.5752249
50
270.001536
51
270.5033897
0
ARC
8
DEFAULT_255_2_778
10
15.5037976
20
26.1593651
40
0.4004254
50
235.7689573
51
272.094651
0
ARC
8
DEFAULT_255_2_778
10
15.4746975
20
26.1011123
40
0.3360067
50
229.2651871
51
234.2836035
0
ARC
8
DEFAULT_255_2_778
10
15.4429838
20
26.0664279
40
0.2890333
50
177.961864
51
229.5421295
0
ARC
8
DEFAULT_255_2_778
10
15.48724
20
26.0687461
40
0.1864766
50
177.5531558
51
227.071437
0
ARC
8
DEFAULT_255_2_778
10
15.5073449
20
26.1035586
40
0.2258386
50
229.3526626
51
272.8904924
0
ARC
8
DEFAULT_255_2_778
10
15.5321153
20
26.1072745
40
0.2296575
50
266.659539
51
307.0407642
0
ARC
8
DEFAULT_255_2_778
10
15.564369
20
26.0509684
40
0.1654863
50
309.8715229
51
314.535628
0
ARC
8
DEFAULT_255_2_778
10
15.5251036
20
26.0769849
40
0.2117944
50
317.1720678
51
3.7961862
0
ARC
8
DEFAULT_255_2_778
10
15.5448471
20
26.1029569
40
0.1919585
50
356.4309533
51
47.3780581
0
ARC
8
DEFAULT_255_2_778
10
15.5197919
20
26.047962
40
0.2501001
50
51.6898854
51
88.7013919
0
ARC
8
DEFAULT_255_2_778
10
15.4912564
20
25.8302081
40
0.4690385
50
85.8181308
51
89.2576449
0
LINE
8
DEFAULT_255_2_778
10
15.3875333
20
26.2987073
11
15.3875333
21
26.4172073
0
LINE
8
DEFAULT_255_2_778
10
15.3875333
20
26.4172073
11
15.4970333
21
26.4172073
0
LINE
8
DEFAULT_255_2_778
10
15.3102333
20
26.6183073
11
15.1642333
21
26.6183073
0
LINE
8
DEFAULT_255_2_778
10
15.1541333
20
26.0767073
11
15.3009333
21
26.0767073
0
LINE
8
DEFAULT_255_2_778
10
15.4973333
20
26.2992073
11
15.3877333
21
26.2992073
0
LINE
8
DEFAULT_255_2_778
10
15.3877333
20
26.2992073
11
15.3875333
21
26.2987073
0
LINE
8
DEFAULT_255_2_778
10
15.6547698
20
45.198675
11
15.6547698
21
44.049375
0
LINE
8
DEFAULT_255_2_778
10
15.6547698
20
44.049375
11
15.5078698
21
44.049375
0
LINE
8
DEFAULT_255_2_778
10
15.5078698
20
44.049375
11
15.5078698
21
45.017975
0
LINE
8
DEFAULT_255_2_778
10
15.5078698
20
45.017975
11
15.2136698
21
44.910275
0
LINE
8
DEFAULT_255_2_778
10
15.2136698
20
44.910275
11
15.2136698
21
45.042275
0
LINE
8
DEFAULT_255_2_778
10
15.2136698
20
45.042275
11
15.6316698
21
45.198675
0
LINE
8
DEFAULT_255_2_778
10
15.6316698
20
45.198675
11
15.6544698
21
45.198675
0
LINE
8
DEFAULT_255_2_778
10
15.6544698
20
45.198675
11
15.6547698
21
45.198675
0
ARC
8
DEFAULT_255_2_778
10
14.5795219
20
36.3512126
40
1.3366327
50
317.992579
51
324.0679547
0
ARC
8
DEFAULT_255_2_778
10
15.2479017
20
35.8649003
40
0.5100585
50
324.2422378
51
331.1646624
0
ARC
8
DEFAULT_255_2_778
10
15.459367
20
35.7490777
40
0.2689529
50
331.0524379
51
359.7708634
0
ARC
8
DEFAULT_255_2_778
10
15.5235376
20
35.7555883
40
0.2049206
50
357.8784146
51
42.8313616
0
ARC
8
DEFAULT_255_2_778
10
15.5371431
20
35.7615328
40
0.1909642
50
44.2987323
51
92.5887936
0
ARC
8
DEFAULT_255_2_778
10
15.5150252
20
35.7262016
40
0.2265027
50
86.5849209
51
133.4627901
0
ARC
8
DEFAULT_255_2_778
10
15.5331778
20
35.7329334
40
0.2347797
50
137.8124144
51
183.4262527
0
ARC
8
DEFAULT_255_2_778
10
15.4890315
20
35.7325089
40
0.336489
50
134.087378
51
182.317542
0
ARC
8
DEFAULT_255_2_778
10
15.5056282
20
35.6992059
40
0.3721272
50
89.3715647
51
132.3550323
0
ARC
8
DEFAULT_255_2_778
10
15.5281171
20
35.4896903
40
0.5819116
50
89.9900944
51
91.8127188
0
ARC
8
DEFAULT_255_2_778
10
15.5417136
20
35.6710838
40
0.4007456
50
61.4491159
51
91.9299116
0
ARC
8
DEFAULT_255_2_778
10
15.5856666
20
35.7699119
40
0.2930559
50
48.0898098
51
59.7624284
0
ARC
8
DEFAULT_255_2_778
10
15.5902427
20
35.7771378
40
0.2846254
50
357.5965945
51
47.8037299
0
ARC
8
DEFAULT_255_2_778
10
15.4909668
20
35.7781244
40
0.3838685
50
331.1256093
51
358.0708697
0
ARC
8
DEFAULT_255_2_778
10
15.0179691
20
36.0207973
40
0.915386
50
319.605741
51
332.1210195
0
ARC
8
DEFAULT_255_2_778
10
14.524403
20
36.4159714
40
1.5474927
50
317.1223
51
320.3050287
0
LINE
8
DEFAULT_255_2_778
10
15.9278177
20
35.0307021
11
15.9278177
21
34.9122021
0
LINE
8
DEFAULT_255_2_778
10
15.9278177
20
34.9122021
11
15.1750177
21
34.9122021
0
LINE
8
DEFAULT_255_2_778
10
15.1750177
20
34.9122021
11
15.1750177
21
35.0167021
0
LINE
8
DEFAULT_255_2_778
10
15.1750177
20
35.0167021
11
15.5727177
21
35.4567021
0
LINE
8
DEFAULT_255_2_778
10
15.2988177
20
35.7189021
11
15.1528177
21
35.7189021
0
LINE
8
DEFAULT_255_2_778
10
15.6584177
20
35.3630021
11
15.3507177
21
35.0307021
0
LINE
8
DEFAULT_255_2_778
10
15.3507177
20
35.0307021
11
15.9275177
21
35.0307021
0
LINE
8
DEFAULT_255_2_778
10
15.9275177
20
35.0307021
11
15.9278177
21
35.0307021
0
LINE
8
DEFAULT_255_2_778
10
15.9166563
20
30.8912969
11
15.9166563
21
30.8094969
0
LINE
8
DEFAULT_255_2_778
10
15.9166563
20
30.8094969
11
15.4409563
21
29.7474969
0
LINE
8
DEFAULT_255_2_778
10
15.4409563
20
29.7474969
11
15.2879563
21
29.7474969
0
LINE
8
DEFAULT_255_2_778
10
15.2879563
20
29.7474969
11
15.7621563
21
30.7719969
0
LINE
8
DEFAULT_255_2_778
10
15.7621563
20
30.7719969
11
15.1403563
21
30.7719969
0
LINE
8
DEFAULT_255_2_778
10
15.1403563
20
30.7719969
11
15.1403563
21
30.8912969
0
LINE
8
DEFAULT_255_2_778
10
15.1403563
20
30.8912969
11
15.9166563
21
30.8912969
0
LINE
8
DEFAULT_255_2_778
10
15.9166563
20
30.8912969
11
15.9166563
21
30.8912969
0
ARC
8
DEFAULT_255_2_778
10
15.7144077
20
39.498884
40
0.4073043
50
89.041099
51
123.420495
0
ARC
8
DEFAULT_255_2_778
10
15.6808148
20
39.5659781
40
0.3329215
50
124.955079
51
133.9579694
0
ARC
8
DEFAULT_255_2_778
10
15.7310767
20
39.5275119
40
0.3956131
50
135.3311247
51
173.1835001
0
ARC
8
DEFAULT_255_2_778
10
15.9644021
20
39.4763225
40
0.6337874
50
171.0916606
51
175.0026783
0
ARC
8
DEFAULT_255_2_778
10
15.5657463
20
39.3233266
40
0.3122641
50
87.2507614
51
138.1826405
0
ARC
8
DEFAULT_255_2_778
10
15.5925734
20
39.3373825
40
0.2980843
50
40.2372286
51
92.2782201
0
ARC
8
DEFAULT_255_2_778
10
15.5100677
20
39.2780407
40
0.3994793
50
359.0099245
51
39.0905035
0
ARC
8
DEFAULT_255_2_778
10
15.3032572
20
39.2582677
40
0.6063668
50
359.9965523
51
1.2162081
0
ARC
8
DEFAULT_255_2_778
10
15.4734038
20
39.2443298
40
0.4364416
50
330.4296137
51
1.8252766
0
ARC
8
DEFAULT_255_2_778
10
15.5609931
20
39.2049422
40
0.3409412
50
317.6651301
51
328.9224717
0
ARC
8
DEFAULT_255_2_778
10
15.5689281
20
39.2020205
40
0.3331229
50
267.4356996
51
317.1174655
0
ARC
8
DEFAULT_255_2_778
10
15.5453964
20
39.1975472
40
0.3284293
50
217.9811147
51
271.505286
0
ARC
8
DEFAULT_255_2_778
10
15.6646062
20
39.2907133
40
0.4797267
50
181.5386863
51
217.9898197
0
ARC
8
DEFAULT_255_2_778
10
15.9087453
20
39.320021
40
0.7249215
50
179.9675799
51
183.3364123
0
ARC
8
DEFAULT_255_2_778
10
16.260326
20
39.3889007
40
1.0765765
50
167.1684401
51
180.674288
0
ARC
8
DEFAULT_255_2_778
10
15.772132
20
39.5052097
40
0.5747652
50
142.0302652
51
167.6652415
0
ARC
8
DEFAULT_255_2_778
10
15.6736387
20
39.5634275
40
0.4615354
50
95.9166786
51
140.2047818
0
ARC
8
DEFAULT_255_2_778
10
15.7310043
20
39.2701607
40
0.7596273
50
90.6999942
51
97.9407407
0
ARC
8
DEFAULT_255_2_778
10
15.5559141
20
39.2796187
40
0.2344129
50
89.8998088
51
125.9714949
0
ARC
8
DEFAULT_255_2_778
10
15.5489398
20
39.2771207
40
0.2324468
50
124.2182773
51
159.918913
0
ARC
8
DEFAULT_255_2_778
10
15.7343546
20
39.2904048
40
0.4039407
50
178.151979
51
206.5272642
0
ARC
8
DEFAULT_255_2_778
10
15.621722
20
39.2436163
40
0.2823952
50
208.2402767
51
216.5025052
0
ARC
8
DEFAULT_255_2_778
10
15.5550226
20
39.1809052
40
0.1917766
50
213.2943769
51
269.701647
0
ARC
8
DEFAULT_255_2_778
10
15.5618246
20
39.1748628
40
0.1858953
50
267.595011
51
322.357804
0
ARC
8
DEFAULT_255_2_778
10
15.4668403
20
39.236486
40
0.2988848
50
324.1243793
51
2.5754351
0
ARC
8
DEFAULT_255_2_778
10
15.2427635
20
39.2508308
40
0.5226604
50
359.8997434
51
0.0000422
0
ARC
8
DEFAULT_255_2_778
10
15.4663149
20
39.2648575
40
0.2994378
50
357.3151655
51
36.1109141
0
ARC
8
DEFAULT_255_2_778
10
15.5619094
20
39.3306608
40
0.1834554
50
37.1033697
51
91.7446717
0
LINE
8
DEFAULT_255_2_778
10
15.722024
20
40.0294312
11
15.747924
21
40.0294312
0
LINE
8
DEFAULT_255_2_778
10
15.747924
20
40.0294312
11
15.747924
21
39.9061312
0
LINE
8
DEFAULT_255_2_778
10
15.747924
20
39.9061312
11
15.721224
21
39.9061312
0
LINE
8
DEFAULT_255_2_778
10
15.183824
20
39.3204312
11
15.183824
21
39.3762312
0
LINE
8
DEFAULT_255_2_778
10
15.721724
20
40.0297312
11
15.722024
21
40.0294312
0
LINE
8
DEFAULT_255_2_778
10
15.330624
20
39.3569312
11
15.330624
21
39.3034312
0
LINE
8
DEFAULT_255_2_778
10
15.556324
20
39.5140312
11
15.556324
21
39.5140312
0
ARC
8
DEFAULT_255_2_778
10
15.5753418
20
48.3973023
40
0.3719854
50
89.0297693
51
119.9126259
0
ARC
8
DEFAULT_255_2_778
10
15.5961917
20
48.4516686
40
0.317899
50
42.4014035
51
92.6234891
0
ARC
8
DEFAULT_255_2_778
10
15.5399359
20
48.4186165
40
0.3819678
50
1.8384194
51
40.3718355
0
ARC
8
DEFAULT_255_2_778
10
15.301116
20
48.3872108
40
0.6221248
50
359.9469118
51
4.0242185
0
ARC
8
DEFAULT_255_2_778
10
15.4886498
20
48.373134
40
0.4348004
50
332.3371179
51
1.7792975
0
ARC
8
DEFAULT_255_2_778
10
15.5936743
20
48.3278043
40
0.3208512
50
316.767617
51
330.7991784
0
ARC
8
DEFAULT_255_2_778
10
15.5860146
20
48.3461493
40
0.3390948
50
270.0228664
51
315.3956028
0
ARC
8
DEFAULT_255_2_778
10
15.5599651
20
48.559644
40
0.5532096
50
269.9767565
51
272.7129751
0
ARC
8
DEFAULT_255_2_778
10
15.5443741
20
48.3698829
40
0.3637733
50
230.1428414
51
272.4210062
0
ARC
8
DEFAULT_255_2_778
10
15.5355728
20
48.3383231
40
0.3341775
50
182.6050479
51
227.8327979
0
ARC
8
DEFAULT_255_2_778
10
15.570776
20
48.3418026
40
0.2316887
50
184.6215915
51
226.0374953
0
ARC
8
DEFAULT_255_2_778
10
15.5495147
20
48.3437566
40
0.2189706
50
230.4010295
51
272.7290729
0
ARC
8
DEFAULT_255_2_778
10
15.5695841
20
48.3224622
40
0.1976632
50
267.2035903
51
319.4787083
0
ARC
8
DEFAULT_255_2_778
10
15.5025567
20
48.362065
40
0.2746754
50
322.2844033
51
0.086138
0
ARC
8
DEFAULT_255_2_778
10
15.2961385
20
48.3846109
40
0.4816021
50
357.3659254
51
0.02658
0
ARC
8
DEFAULT_255_2_778
10
15.5136672
20
48.3976244
40
0.264383
50
357.2271281
51
40.38807
0
ARC
8
DEFAULT_255_2_778
10
15.5570213
20
48.4249307
40
0.2137924
50
42.343032
51
92.4074939
0
ARC
8
DEFAULT_255_2_778
10
15.5352032
20
48.3909153
40
0.2479516
50
87.0322479
51
122.1550976
0
ARC
8
DEFAULT_255_2_778
10
15.497164
20
48.4668504
40
0.1636254
50
125.0309032
51
127.2860124
0
LINE
8
DEFAULT_255_2_778
10
15.3589406
20
48.5658344
11
15.2422406
21
48.5957344
0
LINE
8
DEFAULT_255_2_778
10
15.2422406
20
48.5957344
11
15.3007406
21
49.1661344
0
LINE
8
DEFAULT_255_2_778
10
15.3007406
20
49.1661344
11
15.8891406
21
49.1661344
0
LINE
8
DEFAULT_255_2_778
10
15.8891406
20
49.1661344
11
15.8891406
21
49.0317344
0
LINE
8
DEFAULT_255_2_778
10
15.8891406
20
49.0317344
11
15.4245406
21
49.0317344
0
LINE
8
DEFAULT_255_2_778
10
15.4245406
20
49.0317344
11
15.3898406
21
48.7197344
0
LINE
8
DEFAULT_255_2_778
10
15.2017406
20
48.3231344
11
15.3398406
21
48.3231344
0
LINE
8
DEFAULT_255_2_778
10
15.3980406
20
48.5970344
11
15.3594406
21
48.5655344
0
LINE
8
DEFAULT_255_2_778
10
15.3594406
20
48.5655344
11
15.3589406
21
48.5658344
0
ARC
8
DEFAULT_255_2_778
10
14.8681231
20
53.6619692
40
1.0271395
50
348.9616945
51
0.6882565
0
ARC
8
DEFAULT_255_2_778
10
15.4287788
20
53.5466052
40
0.4548061
50
326.398181
51
349.7029301
0
ARC
8
DEFAULT_255_2_778
10
15.5649532
20
53.472276
40
0.3005521
50
270.0240256
51
323.8328475
0
ARC
8
DEFAULT_255_2_778
10
15.534134
20
53.6935707
40
0.5227636
50
269.9621358
51
273.393628
0
ARC
8
DEFAULT_255_2_778
10
15.5200989
20
53.5279741
40
0.357429
50
238.5386167
51
272.194978
0
ARC
8
DEFAULT_255_2_778
10
15.4859002
20
53.4540495
40
0.276683
50
215.7985554
51
236.5892447
0
ARC
8
DEFAULT_255_2_778
10
15.6423036
20
53.5529124
40
0.4615055
50
190.0177657
51
214.3954548
0
ARC
8
DEFAULT_255_2_778
10
16.1452013
20
53.6583788
40
0.9752195
50
180.2157087
51
190.9800219
0
ARC
8
DEFAULT_255_2_778
10
16.1691361
20
53.8609809
40
0.9992241
50
168.7133755
51
180.709524
0
ARC
8
DEFAULT_255_2_778
10
15.6260817
20
53.9748809
40
0.4444129
50
146.0134068
51
169.4111567
0
ARC
8
DEFAULT_255_2_778
10
15.4988618
20
54.0439002
40
0.3006654
50
90.6922062
51
143.3660746
0
ARC
8
DEFAULT_255_2_778
10
15.5316993
20
53.8188944
40
0.5269129
50
89.9467997
51
93.9688511
0
ARC
8
DEFAULT_255_2_778
10
15.5454907
20
53.9727613
40
0.3732831
50
61.1123542
51
92.0421924
0
ARC
8
DEFAULT_255_2_778
10
15.5880902
20
54.0679243
40
0.2695215
50
36.3059789
51
59.2681195
0
ARC
8
DEFAULT_255_2_778
10
15.4465668
20
53.978441
40
0.4367096
50
10.3463523
51
34.7728597
0
ARC
8
DEFAULT_255_2_778
10
14.909152
20
53.8641671
40
0.9860376
50
359.9151747
51
11.2701321
0
ARC
8
DEFAULT_255_2_778
10
14.9215421
20
53.8853391
40
0.8277339
50
359.1671238
51
10.7786373
0
ARC
8
DEFAULT_255_2_778
10
15.4221424
20
53.9829003
40
0.3177278
50
10.3782902
51
30.1131461
0
ARC
8
DEFAULT_255_2_778
10
15.5445276
20
54.0477058
40
0.1794262
50
31.819449
51
93.9433183
0
ARC
8
DEFAULT_255_2_778
10
15.5198932
20
54.0501684
40
0.1769666
50
86.0159695
51
148.5098197
0
ARC
8
DEFAULT_255_2_778
10
15.6887968
20
53.9636267
40
0.3664852
50
150.7664629
51
173.2694954
0
ARC
8
DEFAULT_255_2_778
10
16.1939873
20
53.882224
40
0.8780009
50
171.8576041
51
179.8771047
0
ARC
8
DEFAULT_255_2_778
10
16.1358839
20
53.6396873
40
0.8199806
50
179.1740564
51
191.0948226
0
ARC
8
DEFAULT_255_2_778
10
15.6590016
20
53.5445288
40
0.3337033
50
190.8180489
51
209.9940148
0
ARC
8
DEFAULT_255_2_778
10
15.5245501
20
53.4681448
40
0.179076
50
210.3328988
51
272.9571777
0
ARC
8
DEFAULT_255_2_778
10
15.5440845
20
53.4658112
40
0.176804
50
266.6615585
51
328.2243819
0
ARC
8
DEFAULT_255_2_778
10
15.3848335
20
53.55059
40
0.3570246
50
330.1165994
51
352.728226
0
ARC
8
DEFAULT_255_2_778
10
14.8568962
20
53.640034
40
0.892306
50
351.3218375
51
359.6836479
0
LINE
8
DEFAULT_255_2_778
10
15.8951886
20
53.8629073
11
15.8951886
21
53.6743073
0
LINE
8
DEFAULT_255_2_778
10
15.1699886
20
53.6547073
11
15.1699886
21
53.8486073
0
LINE
8
DEFAULT_255_2_778
10
15.8951886
20
53.8627073
11
15.8951886
21
53.8629073
0
LINE
8
DEFAULT_255_2_778
10
15.7491886
20
53.6351073
11
15.7491886
21
53.8733073
0
LINE
8
DEFAULT_255_2_778
10
15.3159886
20
53.8841073
11
15.3159886
21
53.6515073
0
LINE
8
DEFAULT_255_2_778
10
15.7491886
20
53.6351073
11
15.7491886
21
53.6351073
0
LINE
8
DEFAULT_255_2_778
10
15.7909979
20
58.3010292
11
15.7909979
21
57.5414292
0
LINE
8
DEFAULT_255_2_778
10
15.7909979
20
57.5414292
11
15.9502979
21
57.5414292
0
LINE
8
DEFAULT_255_2_778
10
15.9502979
20
57.5414292
11
15.9502979
21
57.4229292
0
LINE
8
DEFAULT_255_2_778
10
15.9502979
20
57.4229292
11
15.7909979
21
57.4229292
0
LINE
8
DEFAULT_255_2_778
10
15.7909979
20
57.4229292
11
15.7909979
21
57.1572292
0
LINE
8
DEFAULT_255_2_778
10
15.7909979
20
57.1572292
11
15.6441979
21
57.1572292
0
LINE
8
DEFAULT_255_2_778
10
15.6441979
20
57.1572292
11
15.6441979
21
57.4229292
0
LINE
8
DEFAULT_255_2_778
10
15.6441979
20
57.4229292
11
15.1210979
21
57.4229292
0
LINE
8
DEFAULT_255_2_778
10
15.1210979
20
57.4229292
11
15.1210979
21
57.5086292
0
LINE
8
DEFAULT_255_2_778
10
15.1210979
20
57.5086292
11
15.6353979
21
58.3013292
0
LINE
8
DEFAULT_255_2_778
10
15.6353979
20
58.3013292
11
15.7907979
21
58.3013292
0
LINE
8
DEFAULT_255_2_778
10
15.7907979
20
58.3013292
11
15.7909979
21
58.3010292
0
LINE
8
DEFAULT_255_2_778
10
15.6269979
20
58.0708292
11
15.2869979
21
57.5414292
0
LINE
8
DEFAULT_255_2_778
10
15.2869979
20
57.5414292
11
15.6443979
21
57.5414292
0
LINE
8
DEFAULT_255_2_778
10
15.6443979
20
57.5414292
11
15.6443979
21
58.1023292
0
LINE
8
DEFAULT_255_2_778
10
15.6443979
20
58.1023292
11
15.6269979
21
58.0708292
0
LINE
8
DEFAULT_255_2_778
10
15.6269979
20
58.0708292
11
15.6269979
21
58.0708292
0
ARC
8
DEFAULT_255_2_778
10
15.6071748
20
62.7236551
40
0.4521606
50
323.6149343
51
355.0499651
0
ARC
8
DEFAULT_255_2_778
10
15.6875024
20
62.6756943
40
0.359156
50
311.025189
51
322.1725986
0
ARC
8
DEFAULT_255_2_778
10
15.6541216
20
62.7279166
40
0.4205627
50
271.8851946
51
309.7860199
0
ARC
8
DEFAULT_255_2_778
10
15.6226999
20
62.9707622
40
0.6647229
50
269.9525146
51
273.9039382
0
ARC
8
DEFAULT_255_2_778
10
15.6072165
20
62.7113271
40
0.4055626
50
219.8704709
51
272.1100628
0
ARC
8
DEFAULT_255_2_778
10
15.707361
20
62.7860783
40
0.5303865
50
185.5405791
51
219.1329668
0
ARC
8
DEFAULT_255_2_778
10
16.0184324
20
62.8379318
40
0.8452866
50
179.8435712
51
187.0032903
0
ARC
8
DEFAULT_255_2_778
10
15.8228232
20
62.9640553
40
0.649819
50
155.7701742
51
181.20943
0
ARC
8
DEFAULT_255_2_778
10
15.6183317
20
63.0556493
40
0.4257521
50
122.0426194
51
155.7166518
0
ARC
8
DEFAULT_255_2_778
10
15.6261674
20
63.0281061
40
0.4533264
50
88.839467
51
121.0351122
0
ARC
8
DEFAULT_255_2_778
10
15.6492902
20
63.032401
40
0.4491549
50
60.4138501
51
91.7786835
0
ARC
8
DEFAULT_255_2_778
10
15.6876802
20
63.1182796
40
0.3556338
50
47.3236238
51
58.9610532
0
ARC
8
DEFAULT_255_2_778
10
15.6410206
20
63.0797214
40
0.4156903
50
5.6187649
51
46.1978822
0
ARC
8
DEFAULT_255_2_778
10
15.426577
20
63.0345505
40
0.6339792
50
5.7656165
51
7.7844799
0
ARC
8
DEFAULT_255_2_778
10
15.4983871
20
63.0516666
40
0.4095188
50
6.530158
51
28.6306892
0
ARC
8
DEFAULT_255_2_778
10
15.6737573
20
63.1411439
40
0.2127884
50
30.1102165
51
46.7526842
0
ARC
8
DEFAULT_255_2_778
10
15.6539951
20
63.1035677
40
0.2539528
50
49.3143917
51
91.7308919
0
ARC
8
DEFAULT_255_2_778
10
15.6353975
20
62.9152624
40
0.4422772
50
88.5843019
51
90.0062898
0
ARC
8
DEFAULT_255_2_778
10
15.6237647
20
63.0866648
40
0.2711223
50
87.5511718
51
142.7855628
0
ARC
8
DEFAULT_255_2_778
10
15.7350661
20
63.0125629
40
0.4046622
50
143.9611071
51
173.1227145
0
ARC
8
DEFAULT_255_2_778
10
16.0839181
20
62.9506095
40
0.7586795
50
171.6321569
51
180.2998143
0
ARC
8
DEFAULT_255_2_778
10
15.9278592
20
62.8229721
40
0.6027455
50
178.7862601
51
199.0396064
0
ARC
8
DEFAULT_255_2_778
10
15.7073115
20
62.7534795
40
0.3716461
50
200.0042169
51
215.1266815
0
ARC
8
DEFAULT_255_2_778
10
15.6119596
20
62.682006
40
0.2525601
50
214.3115912
51
272.2440707
0
ARC
8
DEFAULT_255_2_778
10
15.6344894
20
62.7646094
40
0.3352083
50
267.8389133
51
295.7365552
0
ARC
8
DEFAULT_255_2_778
10
15.6855963
20
62.6413598
40
0.2021311
50
297.8578854
51
310.0093508
0
ARC
8
DEFAULT_255_2_778
10
15.6433913
20
62.6715882
40
0.2527474
50
312.9331834
51
346.3722766
0
ARC
8
DEFAULT_255_2_778
10
15.3491308
20
62.768171
40
0.5620155
50
343.8704891
51
351.4834762
0
LINE
8
DEFAULT_255_2_778
10
15.905549
20
62.6846396
11
16.057649
21
62.6846396
0
LINE
8
DEFAULT_255_2_778
10
15.173149
20
62.8402396
11
15.173149
21
62.9503396
0
LINE
8
DEFAULT_255_2_778
10
16.057349
20
63.0982396
11
15.905249
21
63.0982396
0
LINE
8
DEFAULT_255_2_778
10
15.325249
20
62.9466396
11
15.325249
21
62.8357396
0
LINE
8
DEFAULT_255_2_778
10
15.904949
20
62.6849396
11
15.905549
21
62.6846396
0
ARC
8
DEFAULT_255_2_778
10
16.6524121
20
62.8739164
40
0.5919427
50
73.2300596
51
91.2004797
0
ARC
8
DEFAULT_255_2_778
10
16.7336144
20
63.1529108
40
0.301397
50
51.4824927
51
72.7074099
0
ARC
8
DEFAULT_255_2_778
10
16.744433
20
63.183495
40
0.2709367
50
358.426325
51
49.2441661
0
ARC
8
DEFAULT_255_2_778
10
16.550064
20
63.1610159
40
0.4654465
50
359.9893176
51
1.8515436
0
ARC
8
DEFAULT_255_2_778
10
16.784205
20
63.1573421
40
0.2313333
50
323.3116371
51
0.8884741
0
ARC
8
DEFAULT_255_2_778
10
16.733217
20
63.1986514
40
0.2969131
50
292.13906
51
322.7978516
0
ARC
8
DEFAULT_255_2_778
10
16.7785844
20
62.6655133
40
0.2665511
50
36.7316896
51
75.5472903
0
ARC
8
DEFAULT_255_2_778
10
16.7635229
20
62.6586073
40
0.2827736
50
358.5859308
51
36.0279687
0
ARC
8
DEFAULT_255_2_778
10
16.7416961
20
62.6361473
40
0.3049076
50
312.0483915
51
2.9104773
0
ARC
8
DEFAULT_255_2_778
10
16.7097665
20
62.6951349
40
0.3704327
50
274.5011378
51
309.6042574
0
ARC
8
DEFAULT_255_2_778
10
16.6646263
20
62.9765213
40
0.6548947
50
269.8411281
51
276.5066167
0
ARC
8
DEFAULT_255_2_778
10
16.6797979
20
62.6867064
40
0.2418592
50
266.779459
51
309.3684492
0
ARC
8
DEFAULT_255_2_778
10
16.7031525
20
62.6401895
40
0.1914267
50
312.7978575
51
3.0363211
0
ARC
8
DEFAULT_255_2_778
10
16.687233
20
62.6637947
40
0.2075148
50
356.2794996
51
39.582338
0
ARC
8
DEFAULT_255_2_778
10
16.7015211
20
62.6471563
40
0.2082623
50
45.6260956
51
88.7243872
0
ARC
8
DEFAULT_255_2_778
10
16.6694127
20
62.4242707
40
0.4326593
50
85.1281431
51
90.1062387
0
ARC
8
DEFAULT_255_2_778
10
16.657478
20
63.2182165
40
0.2407053
50
267.0548027
51
307.5300961
0
ARC
8
DEFAULT_255_2_778
10
16.6981364
20
63.1546153
40
0.1656269
50
309.7795862
51
2.461671
0
ARC
8
DEFAULT_255_2_778
10
16.7007662
20
63.1758101
40
0.1634519
50
355.0580023
51
48.0527159
0
ARC
8
DEFAULT_255_2_778
10
16.7283316
20
63.1953861
40
0.1306767
50
51.3062626
51
52.2631265
0
ARC
8
DEFAULT_255_2_778
10
16.6758512
20
63.1067543
40
0.2332376
50
55.3950119
51
88.0650322
0
ARC
8
DEFAULT_255_2_778
10
16.6414208
20
62.835563
40
0.5060676
50
85.2046524
51
90.1257137
0
LINE
8
DEFAULT_255_2_778
10
16.6631104
20
62.3219292
11
16.2646104
21
62.3219292
0
LINE
8
DEFAULT_255_2_778
10
16.2646104
20
62.3219292
11
16.2646104
21
63.4657292
0
LINE
8
DEFAULT_255_2_778
10
16.2646104
20
63.4657292
11
16.6400104
21
63.4657292
0
LINE
8
DEFAULT_255_2_778
10
16.6628104
20
62.3216292
11
16.6631104
21
62.3219292
0
LINE
8
DEFAULT_255_2_778
10
16.6686104
20
62.8569292
11
16.4162104
21
62.8569292
0
LINE
8
DEFAULT_255_2_778
10
16.4162104
20
62.8569292
11
16.4162104
21
62.4452292
0
LINE
8
DEFAULT_255_2_778
10
16.4162104
20
62.4452292
11
16.6662104
21
62.4452292
0
LINE
8
DEFAULT_255_2_778
10
16.6686104
20
62.8569292
11
16.6686104
21
62.8569292
0
LINE
8
DEFAULT_255_2_778
10
16.4162104
20
63.3416292
11
16.4162104
21
62.9778292
0
LINE
8
DEFAULT_255_2_778
10
16.4162104
20
62.9778292
11
16.6451104
21
62.9778292
0
LINE
8
DEFAULT_255_2_778
10
16.6403104
20
63.3416292
11
16.4162104
21
63.3416292
0
LINE
8
DEFAULT_255_2_778
10
16.4162104
20
63.3416292
11
16.4162104
21
63.3416292
0
ARC
8
DEFAULT_255_2_778
10
7.15009
20
52.0649936
40
0.30784
50
89.7282438
51
180.03042
0
ARC
8
DEFAULT_255_2_778
10
7.152947
20
52.0649303
40
0.3079031
50
359.9813805
51
90.2599427
0
ARC
8
DEFAULT_255_2_778
10
7.1528833
20
52.0647941
40
0.3079668
50
269.7519553
51
0.0067215
0
ARC
8
DEFAULT_255_2_778
10
7.1501533
20
52.0647304
40
0.3079033
50
179.9814219
51
270.2599144
0
ARC
8
DEFAULT_255_2_778
10
9.9986534
20
52.06493
40
0.3079034
50
89.7401048
51
180.0185813
0
ARC
8
DEFAULT_255_2_778
10
10.0015103
20
52.0649938
40
0.3078399
50
359.969551
51
90.2717816
0
ARC
8
DEFAULT_255_2_778
10
10.0014468
20
52.0647302
40
0.3079032
50
269.7400828
51
0.0185979
0
ARC
8
DEFAULT_255_2_778
10
9.9987168
20
52.0647941
40
0.3079668
50
179.9932785
51
270.2480447
0
LINE
8
DEFAULT_255_2_778
10
6.97345
20
52.9599302
11
10.19665
21
52.9599302
0
LINE
8
DEFAULT_255_2_778
10
6.84225
20
52.0648302
11
6.84225
21
52.0648302
0
LINE
8
DEFAULT_255_2_778
10
9.69075
20
52.0648302
11
9.69075
21
52.0648302
0
LINE
8
DEFAULT_255_2_778
10
4.1300428
20
56.0397
11
7.6799428
21
56.0397
0
ARC
8
DEFAULT_255_2_778
10
10.8363534
20
56.03983
40
0.3079034
50
89.7401048
51
180.0185813
0
ARC
8
DEFAULT_255_2_778
10
10.8392103
20
56.0398938
40
0.3078399
50
359.969551
51
90.2717816
0
ARC
8
DEFAULT_255_2_778
10
10.8391468
20
56.0396302
40
0.3079032
50
269.7400828
51
0.0185979
0
ARC
8
DEFAULT_255_2_778
10
10.8364168
20
56.0396941
40
0.3079668
50
179.9932785
51
270.2480447
0
ARC
8
DEFAULT_255_2_778
10
7.98779
20
56.0398936
40
0.30784
50
89.7282438
51
180.03042
0
ARC
8
DEFAULT_255_2_778
10
7.990647
20
56.0398303
40
0.3079031
50
359.9813805
51
90.2599427
0
ARC
8
DEFAULT_255_2_778
10
7.9905833
20
56.0396941
40
0.3079668
50
269.7519553
51
0.0067215
0
ARC
8
DEFAULT_255_2_778
10
7.9878533
20
56.0396304
40
0.3079033
50
179.9814219
51
270.2599144
0
ARC
8
DEFAULT_255_2_778
10
7.9878533
20
56.0396304
40
0.3079033
50
179.9814246
51
270.2599079
0
ARC
8
DEFAULT_255_2_778
10
7.9905833
20
56.0396941
40
0.3079668
50
269.7519553
51
0.0067215
0
ARC
8
DEFAULT_255_2_778
10
7.9906467
20
56.03983
40
0.3079034
50
359.9814187
51
90.2598952
0
ARC
8
DEFAULT_255_2_778
10
7.9877898
20
56.0398938
40
0.3078399
50
89.7282187
51
180.0304489
0
LINE
8
DEFAULT_255_2_778
10
10.52845
20
56.0397302
11
10.52845
21
56.0397302
0
LINE
8
DEFAULT_255_2_778
10
7.67995
20
56.0397302
11
7.67995
21
56.0397302
0
LINE
8
DEFAULT_255_2_778
10
7.67995
20
56.0397302
11
7.67995
21
56.0397302
0
LINE
8
DEFAULT_255_2_778
10
7.81115
20
56.9348302
11
11.03435
21
56.9348302
0
ARC
8
DEFAULT_255_2_778
10
3.9119858
20
56.0400191
40
0.2179975
50
359.9993524
51
90.0006476
0
ARC
8
DEFAULT_255_2_778
10
3.9119809
20
56.0400191
40
0.2179975
50
89.9993524
51
180.0006476
0
ARC
8
DEFAULT_255_2_778
10
3.9119809
20
56.0400142
40
0.2179975
50
179.9993524
51
270.0006476
0
ARC
8
DEFAULT_255_2_778
10
3.9119858
20
56.0400142
40
0.2179975
50
269.9993524
51
0.0006476
0
ARC
8
DEFAULT_255_2_778
10
3.9119858
20
56.0400142
40
0.2179975
50
269.9993524
51
0.0006476
0
ARC
8
DEFAULT_255_2_778
10
3.9119809
20
56.0400142
40
0.2179975
50
179.9993524
51
270.0006476
0
ARC
8
DEFAULT_255_2_778
10
3.9119809
20
56.0400191
40
0.2179975
50
89.9993524
51
180.0006476
0
ARC
8
DEFAULT_255_2_778
10
3.9119858
20
56.0400191
40
0.2179975
50
359.9993524
51
90.0006476
0
LINE
8
DEFAULT_255_2_778
10
3.9119833
20
56.0400167
11
4.1299833
21
56.0400167
0
LINE
8
DEFAULT_255_2_778
10
4.1299833
20
56.0400167
11
4.1299833
21
56.0400167
0
ENDSEC
0
EOF