0
SECTION
2
HEADER
9
$MEASUREMENT
70
1
0
ENDSEC
0
SECTION
2
TABLES
0
TABLE
2
LTYPE
0
LTYPE
72
65
70
64
2
CONTINUOUS
3
______
73
0
40
0
0
ENDTAB
0
TABLE
2
LAYER
0
LAYER
2
DEFAULT_255_2_778
70
0
62
255
6
CONTINUOUS
0
ENDTAB
0
ENDSEC
0
SECTION
2
ENTITIES
0
ARC
8
DEFAULT_255_2_778
10
7.111763
20
6.2009206
40
1.8681088
50
156.2646623
51
180.1135071
0
ARC
8
DEFAULT_255_2_778
10
7.0564114
20
6.2320155
40
1.8049337
50
95.6062433
51
156.4609986
0
ARC
8
DEFAULT_255_2_778
10
7.0502731
20
6.2230236
40
1.8132963
50
89.991004
51
95.3854596
0
ARC
8
DEFAULT_255_2_778
10
7.0534627
20
6.2561773
40
1.7801448
50
63.5969469
51
90.0934978
0
ARC
8
DEFAULT_255_2_778
10
7.0259979
20
6.2152738
40
1.8290059
50
14.2696237
51
63.3961214
0
ARC
8
DEFAULT_255_2_778
10
6.9721794
20
6.1989901
40
1.8851794
50
359.9461947
51
14.3460854
0
ARC
8
DEFAULT_255_2_778
10
6.9889758
20
6.1935224
40
1.8683857
50
336.3522506
51
0.1133828
0
ARC
8
DEFAULT_255_2_778
10
7.0446682
20
6.1623722
40
1.8048858
50
275.6141513
51
336.5489279
0
ARC
8
DEFAULT_255_2_778
10
7.0508452
20
6.1712575
40
1.8131377
50
269.9909191
51
275.392425
0
ARC
8
DEFAULT_255_2_778
10
7.0476339
20
6.1386003
40
1.7804829
50
243.6007534
51
270.094092
0
ARC
8
DEFAULT_255_2_778
10
7.0748721
20
6.1790617
40
1.8288469
50
194.2686159
51
243.4000071
0
ARC
8
DEFAULT_255_2_778
10
7.1290413
20
6.1954422
40
1.8853842
50
179.9459818
51
194.3453263
0
LINE
8
DEFAULT_255_2_778
10
5.2436578
20
6.1972198
11
5.2436578
21
6.1972198
0
LINE
8
DEFAULT_255_2_778
10
5.195269
20
3.2446888
11
8.921969
21
3.2446888
0
LINE
8
DEFAULT_255_2_778
10
8.921969
20
3.2446888
11
8.921969
21
3.1316888
0
LINE
8
DEFAULT_255_2_778
10
8.921969
20
3.1316888
11
5.195269
21
3.1316888
0
LINE
8
DEFAULT_255_2_778
10
5.195269
20
3.1316888
11
5.195269
21
3.2446888
0
ARC
8
DEFAULT_255_2_778
10
7.7335675
20
1.762648
40
0.1784354
50
357.9827334
51
89.2213554
0
ARC
8
DEFAULT_255_2_778
10
7.732887
20
1.7512893
40
0.1790774
50
0.0011579
51
1.6248066
0
ARC
8
DEFAULT_255_2_778
10
7.7324261
20
1.7514061
40
0.1795382
50
314.9609867
51
359.9638699
0
ARC
8
DEFAULT_255_2_778
10
7.7320569
20
1.7513977
40
0.1797935
50
269.9654703
51
315.0461175
0
ARC
8
DEFAULT_255_2_778
10
7.7319439
20
1.751962
40
0.1803577
50
268.4903604
51
270.0014743
0
ARC
8
DEFAULT_255_2_778
10
7.7296172
20
1.7500859
40
0.1784354
50
177.9827334
51
269.2213554
0
ARC
8
DEFAULT_255_2_778
10
7.7369328
20
1.7554265
40
0.1856428
50
90.2902507
51
179.7097492
0
ARC
8
DEFAULT_255_2_778
10
7.6553538
20
0.6772177
40
0.4204766
50
178.167036
51
192.1408338
0
ARC
8
DEFAULT_255_2_778
10
7.3379233
20
0.6102732
40
0.0960753
50
192.9240925
51
283.2797745
0
ARC
8
DEFAULT_255_2_778
10
7.3362086
20
0.9029593
40
0.386924
50
273.5241332
51
284.0775149
0
ARC
8
DEFAULT_255_2_778
10
7.6458907
20
-0.5600611
40
1.1088722
50
99.3834466
51
101.2098932
0
ARC
8
DEFAULT_255_2_778
10
7.6310962
20
-0.4757403
40
1.023268
50
99.234176
51
99.3359203
0
ARC
8
DEFAULT_255_2_778
10
7.2163828
20
1.0568126
40
0.75287
50
279.4324076
51
292.3434702
0
LINE
8
DEFAULT_255_2_778
10
7.3397662
20
0.3141216
11
7.3394631
21
0.3140764
0
ARC
8
DEFAULT_255_2_778
10
7.2623385
20
0.8321096
40
0.5237428
50
269.9402586
51
278.4679817
0
ARC
8
DEFAULT_255_2_778
10
7.2505491
20
0.7160162
40
0.4078043
50
242.4390381
51
271.5798669
0
ARC
8
DEFAULT_255_2_778
10
7.163699
20
0.5471881
40
0.2179531
50
199.7698757
51
242.1442859
0
ARC
8
DEFAULT_255_2_778
10
7.1746359
20
0.5630382
40
0.2338757
50
196.7345678
51
202.5187989
0
ARC
8
DEFAULT_255_2_778
10
7.2170044
20
0.5666267
40
0.2756224
50
179.2137385
51
194.9126401
0
ARC
8
DEFAULT_255_2_778
10
10.1995371
20
0.6306882
40
3.2586869
50
179.7085034
51
181.0599195
0
ARC
8
DEFAULT_255_2_778
10
12.330911
20
1.3296492
40
0.3035833
50
0.000949
51
31.2338518
0
ARC
8
DEFAULT_255_2_778
10
12.3389742
20
1.3295999
40
0.2955201
50
359.7997364
51
0.010537
0
ARC
8
DEFAULT_255_2_778
10
13.0783606
20
0.9584178
40
0.5779528
50
135.9546589
51
140.1747086
0
ARC
8
DEFAULT_255_2_778
10
13.180408
20
0.8608814
40
0.7191138
50
128.4707531
51
136.0214249
0
ARC
8
DEFAULT_255_2_778
10
12.9951773
20
1.1018673
40
0.4152337
50
117.7727888
51
129.146762
0
ARC
8
DEFAULT_255_2_778
10
12.9057056
20
1.1703964
40
0.3164527
50
91.3061108
51
109.1889698
0
ARC
8
DEFAULT_255_2_778
10
12.9093363
20
1.2371443
40
0.2498581
50
80.3331071
51
92.4874329
0
ARC
8
DEFAULT_255_2_778
10
12.9132301
20
1.3265478
40
0.1614572
50
57.4702993
51
76.3646304
0
ARC
8
DEFAULT_255_2_778
10
12.7981258
20
1.1191657
40
0.3984625
50
58.8752296
51
59.5515761
0
ARC
8
DEFAULT_255_2_778
10
12.8654113
20
1.1157384
40
0.1072923
50
56.2675517
51
56.8392049
0
ARC
8
DEFAULT_255_2_778
10
12.8537361
20
1.0777225
40
0.1459198
50
61.1705986
51
96.6285202
0
ARC
8
DEFAULT_255_2_778
10
12.8379795
20
1.0160494
40
0.2066204
50
90.3014612
51
140.5234319
0
ARC
8
DEFAULT_255_2_778
10
12.9169053
20
0.9346803
40
0.3195231
50
138.2581586
51
143.2481657
0
ARC
8
DEFAULT_255_2_778
10
9.7191791
20
0.9433179
40
2.6548362
50
2.9936385
51
6.8621515
0
ARC
8
DEFAULT_255_2_778
10
11.0294063
20
1.1050788
40
1.3346737
50
6.6880834
51
12.0165015
0
ARC
8
DEFAULT_255_2_778
10
11.7326728
20
1.2506547
40
0.6165224
50
12.3909779
51
15.197572
0
ARC
8
DEFAULT_255_2_778
10
11.8923466
20
1.2930423
40
0.4513219
50
15.3185549
51
15.857876
0
ARC
8
DEFAULT_255_2_778
10
9.2690374
20
0.4117454
40
1.0630098
50
118.1779157
51
122.4610408
0
ARC
8
DEFAULT_255_2_778
10
9.0430132
20
0.8227483
40
0.5940079
50
116.7206056
51
117.6804833
0
ARC
8
DEFAULT_255_2_778
10
9.0369863
20
0.8333058
40
0.5818683
50
111.1704828
51
116.6579656
0
ARC
8
DEFAULT_255_2_778
10
9.2159994
20
0.3687164
40
1.0797525
50
108.2481919
51
111.1252564
0
ARC
8
DEFAULT_255_2_778
10
9.1712343
20
0.7048758
40
0.749114
50
90.0120657
51
113.0531698
0
ARC
8
DEFAULT_255_2_778
10
9.1711015
20
0.7120702
40
0.7419194
50
89.5527832
51
90.0019235
0
ARC
8
DEFAULT_255_2_778
10
9.1882168
20
0.9500992
40
0.503995
50
67.6315177
51
91.2875022
0
ARC
8
DEFAULT_255_2_778
10
9.2834311
20
1.1742668
40
0.2604743
50
20.6363008
51
68.2343227
0
ARC
8
DEFAULT_255_2_778
10
9.3259034
20
1.1845429
40
0.2171714
50
18.8867805
51
22.0484512
0
ARC
8
DEFAULT_255_2_778
10
9.2591421
20
1.1718056
40
0.284622
50
358.8466014
51
16.9621203
0
ARC
8
DEFAULT_255_2_778
10
5.7457462
20
1.090859
40
3.7987049
50
359.6818675
51
1.1345765
0
ARC
8
DEFAULT_255_2_778
10
9.9837026
20
0.6719591
40
0.4480109
50
178.2850272
51
191.3537959
0
ARC
8
DEFAULT_255_2_778
10
9.7048577
20
0.6200902
40
0.1644615
50
192.7619214
51
229.5300892
0
ARC
8
DEFAULT_255_2_778
10
9.8594055
20
0.786179
40
0.391244
50
228.0988724
51
235.0723426
0
ARC
8
DEFAULT_255_2_778
10
9.9979207
20
0.9757784
40
0.6260176
50
234.6136445
51
234.9374758
0
ARC
8
DEFAULT_255_2_778
10
9.5848554
20
0.5695053
40
0.2946233
50
210.9165712
51
250.1042867
0
ARC
8
DEFAULT_255_2_778
10
9.4752181
20
0.4931796
40
0.1616078
50
206.7394048
51
207.6706445
0
ARC
8
DEFAULT_255_2_778
10
9.6022802
20
0.0766083
40
0.4380526
50
128.2819995
51
134.2798805
0
ARC
8
DEFAULT_255_2_778
10
6.359262
20
3.3421392
40
4.1642342
50
314.6219231
51
314.856722
0
ARC
8
DEFAULT_255_2_778
10
9.1657224
20
0.5002158
40
0.17015
50
311.4260447
51
314.191082
0
ARC
8
DEFAULT_255_2_778
10
9.1819019
20
0.4828778
40
0.1464461
50
303.4350338
51
311.1678936
0
ARC
8
DEFAULT_255_2_778
10
9.0629374
20
0.6758542
40
0.373102
50
277.2011666
51
302.3521612
0
ARC
8
DEFAULT_255_2_778
10
9.0412386
20
0.7887104
40
0.4878439
50
269.9241006
51
278.0680445
0
ARC
8
DEFAULT_255_2_778
10
9.0285026
20
0.7890759
40
0.4883586
50
247.739366
51
271.4185566
0
ARC
8
DEFAULT_255_2_778
10
8.9618549
20
0.6080964
40
0.2956999
50
180.3496922
51
246.40649
0
ARC
8
DEFAULT_255_2_778
10
9.1698408
20
0.6420563
40
0.5049486
50
179.9534076
51
184.0615634
0
ARC
8
DEFAULT_255_2_778
10
9.0238964
20
0.6559729
40
0.359258
50
147.1075077
51
182.1544826
0
ARC
8
DEFAULT_255_2_778
10
9.0062766
20
0.6425316
40
0.3523801
50
105.5277418
51
143.7145372
0
ARC
8
DEFAULT_255_2_778
10
9.146743
20
0.2104566
40
0.8065284
50
92.0703711
51
106.9252994
0
ARC
8
DEFAULT_255_2_778
10
9.1847251
20
-0.3007879
40
1.3189553
50
89.9492946
51
92.9169524
0
ARC
8
DEFAULT_255_2_778
10
8.9475857
20
1.0750876
40
0.2984505
50
357.2497074
51
17.1457703
0
ARC
8
DEFAULT_255_2_778
10
9.142651
20
1.126362
40
0.0973112
50
22.1629429
51
97.8349252
0
ARC
8
DEFAULT_255_2_778
10
9.1177977
20
0.8905933
40
0.3323737
50
88.0020232
51
90.0353857
0
ARC
8
DEFAULT_255_2_778
10
9.1333739
20
0.7651803
40
0.4580586
50
91.9744057
51
117.5045754
0
ARC
8
DEFAULT_255_2_778
10
9.4009961
20
0.1861025
40
1.0956911
50
115.93272
51
123.1589859
0
ARC
8
DEFAULT_255_2_778
10
9.2306403
20
0.0402438
40
0.7902571
50
88.9448714
51
98.6668615
0
ARC
8
DEFAULT_255_2_778
10
9.1258323
20
0.6613881
40
0.1607243
50
95.0955835
51
136.9751324
0
ARC
8
DEFAULT_255_2_778
10
9.1388244
20
0.6802241
40
0.1589898
50
145.1599767
51
184.3492651
0
ARC
8
DEFAULT_255_2_778
10
9.110256
20
0.6536279
40
0.1307744
50
173.6168761
51
269.1834589
0
ARC
8
DEFAULT_255_2_778
10
9.1002511
20
0.7136223
40
0.190929
50
272.4438683
51
323.4303526
0
ARC
8
DEFAULT_255_2_778
10
14.8691515
20
0.3947053
40
1.3127694
50
171.4283461
51
171.8034074
0
ARC
8
DEFAULT_255_2_778
10
15.9682865
20
0.2297079
40
2.4242197
50
170.5494384
51
171.4441202
0
ARC
8
DEFAULT_255_2_778
10
15.5333621
20
0.3039352
40
1.9830112
50
169.0446422
51
170.6016427
0
ARC
8
DEFAULT_255_2_778
10
14.3390573
20
0.541309
40
0.7653845
50
164.2771374
51
169.4995814
0
ARC
8
DEFAULT_255_2_778
10
13.8435063
20
0.6767897
40
0.2516918
50
161.5925638
51
163.3949468
0
ARC
8
DEFAULT_255_2_778
10
9.4997196
20
1.7838422
40
4.2316323
50
345.9462585
51
346.4441294
0
ARC
8
DEFAULT_255_2_778
10
17.1524653
20
-0.0569862
40
3.6394022
50
166.0680232
51
166.5103612
0
ARC
8
DEFAULT_255_2_778
10
14.7065385
20
0.5475828
40
1.1198692
50
165.525599
51
165.9594931
0
ARC
8
DEFAULT_255_2_778
10
14.5778447
20
0.5787743
40
0.9874659
50
161.9168888
51
165.4115711
0
ARC
8
DEFAULT_255_2_778
10
16.1148311
20
0.0893144
40
2.6004895
50
161.530083
51
162.1766703
0
ARC
8
DEFAULT_255_2_778
10
11.0552568
20
1.2642152
40
2.8282424
50
337.9388579
51
340.3137464
0
ARC
8
DEFAULT_255_2_778
10
12.4655074
20
0.6894427
40
1.3053667
50
333.4030127
51
338.0707782
0
ARC
8
DEFAULT_255_2_778
10
12.9533
20
0.4488105
40
0.7614662
50
330.1195783
51
333.1605219
0
ARC
8
DEFAULT_255_2_778
10
13.2205857
20
0.2891593
40
0.4502057
50
317.1521337
51
330.7901428
0
ARC
8
DEFAULT_255_2_778
10
13.2862782
20
0.2336951
40
0.3643458
50
307.6616261
51
316.5214839
0
ARC
8
DEFAULT_255_2_778
10
13.1611694
20
0.4459104
40
0.6095532
50
279.3746533
51
304.7819932
0
ARC
8
DEFAULT_255_2_778
10
13.0938298
20
0.7122527
40
0.883608
50
279.422768
51
280.8698331
0
ARC
8
DEFAULT_255_2_778
10
12.7036879
20
1.5680563
40
1.597151
50
285.9466416
51
288.3743763
0
ARC
8
DEFAULT_255_2_778
10
13.00579
20
0.6986869
40
0.6769927
50
287.3034206
51
297.8887089
0
ARC
8
DEFAULT_255_2_778
10
13.2072792
20
0.2995866
40
0.2301577
50
300.0285205
51
300.9341762
0
ARC
8
DEFAULT_255_2_778
10
13.1865872
20
0.3059705
40
0.2466948
50
304.2961275
51
331.8453816
0
ARC
8
DEFAULT_255_2_778
10
12.8743363
20
0.5173025
40
0.6229382
50
328.2568414
51
341.5606737
0
ARC
8
DEFAULT_255_2_778
10
11.9724305
20
0.1003899
40
1.4232159
50
14.2602904
51
16.7940697
0
ARC
8
DEFAULT_255_2_778
10
11.5379523
20
-0.0268872
40
1.8759413
50
16.681481
51
17.6864189
0
ARC
8
DEFAULT_255_2_778
10
12.2202171
20
0.1971815
40
1.1578676
50
17.3795806
51
21.0179458
0
ARC
8
DEFAULT_255_2_778
10
13.2136905
20
0.5835107
40
0.0920316
50
18.3358794
51
33.321404
0
ARC
8
DEFAULT_255_2_778
10
-3.7283177
20
0.5597481
40
4.4279161
50
358.6226002
51
0.0947035
0
ARC
8
DEFAULT_255_2_778
10
-1.1084976
20
0.4926601
40
1.807245
50
355.6407544
51
358.7523861
0
ARC
8
DEFAULT_255_2_778
10
-0.4891486
20
0.4520213
40
1.1866168
50
351.4412218
51
355.3242296
0
ARC
8
DEFAULT_255_2_778
10
9.7008594
20
-1.0232006
40
9.1096436
50
171.8042822
51
171.9057918
0
ARC
8
DEFAULT_255_2_778
10
3.0709325
20
-0.0790131
40
2.4128224
50
171.9361879
51
172.0340484
0
ARC
8
DEFAULT_255_2_778
10
0.1933174
20
0.3966995
40
0.5081261
50
299.6536367
51
343.8504964
0
ARC
8
DEFAULT_255_2_778
10
0.0339079
20
0.6050169
40
0.7688477
50
300.4720798
51
302.2975423
0
ARC
8
DEFAULT_255_2_778
10
0.0163187
20
0.6355915
40
0.8041192
50
292.9264147
51
300.4474828
0
ARC
8
DEFAULT_255_2_778
10
0.026671
20
0.6114874
40
0.7778864
50
291.747603
51
292.9157468
0
ARC
8
DEFAULT_255_2_778
10
-0.0724542
20
0.4722332
40
0.4824165
50
299.9092999
51
322.3961157
0
ARC
8
DEFAULT_255_2_778
10
0.0474687
20
0.3848919
40
0.3341359
50
321.7134935
51
335.1267181
0
ARC
8
DEFAULT_255_2_778
10
0.1520384
20
0.3324032
40
0.217219
50
336.0859544
51
336.6666126
0
ARC
8
DEFAULT_255_2_778
10
0.101437
20
0.3601909
40
0.2747428
50
335.5252117
51
359.3118573
0
ARC
8
DEFAULT_255_2_778
10
-1.1097393
20
0.4432414
40
1.4884062
50
356.6741059
51
359.6440168
0
ARC
8
DEFAULT_255_2_778
10
-9.0835963
20
0.518509
40
9.462612
50
359.4882569
51
0.1275049
0
LINE
8
DEFAULT_255_2_778
10
7.7359924
20
1.9410669
11
7.7359924
21
1.9410669
0
LINE
8
DEFAULT_255_2_778
10
7.5864924
20
1.4399669
11
7.8766924
21
1.4838669
0
LINE
8
DEFAULT_255_2_778
10
7.8766924
20
1.4838669
11
7.8766924
21
0.3405669
0
LINE
8
DEFAULT_255_2_778
10
7.8766924
20
0.3405669
11
7.5864924
21
0.3405669
0
LINE
8
DEFAULT_255_2_778
10
7.5864924
20
0.3405669
11
7.5864924
21
1.4396669
0
LINE
8
DEFAULT_255_2_778
10
7.5864924
20
1.4396669
11
7.5864924
21
1.4399669
0
LINE
8
DEFAULT_255_2_778
10
7.4938924
20
1.4462669
11
7.4223924
21
1.2552669
0
LINE
8
DEFAULT_255_2_778
10
7.4223924
20
1.2552669
11
7.2350924
21
1.2552669
0
LINE
8
DEFAULT_255_2_778
10
7.2350924
20
1.2552669
11
7.2350924
21
0.6906669
0
LINE
8
DEFAULT_255_2_778
10
7.4668924
20
0.5342669
11
7.5025924
21
0.3604669
0
LINE
8
DEFAULT_255_2_778
10
6.9408924
20
0.6472669
11
6.9408924
21
1.2552669
0
LINE
8
DEFAULT_255_2_778
10
6.9408924
20
1.2552669
11
6.8249924
21
1.2552669
0
LINE
8
DEFAULT_255_2_778
10
6.8249924
20
1.2552669
11
6.8249924
21
1.4462669
0
LINE
8
DEFAULT_255_2_778
10
6.8249924
20
1.4462669
11
6.9408924
21
1.4462669
0
LINE
8
DEFAULT_255_2_778
10
6.9408924
20
1.4462669
11
6.9498924
21
1.7068669
0
LINE
8
DEFAULT_255_2_778
10
6.9498924
20
1.7068669
11
7.2530924
21
1.7764669
0
LINE
8
DEFAULT_255_2_778
10
7.2530924
20
1.7764669
11
7.2353924
21
1.4462669
0
LINE
8
DEFAULT_255_2_778
10
7.2353924
20
1.4462669
11
7.4938924
21
1.4462669
0
LINE
8
DEFAULT_255_2_778
10
7.4938924
20
1.4462669
11
7.4938924
21
1.4462669
0
LINE
8
DEFAULT_255_2_778
10
12.3264924
20
1.4166669
11
12.5904924
21
1.4870669
0
LINE
8
DEFAULT_255_2_778
10
13.0040924
20
1.4602669
11
12.9249924
21
1.2049669
0
LINE
8
DEFAULT_255_2_778
10
12.6608924
20
1.1258669
11
12.6608924
21
0.3339669
0
LINE
8
DEFAULT_255_2_778
10
12.6608924
20
0.3339669
11
12.3703924
21
0.3339669
0
LINE
8
DEFAULT_255_2_778
10
12.3703924
20
0.3339669
11
12.3703924
21
1.0819669
0
LINE
8
DEFAULT_255_2_778
10
12.3264924
20
1.4163669
11
12.3264924
21
1.4166669
0
LINE
8
DEFAULT_255_2_778
10
9.5443924
20
1.0697669
11
9.5358924
21
0.7025669
0
LINE
8
DEFAULT_255_2_778
10
9.5358924
20
0.7025669
11
9.5358924
21
0.6853669
0
LINE
8
DEFAULT_255_2_778
10
9.6382924
20
0.4633669
11
9.4845924
21
0.2924669
0
LINE
8
DEFAULT_255_2_778
10
9.1858924
20
1.0181669
11
9.2456924
21
1.0181669
0
LINE
8
DEFAULT_255_2_778
10
9.2456924
20
1.0181669
11
9.2456924
21
1.0607669
0
LINE
8
DEFAULT_255_2_778
10
8.8016924
20
1.1033669
11
8.6992924
21
1.3084669
0
LINE
8
DEFAULT_255_2_778
10
8.6992924
20
1.3084669
11
8.6984924
21
1.3086669
0
LINE
8
DEFAULT_255_2_778
10
9.2535924
20
0.8303669
11
9.2451924
21
0.8303669
0
LINE
8
DEFAULT_255_2_778
10
9.2535924
20
0.5998669
11
9.2535924
21
0.8305669
0
LINE
8
DEFAULT_255_2_778
10
9.2535924
20
0.8305669
11
9.2535924
21
0.8303669
0
LINE
8
DEFAULT_255_2_778
10
13.0201924
20
1.4190669
11
13.3167924
21
1.4539669
0
LINE
8
DEFAULT_255_2_778
10
13.3167924
20
1.4539669
11
13.5086924
21
0.8086669
0
LINE
8
DEFAULT_255_2_778
10
13.5086924
20
0.8086669
11
13.5697924
21
0.5818669
0
LINE
8
DEFAULT_255_2_778
10
13.6482924
20
0.9131669
11
13.8139924
21
1.4364669
0
LINE
8
DEFAULT_255_2_778
10
13.8139924
20
1.4364669
11
14.1192924
21
1.4364669
0
LINE
8
DEFAULT_255_2_778
10
14.1192924
20
1.4364669
11
13.7181924
21
0.3114669
0
LINE
8
DEFAULT_255_2_778
10
13.2384924
20
-0.1594331
11
13.1424924
21
0.0323669
0
LINE
8
DEFAULT_255_2_778
10
13.4652924
20
0.3202669
11
13.3953924
21
0.3202669
0
LINE
8
DEFAULT_255_2_778
10
13.3953924
20
0.3202669
11
13.3517924
21
0.4509669
0
LINE
8
DEFAULT_255_2_778
10
13.2905924
20
0.6340669
11
13.0201924
21
1.4187669
0
LINE
8
DEFAULT_255_2_778
10
13.0201924
20
1.4187669
11
13.0201924
21
1.4190669
0
LINE
8
DEFAULT_255_2_778
10
0.3789924
20
1.8410669
11
0.6995924
21
1.8410669
0
LINE
8
DEFAULT_255_2_778
10
0.6995924
20
1.8410669
11
0.6995924
21
0.5670669
0
LINE
8
DEFAULT_255_2_778
10
0.3148924
20
-0.1110331
11
0.1680924
21
0.0540669
0
LINE
8
DEFAULT_255_2_778
10
0.3789924
20
0.5395669
11
0.3789924
21
1.8407669
0
LINE
8
DEFAULT_255_2_778
10
0.3789924
20
1.8407669
11
0.3789924
21
1.8410669
0
LINE
8
DEFAULT_255_2_778
10
0.8646924
20
1.8410669
11
1.7169924
21
1.8410669
0
LINE
8
DEFAULT_255_2_778
10
1.7169924
20
1.8410669
11
1.6801924
21
1.5843669
0
LINE
8
DEFAULT_255_2_778
10
1.6801924
20
1.5843669
11
1.1761924
21
1.5843669
0
LINE
8
DEFAULT_255_2_778
10
1.1761924
20
1.5843669
11
1.1761924
21
1.2269669
0
LINE
8
DEFAULT_255_2_778
10
1.1761924
20
1.2269669
11
1.5793924
21
1.2269669
0
LINE
8
DEFAULT_255_2_778
10
1.5793924
20
1.2269669
11
1.5793924
21
0.9702669
0
LINE
8
DEFAULT_255_2_778
10
1.5793924
20
0.9702669
11
1.1761924
21
0.9702669
0
LINE
8
DEFAULT_255_2_778
10
1.1761924
20
0.9702669
11
1.1761924
21
0.2739669
0
LINE
8
DEFAULT_255_2_778
10
1.1761924
20
0.2739669
11
0.8554924
21
0.2739669
0
LINE
8
DEFAULT_255_2_778
10
0.8554924
20
0.2739669
11
0.8554924
21
1.8410669
0
LINE
8
DEFAULT_255_2_778
10
0.8554924
20
1.8410669
11
0.8646924
21
1.8410669
0
ARC
8
DEFAULT_255_2_778
10
1.6482067
20
1.2922056
40
0.3161737
50
359.8376274
51
31.2248898
0
ARC
8
DEFAULT_255_2_778
10
2.4342103
20
0.8981799
40
0.612611
50
135.8807859
51
140.0791968
0
ARC
8
DEFAULT_255_2_778
10
2.5365173
20
0.80036
40
0.7541548
50
128.5049482
51
135.9565488
0
ARC
8
DEFAULT_255_2_778
10
2.3407499
20
1.0544375
40
0.4334728
50
117.8925497
51
129.1639335
0
ARC
8
DEFAULT_255_2_778
10
2.2210113
20
1.2722954
40
0.18495
50
116.5027099
51
116.6808684
0
ARC
8
DEFAULT_255_2_778
10
2.2461448
20
1.1315289
40
0.3246533
50
91.2117586
51
109.3679006
0
ARC
8
DEFAULT_255_2_778
10
2.2505499
20
1.1950968
40
0.2612561
50
80.4197263
51
92.4725491
0
ARC
8
DEFAULT_255_2_778
10
2.2541684
20
1.2875278
40
0.1699232
50
57.6743828
51
76.4325651
0
ARC
8
DEFAULT_255_2_778
10
2.1297207
20
1.0614766
40
0.4277764
50
59.1190892
51
59.7797381
0
ARC
8
DEFAULT_255_2_778
10
2.1928739
20
1.0313804
40
0.1508705
50
60.668704
51
96.7354027
0
ARC
8
DEFAULT_255_2_778
10
2.1761528
20
0.9668539
40
0.2143579
50
90.2602401
51
139.5991376
0
ARC
8
DEFAULT_255_2_778
10
2.2565498
20
0.8824332
40
0.3305227
50
137.4870952
51
143.20312
0
ARC
8
DEFAULT_255_2_778
10
0.0194894
20
1.0438279
40
1.6700152
50
359.683732
51
6.1480236
0
ARC
8
DEFAULT_255_2_778
10
0.9591381
20
1.1503064
40
0.7243862
50
5.7341893
51
16.1942217
0
ARC
8
DEFAULT_255_2_778
10
1.3553647
20
1.2605131
40
0.3131801
50
17.0488682
51
22.9855595
0
LINE
8
DEFAULT_255_2_778
10
1.6436792
20
1.3828096
11
1.9185792
21
1.4561096
0
LINE
8
DEFAULT_255_2_778
10
2.3492792
20
1.4286096
11
2.2667792
21
1.1629096
0
LINE
8
DEFAULT_255_2_778
10
1.9918792
20
1.0804096
11
1.9918792
21
0.2557096
0
LINE
8
DEFAULT_255_2_778
10
1.9918792
20
0.2557096
11
1.6894792
21
0.2557096
0
LINE
8
DEFAULT_255_2_778
10
1.6894792
20
0.2557096
11
1.6894792
21
1.0346096
0
LINE
8
DEFAULT_255_2_778
10
1.6436792
20
1.3828096
11
1.6436792
21
1.3828096
0
ARC
8
DEFAULT_255_2_778
10
2.8474147
20
0.9637846
40
0.4837446
50
39.7232775
51
92.5867856
0
ARC
8
DEFAULT_255_2_778
10
2.7781014
20
0.9028771
40
0.5759867
50
4.5994596
51
39.9768975
0
ARC
8
DEFAULT_255_2_778
10
2.4245481
20
0.8540571
40
0.9325375
50
359.8451198
51
5.8475144
0
ARC
8
DEFAULT_255_2_778
10
2.4696903
20
0.8377555
40
0.8874988
50
346.4385433
51
0.8897044
0
ARC
8
DEFAULT_255_2_778
10
2.8307353
20
0.7526032
40
0.5165562
50
317.3363224
51
346.229725
0
ARC
8
DEFAULT_255_2_778
10
2.8593024
20
0.7009344
40
0.4609109
50
277.7339403
51
319.6534301
0
ARC
8
DEFAULT_255_2_778
10
2.8282471
20
0.898758
40
0.6611271
50
269.7690383
51
278.0936851
0
ARC
8
DEFAULT_255_2_778
10
2.8129137
20
0.7268153
40
0.489343
50
198.7513692
51
271.4834749
0
ARC
8
DEFAULT_255_2_778
10
3.0749353
20
0.8328535
40
0.771714
50
179.2810837
51
199.9527343
0
ARC
8
DEFAULT_255_2_778
10
3.0695331
20
0.8526902
40
0.7663183
50
159.4093701
51
180.7592078
0
ARC
8
DEFAULT_255_2_778
10
2.8128883
20
0.9585988
40
0.4889024
50
88.5122093
51
160.4505387
0
ARC
8
DEFAULT_255_2_778
10
2.8375429
20
1.0621702
40
0.1650892
50
90.9582301
51
163.8333652
0
ARC
8
DEFAULT_255_2_778
10
3.395382
20
0.9160794
40
0.7416972
50
164.9926809
51
176.9442026
0
ARC
8
DEFAULT_255_2_778
10
4.1803245
20
0.8557838
40
1.5288483
50
176.255899
51
180.1591801
0
ARC
8
DEFAULT_255_2_778
10
4.3026613
20
0.8360393
40
1.6512519
50
179.4622701
51
185.3094255
0
ARC
8
DEFAULT_255_2_778
10
3.0702748
20
0.7133516
40
0.4128801
50
184.182095
51
200.6706371
0
ARC
8
DEFAULT_255_2_778
10
2.8377353
20
0.633426
40
0.1672566
50
203.1738383
51
206.6762878
0
ARC
8
DEFAULT_255_2_778
10
2.8338209
20
0.6277571
40
0.1612477
50
205.5007612
51
273.6485392
0
ARC
8
DEFAULT_255_2_778
10
2.845337
20
0.6262265
40
0.1593951
50
269.5489033
51
345.5161886
0
ARC
8
DEFAULT_255_2_778
10
2.4721293
20
0.7747721
40
0.5601733
50
340.3456642
51
355.2849787
0
ARC
8
DEFAULT_255_2_778
10
1.7426463
20
0.8541345
40
1.2938526
50
354.4377897
51
0.2923466
0
ARC
8
DEFAULT_255_2_778
10
1.8808092
20
0.8742281
40
1.1557516
50
359.3311378
51
7.4499055
0
ARC
8
DEFAULT_255_2_778
10
2.6821022
20
0.9869412
40
0.3466975
50
6.1497541
51
28.1096041
0
ARC
8
DEFAULT_255_2_778
10
2.8421076
20
1.0645988
40
0.1691164
50
30.444665
51
39.6169862
0
ARC
8
DEFAULT_255_2_778
10
2.8218945
20
0.9955689
40
0.2322253
50
49.6072139
51
86.8186857
0
LINE
8
DEFAULT_255_2_778
10
2.8255821
20
1.4473363
11
2.8255821
21
1.4470363
0
LINE
8
DEFAULT_255_2_778
10
2.8347821
20
1.2274363
11
2.8347821
21
1.2272363
0
ARC
8
DEFAULT_255_2_778
10
4.4370817
20
1.4866866
40
0.269126
50
266.4834136
51
316.2455454
0
ARC
8
DEFAULT_255_2_778
10
4.4160244
20
1.712908
40
0.4948616
50
267.8146387
51
270.5267822
0
ARC
8
DEFAULT_255_2_778
10
4.4177044
20
1.543362
40
0.325605
50
257.7655342
51
266.3814143
0
ARC
8
DEFAULT_255_2_778
10
4.6163078
20
2.6107153
40
1.4111689
50
258.624615
51
259.0686736
0
ARC
8
DEFAULT_255_2_778
10
4.1302614
20
1.0511964
40
0.2722968
50
356.583106
51
40.2867893
0
ARC
8
DEFAULT_255_2_778
10
4.0614587
20
1.0444459
40
0.3407474
50
285.6251803
51
358.4059928
0
ARC
8
DEFAULT_255_2_778
10
3.9752347
20
1.2378634
40
0.5511103
50
269.5882441
51
288.8437184
0
ARC
8
DEFAULT_255_2_778
10
4.2049067
20
0.0933253
40
0.6559389
50
115.2142191
51
124.1809363
0
ARC
8
DEFAULT_255_2_778
10
3.8680053
20
0.5804046
40
0.0639207
50
119.6384368
51
163.5758275
0
ARC
8
DEFAULT_255_2_778
10
3.8318
20
0.5951577
40
0.0253257
50
172.4666387
51
179.978346
0
ARC
8
DEFAULT_255_2_778
10
3.8422621
20
0.6028816
40
0.03661
50
192.1643671
51
285.8713328
0
ARC
8
DEFAULT_255_2_778
10
4.0311727
20
-0.3476467
40
0.9154179
50
80.865798
51
90.8636773
0
ARC
8
DEFAULT_255_2_778
10
4.1228455
20
0.1977307
40
0.3624249
50
47.9533669
51
81.4875987
0
ARC
8
DEFAULT_255_2_778
10
4.1274899
20
0.2256269
40
0.3389411
50
0.0077438
51
45.377259
0
ARC
8
DEFAULT_255_2_778
10
4.1271278
20
0.2256755
40
0.3393032
50
358.9516069
51
359.9995261
0
ARC
8
DEFAULT_255_2_778
10
4.1549655
20
0.2023216
40
0.3118804
50
314.8122118
51
3.1514385
0
ARC
8
DEFAULT_255_2_778
10
4.0437893
20
0.3183612
40
0.4725655
50
277.0382011
51
314.4590992
0
ARC
8
DEFAULT_255_2_778
10
3.9239622
20
0.9080035
40
1.0734623
50
269.6003227
51
279.530233
0
ARC
8
DEFAULT_255_2_778
10
3.9157825
20
1.2103146
40
1.3757475
50
267.7395001
51
270.0288072
0
ARC
8
DEFAULT_255_2_778
10
3.8617368
20
0.541841
40
0.7062033
50
243.6578009
51
269.9823239
0
ARC
8
DEFAULT_255_2_778
10
3.7099622
20
0.1994332
40
0.3323856
50
225.3751677
51
240.9120257
0
ARC
8
DEFAULT_255_2_778
10
3.6506165
20
0.1637187
40
0.2658324
50
177.8336706
51
229.0740246
0
ARC
8
DEFAULT_255_2_778
10
3.6245622
20
0.1774378
40
0.2396162
50
163.7605885
51
180.8777026
0
ARC
8
DEFAULT_255_2_778
10
3.6436328
20
0.1689904
40
0.260303
50
158.5854312
51
163.1492718
0
ARC
8
DEFAULT_255_2_778
10
2.7530152
20
0.5326501
40
0.7017335
50
337.4931267
51
340.0107874
0
ARC
8
DEFAULT_255_2_778
10
3.8562879
20
0.2353757
40
0.1696182
50
160.2231759
51
169.7547797
0
ARC
8
DEFAULT_255_2_778
10
3.97322
20
0.2301418
40
0.2860452
50
172.8905455
51
182.1386443
0
ARC
8
DEFAULT_255_2_778
10
3.8237016
20
0.2192667
40
0.1363276
50
179.9156825
51
263.0614783
0
ARC
8
DEFAULT_255_2_778
10
3.9014588
20
0.4815787
40
0.4086527
50
256.668928
51
270.8153808
0
ARC
8
DEFAULT_255_2_778
10
3.9241166
20
0.6044671
40
0.5317666
50
268.18499
51
284.7342172
0
ARC
8
DEFAULT_255_2_778
10
4.0214288
20
0.219733
40
0.1349859
50
286.321615
51
305.3742984
0
ARC
8
DEFAULT_255_2_778
10
4.0301487
20
0.2345013
40
0.1428405
50
299.0802727
51
357.6993731
0
ARC
8
DEFAULT_255_2_778
10
4.0681709
20
0.2370425
40
0.1050297
50
355.4809947
51
61.7558133
0
ARC
8
DEFAULT_255_2_778
10
4.0153567
20
0.1511265
40
0.2057934
50
60.1218531
51
82.6894958
0
ARC
8
DEFAULT_255_2_778
10
3.8432352
20
-0.7745887
40
1.1471071
50
80.0448857
51
83.9190915
0
ARC
8
DEFAULT_255_2_778
10
3.679842
20
-2.1376619
40
2.5198843
50
83.5080011
51
83.569264
0
ARC
8
DEFAULT_255_2_778
10
3.8270956
20
1.5838555
40
1.217506
50
263.0376058
51
270.3095868
0
ARC
8
DEFAULT_255_2_778
10
3.7461221
20
0.953698
40
0.5821935
50
253.0368895
51
263.4302899
0
ARC
8
DEFAULT_255_2_778
10
3.6562867
20
0.6451289
40
0.2608718
50
248.0501589
51
252.1363674
0
ARC
8
DEFAULT_255_2_778
10
3.6015559
20
0.5175056
40
0.12208
50
209.5527314
51
249.4857543
0
ARC
8
DEFAULT_255_2_778
10
3.7537552
20
0.630505
40
0.3110812
50
213.6415852
51
213.8352745
0
ARC
8
DEFAULT_255_2_778
10
3.7442701
20
0.5556465
40
0.2678626
50
181.2790514
51
201.340812
0
ARC
8
DEFAULT_255_2_778
10
3.622415
20
0.5620876
40
0.1464684
50
138.1718638
51
184.8644487
0
ARC
8
DEFAULT_255_2_778
10
3.7706951
20
0.3699346
40
0.3876448
50
110.8266493
51
131.6105541
0
ARC
8
DEFAULT_255_2_778
10
3.8422504
20
0.2229344
40
0.550675
50
110.6978115
51
112.3474868
0
ARC
8
DEFAULT_255_2_778
10
3.8251464
20
0.2698808
40
0.5007137
50
105.9710539
51
110.7656192
0
ARC
8
DEFAULT_255_2_778
10
3.7680685
20
1.0970581
40
0.3550815
50
224.2901847
51
256.8644368
0
ARC
8
DEFAULT_255_2_778
10
3.7458863
20
1.047677
40
0.3053669
50
179.9573109
51
220.5616223
0
ARC
8
DEFAULT_255_2_778
10
3.9609561
20
1.0717382
40
0.520982
50
179.974809
51
182.6220637
0
ARC
8
DEFAULT_255_2_778
10
3.8111098
20
1.0753478
40
0.3711511
50
103.5370638
51
180.5218763
0
ARC
8
DEFAULT_255_2_778
10
3.9269419
20
0.7621856
40
0.7038252
50
89.3623877
51
106.7388783
0
ARC
8
DEFAULT_255_2_778
10
3.9199546
20
0.5431107
40
0.9229756
50
76.8204134
51
89.0800016
0
ARC
8
DEFAULT_255_2_778
10
3.6930279
20
-0.6149414
40
2.1027067
50
77.5687261
51
77.9946633
0
ARC
8
DEFAULT_255_2_778
10
3.6784202
20
-0.6676123
40
2.1572894
50
77.3461209
51
77.4909922
0
ARC
8
DEFAULT_255_2_778
10
3.7070851
20
-0.5396143
40
2.0261209
50
77.1995485
51
77.344124
0
ARC
8
DEFAULT_255_2_778
10
3.7118001
20
-0.5194654
40
2.0054281
50
77.0663274
51
77.2033675
0
ARC
8
DEFAULT_255_2_778
10
3.6979514
20
-0.5801729
40
2.0676951
50
76.8830167
51
77.0688322
0
ARC
8
DEFAULT_255_2_778
10
3.6975001
20
-0.5823697
40
2.0699369
50
76.715478
51
76.8846482
0
ARC
8
DEFAULT_255_2_778
10
3.6521829
20
-0.7743345
40
2.2671782
50
76.5401936
51
76.7156421
0
ARC
8
DEFAULT_255_2_778
10
3.5865796
20
-1.0482922
40
2.5488814
50
76.390607
51
76.5394248
0
ARC
8
DEFAULT_255_2_778
10
4.4368977
20
2.3737429
40
0.9773831
50
255.1457683
51
259.120311
0
ARC
8
DEFAULT_255_2_778
10
4.291918
20
1.6560991
40
0.2453715
50
260.7365045
51
261.5863608
0
ARC
8
DEFAULT_255_2_778
10
4.2906298
20
1.6511102
40
0.2402485
50
261.7161751
51
270.3921602
0
ARC
8
DEFAULT_255_2_778
10
4.3226385
20
1.5069888
40
0.1008035
50
252.4689109
51
270.7295682
0
ARC
8
DEFAULT_255_2_778
10
4.3166973
20
1.6146775
40
0.2086092
50
271.9847249
51
295.9389477
0
ARC
8
DEFAULT_255_2_778
10
4.2847144
20
1.6968417
40
0.296573
50
294.5519299
51
295.1568261
0
ARC
8
DEFAULT_255_2_778
10
4.2678692
20
1.7290832
40
0.3329208
50
295.4221358
51
314.9499874
0
ARC
8
DEFAULT_255_2_778
10
3.9042624
20
1.0380706
40
0.1895904
50
86.3069342
51
131.16171
0
ARC
8
DEFAULT_255_2_778
10
3.9045428
20
1.0632181
40
0.171663
50
136.7655741
51
183.3565813
0
ARC
8
DEFAULT_255_2_778
10
3.8912723
20
1.041718
40
0.1585122
50
175.8579549
51
224.2461526
0
ARC
8
DEFAULT_255_2_778
10
3.9018627
20
1.0861003
40
0.1985712
50
231.3054806
51
274.219807
0
ARC
8
DEFAULT_255_2_778
10
3.9291611
20
1.0948029
40
0.2071245
50
266.4882757
51
304.6274147
0
ARC
8
DEFAULT_255_2_778
10
3.9461903
20
1.0411159
40
0.1541557
50
310.769663
51
4.4837786
0
ARC
8
DEFAULT_255_2_778
10
3.9339987
20
1.0620796
40
0.1661147
50
356.9245233
51
96.055793
0
LINE
8
DEFAULT_255_2_778
10
4.5030742
20
1.4929673
11
4.6314742
21
1.3005673
0
LINE
8
DEFAULT_255_2_778
10
3.9712742
20
0.6867673
11
3.9254742
21
0.6867673
0
LINE
8
DEFAULT_255_2_778
10
3.8522742
20
0.5676673
11
4.0173742
21
0.5676673
0
LINE
8
DEFAULT_255_2_778
10
3.4124742
20
0.2927673
11
3.6966742
21
0.2927673
0
LINE
8
DEFAULT_255_2_778
10
3.9620742
20
0.3663673
11
3.8336742
21
0.3663673
0
LINE
8
DEFAULT_255_2_778
10
4.5030742
20
1.4934673
11
4.5030742
21
1.4929673
0
LINE
8
DEFAULT_255_2_778
10
3.9164742
20
1.2272673
11
3.9164742
21
1.2272673
0
ARC
8
DEFAULT_255_2_778
10
8.5377318
20
1.5664571
40
0.4727715
50
153.7959918
51
181.6316983
0
ARC
8
DEFAULT_255_2_778
10
8.4187134
20
1.6156554
40
0.3443633
50
133.8259763
51
152.3961221
0
ARC
8
DEFAULT_255_2_778
10
8.422492
20
1.6227783
40
0.341927
50
96.8530858
51
135.1093901
0
ARC
8
DEFAULT_255_2_778
10
8.4833485
20
1.3156986
40
0.6545064
50
89.684547
51
98.9352274
0
ARC
8
DEFAULT_255_2_778
10
8.4129777
20
1.1910998
40
0.7825993
50
69.1896448
51
84.5760891
0
ARC
8
DEFAULT_255_2_778
10
8.5052616
20
1.4572667
40
0.5010793
50
63.4731868
51
68.2406284
0
ARC
8
DEFAULT_255_2_778
10
8.5843777
20
1.5290891
40
0.1890423
50
75.3616347
51
89.1812878
0
ARC
8
DEFAULT_255_2_778
10
8.5864006
20
1.6054697
40
0.1126446
50
89.655015
51
101.3915317
0
ARC
8
DEFAULT_255_2_778
10
8.5514698
20
1.5167437
40
0.1995548
50
86.3562627
51
124.7541224
0
ARC
8
DEFAULT_255_2_778
10
8.5438827
20
1.5614752
40
0.159645
50
131.6854279
51
185.0276443
0
ARC
8
DEFAULT_255_2_778
10
10.2040588
20
0.8249243
40
0.2835359
50
258.5868367
51
269.6119717
0
ARC
8
DEFAULT_255_2_778
10
10.2041065
20
0.729008
40
0.1876236
50
269.3990245
51
287.8288183
0
ARC
8
DEFAULT_255_2_778
10
9.9251354
20
1.1330533
40
0.6728051
50
300.001374
51
313.7810151
0
ARC
8
DEFAULT_255_2_778
10
10.4645927
20
0.487027
40
0.0577883
50
298.9070395
51
342.6510651
0
ARC
8
DEFAULT_255_2_778
10
10.2733656
20
0.7205078
40
0.3587853
50
303.4922421
51
307.6504532
0
ARC
8
DEFAULT_255_2_778
10
10.2792879
20
0.6403779
40
0.2913518
50
302.5515213
51
311.2401959
0
ARC
8
DEFAULT_255_2_778
10
9.1198753
20
2.3592605
40
2.3646237
50
301.7038141
51
303.8217798
0
ARC
8
DEFAULT_255_2_778
10
10.1569138
20
0.7020155
40
0.4098436
50
269.3902112
51
300.1157154
0
ARC
8
DEFAULT_255_2_778
10
10.1369138
20
0.6975183
40
0.4056248
50
217.0198338
51
272.2094898
0
ARC
8
DEFAULT_255_2_778
10
10.2877048
20
0.8047181
40
0.5905873
50
189.202304
51
216.5154708
0
ARC
8
DEFAULT_255_2_778
10
10.7183724
20
0.8915956
40
1.0297443
50
179.6105384
51
190.1419316
0
ARC
8
DEFAULT_255_2_778
10
10.5759188
20
0.9320807
40
0.8873589
50
163.8795853
51
180.8255796
0
ARC
8
DEFAULT_255_2_778
10
10.261539
20
1.0197226
40
0.5610147
50
143.262279
51
163.5636085
0
ARC
8
DEFAULT_255_2_778
10
10.1348726
20
1.1169214
40
0.4013724
50
87.7897746
51
143.5659726
0
ARC
8
DEFAULT_255_2_778
10
10.1663684
20
1.1321024
40
0.386225
50
42.2515807
51
92.3766902
0
ARC
8
DEFAULT_255_2_778
10
10.3078188
20
1.2560141
40
0.1982358
50
25.2243899
51
43.2314501
0
ARC
8
DEFAULT_255_2_778
10
21.706527
20
12.5759701
40
16.1061964
50
224.8782524
51
225.1217476
0
ARC
8
DEFAULT_255_2_778
10
10.1782614
20
1.1094566
40
0.153894
50
41.4827223
51
94.5027144
0
ARC
8
DEFAULT_255_2_778
10
10.1664912
20
0.9496623
40
0.3132135
50
90.0569805
51
93.778254
0
ARC
8
DEFAULT_255_2_778
10
10.1401669
20
1.1075763
40
0.1547233
50
87.8942857
51
151.3772076
0
ARC
8
DEFAULT_255_2_778
10
10.3043862
20
1.0193036
40
0.3411621
50
151.5758339
51
173.2052079
0
ARC
8
DEFAULT_255_2_778
10
10.8800242
20
0.9295797
40
0.923611
50
171.9031248
51
180.5263451
0
ARC
8
DEFAULT_255_2_778
10
10.8381503
20
0.8764352
40
0.8817781
50
179.2293468
51
189.7291111
0
ARC
8
DEFAULT_255_2_778
10
10.2776803
20
0.7767715
40
0.3125465
50
189.084483
51
208.8221702
0
ARC
8
DEFAULT_255_2_778
10
10.1400567
20
0.7018964
40
0.1558768
50
209.0969967
51
272.7192926
0
LINE
8
DEFAULT_255_2_778
10
5.806452
20
0.3567951
11
5.708552
21
0.6691951
0
LINE
8
DEFAULT_255_2_778
10
5.708552
20
0.6691951
11
5.244452
21
0.6633951
0
LINE
8
DEFAULT_255_2_778
10
5.244452
20
0.6633951
11
5.147652
21
0.3405951
0
LINE
8
DEFAULT_255_2_778
10
5.147652
20
0.3405951
11
4.824852
21
0.3567951
0
LINE
8
DEFAULT_255_2_778
10
4.824852
20
0.3567951
11
5.324952
21
1.8571951
0
LINE
8
DEFAULT_255_2_778
10
5.324952
20
1.8571951
11
5.647752
21
1.8571951
0
LINE
8
DEFAULT_255_2_778
10
5.647752
20
1.8571951
11
6.115452
21
0.3405951
0
LINE
8
DEFAULT_255_2_778
10
6.115452
20
0.3405951
11
5.808852
21
0.3405951
0
LINE
8
DEFAULT_255_2_778
10
5.808852
20
0.3405951
11
5.806452
21
0.3567951
0
LINE
8
DEFAULT_255_2_778
10
5.486352
20
1.5021951
11
5.341052
21
0.9374951
0
LINE
8
DEFAULT_255_2_778
10
5.341052
20
0.9374951
11
5.615452
21
0.9374951
0
LINE
8
DEFAULT_255_2_778
10
5.615452
20
0.9374951
11
5.486352
21
1.5021951
0
LINE
8
DEFAULT_255_2_778
10
5.486352
20
1.5021951
11
5.486352
21
1.5021951
0
LINE
8
DEFAULT_255_2_778
10
8.406252
20
0.3405951
11
8.115752
21
0.3405951
0
LINE
8
DEFAULT_255_2_778
10
8.115752
20
0.3405951
11
8.115752
21
1.2441951
0
LINE
8
DEFAULT_255_2_778
10
8.115752
20
1.2441951
11
8.002752
21
1.2441951
0
LINE
8
DEFAULT_255_2_778
10
8.002752
20
1.2441951
11
8.002752
21
1.4539951
0
LINE
8
DEFAULT_255_2_778
10
8.002752
20
1.4539951
11
8.065152
21
1.4515951
0
LINE
8
DEFAULT_255_2_778
10
8.065152
20
1.4515951
11
8.065152
21
1.5529951
0
LINE
8
DEFAULT_255_2_778
10
8.729052
20
1.9055951
11
8.632152
21
1.7119951
0
LINE
8
DEFAULT_255_2_778
10
8.384852
20
1.5473951
11
8.384852
21
1.4515951
0
LINE
8
DEFAULT_255_2_778
10
8.384852
20
1.4515951
11
8.680652
21
1.4539951
0
LINE
8
DEFAULT_255_2_778
10
8.680652
20
1.4539951
11
8.599952
21
1.2441951
0
LINE
8
DEFAULT_255_2_778
10
8.599952
20
1.2441951
11
8.390152
21
1.2441951
0
LINE
8
DEFAULT_255_2_778
10
8.390152
20
1.2441951
11
8.406252
21
0.4374951
0
LINE
8
DEFAULT_255_2_778
10
8.406252
20
0.4374951
11
8.406252
21
0.3405951
0
LINE
8
DEFAULT_255_2_778
10
10.390652
20
0.6472951
11
10.519752
21
0.4697951
0
LINE
8
DEFAULT_255_2_778
10
9.688652
20
0.8985951
11
9.688652
21
0.9192951
0
LINE
8
DEFAULT_255_2_778
10
10.487152
20
1.3404951
11
10.341952
21
1.1629951
0
LINE
8
DEFAULT_255_2_778
10
9.956452
20
0.9210951
11
9.956452
21
0.8882951
0
LINE
8
DEFAULT_255_2_778
10
10.147452
20
0.5461951
11
10.147952
21
0.5469951
0
ARC
8
DEFAULT_255_2_778
10
6.1198328
20
1.3546569
40
0.3162687
50
359.8244532
51
31.2201839
0
ARC
8
DEFAULT_255_2_778
10
6.8993022
20
0.9676202
40
0.6029963
50
135.9630162
51
140.18962
0
ARC
8
DEFAULT_255_2_778
10
7.0048963
20
0.866761
40
0.7490171
50
128.4860192
51
136.0314031
0
ARC
8
DEFAULT_255_2_778
10
6.812473
20
1.1168039
40
0.4335727
50
117.8858133
51
129.1449721
0
ARC
8
DEFAULT_255_2_778
10
6.7476936
20
1.2249798
40
0.3077321
50
116.5383327
51
116.6452943
0
ARC
8
DEFAULT_255_2_778
10
6.7178671
20
1.1939995
40
0.3246611
50
91.2119867
51
109.3676928
0
ARC
8
DEFAULT_255_2_778
10
6.7222257
20
1.2570455
40
0.2617832
50
80.457144
51
92.4576983
0
ARC
8
DEFAULT_255_2_778
10
6.7259666
20
1.350105
40
0.1697976
50
57.6816714
51
76.4929162
0
ARC
8
DEFAULT_255_2_778
10
6.6022339
20
1.1252767
40
0.4262352
50
59.1193126
51
59.7835688
0
ARC
8
DEFAULT_255_2_778
10
6.6645947
20
1.0938579
40
0.1508713
50
60.6688478
51
96.7353504
0
ARC
8
DEFAULT_255_2_778
10
6.6478736
20
1.0293322
40
0.2143579
50
90.2602401
51
139.5991376
0
ARC
8
DEFAULT_255_2_778
10
6.7282706
20
0.9449115
40
0.3305227
50
137.4870952
51
143.20312
0
ARC
8
DEFAULT_255_2_778
10
4.4919825
20
1.1063153
40
1.669243
50
359.6832752
51
6.1494638
0
ARC
8
DEFAULT_255_2_778
10
5.4302513
20
1.2126361
40
0.7250024
50
5.7385592
51
16.1897268
0
ARC
8
DEFAULT_255_2_778
10
5.8257193
20
1.322588
40
0.3145953
50
17.0407114
51
22.9560349
0
ARC
8
DEFAULT_255_2_778
10
11.3978791
20
0.6610333
40
0.4201946
50
178.1650758
51
192.1451244
0
ARC
8
DEFAULT_255_2_778
10
11.0806975
20
0.5941634
40
0.0960531
50
192.9552903
51
283.3033886
0
ARC
8
DEFAULT_255_2_778
10
11.0790162
20
0.8868803
40
0.386924
50
273.5241332
51
284.0775149
0
ARC
8
DEFAULT_255_2_778
10
11.3886983
20
-0.5761402
40
1.1088722
50
99.3834466
51
101.2098932
0
ARC
8
DEFAULT_255_2_778
10
11.3739038
20
-0.4918193
40
1.023268
50
99.234176
51
99.3359203
0
ARC
8
DEFAULT_255_2_778
10
10.9582915
20
1.0426996
40
0.7550301
50
279.4743291
51
292.3498489
0
ARC
8
DEFAULT_255_2_778
10
11.064839
20
0.4153736
40
0.1187372
50
278.4420468
51
278.5899078
0
ARC
8
DEFAULT_255_2_778
10
11.0051197
20
0.8139568
40
0.5217693
50
269.9429251
51
278.5031723
0
ARC
8
DEFAULT_255_2_778
10
10.9933959
20
0.6997048
40
0.4076709
50
242.4230299
51
271.5748686
0
ARC
8
DEFAULT_255_2_778
10
10.9065921
20
0.5311456
40
0.2180797
50
199.7960434
51
242.136443
0
ARC
8
DEFAULT_255_2_778
10
10.9183756
20
0.5470516
40
0.2348105
50
196.6771128
51
202.4750786
0
ARC
8
DEFAULT_255_2_778
10
10.960873
20
0.5506257
40
0.276685
50
179.220433
51
194.8603044
0
ARC
8
DEFAULT_255_2_778
10
13.9480522
20
0.6146269
40
3.2643943
50
179.7093235
51
181.0573178
0
LINE
8
DEFAULT_255_2_778
10
6.1154
20
1.4452879
11
6.3903
21
1.5185879
0
LINE
8
DEFAULT_255_2_778
10
6.821
20
1.4910879
11
6.7385
21
1.2253879
0
LINE
8
DEFAULT_255_2_778
10
6.4636
20
1.1428879
11
6.4636
21
0.3181879
0
LINE
8
DEFAULT_255_2_778
10
6.4636
20
0.3181879
11
6.1612
21
0.3181879
0
LINE
8
DEFAULT_255_2_778
10
6.1612
20
0.3181879
11
6.1612
21
1.0970879
0
LINE
8
DEFAULT_255_2_778
10
6.1154
20
1.4452879
11
6.1154
21
1.4452879
0
LINE
8
DEFAULT_255_2_778
10
11.2367
20
1.4301879
11
11.1652
21
1.2391879
0
LINE
8
DEFAULT_255_2_778
10
11.1652
20
1.2391879
11
10.9779
21
1.2391879
0
LINE
8
DEFAULT_255_2_778
10
10.9779
20
1.2391879
11
10.9779
21
0.6744879
0
LINE
8
DEFAULT_255_2_778
10
11.2097
20
0.5181879
11
11.2454
21
0.3443879
0
LINE
8
DEFAULT_255_2_778
10
10.6837
20
0.6311879
11
10.6837
21
1.2391879
0
LINE
8
DEFAULT_255_2_778
10
10.6837
20
1.2391879
11
10.5678
21
1.2391879
0
LINE
8
DEFAULT_255_2_778
10
10.5678
20
1.2391879
11
10.5678
21
1.4301879
0
LINE
8
DEFAULT_255_2_778
10
10.5678
20
1.4301879
11
10.6837
21
1.4301879
0
LINE
8
DEFAULT_255_2_778
10
10.6837
20
1.4301879
11
10.6927
21
1.6907879
0
LINE
8
DEFAULT_255_2_778
10
10.6927
20
1.6907879
11
10.9959
21
1.7603879
0
LINE
8
DEFAULT_255_2_778
10
10.9959
20
1.7603879
11
10.9782
21
1.4301879
0
LINE
8
DEFAULT_255_2_778
10
10.9782
20
1.4301879
11
11.2367
21
1.4301879
0
LINE
8
DEFAULT_255_2_778
10
11.2367
20
1.4301879
11
11.2367
21
1.4301879
0
ARC
8
DEFAULT_255_2_778
10
11.7576179
20
0.9704874
40
0.483942
50
39.7342165
51
92.586587
0
ARC
8
DEFAULT_255_2_778
10
11.6878416
20
0.909726
40
0.5764456
50
4.6008894
51
39.945299
0
ARC
8
DEFAULT_255_2_778
10
11.3345913
20
0.8609571
40
0.93269
50
359.8451437
51
5.846553
0
ARC
8
DEFAULT_255_2_778
10
11.3798862
20
0.8446555
40
0.8874988
50
346.4385433
51
0.8897044
0
ARC
8
DEFAULT_255_2_778
10
11.7409313
20
0.7595032
40
0.5165562
50
317.3363224
51
346.229725
0
ARC
8
DEFAULT_255_2_778
10
11.7695801
20
0.7076706
40
0.4607426
50
277.7311849
51
319.6623685
0
ARC
8
DEFAULT_255_2_778
10
11.7384513
20
0.9060631
40
0.6615323
50
269.7684682
51
278.0912249
0
ARC
8
DEFAULT_255_2_778
10
11.7231096
20
0.7337153
40
0.489343
50
198.7513692
51
271.4834749
0
ARC
8
DEFAULT_255_2_778
10
11.9851313
20
0.8397535
40
0.771714
50
179.2810837
51
199.9527343
0
ARC
8
DEFAULT_255_2_778
10
11.9797291
20
0.8595902
40
0.7663183
50
159.4093701
51
180.7592078
0
ARC
8
DEFAULT_255_2_778
10
11.7230842
20
0.9654988
40
0.4889024
50
88.5122093
51
160.4505387
0
ARC
8
DEFAULT_255_2_778
10
11.747758
20
1.069043
40
0.1651151
50
90.9300155
51
163.8261291
0
ARC
8
DEFAULT_255_2_778
10
12.3117152
20
0.9221175
40
0.7478486
50
165.0506532
51
176.9032326
0
ARC
8
DEFAULT_255_2_778
10
13.0822897
20
0.8626002
40
1.5206174
50
176.2324484
51
180.1568934
0
ARC
8
DEFAULT_255_2_778
10
13.2081099
20
0.8430824
40
1.6465035
50
179.4657008
51
185.3297848
0
ARC
8
DEFAULT_255_2_778
10
11.9823932
20
0.7205983
40
0.4147878
50
184.2108488
51
200.6224186
0
ARC
8
DEFAULT_255_2_778
10
11.7489218
20
0.6405426
40
0.1682392
50
203.1108616
51
206.5907727
0
ARC
8
DEFAULT_255_2_778
10
11.7440169
20
0.6346571
40
0.1612477
50
205.5007612
51
273.6485392
0
ARC
8
DEFAULT_255_2_778
10
11.755533
20
0.6331265
40
0.1593951
50
269.5489033
51
345.5161886
0
ARC
8
DEFAULT_255_2_778
10
11.3823252
20
0.7816721
40
0.5601733
50
340.3456642
51
355.2849787
0
ARC
8
DEFAULT_255_2_778
10
10.6528423
20
0.8610345
40
1.2938526
50
354.4377897
51
0.2923466
0
ARC
8
DEFAULT_255_2_778
10
10.7910052
20
0.8811281
40
1.1557516
50
359.3311378
51
7.4499055
0
ARC
8
DEFAULT_255_2_778
10
11.5922982
20
0.9938412
40
0.3466975
50
6.1497541
51
28.1096041
0
ARC
8
DEFAULT_255_2_778
10
11.7523035
20
1.0714988
40
0.1691164
50
30.444665
51
39.6169862
0
ARC
8
DEFAULT_255_2_778
10
11.732199
20
1.0027636
40
0.2319305
50
49.5804489
51
86.8167443
0
LINE
8
DEFAULT_255_2_778
10
11.735778
20
1.4542363
11
11.735778
21
1.4539363
0
LINE
8
DEFAULT_255_2_778
10
11.745078
20
1.2343363
11
11.745078
21
1.2341363
0
ENDSEC
0
EOF