0
SECTION
2
HEADER
9
$MEASUREMENT
70
1
0
ENDSEC
0
SECTION
2
TABLES
0
TABLE
2
LTYPE
0
LTYPE
72
65
70
64
2
CONTINUOUS
3
______
73
0
40
0
0
ENDTAB
0
TABLE
2
LAYER
0
LAYER
2
DEFAULT_255_2_778
70
0
62
255
6
CONTINUOUS
0
ENDTAB
0
ENDSEC
0
SECTION
2
ENTITIES
0
ARC
8
DEFAULT_255_2_778
10
14.302333
20
12.2260454
40
0.646524
50
7.6846308
51
59.9021657
0
ARC
8
DEFAULT_255_2_778
10
-229.5640852
20
-407.2342372
40
485.845203
50
59.827176
51
60.0840608
0
ARC
8
DEFAULT_255_2_778
10
88.9272881
20
154.7134479
40
160.0643749
50
239.6684286
51
240.34402
0
ARC
8
DEFAULT_255_2_778
10
10.0890556
20
19.9957752
40
3.9736622
50
238.3285506
51
239.8671504
0
LINE
8
DEFAULT_255_2_778
10
8.0026936
20
16.6138991
11
8.0014279
21
16.6146721
0
ARC
8
DEFAULT_255_2_778
10
7.4593163
20
15.8734985
40
0.9182719
50
53.817395
51
82.784634
0
ARC
8
DEFAULT_255_2_778
10
7.5321105
20
16.7370401
40
0.0637338
50
48.1282132
51
90.0201265
0
LINE
8
DEFAULT_255_2_778
10
7.5320881
20
16.8007738
11
7.5319003
21
16.8007735
0
ARC
8
DEFAULT_255_2_778
10
7.5320977
20
16.7367596
40
0.0640142
50
90.1766764
51
131.7755135
0
ARC
8
DEFAULT_255_2_778
10
7.5698049
20
16.0496138
40
0.739265
50
96.2400821
51
113.337247
0
ARC
8
DEFAULT_255_2_778
10
2144.2541744
20
-3712.6936797
40
4298.2910514
50
119.8221209
51
119.8456438
0
ARC
8
DEFAULT_255_2_778
10
0.7796402
20
12.2431257
40
0.6506856
50
114.8638605
51
170.8409627
0
ARC
8
DEFAULT_255_2_778
10
0.4162549
20
12.2994348
40
0.2829793
50
170.3852419
51
179.9971714
0
ARC
8
DEFAULT_255_2_778
10
0.4162549
20
12.2994628
40
0.2829793
50
180.0028286
51
189.6147581
0
LINE
8
DEFAULT_255_2_778
10
0.1372506
20
12.2521988
11
0.1372506
21
4.4051988
0
ARC
8
DEFAULT_255_2_778
10
0.4162549
20
4.3579348
40
0.2829793
50
170.3852419
51
179.9971714
0
ARC
8
DEFAULT_255_2_778
10
0.4162549
20
4.3579628
40
0.2829793
50
180.0028286
51
189.6147581
0
ARC
8
DEFAULT_255_2_778
10
0.7232373
20
4.3962269
40
0.5921954
50
188.3040065
51
231.1857517
0
ARC
8
DEFAULT_255_2_778
10
2.0779009
20
6.3042036
40
2.9313202
50
233.9307878
51
243.1675028
0
ARC
8
DEFAULT_255_2_778
10
287.6037599
20
494.4468523
40
568.4418314
50
239.6936487
51
239.8969443
0
ARC
8
DEFAULT_255_2_778
10
1588.4737222
20
2746.7186572
40
3169.4008346
50
239.973372
51
240.0071314
0
ARC
8
DEFAULT_255_2_778
10
5.224761
20
-2.9650213
40
3.523988
50
58.6731119
51
60.2532094
0
ARC
8
DEFAULT_255_2_778
10
-17.92076
20
-41.3447919
40
48.3427283
50
58.8752662
51
58.8901962
0
ARC
8
DEFAULT_255_2_778
10
7.5945488
20
0.7654486
40
0.897595
50
234.0616449
51
263.3465834
0
ARC
8
DEFAULT_255_2_778
10
7.5486967
20
0.1390803
40
0.2714815
50
257.6325325
51
270.0034615
0
ARC
8
DEFAULT_255_2_778
10
7.5486873
20
0.147393
40
0.2797942
50
270.0052888
51
270.4492708
0
ARC
8
DEFAULT_255_2_778
10
7.5486895
20
0.1401324
40
0.2725338
50
270.4607696
51
282.343706
0
ARC
8
DEFAULT_255_2_778
10
7.5127439
20
0.5402841
40
0.6730114
50
278.0465644
51
298.4586835
0
ARC
8
DEFAULT_255_2_778
10
13.9791859
20
4.7405983
40
1.0858559
50
295.5462941
51
323.0531728
0
ARC
8
DEFAULT_255_2_778
10
14.3345028
20
4.4241233
40
0.6129287
50
326.7343937
51
352.5451404
0
ARC
8
DEFAULT_255_2_778
10
14.64039
20
4.3918447
40
0.3055356
50
351.1044771
51
0.0007618
0
ARC
8
DEFAULT_255_2_778
10
14.64039
20
4.3918529
40
0.3055356
50
359.9992382
51
8.8955229
0
LINE
8
DEFAULT_255_2_778
10
14.9422506
20
4.4390988
11
14.9422506
21
12.2172988
0
ARC
8
DEFAULT_255_2_778
10
14.638455
20
12.2763813
40
0.3094875
50
348.9944331
51
359.9540338
0
ARC
8
DEFAULT_255_2_778
10
14.647365
20
12.2761418
40
0.3005773
50
359.9983364
51
2.04589
0
ARC
8
DEFAULT_255_2_778
10
14.6510925
20
12.2763134
40
0.2968462
50
2.0384727
51
7.1184405
0
ARC
8
DEFAULT_255_2_778
10
1054.5053531
20
-1805.7133855
40
2088.1955862
50
119.9019309
51
120.059889
0
ARC
8
DEFAULT_255_2_778
10
7.5328923
20
1.6930223
40
0.5510483
50
270.0511511
51
302.6209251
0
LINE
8
DEFAULT_255_2_778
10
7.5333843
20
1.1419741
11
7.5327756
21
1.1419738
0
ARC
8
DEFAULT_255_2_778
10
7.5325908
20
1.6922759
40
0.5503021
50
237.3563001
51
270.0192395
0
ARC
8
DEFAULT_255_2_778
10
-3967.4489735
20
-6881.2281432
40
7947.7250576
50
59.9931555
51
60.0320244
0
ARC
8
DEFAULT_255_2_778
10
1.7871471
20
5.004044
40
0.54763
50
180.0130007
51
241.2986077
0
ARC
8
DEFAULT_255_2_778
10
1.7891328
20
5.0039108
40
0.5496156
50
176.4859242
51
179.9990739
0
LINE
8
DEFAULT_255_2_778
10
1.2405506
20
5.0375988
11
1.2405506
21
8.3231988
0
ARC
8
DEFAULT_255_2_778
10
1.853259
20
11.6114578
40
0.613751
50
180.001537
51
183.340117
0
ARC
8
DEFAULT_255_2_778
10
1.8508259
20
11.6112213
40
0.6113179
50
116.2705139
51
179.9793801
0
ARC
8
DEFAULT_255_2_778
10
-1327.2993639
20
2322.4308852
40
2665.1970604
50
299.9077264
51
300.0428592
0
ARC
8
DEFAULT_255_2_778
10
7.5423457
20
14.9637672
40
0.5498066
50
89.9838554
51
123.2051302
0
ARC
8
DEFAULT_255_2_778
10
7.5426555
20
14.9637672
40
0.5498066
50
56.7948698
51
90.0161446
0
ARC
8
DEFAULT_255_2_778
10
384.3179588
20
665.4643033
40
751.1893815
50
239.922508
51
240.0610319
0
ARC
8
DEFAULT_255_2_778
10
2081.7538509
20
3598.130897
40
4139.6716806
50
239.9600125
51
240.0253813
0
ARC
8
DEFAULT_255_2_778
10
13.2393372
20
11.6192386
40
0.5972689
50
0.322617
51
63.4449597
0
ARC
8
DEFAULT_255_2_778
10
13.2511826
20
11.6226142
40
0.5854142
50
356.4140344
51
359.9987776
0
LINE
8
DEFAULT_255_2_778
10
13.8354506
20
11.5859988
11
13.8354506
21
5.0756988
0
ARC
8
DEFAULT_255_2_778
10
13.2277968
20
5.0426033
40
0.6085544
50
0.0009071
51
3.1175048
0
ARC
8
DEFAULT_255_2_778
10
13.2305348
20
5.0427628
40
0.6058166
50
296.6905712
51
359.9858263
0
ARC
8
DEFAULT_255_2_778
10
7.5241645
20
10.5610829
40
0.5451791
50
69.6390295
51
84.4755655
0
ARC
8
DEFAULT_255_2_778
10
7.5318503
20
10.6209893
40
0.4848147
50
84.6980841
51
89.9809312
0
ARC
8
DEFAULT_255_2_778
10
7.5357973
20
10.6305322
40
0.4752869
50
90.4563658
51
140.5208347
0
ARC
8
DEFAULT_255_2_778
10
7.6901796
20
10.4841013
40
0.6877089
50
139.2820517
51
153.6262358
0
ARC
8
DEFAULT_255_2_778
10
-63817.2231823
20
31937.6149411
40
71364.2984532
50
333.420896
51
333.4244094
0
ARC
8
DEFAULT_255_2_778
10
5.9117469
20
6.4816186
40
0.887936
50
153.6379888
51
160.8295422
0
ARC
8
DEFAULT_255_2_778
10
5.5455669
20
6.6036098
40
0.502028
50
160.2566298
51
171.403493
0
ARC
8
DEFAULT_255_2_778
10
5.539625
20
6.6046643
40
0.4959953
50
171.4213329
51
179.9992541
0
ARC
8
DEFAULT_255_2_778
10
5.5439123
20
6.6048858
40
0.5002826
50
180.0246281
51
250.2612126
0
ARC
8
DEFAULT_255_2_778
10
5.5445396
20
6.6065151
40
0.502028
50
250.2566298
51
261.403493
0
ARC
8
DEFAULT_255_2_778
10
5.5434851
20
6.6005732
40
0.4959953
50
261.4213329
51
269.9992541
0
ARC
8
DEFAULT_255_2_778
10
5.5432636
20
6.6048605
40
0.5002826
50
270.0246281
51
340.2612126
0
ARC
8
DEFAULT_255_2_778
10
1287.7063845
20
-632.0727352
40
1431.9316528
50
153.3739787
51
153.5186042
0
ARC
8
DEFAULT_255_2_778
10
7.5537221
20
10.6166231
40
0.484589
50
338.1664339
51
359.6983479
0
ARC
8
DEFAULT_255_2_778
10
7.553874
20
10.6167497
40
0.4844377
50
359.6832868
51
0.0042217
0
ARC
8
DEFAULT_255_2_778
10
7.5517689
20
10.6168363
40
0.4865429
50
359.9940075
51
24.3443448
0
ARC
8
DEFAULT_255_2_778
10
7.5475993
20
10.6110043
40
0.492759
50
24.7623145
51
70.257432
0
ARC
8
DEFAULT_255_2_778
10
11.5152478
20
10.5643085
40
0.5437412
50
67.5659041
51
83.1828705
0
ARC
8
DEFAULT_255_2_778
10
11.5247098
20
10.6269686
40
0.4804049
50
83.4163044
51
89.9723212
0
ARC
8
DEFAULT_255_2_778
10
11.528801
20
10.6333809
40
0.4740081
50
90.4664751
51
138.3280901
0
ARC
8
DEFAULT_255_2_778
10
11.6838525
20
10.4795387
40
0.6922114
50
137.3491476
51
153.9710219
0
ARC
8
DEFAULT_255_2_778
10
10.0458188
20
6.4303735
40
1.0383686
50
153.4872048
51
160.1653665
0
ARC
8
DEFAULT_255_2_778
10
9.5522492
20
6.6401758
40
0.5037794
50
163.5661855
51
170.4094969
0
ARC
8
DEFAULT_255_2_778
10
9.546062
20
6.6412362
40
0.497502
50
170.4111997
51
179.9960649
0
ARC
8
DEFAULT_255_2_778
10
9.5488692
20
6.6415975
40
0.5003094
50
180.0374596
51
249.4258253
0
ARC
8
DEFAULT_255_2_778
10
9.5492652
20
6.6421181
40
0.500936
50
249.4043478
51
262.6921072
0
ARC
8
DEFAULT_255_2_778
10
9.5485617
20
6.6380162
40
0.4967781
50
262.7124119
51
270.0008553
0
ARC
8
DEFAULT_255_2_778
10
9.5485526
20
6.6413949
40
0.5001569
50
270.0018823
51
335.3003804
0
ARC
8
DEFAULT_255_2_778
10
12511.40646
20
-6245.2357823
40
13977.4262564
50
153.4136486
51
153.4314055
0
ARC
8
DEFAULT_255_2_778
10
10.866169
20
10.8704403
40
1.2138371
50
332.3160477
51
339.6235766
0
ARC
8
DEFAULT_255_2_778
10
11.5339619
20
10.6084942
40
0.4967962
50
341.1274885
51
351.7080952
0
ARC
8
DEFAULT_255_2_778
10
11.5389054
20
10.6076488
40
0.4917823
50
351.7224996
51
359.9999065
0
ARC
8
DEFAULT_255_2_778
10
11.5335375
20
10.607163
40
0.4971505
50
0.0559011
51
67.6294395
0
ARC
8
DEFAULT_255_2_778
10
9.5546457
20
10.6075939
40
0.4795284
50
339.963535
51
356.1237827
0
ARC
8
DEFAULT_255_2_778
10
9.554129
20
10.6076031
40
0.4800446
50
356.1268563
51
0.0002067
0
ARC
8
DEFAULT_255_2_778
10
9.5534993
20
10.607739
40
0.4806744
50
359.9840156
51
45.793033
0
ARC
8
DEFAULT_255_2_778
10
9.5330397
20
10.5972008
40
0.5025472
50
44.9586517
51
89.9995636
0
ARC
8
DEFAULT_255_2_778
10
9.5330468
20
10.5976441
40
0.502104
50
90.0003774
51
95.8521464
0
ARC
8
DEFAULT_255_2_778
10
9.5331449
20
10.5966855
40
0.5030677
50
95.8521233
51
100.8265285
0
ARC
8
DEFAULT_255_2_778
10
9.5333918
20
10.5965431
40
0.503254
50
100.8510939
51
156.6509223
0
ARC
8
DEFAULT_255_2_778
10
8.5570977
20
8.6100949
40
0.5154502
50
150.5275741
51
180.0286685
0
ARC
8
DEFAULT_255_2_778
10
8.5813105
20
8.6098993
40
0.5396628
50
180.0066129
51
180.191158
0
ARC
8
DEFAULT_255_2_778
10
8.5404529
20
8.6115678
40
0.4988143
50
180.39846
51
258.1417043
0
ARC
8
DEFAULT_255_2_778
10
8.5412586
20
8.6157021
40
0.5030259
50
258.1486645
51
259.6408011
0
ARC
8
DEFAULT_255_2_778
10
8.540452
20
8.6107097
40
0.4979699
50
259.628794
51
269.9917448
0
ARC
8
DEFAULT_255_2_778
10
8.5400299
20
8.6113245
40
0.4985848
50
270.0402702
51
335.9832701
0
ARC
8
DEFAULT_255_2_778
10
-557.0032491
20
292.7806077
40
633.4209353
50
333.3238776
51
333.5200237
0
ARC
8
DEFAULT_255_2_778
10
9.3400453
20
10.6630787
40
0.7006043
50
333.2464302
51
341.7348455
0
ARC
8
DEFAULT_255_2_778
10
4.5431698
20
8.6120544
40
0.4985082
50
55.2594067
51
90.0167555
0
ARC
8
DEFAULT_255_2_778
10
4.5430241
20
8.6110525
40
0.49951
50
90.0000135
51
92.8893336
0
ARC
8
DEFAULT_255_2_778
10
4.5430366
20
8.6110931
40
0.49947
50
92.8910004
51
106.3360273
0
ARC
8
DEFAULT_255_2_778
10
4.5379248
20
8.6217072
40
0.4878504
50
106.1105321
51
158.1722087
0
ARC
8
DEFAULT_255_2_778
10
280.0632085
20
-130.1301079
40
308.9763414
50
153.2783553
51
153.5574985
0
ARC
8
DEFAULT_255_2_778
10
3.5133068
20
6.6039084
40
0.4652508
50
157.1868412
51
169.6747217
0
ARC
8
DEFAULT_255_2_778
10
3.4993623
20
6.6067928
40
0.4510153
50
169.7177068
51
179.9962143
0
ARC
8
DEFAULT_255_2_778
10
3.5388849
20
6.6157614
40
0.4906193
50
181.0439577
51
244.9264747
0
ARC
8
DEFAULT_255_2_778
10
3.5787862
20
6.6857872
40
0.5709923
50
244.2776738
51
270.401409
0
ARC
8
DEFAULT_255_2_778
10
3.5827803
20
6.7487987
40
0.6339897
50
270.0005614
51
270.9643588
0
ARC
8
DEFAULT_255_2_778
10
3.555301
20
6.6057179
40
0.4922995
50
274.4444625
51
337.9371645
0
ARC
8
DEFAULT_255_2_778
10
261.2364291
20
-120.909808
40
287.0151939
50
153.2346823
51
153.6638221
0
ARC
8
DEFAULT_255_2_778
10
4.1601193
20
8.7459359
40
0.9064196
50
333.6627163
51
340.7098871
0
ARC
8
DEFAULT_255_2_778
10
4.5529612
20
8.6139984
40
0.4920748
50
340.0990798
51
354.3767483
0
ARC
8
DEFAULT_255_2_778
10
4.5546141
20
8.6137294
40
0.4904036
50
354.3891095
51
0.000649
0
ARC
8
DEFAULT_255_2_778
10
4.5529115
20
8.6138149
40
0.4921061
50
359.9906952
51
55.752911
0
LINE
8
DEFAULT_255_2_778
10
12.7409506
20
13.8759988
11
11.2150506
21
14.7551988
0
LINE
8
DEFAULT_255_2_778
10
11.2150506
20
14.7551988
11
9.7288506
21
15.6155988
0
LINE
8
DEFAULT_255_2_778
10
7.2769506
20
16.7283988
11
6.6755506
21
16.3897988
0
LINE
8
DEFAULT_255_2_778
10
5.1447506
20
15.5118988
11
3.5323506
21
14.5778988
0
LINE
8
DEFAULT_255_2_778
10
3.5323506
20
14.5778988
11
2.2480506
21
13.8423988
0
LINE
8
DEFAULT_255_2_778
10
2.2480506
20
13.8423988
11
0.5060506
21
12.8334988
0
LINE
8
DEFAULT_255_2_778
10
4.1149506
20
1.7397988
11
5.0410506
21
1.2118988
0
LINE
8
DEFAULT_255_2_778
10
5.0410506
20
1.2118988
11
6.1408506
21
0.5779988
0
LINE
8
DEFAULT_255_2_778
10
6.1408506
20
0.5779988
11
6.9732506
21
0.0945988
0
LINE
8
DEFAULT_255_2_778
10
7.8334506
20
-0.0514012
11
8.1837506
21
0.1517988
0
LINE
8
DEFAULT_255_2_778
10
8.1837506
20
0.1517988
11
9.1317506
21
0.6914988
0
LINE
8
DEFAULT_255_2_778
10
9.1317506
20
0.6914988
11
9.9784506
21
1.1862988
0
LINE
8
DEFAULT_255_2_778
10
9.9784506
20
1.1862988
11
10.6964506
21
1.5984988
0
LINE
8
DEFAULT_255_2_778
10
10.6964506
20
1.5984988
11
11.5230506
21
2.0794988
0
LINE
8
DEFAULT_255_2_778
10
11.5230506
20
2.0794988
11
12.9888506
21
2.9248988
0
LINE
8
DEFAULT_255_2_778
10
12.9888506
20
2.9248988
11
13.5902506
21
3.2669988
0
LINE
8
DEFAULT_255_2_778
10
13.5902506
20
3.2669988
11
14.4474506
21
3.7608988
0
LINE
8
DEFAULT_255_2_778
10
14.9456506
20
12.3130988
11
14.9430506
21
12.3124988
0
LINE
8
DEFAULT_255_2_778
10
8.5178506
20
1.6246988
11
7.8299506
21
1.2288988
0
LINE
8
DEFAULT_255_2_778
10
2.5658506
20
3.9236988
11
1.5241506
21
4.5236988
0
LINE
8
DEFAULT_255_2_778
10
1.2405506
20
8.3231988
11
1.2405506
21
11.5756988
0
LINE
8
DEFAULT_255_2_778
10
7.0253506
20
15.2999988
11
7.2412506
21
15.4237988
0
LINE
8
DEFAULT_255_2_778
10
13.5026506
20
4.5014988
11
13.5044506
21
4.5014988
0
LINE
8
DEFAULT_255_2_778
10
7.6299506
20
9.6690988
11
8.0035506
21
10.4363988
0
LINE
8
DEFAULT_255_2_778
10
7.7140506
20
11.0747988
11
7.7138506
21
11.0721988
0
LINE
8
DEFAULT_255_2_778
10
11.0618506
20
10.7832988
11
9.1166506
21
6.8938988
0
LINE
8
DEFAULT_255_2_778
10
11.7227506
20
11.0668988
11
11.7227506
21
11.0668988
0
LINE
8
DEFAULT_255_2_778
10
9.0713506
20
10.7959988
11
8.1083506
21
8.8636988
0
LINE
8
DEFAULT_255_2_778
10
10.0053506
20
10.4434988
11
10.0051506
21
10.4432988
0
LINE
8
DEFAULT_255_2_778
10
3.4114506
20
7.4568988
11
3.0844506
21
6.7842988
0
LINE
8
DEFAULT_255_2_778
10
4.8298506
20
9.0205988
11
4.8272506
21
9.0216988
0
ENDSEC
0
EOF