0
SECTION
2
HEADER
9
$MEASUREMENT
70
1
0
ENDSEC
0
SECTION
2
TABLES
0
TABLE
2
LTYPE
0
LTYPE
72
65
70
64
2
CONTINUOUS
3
______
73
0
40
0
0
ENDTAB
0
TABLE
2
LAYER
0
LAYER
2
DEFAULT_255_2_778
70
0
62
255
6
CONTINUOUS
0
ENDTAB
0
ENDSEC
0
SECTION
2
ENTITIES
0
ARC
8
DEFAULT_255_2_778
10
5.4614787
20
4.9920711
40
5.1995782
50
167.0926226
51
180.0426798
0
ARC
8
DEFAULT_255_2_778
10
5.3794694
20
5.0084665
40
5.1159792
50
148.0193372
51
167.0664404
0
ARC
8
DEFAULT_255_2_778
10
5.401671
20
4.9958725
40
5.1414817
50
109.982163
51
148.0313295
0
ARC
8
DEFAULT_255_2_778
10
5.3966079
20
4.9947082
40
5.1408482
50
94.9884905
51
109.9246964
0
ARC
8
DEFAULT_255_2_778
10
5.4091568
20
4.8758619
40
5.2603362
50
89.9918827
51
95.0120935
0
ARC
8
DEFAULT_255_2_778
10
5.4137752
20
4.9366213
40
5.1995782
50
77.0926226
51
90.0426798
0
ARC
8
DEFAULT_255_2_778
10
5.4301706
20
5.0186306
40
5.1159792
50
58.0193372
51
77.0664404
0
ARC
8
DEFAULT_255_2_778
10
5.4175765
20
4.996429
40
5.1414817
50
19.982163
51
58.0313295
0
ARC
8
DEFAULT_255_2_778
10
5.4164123
20
5.0014921
40
5.1408482
50
4.9884905
51
19.9246964
0
ARC
8
DEFAULT_255_2_778
10
5.2975659
20
4.9889432
40
5.2603362
50
359.9918827
51
5.0120935
0
ARC
8
DEFAULT_255_2_778
10
5.3583253
20
4.9843248
40
5.1995782
50
347.0926226
51
0.0426798
0
ARC
8
DEFAULT_255_2_778
10
5.4403347
20
4.9679294
40
5.1159792
50
328.0193372
51
347.0664404
0
ARC
8
DEFAULT_255_2_778
10
5.418133
20
4.9805235
40
5.1414817
50
289.982163
51
328.0313295
0
ARC
8
DEFAULT_255_2_778
10
5.4231962
20
4.9816877
40
5.1408482
50
274.9884905
51
289.9246964
0
ARC
8
DEFAULT_255_2_778
10
5.4106473
20
5.1005341
40
5.2603362
50
269.9918827
51
275.0120935
0
ARC
8
DEFAULT_255_2_778
10
5.4060289
20
5.0397747
40
5.1995782
50
257.0926226
51
270.0426798
0
ARC
8
DEFAULT_255_2_778
10
5.3896335
20
4.9577653
40
5.1159792
50
238.0193372
51
257.0664404
0
ARC
8
DEFAULT_255_2_778
10
5.4022275
20
4.979967
40
5.1414817
50
199.982163
51
238.0313295
0
ARC
8
DEFAULT_255_2_778
10
5.4033918
20
4.9749038
40
5.1408482
50
184.9884905
51
199.9246964
0
ARC
8
DEFAULT_255_2_778
10
5.5222381
20
4.9874527
40
5.2603362
50
179.9918827
51
185.0120935
0
LINE
8
DEFAULT_255_2_778
10
0.261902
20
4.988198
11
0.261902
21
4.988198
0
ARC
8
DEFAULT_255_2_778
10
5.7044085
20
5.2824186
40
0.3188204
50
120.022873
51
179.9922848
0
ARC
8
DEFAULT_255_2_778
10
5.704257
20
5.2822189
40
0.3189176
50
90.0618266
51
119.9813533
0
LINE
8
DEFAULT_255_2_778
10
5.7039128
20
5.6011363
11
5.7042756
21
5.6011366
0
ARC
8
DEFAULT_255_2_778
10
5.7043276
20
5.2826243
40
0.3185122
50
59.9991067
51
90.0093654
0
ARC
8
DEFAULT_255_2_778
10
5.7040743
20
5.2823069
40
0.3189139
50
0.0277833
51
59.9881977
0
ARC
8
DEFAULT_255_2_778
10
5.7043168
20
5.2824761
40
0.3186713
50
299.9866387
51
359.9973803
0
ARC
8
DEFAULT_255_2_778
10
5.7043276
20
5.2822988
40
0.3185123
50
269.9906346
51
300.0008933
0
LINE
8
DEFAULT_255_2_778
10
5.7042756
20
4.9637866
11
5.7039128
21
4.9637868
0
ARC
8
DEFAULT_255_2_778
10
5.704257
20
5.2827042
40
0.3189176
50
240.0186467
51
269.9381734
0
ARC
8
DEFAULT_255_2_778
10
5.7041661
20
5.2823646
40
0.318578
50
179.9825584
51
240.0022838
0
ARC
8
DEFAULT_255_2_778
10
6.4382018
20
8.223129
40
1.0280139
50
139.2063892
51
179.9647466
0
ARC
8
DEFAULT_255_2_778
10
6.4409953
20
8.2239112
40
1.0296206
50
92.4853085
51
139.3409051
0
ARC
8
DEFAULT_255_2_778
10
6.442168
20
8.2037988
40
1.049765
50
90.1189784
51
92.5016489
0
ARC
8
DEFAULT_255_2_778
10
6.439318
20
8.2255721
40
1.0279897
50
49.0769267
51
89.9626531
0
ARC
8
DEFAULT_255_2_778
10
6.4402856
20
8.2229053
40
1.0293739
50
2.4710366
51
49.2148518
0
ARC
8
DEFAULT_255_2_778
10
6.4198675
20
8.2217573
40
1.0498224
50
0.1093835
51
2.4855844
0
ARC
8
DEFAULT_255_2_778
10
6.4610815
20
8.2257697
40
0.4202124
50
359.6989248
51
0.0050733
0
ARC
8
DEFAULT_255_2_778
10
6.4418079
20
8.2256146
40
0.439486
50
0.0250617
51
44.978496
0
ARC
8
DEFAULT_255_2_778
10
6.4422163
20
8.2258039
40
0.4390634
50
44.9986957
51
89.9971506
0
ARC
8
DEFAULT_255_2_778
10
6.442201
20
8.2428321
40
0.4220352
50
89.9949565
51
90.3004268
0
ARC
8
DEFAULT_255_2_778
10
6.4404518
20
8.2229976
40
0.4418642
50
90.0601337
51
179.9268778
0
ARC
8
DEFAULT_255_2_778
10
7.9093755
20
5.8667167
40
1.0258556
50
227.9917775
51
270.0509656
0
ARC
8
DEFAULT_255_2_778
10
7.9078663
20
5.8701103
40
1.0273727
50
181.6579288
51
228.1809789
0
ARC
8
DEFAULT_255_2_778
10
7.9253327
20
5.8705536
40
1.0448446
50
179.9995656
51
181.6545164
0
ARC
8
DEFAULT_255_2_778
10
7.9107522
20
5.8711257
40
0.4418645
50
180.0731535
51
269.9398219
0
ARC
8
DEFAULT_255_2_778
10
7.9097452
20
5.8711045
40
0.4418433
50
270.0703988
51
359.929592
0
ARC
8
DEFAULT_255_2_778
10
7.9252499
20
5.8671903
40
1.0147438
50
0.0000126
51
0.1903522
0
ARC
8
DEFAULT_255_2_778
10
7.9185736
20
5.8671468
40
1.02142
50
314.8305985
51
0.0024514
0
ARC
8
DEFAULT_255_2_778
10
7.9130904
20
5.8644423
40
1.0233841
50
270.0178314
51
315.1550677
0
ARC
8
DEFAULT_255_2_778
10
7.9133361
20
5.79503
40
0.9539718
50
269.8469641
51
270.0043698
0
LINE
8
DEFAULT_255_2_778
10
5.3855881
20
5.2824616
11
5.3855881
21
5.2824616
0
LINE
8
DEFAULT_255_2_778
10
5.9983881
20
5.8705616
11
5.4101881
21
5.8705616
0
LINE
8
DEFAULT_255_2_778
10
5.4101881
20
5.8705616
11
5.4101881
21
8.2237616
0
LINE
8
DEFAULT_255_2_778
10
7.4696881
20
8.2237616
11
7.4696881
21
7.6353616
0
LINE
8
DEFAULT_255_2_778
10
7.4696881
20
7.6353616
11
6.8812881
21
7.6353616
0
LINE
8
DEFAULT_255_2_778
10
6.8812881
20
7.6353616
11
6.8812881
21
8.2235616
0
LINE
8
DEFAULT_255_2_778
10
5.9985881
20
8.2235616
11
5.9985881
21
5.8703616
0
LINE
8
DEFAULT_255_2_778
10
5.9985881
20
5.8703616
11
5.9983881
21
5.8705616
0
LINE
8
DEFAULT_255_2_778
10
6.8804881
20
5.8705616
11
6.8804881
21
7.3411616
0
LINE
8
DEFAULT_255_2_778
10
6.8804881
20
7.3411616
11
7.4688881
21
7.3411616
0
LINE
8
DEFAULT_255_2_778
10
7.4688881
20
7.3411616
11
7.4688881
21
5.8705616
0
LINE
8
DEFAULT_255_2_778
10
8.3515881
20
5.8705616
11
8.3515881
21
7.3411616
0
LINE
8
DEFAULT_255_2_778
10
8.3515881
20
7.3411616
11
8.9399881
21
7.3411616
0
LINE
8
DEFAULT_255_2_778
10
8.9399881
20
7.3411616
11
8.9399881
21
5.8705616
0
LINE
8
DEFAULT_255_2_778
10
7.9107881
20
4.8410616
11
7.9102881
21
4.8408616
0
ARC
8
DEFAULT_255_2_778
10
2.7625369
20
1.7524348
40
0.318578
50
119.9977162
51
180.0174416
0
ARC
8
DEFAULT_255_2_778
10
2.7625469
20
1.7523974
40
0.3186154
50
89.9888487
51
119.9959074
0
ARC
8
DEFAULT_255_2_778
10
2.7626709
20
1.7523974
40
0.3186154
50
60.0040926
51
90.0111513
0
ARC
8
DEFAULT_255_2_778
10
2.7626876
20
1.7523232
40
0.3186713
50
0.0026197
51
60.0133613
0
ARC
8
DEFAULT_255_2_778
10
2.7624451
20
1.7524925
40
0.3189139
50
300.0118023
51
359.9722167
0
ARC
8
DEFAULT_255_2_778
10
2.7626709
20
1.7522782
40
0.3186154
50
269.9888487
51
299.9959074
0
ARC
8
DEFAULT_255_2_778
10
2.7625469
20
1.7522782
40
0.3186154
50
240.0040926
51
270.0111513
0
ARC
8
DEFAULT_255_2_778
10
2.7627793
20
1.7523808
40
0.3188204
50
180.0077152
51
239.977127
0
ARC
8
DEFAULT_255_2_778
10
3.493914
20
5.5772503
40
1.0258556
50
137.9917775
51
180.0509656
0
ARC
8
DEFAULT_255_2_778
10
3.4973077
20
5.5787596
40
1.0273727
50
91.6579288
51
138.1809789
0
ARC
8
DEFAULT_255_2_778
10
3.497751
20
5.5612932
40
1.0448446
50
89.9995656
51
91.6545164
0
ARC
8
DEFAULT_255_2_778
10
3.4988237
20
5.5804353
40
1.0257031
50
48.3754975
51
90.0594827
0
ARC
8
DEFAULT_255_2_778
10
3.4999308
20
5.5768941
40
1.0276197
50
1.9640359
51
48.5527905
0
ARC
8
DEFAULT_255_2_778
10
3.4829512
20
5.5763606
40
1.0446077
50
359.9987526
51
1.9613648
0
ARC
8
DEFAULT_255_2_778
10
3.5026258
20
5.5782065
40
0.4365371
50
359.7547274
51
359.999973
0
ARC
8
DEFAULT_255_2_778
10
3.5019497
20
5.5782385
40
0.4372132
50
359.9957872
51
45.2122132
0
ARC
8
DEFAULT_255_2_778
10
3.4988042
20
5.5784601
40
0.4392783
50
44.900674
51
89.9991699
0
LINE
8
DEFAULT_255_2_778
10
3.4988106
20
6.0177385
11
3.4980589
21
6.0177378
0
ARC
8
DEFAULT_255_2_778
10
3.4986228
20
5.575874
40
0.4418642
50
90.0731268
51
179.9398552
0
ARC
8
DEFAULT_255_2_778
10
4.9695543
20
3.2215926
40
1.027955
50
229.0518458
51
269.9612393
0
ARC
8
DEFAULT_255_2_778
10
4.9686117
20
3.2243543
40
1.0294262
50
182.4727798
51
229.1922092
0
ARC
8
DEFAULT_255_2_778
10
4.9886372
20
3.2254429
40
1.0494803
50
180.1094643
51
182.484986
0
ARC
8
DEFAULT_255_2_778
10
4.9694014
20
3.2236805
40
0.4418428
50
180.0703655
51
269.9296502
0
ARC
8
DEFAULT_255_2_778
10
4.9683802
20
3.2236165
40
0.4417789
50
270.062083
51
359.9379234
0
ARC
8
DEFAULT_255_2_778
10
4.9831908
20
3.2195653
40
1.0154737
50
0.0000127
51
0.1902845
0
ARC
8
DEFAULT_255_2_778
10
4.9773327
20
3.2194857
40
1.0213317
50
314.8206298
51
0.004478
0
ARC
8
DEFAULT_255_2_778
10
4.9723965
20
3.2159643
40
1.0223309
50
269.9978387
51
315.1559735
0
ARC
8
DEFAULT_255_2_778
10
4.97229
20
3.2158463
40
1.0222129
50
269.835708
51
270.0038099
0
LINE
8
DEFAULT_255_2_778
10
2.4439589
20
1.7523378
11
2.4439589
21
1.7523378
0
LINE
8
DEFAULT_255_2_778
10
3.0564589
20
2.3408378
11
2.4680589
21
2.3408378
0
LINE
8
DEFAULT_255_2_778
10
2.4680589
20
2.3408378
11
2.4680589
21
5.5763378
0
LINE
8
DEFAULT_255_2_778
10
4.5275589
20
5.5763378
11
4.5275589
21
4.9879378
0
LINE
8
DEFAULT_255_2_778
10
4.5275589
20
4.9879378
11
3.9391589
21
4.9879378
0
LINE
8
DEFAULT_255_2_778
10
3.9391589
20
4.9879378
11
3.9391589
21
5.5763378
0
LINE
8
DEFAULT_255_2_778
10
3.0567589
20
5.5763378
11
3.0567589
21
2.3408378
0
LINE
8
DEFAULT_255_2_778
10
3.0567589
20
2.3408378
11
3.0564589
21
2.3408378
0
LINE
8
DEFAULT_255_2_778
10
3.9391589
20
3.2234378
11
3.9391589
21
4.6942378
0
LINE
8
DEFAULT_255_2_778
10
3.9391589
20
4.6942378
11
4.5275589
21
4.6942378
0
LINE
8
DEFAULT_255_2_778
10
4.5275589
20
4.6942378
11
4.5275589
21
3.2231378
0
LINE
8
DEFAULT_255_2_778
10
5.4101589
20
3.2231378
11
5.4101589
21
4.6940378
0
LINE
8
DEFAULT_255_2_778
10
5.4101589
20
4.6940378
11
5.9986589
21
4.6940378
0
LINE
8
DEFAULT_255_2_778
10
5.9986589
20
4.6940378
11
5.9986589
21
3.2229378
0
LINE
8
DEFAULT_255_2_778
10
4.9693589
20
2.1936378
11
4.9688589
21
2.1936378
0
ARC
8
DEFAULT_255_2_778
10
12.7140706
20
4.7328308
40
2.9622384
50
350.6815465
51
0.2365074
0
ARC
8
DEFAULT_255_2_778
10
13.2078367
20
4.6610018
40
2.4633742
50
346.8876681
51
350.47058
0
ARC
8
DEFAULT_255_2_778
10
14.3207081
20
4.3888502
40
1.3178381
50
323.3284345
51
347.4349978
0
ARC
8
DEFAULT_255_2_778
10
14.3956054
20
4.3430558
40
1.2304412
50
322.149813
51
322.9558959
0
ARC
8
DEFAULT_255_2_778
10
14.4949279
20
4.2773968
40
1.1117634
50
293.6957056
51
321.6809014
0
ARC
8
DEFAULT_255_2_778
10
14.3651582
20
4.5227741
40
1.3887524
50
293.3499056
51
294.5298325
0
ARC
8
DEFAULT_255_2_778
10
14.3720642
20
4.5407209
40
1.4025568
50
279.2926958
51
292.800308
0
ARC
8
DEFAULT_255_2_778
10
14.2338618
20
5.3415768
40
2.2152303
50
270.7501203
51
279.4755071
0
ARC
8
DEFAULT_255_2_778
10
14.2107345
20
5.9686739
40
2.8426155
50
269.9949457
51
271.0507596
0
ARC
8
DEFAULT_255_2_778
10
14.1921431
20
5.2990138
40
2.1730328
50
270.0006502
51
270.4835898
0
ARC
8
DEFAULT_255_2_778
10
14.1922602
20
5.2986361
40
2.172655
50
258.3083604
51
269.9975623
0
ARC
8
DEFAULT_255_2_778
10
14.2999107
20
5.7481888
40
2.6347343
50
251.3152374
51
257.9970008
0
ARC
8
DEFAULT_255_2_778
10
14.0666503
20
5.030931
40
1.8805725
50
248.7050251
51
251.0466711
0
ARC
8
DEFAULT_255_2_778
10
13.9718058
20
4.8186029
40
1.648335
50
241.0267806
51
249.0963446
0
ARC
8
DEFAULT_255_2_778
10
13.6866886
20
4.2885978
40
1.0465768
50
236.9805304
51
240.6270688
0
ARC
8
DEFAULT_255_2_778
10
13.6655945
20
4.2965366
40
1.0419712
50
226.8654131
51
238.1910728
0
ARC
8
DEFAULT_255_2_778
10
14.3903953
20
5.3166151
40
1.8524725
50
229.0131054
51
235.1404535
0
ARC
8
DEFAULT_255_2_778
10
14.0538164
20
4.8374979
40
1.266955
50
235.2460159
51
246.5869844
0
ARC
8
DEFAULT_255_2_778
10
14.1406864
20
5.0231878
40
1.4718863
50
246.3560544
51
257.741986
0
ARC
8
DEFAULT_255_2_778
10
14.1511462
20
5.0821229
40
1.5317003
50
257.827701
51
270.3904389
0
ARC
8
DEFAULT_255_2_778
10
14.1742332
20
5.1333601
40
1.5829523
50
269.5421425
51
280.9647858
0
ARC
8
DEFAULT_255_2_778
10
14.2990926
20
4.5175856
40
0.9546857
50
280.6373269
51
300.8329475
0
ARC
8
DEFAULT_255_2_778
10
14.405548
20
4.3241666
40
0.7340819
50
301.4358902
51
317.8726275
0
ARC
8
DEFAULT_255_2_778
10
14.3507924
20
4.3555713
40
0.7958708
50
318.8400583
51
339.6578477
0
ARC
8
DEFAULT_255_2_778
10
13.7815856
20
4.5772346
40
1.4066692
50
339.2518267
51
350.717462
0
ARC
8
DEFAULT_255_2_778
10
12.8150689
20
4.7427867
40
2.3872449
50
350.5378861
51
357.9759513
0
ARC
8
DEFAULT_255_2_778
10
11.8508148
20
4.7919933
40
3.3526695
50
357.7175657
51
0.035292
0
ARC
8
DEFAULT_255_2_778
10
18.2508543
20
6.3015087
40
3.1315403
50
275.2786511
51
281.2704506
0
ARC
8
DEFAULT_255_2_778
10
18.0760023
20
8.129198
40
4.9675683
50
271.0503326
51
275.3474389
0
ARC
8
DEFAULT_255_2_778
10
18.0310233
20
9.742136
40
6.5810777
50
269.9865962
51
271.1844509
0
ARC
8
DEFAULT_255_2_778
10
18.0171432
20
5.3464372
40
2.1854136
50
261.2851352
51
270.3235379
0
ARC
8
DEFAULT_255_2_778
10
17.8914746
20
4.5539658
40
1.3830568
50
247.6143532
51
261.4568341
0
ARC
8
DEFAULT_255_2_778
10
17.7935135
20
4.2896632
40
1.1014103
50
246.5712588
51
247.090096
0
ARC
8
DEFAULT_255_2_778
10
17.7751048
20
4.2837797
40
1.0887896
50
218.0731902
51
247.3370427
0
ARC
8
DEFAULT_255_2_778
10
17.9556507
20
4.4001015
40
1.3028016
50
196.4473842
51
217.2038899
0
ARC
8
DEFAULT_255_2_778
10
18.3067014
20
4.5218419
40
1.6740461
50
193.4079805
51
197.0416981
0
ARC
8
DEFAULT_255_2_778
10
19.2997074
20
4.7477275
40
2.6923861
50
183.4951089
51
193.1838333
0
ARC
8
DEFAULT_255_2_778
10
20.0298741
20
4.8047208
40
3.4246915
50
179.9525264
51
183.702128
0
ARC
8
DEFAULT_255_2_778
10
21.3985763
20
4.9430319
40
4.3417053
50
179.8610865
51
184.2501566
0
ARC
8
DEFAULT_255_2_778
10
19.8939642
20
4.8286415
40
2.8327544
50
184.1982306
51
189.8705931
0
ARC
8
DEFAULT_255_2_778
10
19.2314902
20
4.7219186
40
2.1618084
50
190.0937662
51
191.0531316
0
ARC
8
DEFAULT_255_2_778
10
18.2363036
20
4.5174816
40
1.1459305
50
190.5607183
51
205.5603001
0
ARC
8
DEFAULT_255_2_778
10
17.9566216
20
4.3887158
40
0.8380753
50
205.8685014
51
217.3596204
0
ARC
8
DEFAULT_255_2_778
10
17.8500283
20
4.3067392
40
0.7036059
50
217.3208656
51
250.3378525
0
ARC
8
DEFAULT_255_2_778
10
18.0114783
20
4.7708688
40
1.1950043
50
250.5359087
51
264.1996599
0
ARC
8
DEFAULT_255_2_778
10
18.090628
20
5.4212994
40
1.8501496
50
263.7967461
51
270.1720528
0
ARC
8
DEFAULT_255_2_778
10
18.1080625
20
8.2846386
40
4.7134952
50
269.8556054
51
273.9070755
0
ARC
8
DEFAULT_255_2_778
10
18.2176835
20
6.65622
40
3.0813923
50
273.9366731
51
278.0986528
0
ARC
8
DEFAULT_255_2_778
10
18.13345
20
7.2706784
40
3.7015908
50
278.0495819
51
280.4428308
0
ARC
8
DEFAULT_255_2_778
10
18.5853613
20
4.8542179
40
1.2432617
50
280.1464146
51
285.2125069
0
ARC
8
DEFAULT_255_2_778
10
18.8273334
20
3.9641421
40
0.3208813
50
285.223665
51
292.6265421
0
ARC
8
DEFAULT_255_2_778
10
19.7701319
20
3.0342402
40
1.1032439
50
258.7597442
51
268.7509868
0
ARC
8
DEFAULT_255_2_778
10
19.6960487
20
2.8046292
40
0.8640472
50
251.7422805
51
260.6105105
0
ARC
8
DEFAULT_255_2_778
10
19.5358086
20
2.3076823
40
0.3419344
50
243.8076985
51
251.1530745
0
ARC
8
DEFAULT_255_2_778
10
19.7430167
20
3.4592918
40
1.1295086
50
254.8269128
51
260.6426804
0
ARC
8
DEFAULT_255_2_778
10
19.9478772
20
4.5680251
40
2.256903
50
260.0875994
51
260.6107404
0
ARC
8
DEFAULT_255_2_778
10
19.7429405
20
3.2997048
40
0.9721525
50
260.3323266
51
269.7962723
0
ARC
8
DEFAULT_255_2_778
10
19.7519904
20
3.3772204
40
1.0497365
50
269.3173588
51
282.41614
0
ARC
8
DEFAULT_255_2_778
10
19.8707443
20
2.8674664
40
0.5264099
50
281.7223584
51
308.2410605
0
ARC
8
DEFAULT_255_2_778
10
19.9498542
20
2.7537105
40
0.3881861
50
309.4629222
51
329.5457512
0
ARC
8
DEFAULT_255_2_778
10
19.5570243
20
2.970177
40
0.8366283
50
330.4021396
51
346.5790525
0
ARC
8
DEFAULT_255_2_778
10
18.8358144
20
3.1522672
40
1.5804365
50
346.2265912
51
355.7212616
0
ARC
8
DEFAULT_255_2_778
10
17.8572367
20
3.2385175
40
2.5627548
50
355.4306286
51
0.1417643
0
ARC
8
DEFAULT_255_2_778
10
17.9838352
20
3.253056
40
2.8877765
50
353.2387688
51
0.2520254
0
ARC
8
DEFAULT_255_2_778
10
19.0534119
20
3.1227218
40
1.810297
50
343.309401
51
353.3496812
0
ARC
8
DEFAULT_255_2_778
10
19.7270146
20
2.9156761
40
1.10562
50
326.9828592
51
343.5613545
0
ARC
8
DEFAULT_255_2_778
10
19.9447152
20
2.7853434
40
0.8521105
50
321.8143145
51
326.3549672
0
ARC
8
DEFAULT_255_2_778
10
20.0085694
20
2.7468942
40
0.7782057
50
289.0038756
51
321.1329725
0
ARC
8
DEFAULT_255_2_778
10
19.8315976
20
3.219746
40
1.2829827
50
275.7282531
51
289.6000983
0
ARC
8
DEFAULT_255_2_778
10
19.7516809
20
3.8824688
40
1.9504186
50
269.8355788
51
276.1210443
0
ARC
8
DEFAULT_255_2_778
10
23.4711918
20
6.3014968
40
3.1315212
50
275.2772579
51
281.2698208
0
ARC
8
DEFAULT_255_2_778
10
23.296172
20
8.1310501
40
4.9694207
50
271.0503533
51
275.3464834
0
ARC
8
DEFAULT_255_2_778
10
23.2512208
20
9.7429104
40
6.5818521
50
269.9866197
51
271.1843816
0
ARC
8
DEFAULT_255_2_778
10
23.2373432
20
5.3464372
40
2.1854136
50
261.2851352
51
270.3235379
0
ARC
8
DEFAULT_255_2_778
10
23.1116746
20
4.5539658
40
1.3830568
50
247.6143532
51
261.4568341
0
ARC
8
DEFAULT_255_2_778
10
23.0137135
20
4.2896632
40
1.1014103
50
246.5712588
51
247.090096
0
ARC
8
DEFAULT_255_2_778
10
22.9953049
20
4.2837799
40
1.0887899
50
218.0731957
51
247.3370408
0
ARC
8
DEFAULT_255_2_778
10
23.1758507
20
4.4001015
40
1.3028016
50
196.4473842
51
217.2038899
0
ARC
8
DEFAULT_255_2_778
10
23.5269014
20
4.5218419
40
1.6740461
50
193.4079805
51
197.0416981
0
ARC
8
DEFAULT_255_2_778
10
24.517094
20
4.7468568
40
2.6894482
50
183.4803488
51
193.1794441
0
ARC
8
DEFAULT_255_2_778
10
25.25979
20
4.8046726
40
3.4343074
50
179.9518548
51
183.6909415
0
ARC
8
DEFAULT_255_2_778
10
26.6187763
20
4.9430319
40
4.3417053
50
179.8610865
51
184.2501566
0
ARC
8
DEFAULT_255_2_778
10
25.1141642
20
4.8286415
40
2.8327544
50
184.1982306
51
189.8705931
0
ARC
8
DEFAULT_255_2_778
10
24.4516902
20
4.7219186
40
2.1618084
50
190.0937662
51
191.0531316
0
ARC
8
DEFAULT_255_2_778
10
23.4556651
20
4.5176825
40
1.1451431
50
190.5782889
51
205.5902882
0
ARC
8
DEFAULT_255_2_778
10
23.1838836
20
4.3923671
40
0.8459053
50
205.8861963
51
217.2659415
0
ARC
8
DEFAULT_255_2_778
10
23.0701963
20
4.3069967
40
0.7037366
50
217.339113
51
250.3703576
0
ARC
8
DEFAULT_255_2_778
10
23.2302417
20
4.7600254
40
1.1842036
50
250.4403134
51
264.4289367
0
ARC
8
DEFAULT_255_2_778
10
23.3109555
20
5.4412214
40
1.8700717
50
263.9938105
51
270.1755039
0
ARC
8
DEFAULT_255_2_778
10
23.3285625
20
8.2846386
40
4.7134952
50
269.8556054
51
273.9070755
0
ARC
8
DEFAULT_255_2_778
10
23.4381835
20
6.65622
40
3.0813923
50
273.9366731
51
278.0986528
0
ARC
8
DEFAULT_255_2_778
10
23.35395
20
7.2706784
40
3.7015908
50
278.0495819
51
280.4428308
0
ARC
8
DEFAULT_255_2_778
10
23.8058613
20
4.8542179
40
1.2432617
50
280.1464146
51
285.2125069
0
ARC
8
DEFAULT_255_2_778
10
24.0478334
20
3.9641421
40
0.3208813
50
285.223665
51
292.6265421
0
LINE
8
DEFAULT_255_2_778
10
12.9531838
20
3.5361584
11
13.1753838
21
3.9182584
0
LINE
8
DEFAULT_255_2_778
10
15.2034838
20
4.7940584
11
15.2034838
21
8.0457584
0
LINE
8
DEFAULT_255_2_778
10
15.2034838
20
8.0457584
11
15.6759838
21
8.0457584
0
LINE
8
DEFAULT_255_2_778
10
15.6759838
20
8.0457584
11
15.6759838
21
4.7456584
0
LINE
8
DEFAULT_255_2_778
10
15.6759838
20
4.7456584
11
15.6762838
21
4.7450584
0
LINE
8
DEFAULT_255_2_778
10
19.4047838
20
3.3554584
11
18.8628838
21
3.2303584
0
LINE
8
DEFAULT_255_2_778
10
16.6051838
20
4.8075584
11
16.6051838
21
6.8223584
0
LINE
8
DEFAULT_255_2_778
10
16.6051838
20
6.8223584
11
17.0568838
21
6.8223584
0
LINE
8
DEFAULT_255_2_778
10
17.0568838
20
6.8223584
11
17.0568838
21
4.9535584
0
LINE
8
DEFAULT_255_2_778
10
18.9507838
20
3.6679584
11
18.9507838
21
6.8217584
0
LINE
8
DEFAULT_255_2_778
10
18.9507838
20
6.8217584
11
19.4023838
21
6.8217584
0
LINE
8
DEFAULT_255_2_778
10
19.4023838
20
6.8217584
11
19.4023838
21
3.3549584
0
LINE
8
DEFAULT_255_2_778
10
19.4023838
20
3.3549584
11
19.4047838
21
3.3554584
0
LINE
8
DEFAULT_255_2_778
10
19.3848838
20
2.0008584
11
19.4473838
21
2.3691584
0
LINE
8
DEFAULT_255_2_778
10
20.4199838
20
3.2448584
11
20.4199838
21
6.8228584
0
LINE
8
DEFAULT_255_2_778
10
20.4199838
20
6.8228584
11
20.8715838
21
6.8228584
0
LINE
8
DEFAULT_255_2_778
10
20.8715838
20
6.8228584
11
20.8715838
21
3.2657584
0
LINE
8
DEFAULT_255_2_778
10
19.7460838
20
1.9320584
11
19.7460838
21
1.9312584
0
LINE
8
DEFAULT_255_2_778
10
24.6249838
20
3.3554584
11
24.0831838
21
3.2303584
0
LINE
8
DEFAULT_255_2_778
10
21.8254838
20
4.8075584
11
21.8254838
21
6.8223584
0
LINE
8
DEFAULT_255_2_778
10
21.8254838
20
6.8223584
11
22.2770838
21
6.8223584
0
LINE
8
DEFAULT_255_2_778
10
22.2770838
20
6.8223584
11
22.2770838
21
4.9535584
0
LINE
8
DEFAULT_255_2_778
10
24.1712838
20
3.6679584
11
24.1712838
21
6.8217584
0
LINE
8
DEFAULT_255_2_778
10
24.1712838
20
6.8217584
11
24.6228838
21
6.8217584
0
LINE
8
DEFAULT_255_2_778
10
24.6228838
20
6.8217584
11
24.6228838
21
3.3549584
0
LINE
8
DEFAULT_255_2_778
10
24.6228838
20
3.3549584
11
24.6249838
21
3.3554584
0
ENDSEC
0
EOF