0
SECTION
2
HEADER
9
$MEASUREMENT
70
1
0
ENDSEC
0
SECTION
2
TABLES
0
TABLE
2
LTYPE
0
LTYPE
72
65
70
64
2
CONTINUOUS
3
______
73
0
40
0
0
ENDTAB
0
TABLE
2
LAYER
0
LAYER
2
DEFAULT_255_2_778
70
0
62
255
6
CONTINUOUS
0
ENDTAB
0
ENDSEC
0
SECTION
2
ENTITIES
0
ARC
8
DEFAULT_255_2_778
10
8.7551309
20
8.2411379
40
8.5111377
50
180.0000068
51
180.1242104
0
ARC
8
DEFAULT_255_2_778
10
8.6901743
20
8.2415387
40
8.4461812
50
160.643824
51
180.0027255
0
ARC
8
DEFAULT_255_2_778
10
8.6913358
20
8.241758
40
8.4472043
50
137.4314262
51
160.6478385
0
ARC
8
DEFAULT_255_2_778
10
8.6973783
20
8.2359762
40
8.4555656
50
134.9997816
51
137.4302705
0
ARC
8
DEFAULT_255_2_778
10
8.6907175
20
8.2432752
40
8.4456946
50
115.9899712
51
135.0028429
0
ARC
8
DEFAULT_255_2_778
10
8.6920507
20
8.2418081
40
8.4475976
50
92.0538252
51
115.9937389
0
ARC
8
DEFAULT_255_2_778
10
8.6922383
20
8.2330022
40
8.4564046
50
89.9998315
51
92.0529567
0
ARC
8
DEFAULT_255_2_778
10
8.6922621
20
8.1782691
40
8.5111378
50
89.8757896
51
89.9999932
0
ARC
8
DEFAULT_255_2_778
10
8.7291643
20
8.1782691
40
8.5111377
50
90.0000068
51
90.1242104
0
ARC
8
DEFAULT_255_2_778
10
8.7295651
20
8.2432257
40
8.4461812
50
70.643824
51
90.0027255
0
ARC
8
DEFAULT_255_2_778
10
8.7297844
20
8.2420642
40
8.4472043
50
47.4314262
51
70.6478385
0
ARC
8
DEFAULT_255_2_778
10
8.7240026
20
8.2360218
40
8.4555656
50
44.9997816
51
47.4302705
0
ARC
8
DEFAULT_255_2_778
10
8.7304713
20
8.2422323
40
8.4466001
50
25.9903689
51
45.0010201
0
ARC
8
DEFAULT_255_2_778
10
8.7298438
20
8.2412587
40
8.4475909
50
2.0544288
51
25.9944393
0
ARC
8
DEFAULT_255_2_778
10
8.7222728
20
8.2411598
40
8.4551606
50
359.9998313
51
2.0532594
0
ARC
8
DEFAULT_255_2_778
10
8.6681506
20
8.2411359
40
8.5092827
50
359.8757762
51
359.9999932
0
ARC
8
DEFAULT_255_2_778
10
8.6681506
20
8.2042377
40
8.5092826
50
0.0000068
51
0.1242238
0
ARC
8
DEFAULT_255_2_778
10
8.7315558
20
8.2038736
40
8.4458776
50
340.6428299
51
0.0024769
0
ARC
8
DEFAULT_255_2_778
10
8.7293214
20
8.204021
40
8.4480344
50
317.4328659
51
340.6469099
0
ARC
8
DEFAULT_255_2_778
10
8.7235158
20
8.209557
40
8.4560551
50
315.0015678
51
317.4318495
0
ARC
8
DEFAULT_255_2_778
10
8.7302587
20
8.2029287
40
8.4466001
50
295.9903689
51
315.0010201
0
ARC
8
DEFAULT_255_2_778
10
8.7292851
20
8.2035562
40
8.4475909
50
272.0544288
51
295.9944393
0
ARC
8
DEFAULT_255_2_778
10
8.7291862
20
8.2111272
40
8.4551606
50
269.9998313
51
272.0532594
0
ARC
8
DEFAULT_255_2_778
10
8.7291623
20
8.2652494
40
8.5092827
50
269.8757762
51
269.9999932
0
ARC
8
DEFAULT_255_2_778
10
8.6922641
20
8.2652494
40
8.5092826
50
270.0000068
51
270.1242238
0
ARC
8
DEFAULT_255_2_778
10
8.6919
20
8.2018443
40
8.4458776
50
250.6428299
51
270.0024769
0
ARC
8
DEFAULT_255_2_778
10
8.6920474
20
8.2040787
40
8.4480344
50
227.4328659
51
250.6469099
0
ARC
8
DEFAULT_255_2_778
10
8.6975834
20
8.2098843
40
8.4560551
50
225.0015678
51
227.4318495
0
ARC
8
DEFAULT_255_2_778
10
8.6901248
20
8.2026911
40
8.4456946
50
205.9899712
51
225.0028429
0
ARC
8
DEFAULT_255_2_778
10
8.6915919
20
8.2040243
40
8.4475976
50
182.0538252
51
205.9937389
0
ARC
8
DEFAULT_255_2_778
10
8.7003979
20
8.2042119
40
8.4564046
50
179.9998315
51
182.0529567
0
ARC
8
DEFAULT_255_2_778
10
8.7551309
20
8.2042357
40
8.5111378
50
179.8757896
51
179.9999932
0
LINE
8
DEFAULT_255_2_778
10
0.2440132
20
8.2226868
11
0.2440132
21
8.2226868
0
ARC
8
DEFAULT_255_2_778
10
9.1937733
20
8.7074796
40
0.522955
50
89.8744156
51
180.1255844
0
ARC
8
DEFAULT_255_2_778
10
9.1959382
20
8.7073522
40
0.5230822
50
359.8884073
51
90.111585
0
ARC
8
DEFAULT_255_2_778
10
9.1960019
20
8.705251
40
0.5230187
50
269.8814242
51
0.118568
0
ARC
8
DEFAULT_255_2_778
10
9.1939006
20
8.7053146
40
0.5230822
50
179.8884073
51
270.1116036
0
ARC
8
DEFAULT_255_2_778
10
10.4002169
20
13.5443887
40
1.6888974
50
152.8616345
51
180.0052675
0
ARC
8
DEFAULT_255_2_778
10
10.4080459
20
13.5405659
40
1.6976082
50
98.8073428
51
152.8673459
0
ARC
8
DEFAULT_255_2_778
10
10.4067387
20
13.5284828
40
1.7093516
50
90.0609759
51
98.70203
0
ARC
8
DEFAULT_255_2_778
10
10.4050729
20
13.5491557
40
1.6886777
50
62.8584517
51
90.0052049
0
ARC
8
DEFAULT_255_2_778
10
10.4009936
20
13.540922
40
1.6978657
50
8.8115296
51
62.8627027
0
ARC
8
DEFAULT_255_2_778
10
10.3889966
20
13.5422264
40
1.7095242
50
0.0672661
51
8.7067336
0
ARC
8
DEFAULT_255_2_778
10
10.416449
20
13.5471137
40
0.7141785
50
359.7288107
51
359.9999675
0
ARC
8
DEFAULT_255_2_778
10
10.408166
20
13.5471721
40
0.7224614
50
359.9953344
51
44.9892206
0
ARC
8
DEFAULT_255_2_778
10
10.4082857
20
13.546805
40
0.7226364
50
45.0165149
51
89.9989152
0
ARC
8
DEFAULT_255_2_778
10
10.4082998
20
13.555265
40
0.7141762
50
90.0000326
51
90.2711894
0
ARC
8
DEFAULT_255_2_778
10
10.4066945
20
13.5418575
40
0.7275781
50
90.1397756
51
179.4830382
0
ARC
8
DEFAULT_255_2_778
10
10.4208132
20
13.5418699
40
0.7416961
50
179.4938414
51
179.8560475
0
ARC
8
DEFAULT_255_2_778
10
12.8232297
20
9.6697932
40
1.6892598
50
242.859949
51
269.9996548
0
ARC
8
DEFAULT_255_2_778
10
12.8268682
20
9.6772927
40
1.6975933
50
188.8076788
51
242.86613
0
ARC
8
DEFAULT_255_2_778
10
12.8388574
20
9.6759538
40
1.7092388
50
180.0610227
51
188.7017905
0
ARC
8
DEFAULT_255_2_778
10
12.8249285
20
9.6759431
40
0.7275112
50
180.142525
51
269.4960475
0
ARC
8
DEFAULT_255_2_778
10
12.8250835
20
9.6905018
40
0.7420708
50
269.493971
51
269.8560843
0
ARC
8
DEFAULT_255_2_778
10
12.8213658
20
9.6759877
40
0.7275567
50
270.14598
51
359.4847268
0
ARC
8
DEFAULT_255_2_778
10
12.8072259
20
9.6759968
40
0.7416961
50
359.4938414
51
359.8560475
0
ARC
8
DEFAULT_255_2_778
10
12.8039452
20
9.6684584
40
1.7128837
50
0.0020558
51
0.1898293
0
ARC
8
DEFAULT_255_2_778
10
12.8370165
20
9.6686311
40
1.6798124
50
314.8120043
51
359.9962034
0
ARC
8
DEFAULT_255_2_778
10
12.8288459
20
9.662083
40
1.6809578
50
270.0039446
51
315.1668804
0
ARC
8
DEFAULT_255_2_778
10
12.8288997
20
9.6170528
40
1.6359276
50
269.8185736
51
270.0021721
0
ARC
8
DEFAULT_255_2_778
10
4.3557645
20
2.9020884
40
0.5231458
50
89.8954043
51
180.1045957
0
ARC
8
DEFAULT_255_2_778
10
4.357753
20
2.902067
40
0.5231674
50
359.8977554
51
90.1131812
0
ARC
8
DEFAULT_255_2_778
10
4.3577314
20
2.9001215
40
0.5231891
50
269.8891863
51
0.1108192
0
ARC
8
DEFAULT_255_2_778
10
4.355786
20
2.9000999
40
0.5231674
50
179.8868188
51
270.1022369
0
ARC
8
DEFAULT_255_2_778
10
5.5609972
20
9.1901868
40
1.6886777
50
152.8584517
51
180.0052049
0
ARC
8
DEFAULT_255_2_778
10
5.5692309
20
9.1861074
40
1.6978657
50
98.8115296
51
152.8627027
0
ARC
8
DEFAULT_255_2_778
10
5.5679265
20
9.1741104
40
1.7095242
50
90.0672661
51
98.7067336
0
ARC
8
DEFAULT_255_2_778
10
5.5658888
20
9.1944712
40
1.6891621
50
62.8591473
51
89.9989582
0
ARC
8
DEFAULT_255_2_778
10
5.5621944
20
9.1867949
40
1.6976786
50
8.8099381
51
62.8663753
0
ARC
8
DEFAULT_255_2_778
10
5.5504923
20
9.1882133
40
1.7090282
50
0.0610186
51
8.7028594
0
ARC
8
DEFAULT_255_2_778
10
5.5835466
20
9.1922285
40
0.7080763
50
359.8223783
51
0.0050604
0
ARC
8
DEFAULT_255_2_778
10
5.5716707
20
9.1928189
40
0.7199526
50
359.9579854
51
45.1500012
0
ARC
8
DEFAULT_255_2_778
10
5.5682884
20
9.1937551
40
0.7216808
50
44.9072138
51
89.9992906
0
ARC
8
DEFAULT_255_2_778
10
5.5682975
20
9.1806522
40
0.7347836
50
90.0000143
51
90.1464413
0
ARC
8
DEFAULT_255_2_778
10
5.5682084
20
9.1879445
40
0.7274911
50
90.1408878
51
179.4898307
0
ARC
8
DEFAULT_255_2_778
10
5.5824131
20
9.1878699
40
0.7416961
50
179.4938414
51
179.8560475
0
ARC
8
DEFAULT_255_2_778
10
7.9853735
20
5.315119
40
1.6887856
50
242.8593359
51
270.0049525
0
ARC
8
DEFAULT_255_2_778
10
7.9892924
20
5.3231536
40
1.6977232
50
188.8091608
51
242.8653377
0
ARC
8
DEFAULT_255_2_778
10
8.0009947
20
5.3217547
40
1.7090762
50
180.0610589
51
188.7027362
0
ARC
8
DEFAULT_255_2_778
10
7.9875088
20
5.3219224
40
0.727792
50
180.1565905
51
269.4742635
0
ARC
8
DEFAULT_255_2_778
10
7.9875726
20
5.3357837
40
0.7416532
50
269.4791668
51
269.8413944
0
ARC
8
DEFAULT_255_2_778
10
7.9835305
20
5.3219227
40
0.727792
50
270.1565905
51
359.4742635
0
ARC
8
DEFAULT_255_2_778
10
7.9696693
20
5.3219864
40
0.7416532
50
359.4791668
51
359.8413944
0
ARC
8
DEFAULT_255_2_778
10
7.9655008
20
5.3142571
40
1.7136281
50
0.0020554
51
0.1897888
0
ARC
8
DEFAULT_255_2_778
10
7.9991693
20
5.314393
40
1.6799596
50
314.8189036
51
359.9974631
0
ARC
8
DEFAULT_255_2_778
10
7.990913
20
5.3083485
40
1.6815221
50
269.9992492
51
315.163631
0
ARC
8
DEFAULT_255_2_778
10
7.9909628
20
5.3718759
40
1.7450496
50
269.8376947
51
269.9976395
0
LINE
8
DEFAULT_255_2_778
10
8.6708195
20
8.7063334
11
8.6708195
21
8.7063334
0
LINE
8
DEFAULT_255_2_778
10
9.6786195
20
9.6741334
11
8.7113195
21
9.6741334
0
LINE
8
DEFAULT_255_2_778
10
8.7113195
20
9.6741334
11
8.7113195
21
13.5442334
0
LINE
8
DEFAULT_255_2_778
10
12.0985195
20
13.5442334
11
12.0985195
21
12.5764334
0
LINE
8
DEFAULT_255_2_778
10
12.0985195
20
12.5764334
11
11.1306195
21
12.5764334
0
LINE
8
DEFAULT_255_2_778
10
11.1306195
20
12.5764334
11
11.1306195
21
13.5437334
0
LINE
8
DEFAULT_255_2_778
10
9.6791195
20
13.5437334
11
9.6791195
21
9.6733334
0
LINE
8
DEFAULT_255_2_778
10
9.6791195
20
9.6733334
11
9.6786195
21
9.6741334
0
LINE
8
DEFAULT_255_2_778
10
11.1296195
20
9.6741334
11
11.1296195
21
12.0930334
0
LINE
8
DEFAULT_255_2_778
10
11.1296195
20
12.0930334
11
12.0974195
21
12.0930334
0
LINE
8
DEFAULT_255_2_778
10
12.0974195
20
12.0930334
11
12.0974195
21
9.6741334
0
LINE
8
DEFAULT_255_2_778
10
13.5489195
20
9.6741334
11
13.5489195
21
12.0930334
0
LINE
8
DEFAULT_255_2_778
10
13.5489195
20
12.0930334
11
14.5168195
21
12.0930334
0
LINE
8
DEFAULT_255_2_778
10
14.5168195
20
12.0930334
11
14.5168195
21
9.6741334
0
LINE
8
DEFAULT_255_2_778
10
12.8237195
20
7.9811334
11
12.8232195
21
7.9805334
0
LINE
8
DEFAULT_255_2_778
10
3.8326195
20
2.9011334
11
3.8326195
21
2.9011334
0
LINE
8
DEFAULT_255_2_778
10
4.8401195
20
3.8684334
11
3.8723195
21
3.8684334
0
LINE
8
DEFAULT_255_2_778
10
3.8723195
20
3.8684334
11
3.8723195
21
9.1900334
0
LINE
8
DEFAULT_255_2_778
10
7.2595195
20
9.1900334
11
7.2595195
21
8.2221334
0
LINE
8
DEFAULT_255_2_778
10
7.2595195
20
8.2221334
11
6.2916195
21
8.2221334
0
LINE
8
DEFAULT_255_2_778
10
6.2916195
20
8.2221334
11
6.2916195
21
9.1900334
0
LINE
8
DEFAULT_255_2_778
10
4.8407195
20
9.1897334
11
4.8407195
21
3.8681334
0
LINE
8
DEFAULT_255_2_778
10
4.8407195
20
3.8681334
11
4.8401195
21
3.8684334
0
LINE
8
DEFAULT_255_2_778
10
6.2919195
20
5.3199334
11
6.2919195
21
7.7392334
0
LINE
8
DEFAULT_255_2_778
10
6.2919195
20
7.7392334
11
7.2597195
21
7.7392334
0
LINE
8
DEFAULT_255_2_778
10
7.2597195
20
7.7392334
11
7.2597195
21
5.3199334
0
LINE
8
DEFAULT_255_2_778
10
8.7113195
20
5.3199334
11
8.7113195
21
7.7392334
0
LINE
8
DEFAULT_255_2_778
10
8.7113195
20
7.7392334
11
9.6791195
21
7.7392334
0
LINE
8
DEFAULT_255_2_778
10
9.6791195
20
7.7392334
11
9.6791195
21
5.3199334
0
LINE
8
DEFAULT_255_2_778
10
7.9860195
20
3.6268334
11
7.9855195
21
3.6263334
0
ENDSEC
0
EOF