0
SECTION
2
HEADER
9
$MEASUREMENT
70
1
0
ENDSEC
0
SECTION
2
TABLES
0
TABLE
2
LTYPE
0
LTYPE
72
65
70
64
2
CONTINUOUS
3
______
73
0
40
0
0
ENDTAB
0
TABLE
2
LAYER
0
LAYER
2
DEFAULT_255_2_778
70
0
62
255
6
CONTINUOUS
0
ENDTAB
0
ENDSEC
0
SECTION
2
ENTITIES
0
ARC
8
DEFAULT_255_2_778
10
14.7453786
20
0.1611931
40
0.5425594
50
90.9701607
51
99.330154
0
LINE
8
DEFAULT_255_2_778
10
14.6574172
20
0.6965747
11
14.6568635
21
0.6964964
0
ARC
8
DEFAULT_255_2_778
10
14.5697455
20
1.2276011
40
0.5382023
50
270.9631356
51
279.3153692
0
ARC
8
DEFAULT_255_2_778
10
11.3899689
20
-1.11599
40
3.860749
50
108.8923591
51
152.118383
0
ARC
8
DEFAULT_255_2_778
10
11.3261077
20
4.2369674
40
2.0731045
50
179.8150579
51
235.0967191
0
ARC
8
DEFAULT_255_2_778
10
11.3600734
20
4.2436226
40
2.1070595
50
173.2778582
51
179.9990093
0
ARC
8
DEFAULT_255_2_778
10
11.3648783
20
4.2430916
40
2.1118935
50
170.6919431
51
173.2788109
0
ARC
8
DEFAULT_255_2_778
10
11.3822117
20
4.2091559
40
2.134708
50
108.6831244
51
169.8683175
0
ARC
8
DEFAULT_255_2_778
10
11.3626361
20
4.0505251
40
2.2797642
50
98.962065
51
106.9397058
0
ARC
8
DEFAULT_255_2_778
10
11.3596477
20
4.067327
40
2.262702
50
97.1214217
51
98.9535927
0
ARC
8
DEFAULT_255_2_778
10
11.3582034
20
4.0804187
40
2.2495323
50
90.0052598
51
97.1262573
0
ARC
8
DEFAULT_255_2_778
10
11.3753886
20
4.196076
40
2.1339459
50
37.0676581
51
90.4669691
0
ARC
8
DEFAULT_255_2_778
10
11.3994537
20
4.2336774
40
2.0921368
50
27.9596429
51
36.6432308
0
ARC
8
DEFAULT_255_2_778
10
11.4405943
20
4.2832707
40
2.0326943
50
12.6369854
51
27.2685937
0
ARC
8
DEFAULT_255_2_778
10
11.3939905
20
4.2728601
40
2.0804466
50
1.7227026
51
12.6359581
0
ARC
8
DEFAULT_255_2_778
10
11.3622846
20
4.2710621
40
2.1121924
50
359.9994293
51
1.7455996
0
ARC
8
DEFAULT_255_2_778
10
11.3320443
20
4.2712818
40
2.1424329
50
315.8469419
51
359.9935618
0
ARC
8
DEFAULT_255_2_778
10
11.3867242
20
4.228048
40
2.0730975
50
305.3410834
51
315.6515599
0
ARC
8
DEFAULT_255_2_778
10
11.3893533
20
-1.0411672
40
3.7729041
50
27.5515224
51
71.5099461
0
ARC
8
DEFAULT_255_2_778
10
14.7396311
20
0.7290448
40
0.0256116
50
218.5859148
51
258.1968179
0
ARC
8
DEFAULT_255_2_778
10
14.8601888
20
0.8491073
40
0.1956219
50
214.9399265
51
224.0594058
0
ARC
8
DEFAULT_255_2_778
10
15.2547641
20
1.1313739
40
0.6807567
50
210.8817404
51
215.3951552
0
ARC
8
DEFAULT_255_2_778
10
15.888937
20
1.5178095
40
1.4233804
50
209.1548451
51
211.1292803
0
ARC
8
DEFAULT_255_2_778
10
16.4226522
20
1.8171876
40
2.035326
50
207.8533199
51
209.1953239
0
ARC
8
DEFAULT_255_2_778
10
16.6359838
20
1.9314272
40
2.2773168
50
205.6065889
51
207.8868814
0
ARC
8
DEFAULT_255_2_778
10
15.8058651
20
1.5347931
40
1.3573093
50
203.719961
51
205.6526339
0
ARC
8
DEFAULT_255_2_778
10
14.9513209
20
1.1616728
40
0.4248665
50
200.0189941
51
204.0105296
0
ARC
8
DEFAULT_255_2_778
10
14.5919366
20
1.0324594
40
0.0429933
50
187.0761572
51
202.1816136
0
ARC
8
DEFAULT_255_2_778
10
14.550631
20
1.027438
40
0.0013877
50
130.1718952
51
191.4260495
0
ARC
8
DEFAULT_255_2_778
10
14.5499832
20
1.0279619
40
0.0005908
50
89.1250797
51
114.7504299
0
ARC
8
DEFAULT_255_2_778
10
14.5459782
20
1.0195285
40
0.0098765
50
30.8316435
51
66.0200263
0
ARC
8
DEFAULT_255_2_778
10
14.3896035
20
0.8969773
40
0.2084764
50
31.6116229
51
37.743117
0
ARC
8
DEFAULT_255_2_778
10
13.7326492
20
0.4782448
40
0.9875104
50
30.4709246
51
32.3225638
0
ARC
8
DEFAULT_255_2_778
10
12.3641953
20
-0.3300481
40
2.5768501
50
29.4164202
51
30.5312341
0
ARC
8
DEFAULT_255_2_778
10
10.2399312
20
-1.5324752
40
5.0178172
50
28.901306
51
29.4628052
0
ARC
8
DEFAULT_255_2_778
10
7.41418
20
-3.0928095
40
8.2457441
50
28.4301483
51
28.9034461
0
ARC
8
DEFAULT_255_2_778
10
3.6908835
20
-5.110615
40
12.4806552
50
28.1274363
51
28.4386021
0
ARC
8
DEFAULT_255_2_778
10
-0.6371483
20
-7.4247634
40
17.3885204
50
27.8706654
51
28.1289782
0
ARC
8
DEFAULT_255_2_778
10
7.9701719
20
0.7036455
40
0.4941797
50
179.604043
51
179.9966138
0
ARC
8
DEFAULT_255_2_778
10
8.2366747
20
0.667251
40
0.7617117
50
148.9364053
51
177.0041613
0
ARC
8
DEFAULT_255_2_778
10
9.4569643
20
0.0084097
40
2.1479533
50
144.0459723
51
150.6784165
0
ARC
8
DEFAULT_255_2_778
10
13.6312787
20
-2.9551957
40
7.2672367
50
143.5503487
51
144.455051
0
ARC
8
DEFAULT_255_2_778
10
1.3780903
20
6.1004602
40
7.9690865
50
323.5189698
51
324.2832208
0
ARC
8
DEFAULT_255_2_778
10
5.4323303
20
-0.9907116
40
3.4330054
50
45.2717212
51
70.0301033
0
ARC
8
DEFAULT_255_2_778
10
5.6197953
20
3.6368635
40
1.7125969
50
305.1100037
51
317.6906992
0
ARC
8
DEFAULT_255_2_778
10
5.6595006
20
3.5986405
40
1.6575056
50
317.7439256
51
335.2630135
0
ARC
8
DEFAULT_255_2_778
10
5.5795856
20
3.6307857
40
1.7435439
50
335.4025198
51
359.7955696
0
ARC
8
DEFAULT_255_2_778
10
5.5205234
20
3.6357012
40
1.8026293
50
359.6460322
51
359.9999983
0
ARC
8
DEFAULT_255_2_778
10
5.5461725
20
3.6427162
40
1.776994
50
359.7738122
51
43.3000254
0
ARC
8
DEFAULT_255_2_778
10
5.6305536
20
3.7044613
40
1.6732877
50
43.7428991
51
61.7418975
0
ARC
8
DEFAULT_255_2_778
10
5.5976831
20
3.6446501
40
1.7415334
50
61.720978
51
69.1162708
0
ARC
8
DEFAULT_255_2_778
10
5.5936523
20
3.5530543
40
1.8287769
50
70.0212906
51
80.6875871
0
ARC
8
DEFAULT_255_2_778
10
5.595114
20
3.5605934
40
1.8211006
50
80.6945864
51
84.2080632
0
ARC
8
DEFAULT_255_2_778
10
5.5952697
20
3.5622495
40
1.8194373
50
84.2076804
51
89.9994925
0
ARC
8
DEFAULT_255_2_778
10
5.5835557
20
3.6223575
40
1.7593683
50
89.6179906
51
145.4121558
0
ARC
8
DEFAULT_255_2_778
10
5.5540159
20
3.6572152
40
1.7153034
50
145.8105887
51
147.8467673
0
ARC
8
DEFAULT_255_2_778
10
5.5339398
20
3.6678015
40
1.6926735
50
147.7884931
51
162.7049277
0
ARC
8
DEFAULT_255_2_778
10
5.5496705
20
3.6639966
40
1.7088247
50
162.7399229
51
178.0208436
0
ARC
8
DEFAULT_255_2_778
10
5.5750816
20
3.6621464
40
1.7342848
50
177.9887475
51
180.000647
0
ARC
8
DEFAULT_255_2_778
10
5.5985128
20
3.6630134
40
1.7577162
50
180.0288997
51
222.1070591
0
ARC
8
DEFAULT_255_2_778
10
5.5802285
20
3.6505063
40
1.7357675
50
222.2054616
51
234.5862796
0
ARC
8
DEFAULT_255_2_778
10
5.6109339
20
-0.7848945
40
3.1936602
50
108.9390585
51
152.2651065
0
LINE
8
DEFAULT_255_2_778
10
14.5787922
20
0.6894747
11
7.9773922
21
0.6894747
0
LINE
8
DEFAULT_255_2_778
10
14.7343922
20
0.7039747
11
14.7361922
21
0.7036747
0
LINE
8
DEFAULT_255_2_778
10
2.7841922
20
0.7013747
11
4.5568922
21
0.7013747
0
LINE
8
DEFAULT_255_2_778
10
4.5568922
20
0.7013747
11
7.4759922
21
0.7036747
0
ARC
8
DEFAULT_255_2_778
10
14.6061525
20
2.3038496
40
1.5631373
50
31.6222846
51
45.065519
0
ARC
8
DEFAULT_255_2_778
10
14.6211335
20
2.3152232
40
1.5444184
50
12.3553016
51
31.5543911
0
ARC
8
DEFAULT_255_2_778
10
14.571249
20
2.3035446
40
1.5956465
50
1.4577431
51
12.3816629
0
ARC
8
DEFAULT_255_2_778
10
14.5485984
20
2.3022723
40
1.6183223
50
359.9991051
51
1.4823713
0
ARC
8
DEFAULT_255_2_778
10
14.5565629
20
2.2970689
40
1.6103662
50
311.9047191
51
0.1842353
0
ARC
8
DEFAULT_255_2_778
10
14.6113628
20
2.2545097
40
1.5421402
50
292.8805752
51
311.4454914
0
ARC
8
DEFAULT_255_2_778
10
14.4427278
20
2.6478506
40
1.9701006
50
292.8921613
51
292.9512704
0
ARC
8
DEFAULT_255_2_778
10
14.4632079
20
0.6198077
40
0.7757321
50
15.9454034
51
16.0260895
0
ARC
8
DEFAULT_255_2_778
10
13.6977779
20
0.3718254
40
1.5801073
50
17.0062129
51
32.5516
0
ARC
8
DEFAULT_255_2_778
10
12.1701071
20
-0.6007597
40
3.391101
50
32.5148018
51
42.9625719
0
ARC
8
DEFAULT_255_2_778
10
10.3950511
20
-2.1740718
40
5.7626255
50
42.3820242
51
44.2324719
0
ARC
8
DEFAULT_255_2_778
10
9.3295818
20
-3.2068144
40
7.2464629
50
44.2066571
51
45.043727
0
ARC
8
DEFAULT_255_2_778
10
11.5411491
20
-0.8476845
40
4.0157057
50
43.5900138
51
61.8951687
0
ARC
8
DEFAULT_255_2_778
10
11.228096
20
4.3356354
40
2.7485262
50
323.3382303
51
345.036486
0
ARC
8
DEFAULT_255_2_778
10
11.0099858
20
4.4144739
40
2.9796628
50
344.6548218
51
346.3502991
0
ARC
8
DEFAULT_255_2_778
10
14.5896531
20
2.3435392
40
1.5293441
50
98.2602123
51
116.5741292
0
ARC
8
DEFAULT_255_2_778
10
14.592867
20
2.324138
40
1.5490059
50
92.1067923
51
98.274759
0
ARC
8
DEFAULT_255_2_778
10
14.5933463
20
2.3142523
40
1.5589025
50
89.9993512
51
92.1110389
0
ARC
8
DEFAULT_255_2_778
10
14.5920054
20
2.2912472
40
1.5819082
50
47.9137669
51
89.9507924
0
ARC
8
DEFAULT_255_2_778
10
14.5967723
20
2.2982504
40
1.5735163
50
44.9754598
51
47.8716685
0
ARC
8
DEFAULT_255_2_778
10
35.4732938
20
23.1995123
40
27.9678436
50
225.0372197
51
225.0606308
0
ARC
8
DEFAULT_255_2_778
10
20.0506042
20
7.7436921
40
6.1334275
50
225.0576267
51
225.1057966
0
ARC
8
DEFAULT_255_2_778
10
15.8293448
20
3.5061401
40
0.1521343
50
224.926466
51
225.5405823
0
ARC
8
DEFAULT_255_2_778
10
15.1082647
20
2.7891219
40
0.8647722
50
44.714598
51
45.0446904
0
ARC
8
DEFAULT_255_2_778
10
-11.1848727
20
-23.4594401
40
38.0173766
50
44.9535136
51
44.9864841
0
ARC
8
DEFAULT_255_2_778
10
-97.86482
20
-110.0856285
40
160.5633262
50
44.983235
51
44.9943078
0
ARC
8
DEFAULT_255_2_778
10
-100.6990053
20
-112.9133534
40
164.5669019
50
44.9928689
51
45.0067238
0
ARC
8
DEFAULT_255_2_778
10
-13.067925
20
-25.2617935
40
40.6233573
50
45.006814
51
45.0253121
0
ARC
8
DEFAULT_255_2_778
10
14.646779
20
2.4794324
40
1.4100896
50
44.967198
51
45.1695095
0
ARC
8
DEFAULT_255_2_778
10
16.6106921
20
4.4427543
40
1.3668987
50
224.8076091
51
225.0182808
0
ARC
8
DEFAULT_255_2_778
10
49.061876
20
36.8440309
40
47.2245261
50
224.9577133
51
224.9712819
0
ARC
8
DEFAULT_255_2_778
10
131.7337374
20
119.4337998
40
164.08216
50
224.9714648
51
224.9805443
0
ARC
8
DEFAULT_255_2_778
10
459.3412293
20
446.8095676
40
627.2252935
50
224.9799427
51
224.9835068
0
LINE
8
DEFAULT_255_2_778
10
15.6983191
20
3.4219979
11
15.7098928
21
3.4104178
0
ARC
8
DEFAULT_255_2_778
10
2.8130028
20
2.5108252
40
1.8222022
50
227.7490793
51
253.7727637
0
ARC
8
DEFAULT_255_2_778
10
3.0450452
20
0.6598857
40
0.7481465
50
160.629903
51
172.2156917
0
ARC
8
DEFAULT_255_2_778
10
3.2415795
20
0.5968782
40
0.9544711
50
158.7671549
51
160.9746725
0
ARC
8
DEFAULT_255_2_778
10
3.7161155
20
0.3864606
40
1.4731985
50
144.2711394
51
157.822959
0
ARC
8
DEFAULT_255_2_778
10
4.7720113
20
-0.3457445
40
2.7580242
50
138.1827036
51
144.7322102
0
ARC
8
DEFAULT_255_2_778
10
5.6663127
20
-1.1273589
40
3.9456956
50
136.0107925
51
138.3825809
0
ARC
8
DEFAULT_255_2_778
10
6.2558479
20
-1.6929762
40
4.7626837
50
134.9494799
51
136.040876
0
ARC
8
DEFAULT_255_2_778
10
5.6335102
20
-0.8031043
40
3.6980173
50
120.6157238
51
137.8671461
0
ARC
8
DEFAULT_255_2_778
10
5.600452
20
3.6474405
40
2.243065
50
180.1241832
51
214.423687
0
ARC
8
DEFAULT_255_2_778
10
5.5128059
20
3.6426268
40
2.1554136
50
179.7619683
51
180.0012724
0
ARC
8
DEFAULT_255_2_778
10
5.4840678
20
3.6444179
40
2.1266689
50
167.6902159
51
179.8070069
0
ARC
8
DEFAULT_255_2_778
10
2.8054404
20
2.4741383
40
1.7312881
50
69.6926994
51
82.5952546
0
ARC
8
DEFAULT_255_2_778
10
2.8025544
20
2.4549318
40
1.7507065
50
82.5826016
51
86.1034876
0
ARC
8
DEFAULT_255_2_778
10
2.8016843
20
2.441942
40
1.7637254
50
86.1039626
51
90.0027058
0
ARC
8
DEFAULT_255_2_778
10
2.8005467
20
2.4120432
40
1.7936244
50
89.9663211
51
145.8057054
0
ARC
8
DEFAULT_255_2_778
10
2.7509023
20
2.4599528
40
1.7256766
50
146.1950861
51
147.1426363
0
ARC
8
DEFAULT_255_2_778
10
2.6795737
20
2.4677477
40
1.6618408
50
146.0340737
51
164.201407
0
ARC
8
DEFAULT_255_2_778
10
2.7201801
20
2.456888
40
1.7038701
50
164.2217802
51
179.4988244
0
ARC
8
DEFAULT_255_2_778
10
2.7532465
20
2.4553944
40
1.7369488
50
179.4590998
51
179.9992895
0
ARC
8
DEFAULT_255_2_778
10
2.7698951
20
2.4565095
40
1.7535978
50
180.0357304
51
216.7188427
0
ARC
8
DEFAULT_255_2_778
10
2.7557314
20
2.447911
40
1.7371042
50
216.7708216
51
227.738087
0
ARC
8
DEFAULT_255_2_778
10
219.0809815
20
218.6504783
40
307.5784739
50
224.9992982
51
225.0052594
0
ARC
8
DEFAULT_255_2_778
10
95.1553645
20
94.7000988
40
132.303675
50
225.0046443
51
225.0145278
0
ARC
8
DEFAULT_255_2_778
10
10.8380233
20
10.3369354
40
13.0285424
50
225.0050373
51
225.0587044
0
ARC
8
DEFAULT_255_2_778
10
1.6889335
20
1.1688288
40
0.0763216
50
224.9263758
51
225.4737422
0
ARC
8
DEFAULT_255_2_778
10
-0.4968276
20
-1.0070724
40
3.0078516
50
44.8551714
51
45.0170993
0
ARC
8
DEFAULT_255_2_778
10
-43.98666
20
-44.4515003
40
64.4796639
50
44.9722688
51
44.9955043
0
ARC
8
DEFAULT_255_2_778
10
-29.655353
20
-30.1189971
40
44.2112896
50
44.9923962
51
45.0232564
0
ARC
8
DEFAULT_255_2_778
10
-0.1496314
20
-0.5854346
40
2.4642084
50
44.9595168
51
45.2102809
0
ARC
8
DEFAULT_255_2_778
10
1.6442892
20
1.2195895
40
0.0806578
50
224.1160609
51
225.0999426
0
ARC
8
DEFAULT_255_2_778
10
2.047566
20
1.618551
40
0.6479323
50
224.7426075
51
224.7598918
0
ARC
8
DEFAULT_255_2_778
10
5.6364877
20
3.6580594
40
2.1949091
50
324.8247522
51
359.8918885
0
ARC
8
DEFAULT_255_2_778
10
5.3475969
20
-1.101603
40
4.0688377
50
46.2589386
51
59.2069404
0
ARC
8
DEFAULT_255_2_778
10
11.412213
20
-1.1331463
40
4.4044919
50
119.1977086
51
137.5787747
0
ARC
8
DEFAULT_255_2_778
10
11.3031855
20
4.2592944
40
2.5602601
50
207.8211828
51
217.1900438
0
ARC
8
DEFAULT_255_2_778
10
11.2538197
20
4.2324981
40
2.5040943
50
195.9343035
51
207.806101
0
ARC
8
DEFAULT_255_2_778
10
11.2801869
20
4.238849
40
2.5311921
50
182.7223413
51
195.9086835
0
ARC
8
DEFAULT_255_2_778
10
11.3228288
20
4.2421
40
2.5739407
50
179.9986114
51
182.7495441
0
ARC
8
DEFAULT_255_2_778
10
11.3847658
20
4.2385645
40
2.6358801
50
135.4218532
51
179.9217932
0
ARC
8
DEFAULT_255_2_778
10
11.3286354
20
4.2854691
40
2.5629845
50
118.0342637
51
135.2880115
0
ARC
8
DEFAULT_255_2_778
10
11.3528121
20
4.2404137
40
2.6141165
50
111.1574675
51
118.0378579
0
ARC
8
DEFAULT_255_2_778
10
8.5773984
20
5.2248387
40
2.3384694
50
38.4295216
51
70.2811558
0
ARC
8
DEFAULT_255_2_778
10
8.5527605
20
5.1770246
40
2.391803
50
70.1120239
51
89.9574714
0
ARC
8
DEFAULT_255_2_778
10
8.5544945
20
5.218311
40
2.350516
50
89.9989917
51
92.5403733
0
ARC
8
DEFAULT_255_2_778
10
8.5515105
20
5.2581361
40
2.3105981
50
92.5102231
51
105.9285706
0
ARC
8
DEFAULT_255_2_778
10
8.5616163
20
5.2287938
40
2.3415878
50
105.9693152
51
166.482607
0
ARC
8
DEFAULT_255_2_778
10
5.5674134
20
3.6240946
40
2.2684754
50
8.9414712
51
71.561736
0
ARC
8
DEFAULT_255_2_778
10
5.6467172
20
3.6600109
40
2.1846758
50
359.9844444
51
8.334217
0
LINE
8
DEFAULT_255_2_778
10
15.7098928
20
3.4104178
11
15.7101928
21
3.4104178
0
LINE
8
DEFAULT_255_2_778
10
1.5874928
20
1.1623178
11
1.5877928
21
1.1620178
0
LINE
8
DEFAULT_255_2_778
10
7.8313928
20
3.6594178
11
7.8313928
21
3.6539178
0
ARC
8
DEFAULT_255_2_778
10
14.6400191
20
2.2865773
40
2.4262952
50
5.247163
51
32.7823862
0
ARC
8
DEFAULT_255_2_778
10
14.5589726
20
2.2393508
40
2.520008
50
32.6874007
51
79.9366778
0
ARC
8
DEFAULT_255_2_778
10
14.5788073
20
2.3017344
40
2.4551333
50
80.13805
51
90.006079
0
ARC
8
DEFAULT_255_2_778
10
14.5572337
20
1.1905832
40
3.5663481
50
89.6575879
51
91.8277682
0
ARC
8
DEFAULT_255_2_778
10
14.4750897
20
3.6581704
40
1.0974017
50
91.6503519
51
98.8293737
0
ARC
8
DEFAULT_255_2_778
10
11.4243425
20
4.2523526
40
2.9236944
50
9.652358
51
31.8039699
0
ARC
8
DEFAULT_255_2_778
10
11.3225658
20
4.1875489
40
3.0443429
50
31.8309964
51
85.4173917
0
ARC
8
DEFAULT_255_2_778
10
11.3447657
20
4.2902456
40
2.9402338
50
85.6887252
51
89.9995617
0
ARC
8
DEFAULT_255_2_778
10
11.3448211
20
4.2895438
40
2.9409357
50
90.0006403
51
94.1961264
0
ARC
8
DEFAULT_255_2_778
10
11.3454829
20
4.2801001
40
2.9504026
50
94.1955244
51
94.7971298
0
ARC
8
DEFAULT_255_2_778
10
8.5475442
20
5.1534849
40
3.2832624
50
39.0103003
51
89.8520006
0
ARC
8
DEFAULT_255_2_778
10
8.5558459
20
5.2698611
40
3.1668754
50
89.9967575
51
93.9315289
0
ARC
8
DEFAULT_255_2_778
10
8.5524793
20
5.3122613
40
3.1243441
50
93.9232489
51
102.2240373
0
ARC
8
DEFAULT_255_2_778
10
8.5604954
20
5.2155471
40
3.2205876
50
101.9991051
51
131.0765156
0
ARC
8
DEFAULT_255_2_778
10
8.5595293
20
5.2151249
40
3.2202713
50
131.0586203
51
160.8126026
0
ARC
8
DEFAULT_255_2_778
10
8.5770113
20
5.208602
40
3.2389259
50
160.8052631
51
161.0435029
0
ARC
8
DEFAULT_255_2_778
10
5.5959947
20
3.6527135
40
2.6093507
50
91.806288
51
114.9459386
0
ARC
8
DEFAULT_255_2_778
10
5.6343516
20
3.5774932
40
2.6937325
50
115.010882
51
147.3906586
0
ARC
8
DEFAULT_255_2_778
10
2.8093424
20
2.5062568
40
2.5834296
50
77.5738665
51
77.6184259
0
ARC
8
DEFAULT_255_2_778
10
2.8049193
20
2.4888675
40
2.6013632
50
77.6053956
51
83.8439981
0
ARC
8
DEFAULT_255_2_778
10
2.8063895
20
2.5006878
40
2.5894535
50
83.8482951
51
90.0011013
0
ARC
8
DEFAULT_255_2_778
10
2.8160934
20
2.4095037
40
2.6806553
50
90.2084733
51
124.0528025
0
ARC
8
DEFAULT_255_2_778
10
2.7916436
20
2.4108442
40
2.6659253
50
123.6335656
51
162.2068002
0
ARC
8
DEFAULT_255_2_778
10
2.6910615
20
2.4580085
40
2.5557811
50
162.5245148
51
175.3350402
0
ARC
8
DEFAULT_255_2_778
10
2.6274868
20
2.4288763
40
2.4950208
50
174.5495023
51
178.6411131
0
ARC
8
DEFAULT_255_2_778
10
2.6191215
20
2.4291648
40
2.4866511
50
178.6431896
51
179.9998333
0
ARC
8
DEFAULT_255_2_778
10
2.679695
20
2.4368328
40
2.5472362
50
180.172316
51
211.1994589
0
ARC
8
DEFAULT_255_2_778
10
2.8165648
20
2.5076155
40
2.7009969
50
210.979782
51
253.2631486
0
ARC
8
DEFAULT_255_2_778
10
2.7777936
20
2.4108377
40
2.5971701
50
253.4674122
51
270.0144111
0
ARC
8
DEFAULT_255_2_778
10
14.7290165
20
0.484309
40
0.6706808
50
269.3789406
51
270.0014966
0
ARC
8
DEFAULT_255_2_778
10
14.729197
20
0.4833637
40
0.6697356
50
269.9860608
51
290.6282409
0
ARC
8
DEFAULT_255_2_778
10
14.5524872
20
2.3377035
40
2.5152183
50
279.44293
51
301.1462113
0
ARC
8
DEFAULT_255_2_778
10
14.5794628
20
2.3200531
40
2.4861989
50
300.8245432
51
359.3730318
0
ARC
8
DEFAULT_255_2_778
10
14.7148691
20
2.2928118
40
2.350644
50
0.0008814
51
5.1978176
0
ARC
8
DEFAULT_255_2_778
10
53.0106434
20
-243.2046426
40
246.4020808
50
98.875439
51
98.8984314
0
ARC
8
DEFAULT_255_2_778
10
41.8797136
20
-171.9224572
40
174.2560652
50
98.8473021
51
98.8755231
0
ARC
8
DEFAULT_255_2_778
10
32.5909646
20
-112.2467716
40
113.8617914
50
98.8153357
51
98.8472968
0
ARC
8
DEFAULT_255_2_778
10
25.9544906
20
-69.4408722
40
70.5444991
50
98.7617094
51
98.8169103
0
ARC
8
DEFAULT_255_2_778
10
20.5386668
20
-34.2922612
40
34.981091
50
98.6782178
51
98.7640056
0
ARC
8
DEFAULT_255_2_778
10
17.6366187
20
-15.2770732
40
15.7457263
50
98.5654396
51
98.6792491
0
ARC
8
DEFAULT_255_2_778
10
16.0138681
20
-4.4877428
40
4.8350457
50
98.2763074
51
98.592695
0
ARC
8
DEFAULT_255_2_778
10
15.3758575
20
-0.0840678
40
0.3854018
50
96.803875
51
98.6524025
0
ARC
8
DEFAULT_255_2_778
10
15.3308387
20
0.2926387
40
0.0060153
50
91.5408999
51
96.1100557
0
ARC
8
DEFAULT_255_2_778
10
15.3201793
20
0.3391392
40
0.0418637
50
278.2035578
51
284.6538907
0
ARC
8
DEFAULT_255_2_778
10
15.026237
20
1.9961832
40
1.7247555
50
279.3834816
51
280.0140073
0
ARC
8
DEFAULT_255_2_778
10
13.8470057
20
9.0682357
40
8.8944481
50
279.2308956
51
279.4505661
0
ARC
8
DEFAULT_255_2_778
10
11.477696
20
23.6303988
40
23.6480992
50
279.0788833
51
279.2373403
0
ARC
8
DEFAULT_255_2_778
10
9.5295282
20
35.7977605
40
35.9704383
50
278.944885
51
279.0849724
0
ARC
8
DEFAULT_255_2_778
10
9.7942688
20
34.1156125
40
34.267585
50
278.9281256
51
278.9449296
0
ARC
8
DEFAULT_255_2_778
10
11.1340232
20
25.5470893
40
25.594957
50
278.6875599
51
278.9421687
0
ARC
8
DEFAULT_255_2_778
10
13.538182
20
9.8076755
40
9.6729871
50
278.3519375
51
278.6923185
0
ARC
8
DEFAULT_255_2_778
10
14.567074
20
2.7851273
40
2.5754674
50
277.6558133
51
278.3979206
0
ARC
8
DEFAULT_255_2_778
10
14.8753469
20
0.472848
40
0.2427436
50
274.7183379
51
278.2509156
0
ARC
8
DEFAULT_255_2_778
10
14.8946725
20
0.2437015
40
0.0127905
50
270.2449833
51
272.8765143
0
ARC
8
DEFAULT_255_2_778
10
14.8945915
20
0.2324331
40
0.001528
50
252.5343432
51
275.0937396
0
ARC
8
DEFAULT_255_2_778
10
14.8947899
20
0.2303601
40
0.000945
50
97.9400186
51
136.2947043
0
ARC
8
DEFAULT_255_2_778
10
14.9018433
20
0.2088465
40
0.0235708
50
103.4848356
51
107.7448735
0
ARC
8
DEFAULT_255_2_778
10
14.6786923
20
0.8842957
40
0.6878709
50
282.3628374
51
288.4464209
0
ARC
8
DEFAULT_255_2_778
10
14.7448132
20
0.5613417
40
0.3582782
50
271.3808228
51
283.091671
0
ARC
8
DEFAULT_255_2_778
10
2.7768431
20
2.4244893
40
2.2213223
50
248.3835594
51
270.0413648
0
ARC
8
DEFAULT_255_2_778
10
2.8034053
20
2.4871552
40
2.2893669
50
181.4237118
51
248.343303
0
ARC
8
DEFAULT_255_2_778
10
2.7004409
20
2.4630141
40
2.1859408
50
180.0001833
51
180.858191
0
ARC
8
DEFAULT_255_2_778
10
2.7060624
20
2.462909
40
2.1915623
50
174.8910242
51
179.9974333
0
ARC
8
DEFAULT_255_2_778
10
2.7201797
20
2.461748
40
2.2057269
50
173.1829227
51
174.8936416
0
ARC
8
DEFAULT_255_2_778
10
2.6900402
20
2.4629269
40
2.175662
50
152.9481274
51
173.1195348
0
ARC
8
DEFAULT_255_2_778
10
2.8126001
20
2.3802642
40
2.3224769
50
90.3038534
51
152.5070439
0
ARC
8
DEFAULT_255_2_778
10
2.8005452
20
2.4949621
40
2.2077463
50
82.7188151
51
90.0067899
0
ARC
8
DEFAULT_255_2_778
10
2.8013296
20
2.5028132
40
2.199859
50
81.6586566
51
82.7131662
0
ARC
8
DEFAULT_255_2_778
10
2.8011619
20
2.5021837
40
2.2005063
50
74.8272996
51
81.6567132
0
ARC
8
DEFAULT_255_2_778
10
2.7956921
20
2.4821328
40
2.2212899
50
70.106227
51
74.8264945
0
ARC
8
DEFAULT_255_2_778
10
5.6101971
20
3.5868107
40
2.2817556
50
90.2888847
51
154.4517
0
ARC
8
DEFAULT_255_2_778
10
5.5986814
20
3.6551453
40
2.2133919
50
84.7828441
51
89.9997117
0
ARC
8
DEFAULT_255_2_778
10
8.5805849
20
5.1838295
40
2.8615206
50
103.6550941
51
166.3449059
0
ARC
8
DEFAULT_255_2_778
10
8.5612053
20
5.1444123
40
2.8953853
50
97.3476672
51
103.0982863
0
ARC
8
DEFAULT_255_2_778
10
8.5592885
20
5.1588263
40
2.8808445
50
90.0010762
51
97.3465204
0
ARC
8
DEFAULT_255_2_778
10
8.5585679
20
5.1521184
40
2.8875524
50
39.330063
51
89.9867758
0
ARC
8
DEFAULT_255_2_778
10
8.5497873
20
5.1465362
40
2.8978824
50
34.8980708
51
39.3054041
0
ARC
8
DEFAULT_255_2_778
10
11.3485973
20
4.2496137
40
2.5894797
50
94.0900054
51
99.3802913
0
ARC
8
DEFAULT_255_2_778
10
11.3468162
20
4.2721672
40
2.5668566
50
90.0013167
51
94.0862573
0
ARC
8
DEFAULT_255_2_778
10
11.3433118
20
4.24553
40
2.5934962
50
63.2035157
51
89.923883
0
ARC
8
DEFAULT_255_2_778
10
11.3371194
20
4.2041504
40
2.6332564
50
14.7379475
51
63.4891494
0
ARC
8
DEFAULT_255_2_778
10
11.4343222
20
4.2481663
40
2.528117
50
0.4895648
51
14.3336403
0
ARC
8
DEFAULT_255_2_778
10
14.5686968
20
2.305708
40
2.0555268
50
100.8833404
51
107.1566511
0
ARC
8
DEFAULT_255_2_778
10
14.5672132
20
2.3127423
40
2.048339
50
98.0566276
51
100.8797381
0
ARC
8
DEFAULT_255_2_778
10
14.5679371
20
2.3065104
40
2.0546107
50
90.4914172
51
98.0522573
0
ARC
8
DEFAULT_255_2_778
10
14.5682332
20
2.297762
40
2.0633613
50
89.9994595
51
90.4975574
0
ARC
8
DEFAULT_255_2_778
10
14.5616546
20
2.2223161
40
2.1388175
50
21.8858014
51
89.8232462
0
ARC
8
DEFAULT_255_2_778
10
14.6436378
20
2.2769437
40
2.0424792
50
12.2056639
51
21.3210844
0
ARC
8
DEFAULT_255_2_778
10
14.664926
20
2.3134466
40
2.014196
50
3.6807829
51
11.3187696
0
ARC
8
DEFAULT_255_2_778
10
14.6665436
20
2.3136774
40
2.012567
50
359.999188
51
3.677183
0
ARC
8
DEFAULT_255_2_778
10
14.5442374
20
2.3351879
40
2.1349818
50
292.3696635
51
359.421954
0
ARC
8
DEFAULT_255_2_778
10
14.5664491
20
2.2929467
40
2.0874708
50
278.9984806
51
292.2471377
0
LINE
8
DEFAULT_255_2_778
10
2.7784468
20
-0.1863324
11
14.7217468
21
-0.1863324
0
LINE
8
DEFAULT_255_2_778
10
17.0558468
20
2.5057676
11
17.0561468
21
2.5084676
0
LINE
8
DEFAULT_255_2_778
10
14.7534468
20
0.2031676
11
2.7784468
21
0.2031676
0
LINE
8
DEFAULT_255_2_778
10
14.8929468
20
0.2311676
11
14.8963468
21
0.2317676
0
ENDSEC
0
EOF