0
SECTION
2
HEADER
9
$MEASUREMENT
70
1
0
ENDSEC
0
SECTION
2
TABLES
0
TABLE
2
LTYPE
0
LTYPE
72
65
70
64
2
CONTINUOUS
3
______
73
0
40
0
0
ENDTAB
0
TABLE
2
LAYER
0
LAYER
2
DEFAULT_255_2_778
70
0
62
255
6
CONTINUOUS
0
ENDTAB
0
ENDSEC
0
SECTION
2
ENTITIES
0
ARC
8
DEFAULT_255_2_778
10
24.9418303
20
3.5607445
40
0.1738456
50
86.7713642
51
106.1682758
0
ARC
8
DEFAULT_255_2_778
10
24.9517304
20
3.2090155
40
0.5219657
50
96.4139184
51
141.7146449
0
ARC
8
DEFAULT_255_2_778
10
24.9580737
20
3.2055753
40
0.5290777
50
141.8478268
51
180.0039207
0
ARC
8
DEFAULT_255_2_778
10
24.958709
20
3.2055467
40
0.529713
50
180.0008277
51
185.4849834
0
ARC
8
DEFAULT_255_2_778
10
24.9471755
20
3.2190363
40
0.5197249
50
187.0870494
51
269.8176491
0
ARC
8
DEFAULT_255_2_778
10
24.9553125
20
2.8728838
40
0.1738456
50
266.7713642
51
286.1682758
0
ARC
8
DEFAULT_255_2_778
10
24.9416027
20
3.2433185
40
0.5409825
50
276.5935686
51
319.8522632
0
ARC
8
DEFAULT_255_2_778
10
24.9386075
20
3.2215127
40
0.5295393
50
321.8651018
51
359.9974475
0
ARC
8
DEFAULT_255_2_778
10
24.9384338
20
3.2214816
40
0.529713
50
0.0008075
51
5.4849849
0
ARC
8
DEFAULT_255_2_778
10
24.9532425
20
3.2188804
40
0.5152363
50
5.9303285
51
90.1802741
0
ARC
8
DEFAULT_255_2_778
10
27.2223558
20
5.4719419
40
2.2089526
50
6.766657
51
48.6947106
0
ARC
8
DEFAULT_255_2_778
10
27.2210201
20
5.5082235
40
2.182722
50
48.0397189
51
90.3070887
0
ARC
8
DEFAULT_255_2_778
10
27.216415
20
5.5154246
40
2.1755011
50
90.1868234
51
93.5338392
0
ARC
8
DEFAULT_255_2_778
10
27.4879871
20
1.116517
40
6.5827836
50
93.5331053
51
94.6413342
0
ARC
8
DEFAULT_255_2_778
10
27.2007878
20
5.4693363
40
2.2219781
50
96.3425258
51
117.9286751
0
ARC
8
DEFAULT_255_2_778
10
27.1887633
20
5.4860152
40
2.2016117
50
117.8554932
51
177.7540748
0
ARC
8
DEFAULT_255_2_778
10
27.1650741
20
5.4953556
40
2.1775908
50
177.9752202
51
180.0005252
0
ARC
8
DEFAULT_255_2_778
10
27.1824124
20
5.4955447
40
2.1949292
50
180.0054591
51
185.0547617
0
ARC
8
DEFAULT_255_2_778
10
27.206107
20
5.4974321
40
2.218698
50
185.0493981
51
186.7353831
0
ARC
8
DEFAULT_255_2_778
10
27.1962939
20
5.4973715
40
2.208946
50
186.7636759
51
228.6943197
0
ARC
8
DEFAULT_255_2_778
10
27.2192068
20
5.5178464
40
2.239454
50
228.5997295
51
269.7470836
0
ARC
8
DEFAULT_255_2_778
10
27.202087
20
5.432181
40
2.153779
50
270.1924519
51
273.5732774
0
ARC
8
DEFAULT_255_2_778
10
26.9276399
20
9.8495624
40
6.5796777
50
273.5610878
51
274.6372323
0
LINE
8
DEFAULT_255_2_778
10
27.4595847
20
3.2914229
11
27.4633214
21
3.2917142
0
ARC
8
DEFAULT_255_2_778
10
27.219384
20
5.4854691
40
2.2072757
50
276.3450118
51
297.7919285
0
ARC
8
DEFAULT_255_2_778
10
27.2151168
20
5.4919399
40
2.2149897
50
297.811534
51
358.7894806
0
ARC
8
DEFAULT_255_2_778
10
27.2403249
20
5.4838787
40
2.1896297
50
358.986434
51
359.9998723
0
ARC
8
DEFAULT_255_2_778
10
27.2289875
20
5.483694
40
2.2009671
50
0.0046818
51
5.2510781
0
ARC
8
DEFAULT_255_2_778
10
27.2114108
20
5.4822865
40
2.218599
50
5.245732
51
6.4603675
0
ARC
8
DEFAULT_255_2_778
10
0.3111433
20
1.1981418
40
1.3494972
50
343.6518378
51
0.4895839
0
ARC
8
DEFAULT_255_2_778
10
0.5982971
20
1.1194434
40
1.0518152
50
292.0873536
51
343.3626011
0
ARC
8
DEFAULT_255_2_778
10
0.3619068
20
1.6188609
40
1.6037732
50
279.0297808
51
293.2038927
0
ARC
8
DEFAULT_255_2_778
10
0.2515836
20
2.2715429
40
2.2656908
50
269.7548946
51
279.1946345
0
ARC
8
DEFAULT_255_2_778
10
0.2471068
20
2.3014217
40
2.4323751
50
269.7334544
51
279.6435234
0
ARC
8
DEFAULT_255_2_778
10
0.3687083
20
1.6066638
40
1.727068
50
279.5274451
51
293.4413228
0
ARC
8
DEFAULT_255_2_778
10
0.5724873
20
1.1517846
40
1.2286804
50
293.1612855
51
318.9875254
0
ARC
8
DEFAULT_255_2_778
10
0.5898015
20
1.1125283
40
1.1899949
50
319.8667147
51
348.0569836
0
ARC
8
DEFAULT_255_2_778
10
0.1804023
20
1.2098775
40
1.610712
50
347.682718
51
0.3057545
0
ARC
8
DEFAULT_255_2_778
10
3.7801009
20
0.7347099
40
0.6528194
50
327.169222
51
0.5409142
0
ARC
8
DEFAULT_255_2_778
10
3.6095616
20
0.8796391
40
0.8751855
50
288.5194181
51
325.2493089
0
ARC
8
DEFAULT_255_2_778
10
3.4536617
20
1.2418124
40
1.2685459
50
273.7030622
51
290.0006423
0
ARC
8
DEFAULT_255_2_778
10
3.4501182
20
1.259709
40
1.2866361
50
270.0077073
51
273.8090589
0
ARC
8
DEFAULT_255_2_778
10
3.4504713
20
1.259934
40
1.2868611
50
266.1808272
51
269.9919835
0
ARC
8
DEFAULT_255_2_778
10
3.4225937
20
1.1231997
40
1.148726
50
233.3083602
51
267.1139824
0
ARC
8
DEFAULT_255_2_778
10
3.1392327
20
0.7393642
40
0.6716355
50
182.6040117
51
233.1268144
0
ARC
8
DEFAULT_255_2_778
10
3.196583
20
0.7407798
40
0.7289917
50
179.9926888
51
182.5103698
0
ARC
8
DEFAULT_255_2_778
10
3.1224598
20
0.7340046
40
0.7977956
50
179.5282791
51
206.7636753
0
ARC
8
DEFAULT_255_2_778
10
3.2683818
20
0.8485849
40
0.9803652
50
208.9029119
51
250.6195624
0
ARC
8
DEFAULT_255_2_778
10
3.4479934
20
1.234107
40
1.4042577
50
248.9259389
51
265.9680209
0
ARC
8
DEFAULT_255_2_778
10
3.4507293
20
1.241259
40
1.4115861
50
265.8776566
51
269.9903348
0
ARC
8
DEFAULT_255_2_778
10
3.4577669
20
1.3231996
40
1.4935444
50
269.7208871
51
282.8510132
0
ARC
8
DEFAULT_255_2_778
10
3.5285518
20
1.0177078
40
1.1799613
50
282.7992798
51
300.0250718
0
ARC
8
DEFAULT_255_2_778
10
3.632265
20
0.8400005
40
0.9742057
50
299.9736376
51
323.2097724
0
ARC
8
DEFAULT_255_2_778
10
3.7538914
20
0.7514155
40
0.8237528
50
323.0777123
51
352.994597
0
ARC
8
DEFAULT_255_2_778
10
3.8419302
20
0.7347451
40
0.7343611
50
353.4477816
51
359.9787584
0
ARC
8
DEFAULT_255_2_778
10
6.4584805
20
5.0720817
40
3.55939
50
258.535514
51
265.8838291
0
ARC
8
DEFAULT_255_2_778
10
5.9083513
20
2.3950439
40
0.8264506
50
234.6440001
51
259.0252293
0
ARC
8
DEFAULT_255_2_778
10
5.7332854
20
2.1179557
40
0.4994711
50
196.1167176
51
232.6292791
0
ARC
8
DEFAULT_255_2_778
10
5.9711435
20
2.193804
40
0.7490674
50
184.0980603
51
196.6398435
0
ARC
8
DEFAULT_255_2_778
10
6.0001106
20
2.1990879
40
0.7783447
50
180.0338314
51
184.3336428
0
ARC
8
DEFAULT_255_2_778
10
5.8351697
20
2.2084574
40
0.6134824
50
141.6295231
51
180.9180177
0
ARC
8
DEFAULT_255_2_778
10
6.0131456
20
2.0547998
40
0.8484587
50
111.1638579
51
140.9547448
0
ARC
8
DEFAULT_255_2_778
10
6.134552
20
1.7695216
40
1.1583727
50
89.6518204
51
111.6694644
0
ARC
8
DEFAULT_255_2_778
10
6.1720098
20
1.7006895
40
1.2272311
50
71.335402
51
90.5050915
0
ARC
8
DEFAULT_255_2_778
10
6.3093354
20
2.089101
40
0.8153193
50
43.9124903
51
71.7430623
0
ARC
8
DEFAULT_255_2_778
10
6.4228319
20
2.2118211
40
0.648515
50
11.0188305
51
43.056264
0
ARC
8
DEFAULT_255_2_778
10
6.4283154
20
2.2121357
40
0.7823008
50
11.0199345
51
40.8596928
0
ARC
8
DEFAULT_255_2_778
10
6.2276682
20
1.9788059
40
1.0876394
50
43.241754
51
85.7907326
0
ARC
8
DEFAULT_255_2_778
10
6.1678309
20
1.7239086
40
1.3468644
50
84.0477396
51
89.9889253
0
ARC
8
DEFAULT_255_2_778
10
6.1599183
20
1.6806278
40
1.3901691
50
89.6631501
51
110.0803394
0
ARC
8
DEFAULT_255_2_778
10
6.031491
20
2.0119916
40
1.0348771
50
109.7010411
51
137.0011625
0
ARC
8
DEFAULT_255_2_778
10
5.9049684
20
2.1469014
40
0.8504263
50
137.8354248
51
141.708999
0
ARC
8
DEFAULT_255_2_778
10
5.868845
20
2.1940805
40
0.7929743
50
142.7672668
51
179.5418471
0
ARC
8
DEFAULT_255_2_778
10
5.8373682
20
2.2005141
40
0.7614723
50
180.0069835
51
184.9980783
0
ARC
8
DEFAULT_255_2_778
10
5.9892508
20
2.1890564
40
0.9121123
50
183.44968
51
198.0718569
0
ARC
8
DEFAULT_255_2_778
10
5.6992796
20
2.0928503
40
0.6066038
50
197.9293962
51
226.191359
0
ARC
8
DEFAULT_255_2_778
10
5.8454961
20
2.2998397
40
0.8580293
50
228.7143649
51
258.2779939
0
ARC
8
DEFAULT_255_2_778
10
6.3623334
20
4.4854178
40
3.1036491
50
257.1328102
51
265.0805855
0
ARC
8
DEFAULT_255_2_778
10
9.2506611
20
31.5708924
40
30.3421122
50
264.0325331
51
264.1749743
0
LINE
8
DEFAULT_255_2_778
10
6.1712149
20
1.3854525
11
6.1719912
21
1.3853729
0
ARC
8
DEFAULT_255_2_778
10
82.3425408
20
742.7830602
40
745.3002639
50
264.1340629
51
264.1357754
0
ARC
8
DEFAULT_255_2_778
10
5.8981633
20
-2.2225331
40
3.6177581
50
78.4921534
51
85.3071065
0
ARC
8
DEFAULT_255_2_778
10
6.4586346
20
0.4931407
40
0.8448938
50
56.2015503
51
78.9954572
0
ARC
8
DEFAULT_255_2_778
10
6.6465096
20
0.8004037
40
0.4852742
50
15.7073864
51
54.4540825
0
ARC
8
DEFAULT_255_2_778
10
6.5068644
20
0.7502873
40
0.6333584
50
12.7968384
51
16.6518188
0
ARC
8
DEFAULT_255_2_778
10
6.37214
20
0.7289379
40
0.7695182
50
0.1586745
51
12.1251042
0
ARC
8
DEFAULT_255_2_778
10
6.507074
20
0.724591
40
0.6346141
50
320.1652634
51
0.5848711
0
ARC
8
DEFAULT_255_2_778
10
6.3049536
20
0.9060462
40
0.9061109
50
293.2522655
51
319.5414491
0
ARC
8
DEFAULT_255_2_778
10
6.1569784
20
1.2166034
40
1.2499324
50
269.8997423
51
293.864421
0
ARC
8
DEFAULT_255_2_778
10
6.1555878
20
1.1919126
40
1.22524
50
263.4589673
51
269.9627488
0
ARC
8
DEFAULT_255_2_778
10
6.1199291
20
1.0646283
40
1.0949222
50
229.6461437
51
264.55412
0
ARC
8
DEFAULT_255_2_778
10
5.8271684
20
0.7071463
40
0.6329903
50
186.3740169
51
228.8884401
0
ARC
8
DEFAULT_255_2_778
10
5.8518338
20
0.7168178
40
0.8028378
50
187.1225067
51
242.3631617
0
ARC
8
DEFAULT_255_2_778
10
6.1377458
20
1.1600486
40
1.3289792
50
240.3066161
51
263.1483214
0
ARC
8
DEFAULT_255_2_778
10
6.1495829
20
1.1933061
40
1.3634336
50
262.8211706
51
269.954123
0
ARC
8
DEFAULT_255_2_778
10
6.1515529
20
1.2124308
40
1.3825613
50
269.8731178
51
297.3073658
0
ARC
8
DEFAULT_255_2_778
10
6.3248552
20
0.8861583
40
1.0131534
50
297.0637858
51
320.372317
0
ARC
8
DEFAULT_255_2_778
10
6.5341738
20
0.7235048
40
0.7482406
50
319.7424001
51
0.7294597
0
ARC
8
DEFAULT_255_2_778
10
6.3220911
20
0.7298537
40
0.960268
50
0.1895632
51
11.2244597
0
ARC
8
DEFAULT_255_2_778
10
6.5950516
20
0.7883542
40
0.6811546
50
10.867063
51
31.7157285
0
ARC
8
DEFAULT_255_2_778
10
6.5778765
20
0.7299653
40
0.7275961
50
34.9176928
51
78.6053402
0
ARC
8
DEFAULT_255_2_778
10
6.0544537
20
-1.2871263
40
2.8106777
50
76.2686239
51
85.3850613
0
ARC
8
DEFAULT_255_2_778
10
4.3756797
20
-17.3233391
40
18.9338478
50
84.2257526
51
84.4538416
0
ARC
8
DEFAULT_255_2_778
10
23.2093592
20
1.2084154
40
1.8163772
50
77.2822696
51
90.2671134
0
ARC
8
DEFAULT_255_2_778
10
23.2843126
20
1.5377139
40
1.4786569
50
58.5810155
51
77.3062999
0
ARC
8
DEFAULT_255_2_778
10
23.2186195
20
1.5066001
40
1.5399695
50
3.6925937
51
57.0985088
0
ARC
8
DEFAULT_255_2_778
10
22.9526215
20
1.443386
40
1.8100698
50
359.9964194
51
5.1473026
0
ARC
8
DEFAULT_255_2_778
10
23.1938109
20
1.4014612
40
1.5694374
50
305.8890744
51
1.5266083
0
ARC
8
DEFAULT_255_2_778
10
23.2968477
20
1.3349536
40
1.4558338
50
284.5854667
51
304.1379451
0
ARC
8
DEFAULT_255_2_778
10
23.2171834
20
1.6378394
40
1.7690203
50
271.4887178
51
284.6121243
0
ARC
8
DEFAULT_255_2_778
10
23.2010961
20
1.9097393
40
2.0412664
50
269.99425
51
271.7418412
0
ARC
8
DEFAULT_255_2_778
10
23.2092578
20
1.5721915
40
1.2480466
50
269.6159006
51
285.734064
0
ARC
8
DEFAULT_255_2_778
10
23.2734046
20
1.3431699
40
1.0102114
50
285.7545463
51
311.7787736
0
ARC
8
DEFAULT_255_2_778
10
23.1633954
20
1.4232267
40
1.1435663
50
313.2167744
51
0.9893866
0
LINE
8
DEFAULT_255_2_778
10
24.3067912
20
1.4429729
11
24.3067912
21
1.4432729
0
ARC
8
DEFAULT_255_2_778
10
23.0378296
20
1.4432595
40
1.2689617
50
0.0006054
51
0.9515647
0
ARC
8
DEFAULT_255_2_778
10
23.1934139
20
1.4763875
40
1.1132677
50
359.3796064
51
58.990346
0
ARC
8
DEFAULT_255_2_778
10
23.2441406
20
1.4915492
40
1.0747313
50
60.8920994
51
81.7011459
0
ARC
8
DEFAULT_255_2_778
10
23.2036931
20
1.2568935
40
1.3127824
50
81.4325297
51
90.1222867
0
LINE
8
DEFAULT_255_2_778
10
0.6974912
20
2.8950729
11
1.6605912
21
2.8950729
0
LINE
8
DEFAULT_255_2_778
10
1.6605912
20
2.8950729
11
1.6605912
21
1.2096729
0
LINE
8
DEFAULT_255_2_778
10
0.2418912
20
0.0058729
11
0.2032912
21
0.0058729
0
LINE
8
DEFAULT_255_2_778
10
0.2032912
20
0.0058729
11
0.2032912
21
-0.1309271
0
LINE
8
DEFAULT_255_2_778
10
0.2032912
20
-0.1309271
11
0.2357912
21
-0.1309271
0
LINE
8
DEFAULT_255_2_778
10
1.7910912
20
1.2184729
11
1.7910912
21
3.0247729
0
LINE
8
DEFAULT_255_2_778
10
1.7910912
20
3.0247729
11
0.6974912
21
3.0247729
0
LINE
8
DEFAULT_255_2_778
10
0.6974912
20
3.0247729
11
0.6974912
21
2.8945729
0
LINE
8
DEFAULT_255_2_778
10
2.4675912
20
0.7408729
11
2.4675912
21
3.0247729
0
LINE
8
DEFAULT_255_2_778
10
2.4675912
20
3.0247729
11
2.3246912
21
3.0247729
0
LINE
8
DEFAULT_255_2_778
10
2.3246912
20
3.0247729
11
2.3246912
21
0.7405729
0
LINE
8
DEFAULT_255_2_778
10
4.5762912
20
0.7344729
11
4.5762912
21
3.0247729
0
LINE
8
DEFAULT_255_2_778
10
4.5762912
20
3.0247729
11
4.4334912
21
3.0247729
0
LINE
8
DEFAULT_255_2_778
10
4.4334912
20
3.0247729
11
4.4334912
21
0.7405729
0
LINE
8
DEFAULT_255_2_778
10
6.1415912
20
2.9278729
11
6.1611912
21
2.9278729
0
LINE
8
DEFAULT_255_2_778
10
7.0593912
20
2.3357729
11
7.0660912
21
2.2642729
0
LINE
8
DEFAULT_255_2_778
10
7.0660912
20
2.2642729
11
7.2027912
21
2.2902729
0
LINE
8
DEFAULT_255_2_778
10
7.2027912
20
2.2902729
11
7.1961912
21
2.3616729
0
LINE
8
DEFAULT_255_2_778
10
5.1980912
20
0.6368729
11
5.1914912
21
0.7019729
0
LINE
8
DEFAULT_255_2_778
10
5.1914912
20
0.7019729
11
5.0485912
21
0.6823729
0
LINE
8
DEFAULT_255_2_778
10
5.0485912
20
0.6823729
11
5.0551912
21
0.6172729
0
LINE
8
DEFAULT_255_2_778
10
7.3380912
20
2.8881729
11
8.4116912
21
2.8881729
0
LINE
8
DEFAULT_255_2_778
10
8.4116912
20
2.8881729
11
8.4116912
21
-0.1508271
0
LINE
8
DEFAULT_255_2_778
10
8.4116912
20
-0.1508271
11
8.5484912
21
-0.1508271
0
LINE
8
DEFAULT_255_2_778
10
8.5484912
20
-0.1508271
11
8.5484912
21
2.8881729
0
LINE
8
DEFAULT_255_2_778
10
8.5484912
20
2.8881729
11
9.6287912
21
2.8881729
0
LINE
8
DEFAULT_255_2_778
10
9.6287912
20
2.8881729
11
9.6287912
21
3.0310729
0
LINE
8
DEFAULT_255_2_778
10
9.6287912
20
3.0310729
11
7.3380912
21
3.0310729
0
LINE
8
DEFAULT_255_2_778
10
7.3380912
20
3.0310729
11
7.3380912
21
2.8881729
0
LINE
8
DEFAULT_255_2_778
10
9.8568912
20
2.8950729
11
10.5182912
21
2.8950729
0
LINE
8
DEFAULT_255_2_778
10
10.5182912
20
2.8950729
11
10.5182912
21
-0.0007271
0
LINE
8
DEFAULT_255_2_778
10
10.5182912
20
-0.0007271
11
9.8568912
21
-0.0007271
0
LINE
8
DEFAULT_255_2_778
10
9.8568912
20
-0.0007271
11
9.8568912
21
-0.1375271
0
LINE
8
DEFAULT_255_2_778
10
9.8568912
20
-0.1375271
11
11.3210912
21
-0.1375271
0
LINE
8
DEFAULT_255_2_778
10
11.3210912
20
-0.1375271
11
11.3210912
21
-0.0007271
0
LINE
8
DEFAULT_255_2_778
10
11.3210912
20
-0.0007271
11
10.6595912
21
-0.0007271
0
LINE
8
DEFAULT_255_2_778
10
10.6595912
20
-0.0007271
11
10.6595912
21
2.8950729
0
LINE
8
DEFAULT_255_2_778
10
10.6595912
20
2.8950729
11
11.3210912
21
2.8950729
0
LINE
8
DEFAULT_255_2_778
10
11.3210912
20
2.8950729
11
11.3210912
21
3.0252729
0
LINE
8
DEFAULT_255_2_778
10
11.3210912
20
3.0252729
11
9.8568912
21
3.0252729
0
LINE
8
DEFAULT_255_2_778
10
9.8568912
20
3.0252729
11
9.8568912
21
2.8950729
0
LINE
8
DEFAULT_255_2_778
10
16.3449912
20
3.0313729
11
15.2971912
21
1.4954729
0
LINE
8
DEFAULT_255_2_778
10
15.2971912
20
1.4954729
11
14.2428912
21
3.0313729
0
LINE
8
DEFAULT_255_2_778
10
14.2428912
20
3.0313729
11
13.8327912
21
3.0313729
0
LINE
8
DEFAULT_255_2_778
10
13.8327912
20
3.0313729
11
13.8327912
21
0.1354729
0
LINE
8
DEFAULT_255_2_778
10
13.8327912
20
0.1354729
11
11.8152912
21
3.0313729
0
LINE
8
DEFAULT_255_2_778
10
11.8152912
20
3.0313729
11
11.6980912
21
3.0379729
0
LINE
8
DEFAULT_255_2_778
10
11.6980912
20
3.0379729
11
11.6980912
21
-0.1378271
0
LINE
8
DEFAULT_255_2_778
10
11.6980912
20
-0.1378271
11
11.8409912
21
-0.1378271
0
LINE
8
DEFAULT_255_2_778
10
11.8409912
20
-0.1378271
11
11.8409912
21
2.7450729
0
LINE
8
DEFAULT_255_2_778
10
11.8409912
20
2.7450729
11
13.8425912
21
-0.1378271
0
LINE
8
DEFAULT_255_2_778
10
13.8425912
20
-0.1378271
11
14.3306912
21
-0.1378271
0
LINE
8
DEFAULT_255_2_778
10
14.3306912
20
-0.1378271
11
14.3306912
21
2.0941729
0
LINE
8
DEFAULT_255_2_778
10
14.3306912
20
2.0941729
11
15.1635912
21
0.8638729
0
LINE
8
DEFAULT_255_2_778
10
15.1635912
20
0.8638729
11
15.4175912
21
0.8638729
0
LINE
8
DEFAULT_255_2_778
10
15.4175912
20
0.8638729
11
16.2502912
21
2.0941729
0
LINE
8
DEFAULT_255_2_778
10
16.2502912
20
2.0941729
11
16.2502912
21
-0.1315271
0
LINE
8
DEFAULT_255_2_778
10
16.2502912
20
-0.1315271
11
16.7058912
21
-0.1315271
0
LINE
8
DEFAULT_255_2_778
10
16.7058912
20
-0.1315271
11
16.7058912
21
3.0313729
0
LINE
8
DEFAULT_255_2_778
10
16.7058912
20
3.0313729
11
16.3415912
21
3.0313729
0
LINE
8
DEFAULT_255_2_778
10
18.7889912
20
2.5762729
11
18.2028912
21
2.5762729
0
LINE
8
DEFAULT_255_2_778
10
18.2028912
20
2.5762729
11
18.2028912
21
0.3272729
0
LINE
8
DEFAULT_255_2_778
10
18.2028912
20
0.3272729
11
18.7886912
21
0.3272729
0
LINE
8
DEFAULT_255_2_778
10
18.7886912
20
0.3272729
11
18.7886912
21
-0.1283271
0
LINE
8
DEFAULT_255_2_778
10
18.7886912
20
-0.1283271
11
17.1487912
21
-0.1283271
0
LINE
8
DEFAULT_255_2_778
10
17.1487912
20
-0.1283271
11
17.1487912
21
0.3272729
0
LINE
8
DEFAULT_255_2_778
10
17.1487912
20
0.3272729
11
17.7408912
21
0.3272729
0
LINE
8
DEFAULT_255_2_778
10
17.7408912
20
0.3272729
11
17.7408912
21
2.5762729
0
LINE
8
DEFAULT_255_2_778
10
17.7408912
20
2.5762729
11
17.1487912
21
2.5762729
0
LINE
8
DEFAULT_255_2_778
10
17.1487912
20
2.5762729
11
17.1487912
21
3.0247729
0
LINE
8
DEFAULT_255_2_778
10
17.1487912
20
3.0247729
11
18.7886912
21
3.0247729
0
LINE
8
DEFAULT_255_2_778
10
18.7886912
20
3.0247729
11
18.7886912
21
2.5757729
0
LINE
8
DEFAULT_255_2_778
10
19.1987912
20
-0.1309271
11
19.1987912
21
3.0313729
0
LINE
8
DEFAULT_255_2_778
10
19.1987912
20
3.0313729
11
19.5567912
21
3.0313729
0
LINE
8
DEFAULT_255_2_778
10
19.5567912
20
3.0313729
11
21.1055912
21
0.8056729
0
LINE
8
DEFAULT_255_2_778
10
21.1055912
20
0.8056729
11
21.1055912
21
3.0313729
0
LINE
8
DEFAULT_255_2_778
10
21.1055912
20
3.0313729
11
21.5612912
21
3.0313729
0
LINE
8
DEFAULT_255_2_778
10
21.5612912
20
3.0313729
11
21.5612912
21
-0.1317271
0
LINE
8
DEFAULT_255_2_778
10
21.5612912
20
-0.1317271
11
21.1968912
21
-0.1317271
0
LINE
8
DEFAULT_255_2_778
10
21.1968912
20
-0.1317271
11
19.6633912
21
2.0748729
0
LINE
8
DEFAULT_255_2_778
10
19.6633912
20
2.0748729
11
19.6633912
21
-0.1312271
0
LINE
8
DEFAULT_255_2_778
10
19.6633912
20
-0.1312271
11
19.2013912
21
-0.1312271
0
LINE
8
DEFAULT_255_2_778
10
23.2008912
20
-0.1315271
11
22.0620912
21
-0.1315271
0
LINE
8
DEFAULT_255_2_778
10
22.0620912
20
-0.1315271
11
22.0620912
21
3.0247729
0
LINE
8
DEFAULT_255_2_778
10
22.0620912
20
3.0247729
11
23.2008912
21
3.0247729
0
LINE
8
DEFAULT_255_2_778
10
23.2008912
20
2.5696729
11
22.5174912
21
2.5696729
0
LINE
8
DEFAULT_255_2_778
10
22.5174912
20
2.5696729
11
22.5174912
21
0.3243729
0
LINE
8
DEFAULT_255_2_778
10
22.5174912
20
0.3243729
11
23.2008912
21
0.3241729
0
ENDSEC
0
EOF