0
SECTION
2
HEADER
9
$MEASUREMENT
70
1
0
ENDSEC
0
SECTION
2
TABLES
0
TABLE
2
LTYPE
0
LTYPE
72
65
70
64
2
CONTINUOUS
3
______
73
0
40
0
0
ENDTAB
0
TABLE
2
LAYER
0
LAYER
2
DEFAULT_255_2_778
70
0
62
255
6
CONTINUOUS
0
ENDTAB
0
ENDSEC
0
SECTION
2
ENTITIES
0
ARC
8
DEFAULT_255_2_778
10
13.565271
20
15.1563263
40
0.1001336
50
55.1198595
51
87.4708506
0
ARC
8
DEFAULT_255_2_778
10
13.5652413
20
15.1558601
40
0.1006007
50
87.4656436
51
89.998987
0
ARC
8
DEFAULT_255_2_778
10
13.5651228
20
15.1560749
40
0.1003859
50
89.9314005
51
145.0577576
0
ARC
8
DEFAULT_255_2_778
10
13.0357902
20
14.3628671
40
0.1146886
50
145.5342342
51
175.867869
0
ARC
8
DEFAULT_255_2_778
10
13.0304208
20
14.363531
40
0.1092858
50
176.01219
51
179.9944703
0
ARC
8
DEFAULT_255_2_778
10
13.0161194
20
14.3617681
40
0.0950011
50
178.9303533
51
234.0405952
0
ARC
8
DEFAULT_255_2_778
10
8.7072156
20
8.3040078
40
7.3389193
50
22.7977421
51
54.5825648
0
ARC
8
DEFAULT_255_2_778
10
8.7964852
20
8.3480529
40
7.2395594
50
8.6271156
51
22.7501447
0
ARC
8
DEFAULT_255_2_778
10
8.713188
20
8.3365085
40
7.323646
50
359.9833833
51
8.6186582
0
ARC
8
DEFAULT_255_2_778
10
11.9254554
20
8.3339311
40
4.1113784
50
359.9810445
51
0.0063184
0
ARC
8
DEFAULT_255_2_778
10
8.7154023
20
8.3348083
40
7.3214315
50
348.7544578
51
359.982491
0
ARC
8
DEFAULT_255_2_778
10
8.7838252
20
8.3238512
40
7.2521862
50
333.4919875
51
348.7339424
0
ARC
8
DEFAULT_255_2_778
10
8.7030532
20
8.3659224
40
7.3432443
50
289.6422088
51
333.4795198
0
ARC
8
DEFAULT_255_2_778
10
8.7449933
20
8.282
40
7.2501162
50
276.3112465
51
289.5529909
0
ARC
8
DEFAULT_255_2_778
10
8.7325435
20
8.3901709
40
7.3590001
50
269.9898007
51
276.3150085
0
ARC
8
DEFAULT_255_2_778
10
8.7278753
20
8.3481423
40
7.3169722
50
258.7955597
51
270.0262965
0
ARC
8
DEFAULT_255_2_778
10
8.7173589
20
8.2816725
40
7.2497263
50
243.5322827
51
258.7750129
0
ARC
8
DEFAULT_255_2_778
10
8.7577124
20
8.3603114
40
7.3381081
50
199.6709553
51
243.5238889
0
ARC
8
DEFAULT_255_2_778
10
8.6677242
20
8.3154789
40
7.2382899
50
186.3197222
51
199.5765658
0
ARC
8
DEFAULT_255_2_778
10
8.7746625
20
8.3277701
40
7.3459314
50
179.9898165
51
186.3231934
0
ARC
8
DEFAULT_255_2_778
10
8.6700133
20
8.3290753
40
7.2412821
50
179.953352
51
179.9999971
0
ARC
8
DEFAULT_255_2_778
10
8.7603118
20
8.3327444
40
7.3315786
50
168.7686133
51
179.9826001
0
ARC
8
DEFAULT_255_2_778
10
8.6888396
20
8.3443678
40
7.2592116
50
153.5203397
51
168.7487237
0
ARC
8
DEFAULT_255_2_778
10
8.7600883
20
8.308081
40
7.3391654
50
109.7862419
51
153.5147834
0
ARC
8
DEFAULT_255_2_778
10
8.7160998
20
8.3953344
40
7.2421824
50
96.5110313
51
109.6924507
0
ARC
8
DEFAULT_255_2_778
10
8.7289798
20
8.2858501
40
7.352421
50
89.9890166
51
96.5140079
0
LINE
8
DEFAULT_255_2_778
10
8.7303892
20
15.6382712
11
8.7322335
21
15.6382709
0
ARC
8
DEFAULT_255_2_778
10
8.7381931
20
8.2390198
40
7.3992536
50
90.0000001
51
90.0461474
0
ARC
8
DEFAULT_255_2_778
10
8.7381718
20
8.3857258
40
7.2525476
50
69.9096448
51
89.9998319
0
ARC
8
DEFAULT_255_2_778
10
11.2647558
20
15.2921229
40
0.1008407
50
249.4956766
51
261.9238947
0
ARC
8
DEFAULT_255_2_778
10
11.2645621
20
15.2910429
40
0.099744
50
261.9469156
51
269.9996918
0
ARC
8
DEFAULT_255_2_778
10
11.2644994
20
15.2919985
40
0.1006997
50
270.0353663
51
339.0365254
0
ARC
8
DEFAULT_255_2_778
10
11.6081625
20
16.1882852
40
0.1010956
50
338.8269874
51
352.3423894
0
ARC
8
DEFAULT_255_2_778
10
11.6092186
20
16.1880992
40
0.1000241
50
352.3673755
51
359.999088
0
ARC
8
DEFAULT_255_2_778
10
11.6087241
20
16.1881151
40
0.1005185
50
359.9900241
51
67.0410062
0
ARC
8
DEFAULT_255_2_778
10
8.7257239
20
8.326249
40
8.4742042
50
69.8282223
51
82.8739872
0
ARC
8
DEFAULT_255_2_778
10
8.7332644
20
8.3589329
40
8.440838
50
82.8972548
51
90.0069975
0
LINE
8
DEFAULT_255_2_778
10
8.7322335
20
16.7997709
11
8.7302057
21
16.7997712
0
ARC
8
DEFAULT_255_2_778
10
8.7269034
20
8.3177233
40
8.4820485
50
89.9776936
51
100.1389171
0
ARC
8
DEFAULT_255_2_778
10
8.7134506
20
8.4052767
40
8.3934944
50
100.1537285
51
113.4603723
0
ARC
8
DEFAULT_255_2_778
10
8.7704396
20
8.293798
40
8.5184496
50
113.513486
51
155.6698805
0
ARC
8
DEFAULT_255_2_778
10
8.6614592
20
8.350109
40
8.3959507
50
155.7136281
51
169.2489923
0
ARC
8
DEFAULT_255_2_778
10
8.7399707
20
8.3376114
40
8.4754158
50
169.2649971
51
179.6789334
0
ARC
8
DEFAULT_255_2_778
10
8.8734088
20
8.3335365
40
8.6088752
50
179.6567896
51
179.9937807
0
LINE
8
DEFAULT_255_2_778
10
0.2645335
20
8.3344709
11
0.2645335
21
8.3335494
0
ARC
8
DEFAULT_255_2_778
10
8.7471247
20
8.3302376
40
8.4825919
50
179.9776305
51
190.1397731
0
ARC
8
DEFAULT_255_2_778
10
8.6592341
20
8.3167283
40
8.393696
50
190.1546187
51
203.4625644
0
ARC
8
DEFAULT_255_2_778
10
8.7712511
20
8.3740578
40
8.519281
50
203.5163006
51
245.6722119
0
ARC
8
DEFAULT_255_2_778
10
8.7151352
20
8.2652975
40
8.3970633
50
245.715393
51
259.2495045
0
ARC
8
DEFAULT_255_2_778
10
8.7275062
20
8.3431302
40
8.4758379
50
259.2654878
51
269.6788694
0
ARC
8
DEFAULT_255_2_778
10
8.731568
20
8.475707
40
8.6084361
50
269.6567814
51
269.9937806
0
LINE
8
DEFAULT_255_2_778
10
8.7306335
20
-0.1327291
11
8.7317399
21
-0.1327291
0
ARC
8
DEFAULT_255_2_778
10
8.7350294
20
8.3496578
40
8.4823876
50
269.9777805
51
280.1391967
0
ARC
8
DEFAULT_255_2_778
10
8.748352
20
8.2628072
40
8.3945483
50
280.1540394
51
293.4600665
0
ARC
8
DEFAULT_255_2_778
10
8.6916523
20
8.373954
40
8.5190837
50
293.5122845
51
335.6678123
0
ARC
8
DEFAULT_255_2_778
10
8.8031446
20
8.3162936
40
8.39374
50
335.7128692
51
349.2513096
0
ARC
8
DEFAULT_255_2_778
10
8.7258953
20
8.3285356
40
8.4719173
50
349.2674054
51
359.6848814
0
ARC
8
DEFAULT_255_2_778
10
8.6132156
20
8.33252
40
8.5846179
50
359.6624248
51
0.0003398
0
ARC
8
DEFAULT_255_2_778
10
8.7180175
20
8.3360632
40
8.4798167
50
359.9764038
51
10.381816
0
ARC
8
DEFAULT_255_2_778
10
8.8060144
20
8.349798
40
8.3907856
50
10.3978472
51
23.8583064
0
ARC
8
DEFAULT_255_2_778
10
8.6920074
20
8.2913864
40
8.5186797
50
23.9074533
51
54.6345213
0
ARC
8
DEFAULT_255_2_778
10
13.1353552
20
6.5472063
40
0.1193582
50
243.3044676
51
259.8810201
0
ARC
8
DEFAULT_255_2_778
10
13.1339719
20
6.5400179
40
0.1120387
50
259.9315258
51
269.9500409
0
ARC
8
DEFAULT_255_2_778
10
13.1371678
20
6.5168218
40
0.0889037
50
267.8769315
51
337.5496001
0
ARC
8
DEFAULT_255_2_778
10
8.7731634
20
8.3313757
40
4.8151219
50
337.4247962
51
359.5453911
0
ARC
8
DEFAULT_255_2_778
10
8.653521
20
8.3340837
40
4.9347822
50
359.5249729
51
359.9997783
0
ARC
8
DEFAULT_255_2_778
10
8.7401912
20
8.337066
40
4.8481128
50
359.9645288
51
14.3598824
0
ARC
8
DEFAULT_255_2_778
10
8.7415148
20
8.332772
40
4.8478976
50
14.412926
51
37.6843579
0
ARC
8
DEFAULT_255_2_778
10
8.7116428
20
8.3174941
40
4.8808814
50
37.6119255
51
70.2793999
0
ARC
8
DEFAULT_255_2_778
10
8.7354727
20
8.3646384
40
4.8284656
50
70.356818
51
85.9108115
0
ARC
8
DEFAULT_255_2_778
10
8.7278127
20
8.2825021
40
4.9109393
50
85.8900045
51
89.5225727
0
ARC
8
DEFAULT_255_2_778
10
8.7251475
20
8.3671661
40
4.8261055
50
89.9692988
51
104.4168183
0
ARC
8
DEFAULT_255_2_778
10
8.7376436
20
8.3406492
40
4.8549018
50
104.4817338
51
128.7386701
0
ARC
8
DEFAULT_255_2_778
10
8.7543835
20
8.3063412
40
4.8921448
50
128.6401545
51
161.3965091
0
ARC
8
DEFAULT_255_2_778
10
8.6845015
20
8.3381581
40
4.8157706
50
161.4900345
51
177.1866539
0
ARC
8
DEFAULT_255_2_778
10
8.7528886
20
8.3330266
40
4.8843274
50
177.1659064
51
179.5185227
0
ARC
8
DEFAULT_255_2_778
10
8.7979813
20
8.3326534
40
4.9294218
50
179.518589
51
180.0003246
0
ARC
8
DEFAULT_255_2_778
10
8.7167778
20
8.3296119
40
4.8482192
50
179.9643863
51
194.3593325
0
ARC
8
DEFAULT_255_2_778
10
8.7149819
20
8.333788
40
4.8475172
50
194.4124146
51
217.6845289
0
ARC
8
DEFAULT_255_2_778
10
8.7452036
20
8.3493945
40
4.8809787
50
217.6126409
51
250.2776366
0
ARC
8
DEFAULT_255_2_778
10
8.7216362
20
8.3028502
40
4.829216
50
250.3544925
51
265.905254
0
ARC
8
DEFAULT_255_2_778
10
8.7293101
20
8.3850885
40
4.9117926
50
265.8844677
51
269.5161727
0
ARC
8
DEFAULT_255_2_778
10
8.7313977
20
8.2923929
40
4.8191226
50
269.9695145
51
284.4768783
0
ARC
8
DEFAULT_255_2_778
10
8.7159375
20
8.3280636
40
4.8575293
50
284.5482629
51
308.9828228
0
ARC
8
DEFAULT_255_2_778
10
8.6732809
20
8.3888592
40
4.9316251
50
308.9237187
51
312.8238021
0
ARC
8
DEFAULT_255_2_778
10
11.9545677
20
4.8530963
40
0.107935
50
311.1084881
51
358.4952981
0
ARC
8
DEFAULT_255_2_778
10
11.961973
20
4.8520887
40
0.1005091
50
358.958656
51
359.9936482
0
ARC
8
DEFAULT_255_2_778
10
11.968761
20
4.8526682
40
0.0937228
50
359.6389082
51
43.1539456
0
ARC
8
DEFAULT_255_2_778
10
11.2491636
20
5.4948885
40
0.0980297
50
47.9407729
51
90.6371458
0
ARC
8
DEFAULT_255_2_778
10
11.2480736
20
5.484526
40
0.1083862
50
90.000068
51
91.2257055
0
ARC
8
DEFAULT_255_2_778
10
11.2486176
20
5.4781207
40
0.1148024
50
91.4287644
51
132.7881041
0
ARC
8
DEFAULT_255_2_778
10
8.727354
20
8.3143609
40
3.6800901
50
270.0183638
51
311.5994002
0
ARC
8
DEFAULT_255_2_778
10
8.724462
20
8.3217162
40
3.6875488
50
253.0289472
51
269.5707155
0
ARC
8
DEFAULT_255_2_778
10
8.7406015
20
8.3457444
40
3.7152511
50
198.3007927
51
252.899048
0
ARC
8
DEFAULT_255_2_778
10
8.7100868
20
8.3290308
40
3.681037
50
180.8232542
51
198.202943
0
ARC
8
DEFAULT_255_2_778
10
8.7753913
20
8.3325974
40
3.7463868
50
179.9994754
51
180.863444
0
ARC
8
DEFAULT_255_2_778
10
8.785104
20
8.3326412
40
3.7560995
50
179.5251402
51
180.0001455
0
ARC
8
DEFAULT_255_2_778
10
8.6987127
20
8.3354867
40
3.6696882
50
162.2676858
51
179.5583865
0
ARC
8
DEFAULT_255_2_778
10
8.7498869
20
8.3103347
40
3.7261009
50
106.2378727
51
162.1389678
0
ARC
8
DEFAULT_255_2_778
10
8.7247101
20
8.3620574
40
3.6694141
50
89.9652818
51
106.0862643
0
ARC
8
DEFAULT_255_2_778
10
8.7258896
20
8.3265459
40
3.7050706
50
73.0045904
51
89.4920902
0
ARC
8
DEFAULT_255_2_778
10
8.72003
20
8.3263708
40
3.706955
50
39.6430444
51
72.918768
0
ARC
8
DEFAULT_255_2_778
10
8.734076
20
8.3314161
40
3.6929236
50
13.3486577
51
39.7218045
0
ARC
8
DEFAULT_255_2_778
10
8.7153431
20
8.330427
40
3.7113801
50
359.9641648
51
13.2967464
0
ARC
8
DEFAULT_255_2_778
10
8.6534862
20
8.3280867
40
3.7732363
50
359.6064707
51
0.000288
0
ARC
8
DEFAULT_255_2_778
10
8.7596954
20
8.3333546
40
3.6670708
50
339.2337369
51
359.5127683
0
ARC
8
DEFAULT_255_2_778
10
12.2870593
20
6.988681
40
0.1081049
50
155.6981576
51
174.4302669
0
ARC
8
DEFAULT_255_2_778
10
12.2866479
20
6.9887649
40
0.1076874
50
174.4534253
51
180.0003552
0
ARC
8
DEFAULT_255_2_778
10
12.2874742
20
6.988772
40
0.1085136
50
180.0040938
51
241.1012529
0
ARC
8
DEFAULT_255_2_778
10
3.914977
20
5.4676718
40
0.1029296
50
95.2361938
51
115.8898323
0
ARC
8
DEFAULT_255_2_778
10
3.9149143
20
5.4678558
40
0.1027405
50
89.9993579
51
95.2107871
0
ARC
8
DEFAULT_255_2_778
10
3.9149834
20
5.4673603
40
0.1032361
50
27.5259132
51
90.0377089
0
ARC
8
DEFAULT_255_2_778
10
8.7514263
20
8.3554051
40
5.5300547
50
210.9051069
51
250.8627171
0
ARC
8
DEFAULT_255_2_778
10
8.7188204
20
8.2925598
40
5.4600027
50
250.9697662
51
265.6682544
0
ARC
8
DEFAULT_255_2_778
10
8.7278513
20
8.3893862
40
5.5572348
50
265.6508124
51
270.0053782
0
ARC
8
DEFAULT_255_2_778
10
8.7284461
20
8.3918408
40
5.5596893
50
269.9992464
51
270.1513627
0
ARC
8
DEFAULT_255_2_778
10
8.7319507
20
8.3299462
40
5.4977866
50
270.1165435
51
283.1392917
0
ARC
8
DEFAULT_255_2_778
10
8.7345394
20
8.3032521
40
5.4712041
50
283.1764376
51
302.7682701
0
ARC
8
DEFAULT_255_2_778
10
8.7053785
20
8.3555324
40
5.5309493
50
302.729155
51
340.5378672
0
ARC
8
DEFAULT_255_2_778
10
8.7671701
20
8.3249883
40
5.4625179
50
340.6239909
51
355.5816963
0
ARC
8
DEFAULT_255_2_778
10
8.6804429
20
8.3331043
40
5.5496126
50
355.5671329
51
0.0051786
0
ARC
8
DEFAULT_255_2_778
10
8.6510966
20
8.3336746
40
5.5789589
50
359.9992948
51
0.1601744
0
ARC
8
DEFAULT_255_2_778
10
8.7285669
20
8.3370302
40
5.5014803
50
0.1274821
51
13.1430551
0
ARC
8
DEFAULT_255_2_778
10
8.7577919
20
8.3402671
40
5.4722859
50
13.1796292
51
32.7676286
0
ARC
8
DEFAULT_255_2_778
10
8.7075306
20
8.3123763
40
5.5296458
50
32.7287681
51
70.5425977
0
ARC
8
DEFAULT_255_2_778
10
8.7373333
20
8.3721779
40
5.4633382
50
70.6283877
51
85.5837685
0
ARC
8
DEFAULT_255_2_778
10
8.7290635
20
8.2840281
40
5.5518632
50
85.568726
51
90.0052612
0
ARC
8
DEFAULT_255_2_778
10
8.7286301
20
8.2308039
40
5.6050875
50
90.000781
51
90.1553409
0
ARC
8
DEFAULT_255_2_778
10
8.7251568
20
8.3363234
40
5.49956
50
90.122136
51
103.1414232
0
ARC
8
DEFAULT_255_2_778
10
8.722393
20
8.3636676
40
5.4723049
50
103.1783352
51
122.7664973
0
ARC
8
DEFAULT_255_2_778
10
8.7506091
20
8.3126843
40
5.5304483
50
122.726439
51
160.5629925
0
ARC
8
DEFAULT_255_2_778
10
8.6879472
20
8.3436188
40
5.4610698
50
160.6502779
51
175.5876983
0
ARC
8
DEFAULT_255_2_778
10
8.7744008
20
8.3355383
40
5.5478891
50
175.5731836
51
180.0052009
0
ARC
8
DEFAULT_255_2_778
10
8.8045884
20
8.334966
40
5.5780768
50
179.9992947
51
180.1601867
0
ARC
8
DEFAULT_255_2_778
10
8.7341697
20
8.3366399
40
5.5076633
50
180.1796477
51
190.9253729
0
ARC
8
DEFAULT_255_2_778
10
3.22783
20
7.270873
40
0.1009082
50
0.0536102
51
12.5333539
0
ARC
8
DEFAULT_255_2_778
10
3.2238215
20
7.2730571
40
0.1049374
50
283.6206955
51
358.8589775
0
ARC
8
DEFAULT_255_2_778
10
2.2962231
20
7.0401005
40
0.1031576
50
278.2887517
51
284.1456222
0
ARC
8
DEFAULT_255_2_778
10
2.2963335
20
7.0393218
40
0.102371
50
270.0029425
51
278.2904501
0
ARC
8
DEFAULT_255_2_778
10
2.295486
20
7.0357228
40
0.0987759
50
194.2128216
51
270.4946475
0
ARC
8
DEFAULT_255_2_778
10
8.7197284
20
8.3388037
40
6.6537317
50
180.1905869
51
191.5069597
0
ARC
8
DEFAULT_255_2_778
10
8.7906304
20
8.3355854
40
6.7246235
50
179.9994219
51
180.1611567
0
ARC
8
DEFAULT_255_2_778
10
8.7279768
20
8.3389392
40
6.6619707
50
168.0866814
51
180.0282606
0
ARC
8
DEFAULT_255_2_778
10
8.6809421
20
8.3457944
40
6.6145347
50
151.4802838
51
168.0606787
0
ARC
8
DEFAULT_255_2_778
10
8.7560609
20
8.3056261
40
6.6997168
50
110.010794
51
151.4851786
0
ARC
8
DEFAULT_255_2_778
10
8.7163376
20
8.3853314
40
6.6112378
50
96.0726318
51
109.9236945
0
ARC
8
DEFAULT_255_2_778
10
8.7274331
20
8.2873841
40
6.7098093
50
90.1485767
51
96.0783655
0
ARC
8
DEFAULT_255_2_778
10
8.7283915
20
8.256927
40
6.740269
50
89.9994033
51
90.1560528
0
ARC
8
DEFAULT_255_2_778
10
8.7317187
20
8.3345542
40
6.6626426
50
78.0857269
51
90.0280086
0
ARC
8
DEFAULT_255_2_778
10
8.738223
20
8.3800008
40
6.6168328
50
61.4811209
51
78.0595919
0
ARC
8
DEFAULT_255_2_778
10
8.6981133
20
8.3046803
40
6.7021643
50
20.003279
51
61.4872663
0
ARC
8
DEFAULT_255_2_778
10
8.7807684
20
8.3456918
40
6.6104745
50
6.0705834
51
19.914323
0
ARC
8
DEFAULT_255_2_778
10
8.6840762
20
8.3347657
40
6.70778
50
0.1486704
51
6.0760441
0
ARC
8
DEFAULT_255_2_778
10
8.651334
20
8.3338126
40
6.7405246
50
359.999402
51
0.1560498
0
ARC
8
DEFAULT_255_2_778
10
8.7293412
20
8.3304702
40
6.6625182
50
348.0855823
51
0.0281382
0
ARC
8
DEFAULT_255_2_778
10
8.7756375
20
8.3237829
40
6.6158394
50
331.4791171
51
348.0594742
0
ARC
8
DEFAULT_255_2_778
10
8.7000148
20
8.3642005
40
6.7015833
50
289.9977672
51
331.4842095
0
ARC
8
DEFAULT_255_2_778
10
8.7401415
20
8.2835085
40
6.6120417
50
276.0688845
51
289.9101432
0
ARC
8
DEFAULT_255_2_778
10
8.729131
20
8.3808393
40
6.709991
50
270.1485986
51
276.0745087
0
ARC
8
DEFAULT_255_2_778
10
8.7282681
20
8.4517334
40
6.7808871
50
270.0006527
51
270.154336
0
ARC
8
DEFAULT_255_2_778
10
8.725187
20
8.3304998
40
6.659654
50
258.4168201
51
270.027172
0
ARC
8
DEFAULT_255_2_778
10
8.7180526
20
8.2813409
40
6.6100643
50
241.9212658
51
258.3918438
0
ARC
8
DEFAULT_255_2_778
10
8.7695372
20
8.3727833
40
6.7149775
50
210.4060054
51
241.9009205
0
ARC
8
DEFAULT_255_2_778
10
3.0574928
20
5.0201549
40
0.0917192
50
181.5636187
51
210.0897428
0
ARC
8
DEFAULT_255_2_778
10
3.0606451
20
5.0204749
40
0.0948793
50
179.9921837
51
181.7048736
0
ARC
8
DEFAULT_255_2_778
10
3.0701089
20
5.0193115
40
0.1043498
50
117.6188343
51
179.3540738
0
LINE
8
DEFAULT_255_2_778
10
13.4828335
20
15.2135709
11
12.9412335
21
14.4277709
0
LINE
8
DEFAULT_255_2_778
10
11.2294335
20
15.1969709
11
11.2294335
21
15.1976709
0
LINE
8
DEFAULT_255_2_778
10
11.3585335
20
15.2559709
11
11.7024335
21
16.1517709
0
LINE
8
DEFAULT_255_2_778
10
13.6225335
20
15.2381709
11
13.6225335
21
15.2384709
0
LINE
8
DEFAULT_255_2_778
10
12.2356335
20
6.8942709
11
13.0817335
21
6.4405709
0
LINE
8
DEFAULT_255_2_778
10
8.7687335
20
13.1932709
11
8.7277335
21
13.1932709
0
LINE
8
DEFAULT_255_2_778
10
8.6878335
20
3.4734709
11
8.7288335
21
3.4732709
0
LINE
8
DEFAULT_255_2_778
10
12.0371335
20
4.9167709
11
11.3148335
21
5.5676709
0
LINE
8
DEFAULT_255_2_778
10
8.7285335
20
4.6342709
11
8.6968335
21
4.6342709
0
LINE
8
DEFAULT_255_2_778
10
8.7269335
20
12.0314709
11
8.7587335
21
12.0314709
0
LINE
8
DEFAULT_255_2_778
10
12.2350335
20
6.8937709
11
12.2356335
21
6.8942709
0
LINE
8
DEFAULT_255_2_778
10
3.0215335
20
5.1120709
11
3.8700335
21
5.5602709
0
LINE
8
DEFAULT_255_2_778
10
3.2485335
20
7.1710709
11
2.3214335
21
6.9400709
0
ENDSEC
0
EOF