0
SECTION
2
HEADER
9
$MEASUREMENT
70
1
0
ENDSEC
0
SECTION
2
TABLES
0
TABLE
2
LTYPE
0
LTYPE
72
65
70
64
2
CONTINUOUS
3
______
73
0
40
0
0
ENDTAB
0
TABLE
2
LAYER
0
LAYER
2
DEFAULT_255_2_778
70
0
62
255
6
CONTINUOUS
0
LAYER
2
DEFAULT_255_1_388
70
0
62
255
6
CONTINUOUS
0
ENDTAB
0
ENDSEC
0
SECTION
2
ENTITIES
0
ARC
8
DEFAULT_255_2_778
10
3.5700693
20
28.1802037
40
0.7914215
50
129.1312896
51
180.1450914
0
ARC
8
DEFAULT_255_2_778
10
3.5703345
20
28.1806908
40
0.7912112
50
89.854026
51
129.1684493
0
ARC
8
DEFAULT_255_2_778
10
25.7993937
20
28.1803773
40
0.7915249
50
39.4792447
51
90.147911
0
ARC
8
DEFAULT_255_2_778
10
25.7999935
20
28.180224
40
0.7911595
50
359.8533901
51
39.5154338
0
ARC
8
DEFAULT_255_2_778
10
25.7996693
20
-1.9863486
40
0.7914836
50
309.4761667
51
0.1482649
0
ARC
8
DEFAULT_255_2_778
10
25.799398
20
-1.9867797
40
0.7913235
50
269.8517415
51
309.511178
0
ARC
8
DEFAULT_255_2_778
10
3.570342
20
-1.9867215
40
0.7913815
50
219.1282118
51
270.1454017
0
ARC
8
DEFAULT_255_2_778
10
3.5700247
20
-1.986339
40
0.7913769
50
179.8524075
51
219.1641908
0
LINE
8
DEFAULT_255_2_778
10
3.5723503
20
28.9718996
11
25.7973503
21
28.9718996
0
LINE
8
DEFAULT_255_2_778
10
26.5911503
20
28.1781996
11
26.5911503
21
-1.9843004
0
LINE
8
DEFAULT_255_2_778
10
25.7973503
20
-2.7781004
11
3.5723503
21
-2.7781004
0
LINE
8
DEFAULT_255_2_778
10
2.7786503
20
-1.9843004
11
2.7786503
21
28.1781996
0
LINE
8
DEFAULT_255_1_388
10
11.7325389
20
-0.6398
11
11.3684024
21
-0.6398
0
LINE
8
DEFAULT_255_1_388
10
11.3684024
20
-0.6398
11
11.3684024
21
0.6757898
0
LINE
8
DEFAULT_255_1_388
10
11.3684024
20
0.6757898
11
11.7397674
21
0.6757898
0
LINE
8
DEFAULT_255_1_388
10
12.3198558
20
0.0622696
11
12.3198558
21
-0.0217619
0
LINE
8
DEFAULT_255_1_388
10
11.7442852
20
0.5330267
11
11.5418868
21
0.5330267
0
LINE
8
DEFAULT_255_1_388
10
11.5418868
20
0.5330267
11
11.5418868
21
-0.4979404
0
LINE
8
DEFAULT_255_1_388
10
11.5418868
20
-0.4979404
11
11.7244068
21
-0.4979404
0
LINE
8
DEFAULT_255_1_388
10
12.1481785
20
-0.0181477
11
12.1481785
21
0.0586553
0
ARC
8
DEFAULT_255_1_388
10
11.7441469
20
0.0159436
40
0.6598608
50
75.4100343
51
90.3802731
0
ARC
8
DEFAULT_255_1_388
10
11.7699714
20
0.1235691
40
0.5492049
50
60.1455157
51
75.1889627
0
ARC
8
DEFAULT_255_1_388
10
11.7878306
20
0.1546914
40
0.5133226
50
26.525419
51
60.1451222
0
ARC
8
DEFAULT_255_1_388
10
11.6618092
20
0.0878642
40
0.6559324
50
7.4029944
51
26.832209
0
ARC
8
DEFAULT_255_1_388
10
11.4824489
20
0.0599229
40
0.8374103
50
0.1605597
51
7.7176135
0
ARC
8
DEFAULT_255_1_388
10
11.5008889
20
-0.0260679
40
0.8189782
50
348.7289744
51
0.30125
0
ARC
8
DEFAULT_255_1_388
10
11.6872353
20
-0.0630844
40
0.628991
50
333.0706936
51
348.7181455
0
ARC
8
DEFAULT_255_1_388
10
11.7959981
20
-0.1221551
40
0.5052808
50
299.2531435
51
333.4571133
0
ARC
8
DEFAULT_255_1_388
10
11.7554012
20
-0.0450371
40
0.5924066
50
278.1072193
51
299.0340218
0
ARC
8
DEFAULT_255_1_388
10
11.7266061
20
0.1245979
40
0.7644209
50
270.4446841
51
278.4508355
0
ARC
8
DEFAULT_255_1_388
10
11.7289545
20
0.02003
40
0.5179903
50
269.4969684
51
284.0204874
0
ARC
8
DEFAULT_255_1_388
10
11.7689263
20
-0.1335585
40
0.3592968
50
283.7699076
51
318.1557121
0
ARC
8
DEFAULT_255_1_388
10
11.7309808
20
-0.1051601
40
0.4065308
50
318.7417595
51
343.687252
0
ARC
8
DEFAULT_255_1_388
10
11.5280387
20
-0.0417725
40
0.6191194
50
343.3324891
51
355.8548594
0
ARC
8
DEFAULT_255_1_388
10
11.2919424
20
-0.0193281
40
0.856237
50
355.4988754
51
0.0789913
0
ARC
8
DEFAULT_255_1_388
10
11.3800224
20
0.063408
40
0.7681709
50
359.6455047
51
9.8607559
0
ARC
8
DEFAULT_255_1_388
10
11.6455947
20
0.1113664
40
0.498312
50
9.6573037
51
26.1931522
0
ARC
8
DEFAULT_255_1_388
10
11.7500022
20
0.1598587
40
0.3832303
50
26.5777895
51
40.1533752
0
ARC
8
DEFAULT_255_1_388
10
11.7787687
20
0.182302
40
0.3467742
50
40.3839958
51
80.1430923
0
ARC
8
DEFAULT_255_1_388
10
11.7419942
20
0.0192486
40
0.5137832
50
79.2153636
51
89.7445174
0
LINE
8
DEFAULT_255_1_388
10
13.2442022
20
0.6757898
11
13.2442022
21
-0.197957
0
LINE
8
DEFAULT_255_1_388
10
13.2442022
20
-0.197957
11
13.4267222
21
-0.197957
0
LINE
8
DEFAULT_255_1_388
10
13.4267222
20
-0.197957
11
13.4267222
21
-0.3343952
0
LINE
8
DEFAULT_255_1_388
10
13.4267222
20
-0.3343952
11
13.2442022
21
-0.3343952
0
LINE
8
DEFAULT_255_1_388
10
13.2442022
20
-0.3343952
11
13.2442022
21
-0.6398
0
LINE
8
DEFAULT_255_1_388
10
13.2442022
20
-0.6398
11
13.0761392
21
-0.6398
0
LINE
8
DEFAULT_255_1_388
10
13.0761392
20
-0.6398
11
13.0761392
21
-0.3343952
0
LINE
8
DEFAULT_255_1_388
10
13.0761392
20
-0.3343952
11
12.477076
21
-0.3343952
0
LINE
8
DEFAULT_255_1_388
10
12.477076
20
-0.3343952
11
12.477076
21
-0.2359067
0
LINE
8
DEFAULT_255_1_388
10
12.477076
20
-0.2359067
11
13.0662
21
0.6757898
0
LINE
8
DEFAULT_255_1_388
10
13.0662
20
0.6757898
11
13.2442022
21
0.6757898
0
LINE
8
DEFAULT_255_1_388
10
13.0562608
20
0.4110455
11
12.6668245
21
-0.197957
0
LINE
8
DEFAULT_255_1_388
10
12.6668245
20
-0.197957
11
13.0761392
21
-0.197957
0
LINE
8
DEFAULT_255_1_388
10
13.0761392
20
-0.197957
11
13.0761392
21
0.447188
0
LINE
8
DEFAULT_255_1_388
10
13.0761392
20
0.447188
11
13.0562608
21
0.4110455
0
LINE
8
DEFAULT_255_1_388
10
13.9426575
20
-0.0127263
11
13.9426575
21
-0.1491645
0
LINE
8
DEFAULT_255_1_388
10
13.9426575
20
-0.1491645
11
13.5017181
21
-0.1491645
0
LINE
8
DEFAULT_255_1_388
10
13.5017181
20
-0.1491645
11
13.5017181
21
-0.0127263
0
LINE
8
DEFAULT_255_1_388
10
13.5017181
20
-0.0127263
11
13.9426575
21
-0.0127263
0
LINE
8
DEFAULT_255_1_388
10
14.7938152
20
0.6757898
11
14.7938152
21
-0.197957
0
LINE
8
DEFAULT_255_1_388
10
14.7938152
20
-0.197957
11
14.9763353
21
-0.197957
0
LINE
8
DEFAULT_255_1_388
10
14.9763353
20
-0.197957
11
14.9763353
21
-0.3343952
0
LINE
8
DEFAULT_255_1_388
10
14.9763353
20
-0.3343952
11
14.7938152
21
-0.3343952
0
LINE
8
DEFAULT_255_1_388
10
14.7938152
20
-0.3343952
11
14.7938152
21
-0.6398
0
LINE
8
DEFAULT_255_1_388
10
14.7938152
20
-0.6398
11
14.6257522
21
-0.6398
0
LINE
8
DEFAULT_255_1_388
10
14.6257522
20
-0.6398
11
14.6257522
21
-0.3343952
0
LINE
8
DEFAULT_255_1_388
10
14.6257522
20
-0.3343952
11
14.026689
21
-0.3343952
0
LINE
8
DEFAULT_255_1_388
10
14.026689
20
-0.3343952
11
14.026689
21
-0.2359067
0
LINE
8
DEFAULT_255_1_388
10
14.026689
20
-0.2359067
11
14.615813
21
0.6757898
0
LINE
8
DEFAULT_255_1_388
10
14.615813
20
0.6757898
11
14.7938152
21
0.6757898
0
LINE
8
DEFAULT_255_1_388
10
14.6058738
20
0.4110455
11
14.2164375
21
-0.197957
0
LINE
8
DEFAULT_255_1_388
10
14.2164375
20
-0.197957
11
14.6257522
21
-0.197957
0
LINE
8
DEFAULT_255_1_388
10
14.6257522
20
-0.197957
11
14.6257522
21
0.447188
0
LINE
8
DEFAULT_255_1_388
10
14.6257522
20
0.447188
11
14.6058738
21
0.4110455
0
LINE
8
DEFAULT_255_1_388
10
15.337761
20
-0.0145334
11
15.2040335
21
0.0198021
0
LINE
8
DEFAULT_255_1_388
10
15.2040335
20
0.0198021
11
15.2708973
21
0.6757898
0
LINE
8
DEFAULT_255_1_388
10
15.2708973
20
0.6757898
11
15.9449563
21
0.6757898
0
LINE
8
DEFAULT_255_1_388
10
15.9449563
20
0.6757898
11
15.9449563
21
0.5212803
0
LINE
8
DEFAULT_255_1_388
10
15.9449563
20
0.5212803
11
15.4127569
21
0.5212803
0
LINE
8
DEFAULT_255_1_388
10
15.4127569
20
0.5212803
11
15.373
21
0.1625652
0
LINE
8
DEFAULT_255_1_388
10
15.1570481
20
-0.2937348
11
15.3151719
21
-0.2937348
0
LINE
8
DEFAULT_255_1_388
10
15.3820357
20
0.0216092
11
15.337761
21
-0.0145334
0
ARC
8
DEFAULT_255_1_388
10
15.5816614
20
-0.1951759
40
0.4141476
50
93.7181681
51
120.253934
0
ARC
8
DEFAULT_255_1_388
10
15.5922666
20
-0.2860716
40
0.5055616
50
89.9660471
51
94.2495185
0
ARC
8
DEFAULT_255_1_388
10
15.5968488
20
-0.2197846
40
0.4392953
50
73.8045384
51
90.5585736
0
ARC
8
DEFAULT_255_1_388
10
15.6232746
20
-0.123248
40
0.3392225
50
41.3071072
51
73.543002
0
ARC
8
DEFAULT_255_1_388
10
15.5764566
20
-0.1635539
40
0.4009977
50
13.5075837
51
41.2174839
0
ARC
8
DEFAULT_255_1_388
10
15.3917663
20
-0.2119093
40
0.5918864
50
1.1330171
51
13.8830737
0
ARC
8
DEFAULT_255_1_388
10
15.2321309
20
-0.2204478
40
0.7516787
50
359.9925091
51
1.5431298
0
ARC
8
DEFAULT_255_1_388
10
15.3765924
20
-0.2250973
40
0.6072343
50
347.8572712
51
0.4294349
0
ARC
8
DEFAULT_255_1_388
10
15.5735059
20
-0.2697102
40
0.4053482
50
323.6727442
51
348.1674594
0
ARC
8
DEFAULT_255_1_388
10
15.6066023
20
-0.2898825
40
0.3667495
50
316.8171818
51
323.1486802
0
ARC
8
DEFAULT_255_1_388
10
15.6135147
20
-0.2940388
40
0.358869
50
281.839603
51
316.5458142
0
ARC
8
DEFAULT_255_1_388
10
15.5712434
20
-0.1190637
40
0.5388223
50
269.5770964
51
282.4214641
0
ARC
8
DEFAULT_255_1_388
10
15.5632355
20
-0.143107
40
0.5147801
50
256.2425863
51
270.4486481
0
ARC
8
DEFAULT_255_1_388
10
15.5295883
20
-0.2780876
40
0.3756708
50
228.9024379
51
256.33135
0
ARC
8
DEFAULT_255_1_388
10
15.5212863
20
-0.2911946
40
0.360344
50
193.7536029
51
228.5272638
0
ARC
8
DEFAULT_255_1_388
10
15.6605428
20
-0.2503537
40
0.5053599
50
184.9244437
51
194.4976052
0
ARC
8
DEFAULT_255_1_388
10
15.6822069
20
-0.2463278
40
0.3700839
50
187.3596909
51
198.6733728
0
ARC
8
DEFAULT_255_1_388
10
15.5641313
20
-0.2872627
40
0.2451195
50
198.4453795
51
217.7945479
0
ARC
8
DEFAULT_255_1_388
10
15.5308485
20
-0.3108437
40
0.2043754
50
218.2887146
51
228.5613203
0
ARC
8
DEFAULT_255_1_388
10
15.5418492
20
-0.2960098
40
0.2227819
50
228.9652423
51
258.1237049
0
ARC
8
DEFAULT_255_1_388
10
15.564993
20
-0.1969036
40
0.3245374
50
257.7260585
51
270.4013717
0
ARC
8
DEFAULT_255_1_388
10
15.5700428
20
-0.2469745
40
0.2744726
50
269.4204315
51
286.420998
0
ARC
8
DEFAULT_255_1_388
10
15.5867483
20
-0.3076295
40
0.2115721
50
286.7250065
51
320.6004665
0
ARC
8
DEFAULT_255_1_388
10
15.5436399
20
-0.2726473
40
0.2670878
50
320.6712228
51
344.5440474
0
ARC
8
DEFAULT_255_1_388
10
15.4135113
20
-0.2344606
40
0.4026927
50
344.241448
51
356.735803
0
ARC
8
DEFAULT_255_1_388
10
15.273142
20
-0.2228344
40
0.5435085
50
356.3547471
51
0.0507222
0
ARC
8
DEFAULT_255_1_388
10
15.4233685
20
-0.2193188
40
0.3932934
50
359.5579289
51
12.9534322
0
ARC
8
DEFAULT_255_1_388
10
15.5420525
20
-0.1905414
40
0.2711827
50
12.6489751
51
41.608121
0
ARC
8
DEFAULT_255_1_388
10
15.5679685
20
-0.1685054
40
0.2371737
50
41.7851122
51
85.9892156
0
ARC
8
DEFAULT_255_1_388
10
15.5540995
20
-0.2600262
40
0.3295244
50
84.6965848
51
90.0672125
0
ARC
8
DEFAULT_255_1_388
10
15.5514562
20
-0.3351882
40
0.4046926
50
89.6804991
51
99.161352
0
ARC
8
DEFAULT_255_1_388
10
15.5283572
20
-0.1971152
40
0.2647044
50
98.9836248
51
113.8905702
0
ARC
8
DEFAULT_255_1_388
10
15.5025247
20
-0.1361882
40
0.1985386
50
114.195234
51
127.3641866
0
LINE
8
DEFAULT_255_1_388
10
16.8720135
20
0.6757898
11
16.8720135
21
-0.197957
0
LINE
8
DEFAULT_255_1_388
10
16.8720135
20
-0.197957
11
17.0545335
21
-0.197957
0
LINE
8
DEFAULT_255_1_388
10
17.0545335
20
-0.197957
11
17.0545335
21
-0.3343952
0
LINE
8
DEFAULT_255_1_388
10
17.0545335
20
-0.3343952
11
16.8720135
21
-0.3343952
0
LINE
8
DEFAULT_255_1_388
10
16.8720135
20
-0.3343952
11
16.8720135
21
-0.6398
0
LINE
8
DEFAULT_255_1_388
10
16.8720135
20
-0.6398
11
16.7039505
21
-0.6398
0
LINE
8
DEFAULT_255_1_388
10
16.7039505
20
-0.6398
11
16.7039505
21
-0.3343952
0
LINE
8
DEFAULT_255_1_388
10
16.7039505
20
-0.3343952
11
16.1048873
21
-0.3343952
0
LINE
8
DEFAULT_255_1_388
10
16.1048873
20
-0.3343952
11
16.1048873
21
-0.2359067
0
LINE
8
DEFAULT_255_1_388
10
16.1048873
20
-0.2359067
11
16.6940113
21
0.6757898
0
LINE
8
DEFAULT_255_1_388
10
16.6940113
20
0.6757898
11
16.8720135
21
0.6757898
0
LINE
8
DEFAULT_255_1_388
10
16.6840721
20
0.4110455
11
16.2946358
21
-0.197957
0
LINE
8
DEFAULT_255_1_388
10
16.2946358
20
-0.197957
11
16.7039505
21
-0.197957
0
LINE
8
DEFAULT_255_1_388
10
16.7039505
20
-0.197957
11
16.7039505
21
0.447188
0
LINE
8
DEFAULT_255_1_388
10
16.7039505
20
0.447188
11
16.6840721
21
0.4110455
0
LINE
8
DEFAULT_255_1_388
10
7.8836389
20
22.5113
11
7.5195024
21
22.5113
0
LINE
8
DEFAULT_255_1_388
10
7.5195024
20
22.5113
11
7.5195024
21
23.8268898
0
LINE
8
DEFAULT_255_1_388
10
7.5195024
20
23.8268898
11
7.8908674
21
23.8268898
0
LINE
8
DEFAULT_255_1_388
10
8.4709558
20
23.2133696
11
8.4709558
21
23.1293381
0
LINE
8
DEFAULT_255_1_388
10
7.8953852
20
23.6841267
11
7.6929868
21
23.6841267
0
LINE
8
DEFAULT_255_1_388
10
7.6929868
20
23.6841267
11
7.6929868
21
22.6531596
0
LINE
8
DEFAULT_255_1_388
10
7.6929868
20
22.6531596
11
7.8755068
21
22.6531596
0
LINE
8
DEFAULT_255_1_388
10
8.2992785
20
23.1329523
11
8.2992785
21
23.2097553
0
ARC
8
DEFAULT_255_1_388
10
7.8952469
20
23.1670436
40
0.6598608
50
75.4100343
51
90.3802731
0
ARC
8
DEFAULT_255_1_388
10
7.9210714
20
23.2746691
40
0.5492049
50
60.1455157
51
75.1889627
0
ARC
8
DEFAULT_255_1_388
10
7.9389306
20
23.3057914
40
0.5133226
50
26.525419
51
60.1451222
0
ARC
8
DEFAULT_255_1_388
10
7.8129092
20
23.2389642
40
0.6559324
50
7.4029944
51
26.832209
0
ARC
8
DEFAULT_255_1_388
10
7.6335489
20
23.2110229
40
0.8374103
50
0.1605597
51
7.7176135
0
ARC
8
DEFAULT_255_1_388
10
7.6519889
20
23.1250321
40
0.8189782
50
348.7289744
51
0.30125
0
ARC
8
DEFAULT_255_1_388
10
7.8383353
20
23.0880156
40
0.628991
50
333.0706936
51
348.7181455
0
ARC
8
DEFAULT_255_1_388
10
7.9470981
20
23.0289449
40
0.5052808
50
299.2531435
51
333.4571133
0
ARC
8
DEFAULT_255_1_388
10
7.9065012
20
23.1060629
40
0.5924066
50
278.1072193
51
299.0340218
0
ARC
8
DEFAULT_255_1_388
10
7.8777061
20
23.2756979
40
0.7644209
50
270.4446841
51
278.4508355
0
ARC
8
DEFAULT_255_1_388
10
7.8800545
20
23.17113
40
0.5179903
50
269.4969684
51
284.0204874
0
ARC
8
DEFAULT_255_1_388
10
7.9200263
20
23.0175415
40
0.3592968
50
283.7699076
51
318.1557121
0
ARC
8
DEFAULT_255_1_388
10
7.8820808
20
23.0459399
40
0.4065308
50
318.7417595
51
343.687252
0
ARC
8
DEFAULT_255_1_388
10
7.6791387
20
23.1093275
40
0.6191194
50
343.3324891
51
355.8548594
0
ARC
8
DEFAULT_255_1_388
10
7.4430424
20
23.1317719
40
0.856237
50
355.4988754
51
0.0789913
0
ARC
8
DEFAULT_255_1_388
10
7.5311224
20
23.214508
40
0.7681709
50
359.6455047
51
9.8607559
0
ARC
8
DEFAULT_255_1_388
10
7.7966947
20
23.2624664
40
0.498312
50
9.6573037
51
26.1931522
0
ARC
8
DEFAULT_255_1_388
10
7.9011022
20
23.3109587
40
0.3832303
50
26.5777895
51
40.1533752
0
ARC
8
DEFAULT_255_1_388
10
7.9298687
20
23.333402
40
0.3467742
50
40.3839958
51
80.1430923
0
ARC
8
DEFAULT_255_1_388
10
7.8930942
20
23.1703486
40
0.5137832
50
79.2153636
51
89.7445174
0
LINE
8
DEFAULT_255_1_388
10
8.8884025
20
23.4889567
11
8.8884025
21
22.5113
0
LINE
8
DEFAULT_255_1_388
10
8.8884025
20
22.5113
11
8.7212431
21
22.5113
0
LINE
8
DEFAULT_255_1_388
10
8.7212431
20
22.5113
11
8.7212431
21
23.4889567
0
LINE
8
DEFAULT_255_1_388
10
8.7212431
20
23.4889567
11
8.8884025
21
23.4889567
0
ARC
8
DEFAULT_255_1_388
10
8.8177793
20
23.7493428
40
0.1100948
50
161.4148232
51
180.5532607
0
ARC
8
DEFAULT_255_1_388
10
8.8038103
20
23.7531875
40
0.0956324
50
138.1830164
51
160.9307633
0
ARC
8
DEFAULT_255_1_388
10
8.791429
20
23.7639313
40
0.0792417
50
104.6371663
51
138.0036136
0
ARC
8
DEFAULT_255_1_388
10
8.8034829
20
23.7226963
40
0.1221906
50
92.0601206
51
105.2198859
0
ARC
8
DEFAULT_255_1_388
10
8.8061193
20
23.6838583
40
0.161103
50
89.9790681
51
92.5006086
0
ARC
8
DEFAULT_255_1_388
10
8.8072369
20
23.7094998
40
0.1354654
50
78.0234649
51
90.4478111
0
ARC
8
DEFAULT_255_1_388
10
8.8175954
20
23.7560203
40
0.0878096
50
55.0521508
51
78.336297
0
ARC
8
DEFAULT_255_1_388
10
8.8232488
20
23.7655168
40
0.0767913
50
42.0506198
51
54.4508489
0
ARC
8
DEFAULT_255_1_388
10
8.8080521
20
23.7515821
40
0.0974091
50
1.7493657
51
42.1498724
0
ARC
8
DEFAULT_255_1_388
10
8.7794427
20
23.7483166
40
0.1261276
50
359.9832635
51
2.8353994
0
ARC
8
DEFAULT_255_1_388
10
8.7980837
20
23.7472412
40
0.1074916
50
342.1062453
51
0.5535864
0
ARC
8
DEFAULT_255_1_388
10
8.8141261
20
23.7428197
40
0.0908695
50
316.7110111
51
341.6513114
0
ARC
8
DEFAULT_255_1_388
10
8.8216693
20
23.7360607
40
0.0807447
50
285.4398289
51
316.5320129
0
ARC
8
DEFAULT_255_1_388
10
8.8092863
20
23.7772023
40
0.1237022
50
272.3543902
51
285.8951677
0
ARC
8
DEFAULT_255_1_388
10
8.8062573
20
23.8187742
40
0.1653687
50
269.9725761
51
272.8112722
0
ARC
8
DEFAULT_255_1_388
10
8.8051625
20
23.7936727
40
0.1402709
50
258.8433431
51
270.4148607
0
ARC
8
DEFAULT_255_1_388
10
8.7950405
20
23.7446739
40
0.0902407
50
238.54281
51
259.1289544
0
ARC
8
DEFAULT_255_1_388
10
8.7873727
20
23.7307694
40
0.0743817
50
222.5056676
51
237.9918132
0
ARC
8
DEFAULT_255_1_388
10
8.801732
20
23.7438295
40
0.0937918
50
184.1070774
51
222.4604165
0
ARC
8
DEFAULT_255_1_388
10
8.8319734
20
23.7481538
40
0.1242838
50
179.9419581
51
185.0970785
0
LINE
8
DEFAULT_255_1_388
10
9.6284218
20
23.4943781
11
9.6284218
21
23.338965
0
LINE
8
DEFAULT_255_1_388
10
9.323017
20
23.2052375
11
9.323017
21
22.5113
0
LINE
8
DEFAULT_255_1_388
10
9.323017
20
22.5113
11
9.1558576
21
22.5113
0
LINE
8
DEFAULT_255_1_388
10
9.1558576
20
22.5113
11
9.1558576
21
23.4889567
0
LINE
8
DEFAULT_255_1_388
10
9.1558576
20
23.4889567
11
9.3184992
21
23.4889567
0
LINE
8
DEFAULT_255_1_388
10
9.3184992
20
23.4889567
11
9.3212099
21
23.3760112
0
ARC
8
DEFAULT_255_1_388
10
9.5534378
20
22.8823068
40
0.4627735
50
80.6751522
51
86.893806
0
ARC
8
DEFAULT_255_1_388
10
9.5466208
20
22.7731103
40
0.5721798
50
86.8046851
51
90.0423898
0
ARC
8
DEFAULT_255_1_388
10
9.5424628
20
23.0498197
40
0.2954939
50
89.2758283
51
106.6212906
0
ARC
8
DEFAULT_255_1_388
10
9.5194652
20
23.1334009
40
0.2088351
50
107.1347109
51
157.6456887
0
ARC
8
DEFAULT_255_1_388
10
9.5962714
20
23.0906908
40
0.296292
50
155.6557383
51
157.256838
0
ARC
8
DEFAULT_255_1_388
10
9.5742329
20
23.2217472
40
0.296341
50
127.8167201
51
148.6300223
0
ARC
8
DEFAULT_255_1_388
10
9.5457076
20
23.2510066
40
0.2557782
50
91.3329934
51
126.7875218
0
ARC
8
DEFAULT_255_1_388
10
9.5542463
20
23.1706718
40
0.3363561
50
89.9858247
51
92.4688453
0
ARC
8
DEFAULT_255_1_388
10
9.5551956
20
23.2015114
40
0.3055179
50
85.3587643
51
90.1624243
0
ARC
8
DEFAULT_255_1_388
10
9.5647021
20
23.3144458
40
0.1921848
50
78.4019195
51
85.4592653
0
ARC
8
DEFAULT_255_1_388
10
9.5810082
20
23.3922142
40
0.1127267
50
67.7849217
51
78.573798
0
ARC
8
DEFAULT_255_1_388
10
9.5931717
20
23.4237374
40
0.0789473
50
63.4805074
51
67.3074739
0
LINE
8
DEFAULT_255_1_388
10
9.7223925
20
22.9730214
11
9.7223925
21
23.0037426
0
LINE
8
DEFAULT_255_1_388
10
10.5518647
20
23.0218139
11
10.5518647
21
22.9522395
0
LINE
8
DEFAULT_255_1_388
10
10.5518647
20
22.9522395
11
9.889552
21
22.9522395
0
LINE
8
DEFAULT_255_1_388
10
10.437112
20
22.7615874
11
10.5392148
21
22.6820737
0
LINE
8
DEFAULT_255_1_388
10
9.8949733
20
23.0895813
11
10.3847053
21
23.0895813
0
LINE
8
DEFAULT_255_1_388
10
10.3847053
20
23.0895813
11
10.3847053
21
23.1022312
0
ARC
8
DEFAULT_255_1_388
10
10.1655686
20
22.985521
40
0.4923176
50
252.326534
51
270.5809615
0
ARC
8
DEFAULT_255_1_388
10
10.1425151
20
22.902194
40
0.4059384
50
223.3000488
51
251.8562489
0
ARC
8
DEFAULT_255_1_388
10
10.1662931
20
22.9252898
40
0.4390832
50
190.9374369
51
223.3654369
0
ARC
8
DEFAULT_255_1_388
10
10.3603609
20
22.9691598
40
0.63798
50
179.6531919
51
191.4988561
0
ARC
8
DEFAULT_255_1_388
10
10.3740636
20
23.0073571
40
0.6516811
50
167.4005523
51
180.3177836
0
ARC
8
DEFAULT_255_1_388
10
10.2557307
20
23.0323853
40
0.5307402
50
154.1835149
51
167.2508278
0
ARC
8
DEFAULT_255_1_388
10
10.1846898
20
23.0697925
40
0.4505076
50
134.3150225
51
154.5315008
0
ARC
8
DEFAULT_255_1_388
10
10.1602233
20
23.091255
40
0.4180662
50
122.8617482
51
133.9707159
0
ARC
8
DEFAULT_255_1_388
10
10.148584
20
23.1162882
40
0.3907416
50
89.8248474
51
123.4199325
0
ARC
8
DEFAULT_255_1_388
10
10.1542138
20
23.0435352
40
0.4635141
50
74.7874349
51
90.5482648
0
ARC
8
DEFAULT_255_1_388
10
10.1872602
20
23.1655987
40
0.3370565
50
39.8178888
51
74.7634383
0
ARC
8
DEFAULT_255_1_388
10
10.1295844
20
23.1206356
40
0.4101553
50
16.8990848
51
39.4830125
0
ARC
8
DEFAULT_255_1_388
10
9.9164459
20
23.0523711
40
0.6339427
50
4.9634768
51
17.2027767
0
ARC
8
DEFAULT_255_1_388
10
9.6443863
20
23.02366
40
0.9074803
50
359.8834402
51
5.2832409
0
ARC
8
DEFAULT_255_1_388
10
10.3236221
20
22.9596981
40
0.4341343
50
180.9844233
51
194.9402766
0
ARC
8
DEFAULT_255_1_388
10
10.2055387
20
22.927417
40
0.3117211
50
194.8030557
51
222.0412897
0
ARC
8
DEFAULT_255_1_388
10
10.1713259
20
22.8934715
40
0.2635903
50
221.541578
51
268.8616004
0
ARC
8
DEFAULT_255_1_388
10
10.179538
20
22.969528
40
0.3398611
50
267.7321071
51
270.009808
0
ARC
8
DEFAULT_255_1_388
10
10.1815443
20
22.9922178
40
0.3625561
50
269.6921218
51
280.4122297
0
ARC
8
DEFAULT_255_1_388
10
10.2013855
20
22.8888767
40
0.2573323
50
280.2257165
51
298.633539
0
ARC
8
DEFAULT_255_1_388
10
10.2139268
20
22.8624578
40
0.2281403
50
299.0485543
51
300.4624141
0
ARC
8
DEFAULT_255_1_388
10
10.1380249
20
22.9889796
40
0.3756797
50
300.6578578
51
322.037749
0
ARC
8
DEFAULT_255_1_388
10
10.100977
20
23.0213266
40
0.4247956
50
321.671786
51
322.3059078
0
ARC
8
DEFAULT_255_1_388
10
10.2033333
20
22.8919267
40
0.3960488
50
276.9729088
51
328.0035579
0
ARC
8
DEFAULT_255_1_388
10
10.1721804
20
23.0584609
40
0.5652345
50
269.8358003
51
278.0581296
0
ARC
8
DEFAULT_255_1_388
10
10.1466103
20
23.142282
40
0.2274263
50
89.2017936
51
117.2852353
0
ARC
8
DEFAULT_255_1_388
10
10.1525853
20
23.1375637
40
0.2343798
50
118.0546404
51
137.4544511
0
ARC
8
DEFAULT_255_1_388
10
10.1947497
20
23.0992556
40
0.2913471
50
137.5109688
51
158.8516701
0
ARC
8
DEFAULT_255_1_388
10
10.3227597
20
23.0475902
40
0.4293804
50
158.5845496
51
170.1719753
0
ARC
8
DEFAULT_255_1_388
10
10.4543933
20
23.0214519
40
0.5635533
50
169.8378964
51
173.0563877
0
ARC
8
DEFAULT_255_1_388
10
9.9259217
20
23.0789187
40
0.4593755
50
2.9089079
51
12.88469
0
ARC
8
DEFAULT_255_1_388
10
10.0801136
20
23.1152082
40
0.3009753
50
12.6957404
51
28.6405841
0
ARC
8
DEFAULT_255_1_388
10
10.1410633
20
23.1467577
40
0.232366
50
29.016559
51
41.1492981
0
ARC
8
DEFAULT_255_1_388
10
10.1638612
20
23.166608
40
0.2021373
50
41.1646967
51
85.001362
0
ARC
8
DEFAULT_255_1_388
10
10.1502616
20
23.0839775
40
0.2857091
50
83.728216
51
90.0968824
0
LINE
8
DEFAULT_255_1_388
10
11.3677834
20
22.8194155
11
11.5259072
21
22.8194155
0
LINE
8
DEFAULT_255_1_388
10
10.7018564
20
22.9910927
11
10.7018564
21
23.0191032
0
LINE
8
DEFAULT_255_1_388
10
11.5259072
20
23.1528308
11
11.3677834
21
23.1528308
0
LINE
8
DEFAULT_255_1_388
10
10.8690158
20
23.0127783
11
10.8690158
21
22.9811535
0
ARC
8
DEFAULT_255_1_388
10
11.1414391
20
22.8704109
40
0.2407783
50
269.0327343
51
309.2224588
0
ARC
8
DEFAULT_255_1_388
10
11.1650395
20
22.846219
40
0.207135
50
308.3965377
51
329.6987678
0
ARC
8
DEFAULT_255_1_388
10
11.1805453
20
22.8344899
40
0.1878439
50
330.4013397
51
355.3970937
0
ARC
8
DEFAULT_255_1_388
10
11.2319437
20
22.8364312
40
0.2944555
50
329.2357424
51
356.6872018
0
ARC
8
DEFAULT_255_1_388
10
11.1701332
20
22.8691153
40
0.3643032
50
324.8702872
51
329.7911998
0
ARC
8
DEFAULT_255_1_388
10
11.1612614
20
22.8767113
40
0.3759315
50
298.8769973
51
324.7015261
0
ARC
8
DEFAULT_255_1_388
10
11.1239158
20
22.936229
40
0.4461015
50
296.902888
51
299.3854973
0
ARC
8
DEFAULT_255_1_388
10
11.1385155
20
22.9038595
40
0.4106323
50
269.8407861
51
297.1298875
0
ARC
8
DEFAULT_255_1_388
10
11.1325151
20
22.9756354
40
0.4824312
50
253.3156606
51
270.5771301
0
ARC
8
DEFAULT_255_1_388
10
11.1047329
20
22.8750943
40
0.3781531
50
221.1002518
51
252.9743523
0
ARC
8
DEFAULT_255_1_388
10
11.1564799
20
22.9195131
40
0.4463481
50
194.5394284
51
221.0302764
0
ARC
8
DEFAULT_255_1_388
10
11.364462
20
22.9774897
40
0.6622359
50
182.0498004
51
194.8774376
0
ARC
8
DEFAULT_255_1_388
10
11.563771
20
22.9907778
40
0.8619146
50
179.9790673
51
182.4586753
0
ARC
8
DEFAULT_255_1_388
10
11.3681024
20
23.0224412
40
0.6662543
50
168.615001
51
180.2870547
0
ARC
8
DEFAULT_255_1_388
10
11.2328932
20
23.0489636
40
0.5284705
50
154.9162417
51
168.5402053
0
ARC
8
DEFAULT_255_1_388
10
11.1292208
20
23.1001942
40
0.4128641
50
133.5745308
51
155.2559538
0
ARC
8
DEFAULT_255_1_388
10
11.1109051
20
23.1158116
40
0.3889328
50
122.0165845
51
133.2056002
0
ARC
8
DEFAULT_255_1_388
10
11.1149375
20
23.1058977
40
0.3994808
50
97.8732516
51
121.753124
0
ARC
8
DEFAULT_255_1_388
10
11.1350833
20
22.986959
40
0.5200708
50
89.8471322
51
98.2768545
0
ARC
8
DEFAULT_255_1_388
10
11.1405681
20
23.0555809
40
0.4514657
50
73.3760755
51
90.5199878
0
ARC
8
DEFAULT_255_1_388
10
11.1626597
20
23.136855
40
0.3672743
50
47.7085939
51
73.0510707
0
ARC
8
DEFAULT_255_1_388
10
11.17727
20
23.1495231
40
0.3480795
50
3.7442743
51
48.0844373
0
ARC
8
DEFAULT_255_1_388
10
11.0660694
20
23.1317946
40
0.4603187
50
2.6192831
51
5.0424684
0
ARC
8
DEFAULT_255_1_388
10
11.1176165
20
23.1362986
40
0.2507126
50
3.78087
51
23.9354314
0
ARC
8
DEFAULT_255_1_388
10
11.1433424
20
23.1453644
40
0.2235311
50
24.4867863
51
46.9439952
0
ARC
8
DEFAULT_255_1_388
10
11.143437
20
23.1479874
40
0.2215567
50
46.4987715
51
89.3298168
0
ARC
8
DEFAULT_255_1_388
10
11.1365029
20
23.0813742
40
0.2883121
50
88.1066411
51
90.0063536
0
ARC
8
DEFAULT_255_1_388
10
11.1334005
20
23.0871548
40
0.2825481
50
89.3773571
51
107.2070287
0
ARC
8
DEFAULT_255_1_388
10
11.1173273
20
23.1453667
40
0.2221946
50
107.688418
51
143.3582986
0
ARC
8
DEFAULT_255_1_388
10
11.1811567
20
23.0974064
40
0.3020337
50
143.2845866
51
162.9352432
0
ARC
8
DEFAULT_255_1_388
10
11.3505583
20
23.0430401
40
0.4799362
50
162.6652705
51
174.0802646
0
ARC
8
DEFAULT_255_1_388
10
11.5916064
20
23.0150287
40
0.7225942
50
173.8422673
51
180.1784414
0
ARC
8
DEFAULT_255_1_388
10
11.5299735
20
22.9777276
40
0.6609665
50
179.7030218
51
188.2277356
0
ARC
8
DEFAULT_255_1_388
10
11.2935342
20
22.9423143
40
0.4218948
50
188.0630838
51
201.115837
0
ARC
8
DEFAULT_255_1_388
10
11.1700227
20
22.895173
40
0.2896941
50
201.2186162
51
216.9761863
0
ARC
8
DEFAULT_255_1_388
10
11.1192384
20
22.8571225
40
0.2262366
50
217.0136373
51
265.2055518
0
ARC
8
DEFAULT_255_1_388
10
11.1367721
20
22.9608503
40
0.3311837
50
263.6824874
51
270.1042034
0
LINE
8
DEFAULT_255_1_388
10
11.7734838
20
23.7256906
11
11.9406433
21
23.7256906
0
LINE
8
DEFAULT_255_1_388
10
11.9406433
20
23.7256906
11
11.9406433
21
23.4889567
0
LINE
8
DEFAULT_255_1_388
10
11.9406433
20
23.4889567
11
12.1231633
21
23.4889567
0
LINE
8
DEFAULT_255_1_388
10
12.1231633
20
23.4889567
11
12.1231633
21
23.359747
0
LINE
8
DEFAULT_255_1_388
10
12.1231633
20
23.359747
11
11.9406433
21
23.359747
0
LINE
8
DEFAULT_255_1_388
10
11.9406433
20
23.359747
11
11.9406433
21
22.7534553
0
LINE
8
DEFAULT_255_1_388
10
12.1276811
20
22.6468347
11
12.1276811
21
22.5113
0
LINE
8
DEFAULT_255_1_388
10
11.7734838
20
22.7534553
11
11.7734838
21
23.359747
0
LINE
8
DEFAULT_255_1_388
10
11.7734838
20
23.359747
11
11.5954816
21
23.359747
0
LINE
8
DEFAULT_255_1_388
10
11.5954816
20
23.359747
11
11.5954816
21
23.4889567
0
LINE
8
DEFAULT_255_1_388
10
11.5954816
20
23.4889567
11
11.7734838
21
23.4889567
0
LINE
8
DEFAULT_255_1_388
10
11.7734838
20
23.4889567
11
11.7734838
21
23.7256906
0
ARC
8
DEFAULT_255_1_388
10
12.166494
20
22.7522842
40
0.2258538
50
179.7029045
51
187.9180047
0
ARC
8
DEFAULT_255_1_388
10
12.0825514
20
22.7402019
40
0.1410477
50
187.7540838
51
200.2454047
0
ARC
8
DEFAULT_255_1_388
10
12.035242
20
22.7225591
40
0.0905561
50
200.1304287
51
219.1733455
0
ARC
8
DEFAULT_255_1_388
10
12.0199586
20
22.7121695
40
0.0721626
50
220.4434631
51
249.6169985
0
ARC
8
DEFAULT_255_1_388
10
12.0373813
20
22.7559919
40
0.1193141
50
249.1038184
51
262.7745376
0
ARC
8
DEFAULT_255_1_388
10
12.0472995
20
22.8267481
40
0.1907583
50
262.4921618
51
270.2607019
0
ARC
8
DEFAULT_255_1_388
10
12.0470077
20
22.8509817
40
0.2149929
50
270.309081
51
275.6615459
0
ARC
8
DEFAULT_255_1_388
10
12.0309484
20
23.0198342
40
0.3846066
50
275.5607354
51
279.087751
0
ARC
8
DEFAULT_255_1_388
10
11.9937416
20
23.2559428
40
0.6236283
50
279.0369545
51
281.5000133
0
ARC
8
DEFAULT_255_1_388
10
11.9546684
20
23.4536499
40
0.825157
50
281.4217093
51
282.1031556
0
ARC
8
DEFAULT_255_1_388
10
11.992266
20
22.9993229
40
0.5064619
50
275.2597791
51
285.5081125
0
ARC
8
DEFAULT_255_1_388
10
11.9991674
20
22.9367452
40
0.4435166
50
270.0268175
51
275.1130565
0
ARC
8
DEFAULT_255_1_388
10
11.9969125
20
22.7874367
40
0.2942182
50
257.3572424
51
270.4795428
0
ARC
8
DEFAULT_255_1_388
10
11.9729395
20
22.6863952
40
0.1903838
50
230.8036715
51
257.7414447
0
ARC
8
DEFAULT_255_1_388
10
11.9652891
20
22.6740723
40
0.1760087
50
219.9745381
51
230.1985446
0
ARC
8
DEFAULT_255_1_388
10
12.0026179
20
22.7026116
40
0.2229598
50
196.5081334
51
219.4319996
0
ARC
8
DEFAULT_255_1_388
10
12.116879
20
22.7384617
40
0.3427033
50
184.6408645
51
196.8266009
0
ARC
8
DEFAULT_255_1_388
10
12.2569696
20
22.752601
40
0.4834863
50
179.8987586
51
184.9677262
0
LINE
8
DEFAULT_255_1_388
10
12.5189245
20
23.8268898
11
12.5189245
21
22.6531596
0
LINE
8
DEFAULT_255_1_388
10
12.5189245
20
22.6531596
11
13.142384
21
22.6531596
0
LINE
8
DEFAULT_255_1_388
10
13.142384
20
22.6531596
11
13.142384
21
22.5113
0
LINE
8
DEFAULT_255_1_388
10
13.142384
20
22.5113
11
12.3445366
21
22.5113
0
LINE
8
DEFAULT_255_1_388
10
12.3445366
20
22.5113
11
12.3445366
21
23.8268898
0
LINE
8
DEFAULT_255_1_388
10
12.3445366
20
23.8268898
11
12.5189245
21
23.8268898
0
LINE
8
DEFAULT_255_1_388
10
14.2935251
20
23.2097553
11
14.2935251
21
23.1266274
0
LINE
8
DEFAULT_255_1_388
10
13.2354511
20
23.1148811
11
13.2354511
21
23.2097553
0
LINE
8
DEFAULT_255_1_388
10
14.1209443
20
23.1139775
11
14.1209443
21
23.2115625
0
LINE
8
DEFAULT_255_1_388
10
13.4080319
20
23.2233088
11
13.4080319
21
23.1266274
0
ARC
8
DEFAULT_255_1_388
10
13.3212989
20
23.1221726
40
0.9722364
50
350.4878118
51
0.2625322
0
ARC
8
DEFAULT_255_1_388
10
13.5792949
20
23.0777994
40
0.7104556
50
336.0277991
51
350.5787241
0
ARC
8
DEFAULT_255_1_388
10
13.7306056
20
23.0094243
40
0.544417
50
319.887443
51
336.1331163
0
ARC
8
DEFAULT_255_1_388
10
13.7983868
20
22.9551733
40
0.4576311
50
302.4806296
51
319.6144102
0
ARC
8
DEFAULT_255_1_388
10
13.785449
20
22.9801067
40
0.4856183
50
275.8196423
51
302.1885521
0
ARC
8
DEFAULT_255_1_388
10
13.7667351
20
23.1086466
40
0.6154183
50
269.9169897
51
276.339506
0
ARC
8
DEFAULT_255_1_388
10
13.7616952
20
23.031468
40
0.5382553
50
252.5221437
51
270.441579
0
ARC
8
DEFAULT_255_1_388
10
13.7455202
20
22.9708046
40
0.4755426
50
237.5349961
51
252.1858334
0
ARC
8
DEFAULT_255_1_388
10
13.7555578
20
22.983612
40
0.4917393
50
209.0632754
51
237.3492577
0
ARC
8
DEFAULT_255_1_388
10
13.8534904
20
23.0451104
40
0.6072464
50
205.118533
51
209.6465345
0
ARC
8
DEFAULT_255_1_388
10
13.9430906
20
23.0831174
40
0.7045164
50
188.7216633
51
204.8239753
0
ARC
8
DEFAULT_255_1_388
10
14.1677682
20
23.1209387
40
0.9323368
50
180.3722704
51
188.9253909
0
ARC
8
DEFAULT_255_1_388
10
14.1647243
20
23.2142416
40
0.929284
50
169.5253055
51
180.2766048
0
ARC
8
DEFAULT_255_1_388
10
13.9507042
20
23.2536024
40
0.7116745
50
155.8314601
51
169.5088611
0
ARC
8
DEFAULT_255_1_388
10
13.8066505
20
23.3204312
40
0.5528904
50
139.6259579
51
156.0379072
0
ARC
8
DEFAULT_255_1_388
10
13.7403039
20
23.3738143
40
0.4677708
50
122.6414784
51
139.3431662
0
ARC
8
DEFAULT_255_1_388
10
13.7516294
20
23.3531787
40
0.4912586
50
93.0224537
51
122.4556091
0
ARC
8
DEFAULT_255_1_388
10
13.7637815
20
23.2445776
40
0.6003837
50
89.9756766
51
93.6340839
0
ARC
8
DEFAULT_255_1_388
10
13.7681412
20
23.2894879
40
0.5554884
50
73.7463329
51
90.4234008
0
ARC
8
DEFAULT_255_1_388
10
13.7878885
20
23.3659772
40
0.4765353
50
57.663051
51
73.4516911
0
ARC
8
DEFAULT_255_1_388
10
13.7869923
20
23.3684108
40
0.4749629
50
29.1441355
51
57.4146687
0
ARC
8
DEFAULT_255_1_388
10
13.6817734
20
23.3027046
40
0.5988917
50
24.0985653
51
29.732054
0
ARC
8
DEFAULT_255_1_388
10
13.5655366
20
23.2545154
40
0.7246823
50
8.6654943
51
23.8241215
0
ARC
8
DEFAULT_255_1_388
10
13.3141785
20
23.2135037
40
0.9793537
50
359.7807044
51
8.8218476
0
ARC
8
DEFAULT_255_1_388
10
13.1851489
20
23.2163731
40
0.9358078
50
359.7054632
51
8.0359751
0
ARC
8
DEFAULT_255_1_388
10
13.522654
20
23.2655252
40
0.5947474
50
7.8926278
51
20.2962188
0
ARC
8
DEFAULT_255_1_388
10
13.7057391
20
23.3330367
40
0.3996117
50
20.3231056
51
36.4990255
0
ARC
8
DEFAULT_255_1_388
10
13.7828688
20
23.3924399
40
0.3022818
50
36.1436715
51
85.6627846
0
ARC
8
DEFAULT_255_1_388
10
13.7645943
20
23.2754881
40
0.4203853
50
84.3845912
51
90.076054
0
ARC
8
DEFAULT_255_1_388
10
13.7598298
20
23.3497416
40
0.346157
50
89.3037228
51
109.9046209
0
ARC
8
DEFAULT_255_1_388
10
13.7494131
20
23.3927379
40
0.3022217
50
110.8229774
51
143.917961
0
ARC
8
DEFAULT_255_1_388
10
13.8544491
20
23.3125455
40
0.434348
50
143.5289166
51
163.2980252
0
ARC
8
DEFAULT_255_1_388
10
14.0690778
20
23.2450685
40
0.659321
50
163.0418884
51
174.3139873
0
ARC
8
DEFAULT_255_1_388
10
14.3395742
20
23.2138378
40
0.9315905
50
174.050934
51
179.4174954
0
ARC
8
DEFAULT_255_1_388
10
14.2827686
20
23.1219382
40
0.8747493
50
179.6928582
51
188.7908948
0
ARC
8
DEFAULT_255_1_388
10
13.9831486
20
23.0740086
40
0.5713262
50
188.6328449
51
202.5630732
0
ARC
8
DEFAULT_255_1_388
10
13.8420323
20
23.0173142
40
0.4192612
50
202.8078931
51
216.1195888
0
ARC
8
DEFAULT_255_1_388
10
13.750984
20
22.9440479
40
0.3025752
50
215.0755613
51
264.6379773
0
ARC
8
DEFAULT_255_1_388
10
13.7652678
20
23.0375376
40
0.3970284
50
263.8464302
51
270.0830805
0
ARC
8
DEFAULT_255_1_388
10
13.7699222
20
23.0084808
40
0.3679937
50
269.3649295
51
287.5149684
0
ARC
8
DEFAULT_255_1_388
10
13.7899663
20
22.9356714
40
0.2925408
50
288.0629019
51
323.8115617
0
ARC
8
DEFAULT_255_1_388
10
13.6919639
20
23.0087754
40
0.4148018
50
323.6546541
51
342.6591359
0
ARC
8
DEFAULT_255_1_388
10
13.4634297
20
23.083128
40
0.6551163
50
342.4092446
51
353.6451501
0
ARC
8
DEFAULT_255_1_388
10
13.1449091
20
23.1227565
40
0.9760748
50
353.4027553
51
359.4846611
0
LINE
8
DEFAULT_255_1_388
10
15.5250834
20
23.1663842
11
15.5250834
21
22.6838808
0
LINE
8
DEFAULT_255_1_388
10
14.5112841
20
23.1058454
11
14.5112841
21
23.2205981
0
LINE
8
DEFAULT_255_1_388
10
15.5250834
20
23.4410678
11
15.3515991
21
23.4410678
0
LINE
8
DEFAULT_255_1_388
10
14.6856721
20
23.2251159
11
14.6856721
21
23.1175917
0
LINE
8
DEFAULT_255_1_388
10
15.3525026
20
22.7299626
11
15.3525026
21
23.0254282
0
LINE
8
DEFAULT_255_1_388
10
15.3525026
20
23.0254282
11
15.0480014
21
23.0254282
0
LINE
8
DEFAULT_255_1_388
10
15.0480014
20
23.0254282
11
15.0480014
21
23.1663842
0
LINE
8
DEFAULT_255_1_388
10
15.0480014
20
23.1663842
11
15.5250834
21
23.1663842
0
ARC
8
DEFAULT_255_1_388
10
15.2065435
20
22.9081284
40
0.3895571
50
295.8437277
51
324.8549962
0
ARC
8
DEFAULT_255_1_388
10
15.1597817
20
22.9927619
40
0.4861381
50
291.5691164
51
296.4556269
0
ARC
8
DEFAULT_255_1_388
10
15.102282
20
23.1463801
40
0.6501442
50
278.6622213
51
291.3047061
0
ARC
8
DEFAULT_255_1_388
10
15.0640852
20
23.3880557
40
0.8948168
50
270.0200506
51
278.7494673
0
ARC
8
DEFAULT_255_1_388
10
15.0597056
20
23.5726453
40
1.0794166
50
270.0022372
51
270.2490917
0
ARC
8
DEFAULT_255_1_388
10
15.0554948
20
23.0767827
40
0.5835695
50
253.5785313
51
270.4175629
0
ARC
8
DEFAULT_255_1_388
10
15.0359944
20
23.0012625
40
0.5056241
50
238.8203954
51
253.2788387
0
ARC
8
DEFAULT_255_1_388
10
15.033786
20
22.9955224
40
0.4995712
50
206.7883476
51
238.696262
0
ARC
8
DEFAULT_255_1_388
10
15.1213256
20
23.0479847
40
0.6014056
50
206.1137778
51
207.4912776
0
ARC
8
DEFAULT_255_1_388
10
15.1880092
20
23.0763284
40
0.6737692
50
188.6922336
51
205.782076
0
ARC
8
DEFAULT_255_1_388
10
15.3968451
20
23.1118455
40
0.8855812
50
180.3881972
51
188.9218085
0
ARC
8
DEFAULT_255_1_388
10
15.5349608
20
23.2269622
40
1.0236965
50
170.2024645
51
180.3561986
0
ARC
8
DEFAULT_255_1_388
10
15.1790759
20
23.2906101
40
0.6621746
50
154.2856519
51
170.3893388
0
ARC
8
DEFAULT_255_1_388
10
15.0348722
20
23.3566192
40
0.5036209
50
139.8400879
51
153.9334639
0
ARC
8
DEFAULT_255_1_388
10
14.9944626
20
23.3889716
40
0.4518751
50
98.4190017
51
139.6707015
0
ARC
8
DEFAULT_255_1_388
10
15.0371593
20
23.1813755
40
0.6635912
50
89.7660128
51
99.4415389
0
ARC
8
DEFAULT_255_1_388
10
15.044499
20
23.1887517
40
0.6562258
50
78.0552044
51
90.4042252
0
ARC
8
DEFAULT_255_1_388
10
15.0900053
20
23.3933661
40
0.4466287
50
54.6380186
51
78.3338577
0
ARC
8
DEFAULT_255_1_388
10
15.1114352
20
23.4294444
40
0.4048184
50
50.0313964
51
54.1562739
0
ARC
8
DEFAULT_255_1_388
10
15.0993246
20
23.4185798
40
0.4209308
50
18.1092229
51
49.7179911
0
ARC
8
DEFAULT_255_1_388
10
14.9354326
20
23.3585399
40
0.5953982
50
7.967396
51
18.698492
0
ARC
8
DEFAULT_255_1_388
10
14.9523587
20
23.3724236
40
0.4050986
50
9.7558763
51
27.3214087
0
ARC
8
DEFAULT_255_1_388
10
15.0792051
20
23.4358087
40
0.2633168
50
27.736147
51
84.5257861
0
ARC
8
DEFAULT_255_1_388
10
15.0423461
20
23.2508988
40
0.4513019
50
82.1064239
51
90.1997295
0
ARC
8
DEFAULT_255_1_388
10
15.0367477
20
23.3080501
40
0.3941684
50
89.4148952
51
105.5824837
0
ARC
8
DEFAULT_255_1_388
10
15.0078358
20
23.4133043
40
0.2850167
50
105.6678541
51
144.2649156
0
ARC
8
DEFAULT_255_1_388
10
15.108325
20
23.3418024
40
0.4083468
50
144.3560675
51
162.8564185
0
ARC
8
DEFAULT_255_1_388
10
15.3427693
20
23.2665083
40
0.6545749
50
162.6076338
51
173.6779811
0
ARC
8
DEFAULT_255_1_388
10
15.6871808
20
23.2246422
40
1.0015089
50
173.4670996
51
179.9729015
0
ARC
8
DEFAULT_255_1_388
10
15.4724679
20
23.1128636
40
0.78681
50
179.6556955
51
190.007958
0
ARC
8
DEFAULT_255_1_388
10
15.211896
20
23.065066
40
0.5218997
50
189.8117884
51
206.6795375
0
ARC
8
DEFAULT_255_1_388
10
15.1168406
20
23.0207514
40
0.4170788
50
207.1031171
51
217.7074698
0
ARC
8
DEFAULT_255_1_388
10
15.0454837
20
22.9586596
40
0.3226945
50
216.7345117
51
265.6812141
0
ARC
8
DEFAULT_255_1_388
10
15.0601979
20
23.060403
40
0.4253149
50
264.7367524
51
270.0610826
0
ARC
8
DEFAULT_255_1_388
10
15.0628164
20
23.3799173
40
0.7448321
50
269.8334494
51
276.0538364
0
ARC
8
DEFAULT_255_1_388
10
15.0861027
20
23.1659924
40
0.5296446
50
275.9894423
51
284.4615914
0
ARC
8
DEFAULT_255_1_388
10
15.108254
20
23.072757
40
0.4338353
50
284.7038488
51
286.4938196
0
ARC
8
DEFAULT_255_1_388
10
15.1541689
20
22.9248371
40
0.2789738
50
286.0770429
51
304.2629628
0
ARC
8
DEFAULT_255_1_388
10
15.1691847
20
22.900268
40
0.2502188
50
304.5886247
51
317.1074126
0
LINE
8
DEFAULT_255_1_388
10
16.0003583
20
23.8268898
11
16.0003583
21
22.5113
0
LINE
8
DEFAULT_255_1_388
10
16.0003583
20
22.5113
11
15.826874
21
22.5113
0
LINE
8
DEFAULT_255_1_388
10
15.826874
20
22.5113
11
15.826874
21
23.8268898
0
LINE
8
DEFAULT_255_1_388
10
15.826874
20
23.8268898
11
16.0003583
21
23.8268898
0
LINE
8
DEFAULT_255_1_388
10
17.1108391
20
22.9287468
11
17.285227
21
22.9287468
0
LINE
8
DEFAULT_255_1_388
10
16.2723313
20
23.1076525
11
16.2723313
21
23.2341516
0
LINE
8
DEFAULT_255_1_388
10
17.285227
20
23.4040217
11
17.1108391
21
23.4040217
0
LINE
8
DEFAULT_255_1_388
10
16.4467192
20
23.2296337
11
16.4467192
21
23.1022312
0
ARC
8
DEFAULT_255_1_388
10
16.6686504
20
22.9959329
40
0.6202263
50
340.1774904
51
353.7812217
0
ARC
8
DEFAULT_255_1_388
10
16.8454357
20
22.9300893
40
0.4315926
50
311.4560052
51
340.4420756
0
ARC
8
DEFAULT_255_1_388
10
16.8416897
20
22.9425665
40
0.4434573
50
282.4332229
51
310.7514507
0
ARC
8
DEFAULT_255_1_388
10
16.7922714
20
23.1467703
40
0.6535262
50
269.9358869
51
282.8096729
0
ARC
8
DEFAULT_255_1_388
10
16.7864654
20
23.2980329
40
0.8048043
50
269.9995752
51
270.3612856
0
ARC
8
DEFAULT_255_1_388
10
16.7805144
20
23.0181781
40
0.5249831
50
250.7885263
51
270.6488451
0
ARC
8
DEFAULT_255_1_388
10
16.7615969
20
22.9464853
40
0.4510942
50
219.3628377
51
250.0611024
0
ARC
8
DEFAULT_255_1_388
10
16.8548843
20
23.0257653
40
0.5735046
50
193.5480293
51
219.5755675
0
ARC
8
DEFAULT_255_1_388
10
17.1217052
20
23.095052
40
0.849146
50
181.1220183
51
193.8754971
0
ARC
8
DEFAULT_255_1_388
10
17.3540285
20
23.1074914
40
1.0816971
50
179.9914644
51
181.5398227
0
ARC
8
DEFAULT_255_1_388
10
17.1463595
20
23.2383586
40
0.8740384
50
169.5837606
51
180.275782
0
ARC
8
DEFAULT_255_1_388
10
16.9396944
20
23.2765439
40
0.6638751
50
155.0367033
51
169.6002779
0
ARC
8
DEFAULT_255_1_388
10
16.8119402
20
23.3381336
40
0.5220662
50
136.7831557
51
155.2472983
0
ARC
8
DEFAULT_255_1_388
10
16.7681192
20
23.3753577
40
0.4646502
50
121.7633063
51
136.4281161
0
ARC
8
DEFAULT_255_1_388
10
16.7833032
20
23.3473049
40
0.4964979
50
95.6460018
51
121.5489589
0
ARC
8
DEFAULT_255_1_388
10
16.8010007
20
23.2225704
40
0.6223912
50
89.9245727
51
96.1375919
0
ARC
8
DEFAULT_255_1_388
10
16.8066712
20
23.2359721
40
0.6090084
50
76.6779212
51
90.456405
0
ARC
8
DEFAULT_255_1_388
10
16.8509525
20
23.414906
40
0.42469
50
47.4858803
51
76.9287069
0
ARC
8
DEFAULT_255_1_388
10
16.8344139
20
23.4036623
40
0.4441778
50
16.5424081
51
46.8934505
0
ARC
8
DEFAULT_255_1_388
10
16.6535188
20
23.3442265
40
0.6345318
50
5.4072971
51
17.0363711
0
ARC
8
DEFAULT_255_1_388
10
16.4916914
20
23.3182304
40
0.6250632
50
7.8888693
51
15.9242022
0
ARC
8
DEFAULT_255_1_388
10
16.7151899
20
23.3831309
40
0.3923364
50
15.7650676
51
27.9410069
0
ARC
8
DEFAULT_255_1_388
10
16.8394068
20
23.4496317
40
0.2514401
50
27.8167196
51
46.4007942
0
ARC
8
DEFAULT_255_1_388
10
16.844991
20
23.4489882
40
0.2480958
50
47.4372362
51
75.0695672
0
ARC
8
DEFAULT_255_1_388
10
16.8102746
20
23.3281277
40
0.3738281
50
74.7009379
51
87.8124314
0
ARC
8
DEFAULT_255_1_388
10
16.8020363
20
23.2097659
40
0.4924321
50
87.3802571
51
90.0251599
0
ARC
8
DEFAULT_255_1_388
10
16.797701
20
23.3417997
40
0.3604218
50
89.3451886
51
108.5744412
0
ARC
8
DEFAULT_255_1_388
10
16.7823002
20
23.3995836
40
0.3007661
50
109.2998307
51
143.3037387
0
ARC
8
DEFAULT_255_1_388
10
16.8680292
20
23.3336584
40
0.4089031
50
143.075267
51
163.1918576
0
ARC
8
DEFAULT_255_1_388
10
17.0876126
20
23.2643652
40
0.6391492
50
162.9375929
51
174.6208776
0
ARC
8
DEFAULT_255_1_388
10
17.3830508
20
23.2319711
40
0.9363344
50
174.342123
51
180.1430283
0
ARC
8
DEFAULT_255_1_388
10
17.2783049
20
23.0976117
40
0.8315986
50
179.6817261
51
189.150555
0
ARC
8
DEFAULT_255_1_388
10
16.9969798
20
23.0507559
40
0.5464044
50
188.9911061
51
203.5772363
0
ARC
8
DEFAULT_255_1_388
10
16.875509
20
23.0003539
40
0.4149206
50
203.9075402
51
215.1312435
0
ARC
8
DEFAULT_255_1_388
10
16.7716888
20
22.9198907
40
0.2837747
50
213.9071511
51
263.8848919
0
ARC
8
DEFAULT_255_1_388
10
16.7857881
20
23.0081519
40
0.3730641
50
263.1757928
51
270.1031044
0
ARC
8
DEFAULT_255_1_388
10
16.7893961
20
23.1484511
40
0.5133712
50
269.6722503
51
279.0606936
0
ARC
8
DEFAULT_255_1_388
10
16.8194116
20
22.967015
40
0.3294739
50
278.8749101
51
293.6349581
0
ARC
8
DEFAULT_255_1_388
10
16.855432
20
22.8824251
40
0.2375405
50
293.8553806
51
310.0518171
0
ARC
8
DEFAULT_255_1_388
10
16.8559828
20
22.8754021
40
0.2318463
50
311.0644687
51
332.0111037
0
ARC
8
DEFAULT_255_1_388
10
16.7218502
20
22.9493702
40
0.3850112
50
331.6586806
51
343.2877423
0
ARC
8
DEFAULT_255_1_388
10
16.4897967
20
23.0206806
40
0.6277712
50
343.1446576
51
351.0103568
0
ARC
8
DEFAULT_255_1_388
10
16.326529
20
23.0506873
40
0.7937327
50
350.71248
51
351.1626997
0
LINE
8
DEFAULT_255_1_388
10
18.6423808
20
23.8268898
11
18.6423808
21
22.953143
0
LINE
8
DEFAULT_255_1_388
10
18.6423808
20
22.953143
11
18.8249008
21
22.953143
0
LINE
8
DEFAULT_255_1_388
10
18.8249008
20
22.953143
11
18.8249008
21
22.8167048
0
LINE
8
DEFAULT_255_1_388
10
18.8249008
20
22.8167048
11
18.6423808
21
22.8167048
0
LINE
8
DEFAULT_255_1_388
10
18.6423808
20
22.8167048
11
18.6423808
21
22.5113
0
LINE
8
DEFAULT_255_1_388
10
18.6423808
20
22.5113
11
18.4743178
21
22.5113
0
LINE
8
DEFAULT_255_1_388
10
18.4743178
20
22.5113
11
18.4743178
21
22.8167048
0
LINE
8
DEFAULT_255_1_388
10
18.4743178
20
22.8167048
11
17.8752546
21
22.8167048
0
LINE
8
DEFAULT_255_1_388
10
17.8752546
20
22.8167048
11
17.8752546
21
22.9151933
0
LINE
8
DEFAULT_255_1_388
10
17.8752546
20
22.9151933
11
18.4643786
21
23.8268898
0
LINE
8
DEFAULT_255_1_388
10
18.4643786
20
23.8268898
11
18.6423808
21
23.8268898
0
LINE
8
DEFAULT_255_1_388
10
18.4544394
20
23.5621455
11
18.0650031
21
22.953143
0
LINE
8
DEFAULT_255_1_388
10
18.0650031
20
22.953143
11
18.4743178
21
22.953143
0
LINE
8
DEFAULT_255_1_388
10
18.4743178
20
22.953143
11
18.4743178
21
23.598288
0
LINE
8
DEFAULT_255_1_388
10
18.4743178
20
23.598288
11
18.4544394
21
23.5621455
0
LINE
8
DEFAULT_255_1_388
10
19.8007504
20
23.289269
11
19.8007504
21
23.0724135
0
LINE
8
DEFAULT_255_1_388
10
18.9703747
20
23.0498244
11
18.9703747
21
23.2730048
0
LINE
8
DEFAULT_255_1_388
10
19.633591
20
23.0272353
11
19.633591
21
23.3010153
0
LINE
8
DEFAULT_255_1_388
10
19.1375341
20
23.3136652
11
19.1375341
21
23.0462102
0
ARC
8
DEFAULT_255_1_388
10
18.4229838
20
23.0669118
40
1.3777776
50
353.8440855
51
0.2287917
0
ARC
8
DEFAULT_255_1_388
10
18.9448856
20
23.0086414
40
0.852639
50
344.4934746
51
353.9763743
0
ARC
8
DEFAULT_255_1_388
10
19.2815663
20
22.9129191
40
0.5026273
50
329.2803599
51
344.7473406
0
ARC
8
DEFAULT_255_1_388
10
19.3931159
20
22.8517038
40
0.3754848
50
324.9361395
51
328.6153007
0
ARC
8
DEFAULT_255_1_388
10
19.4356808
20
22.8219586
40
0.3235566
50
280.5801797
51
324.9173226
0
ARC
8
DEFAULT_255_1_388
10
19.3905437
20
23.0099236
40
0.5167077
50
269.5979457
51
281.6732777
0
ARC
8
DEFAULT_255_1_388
10
19.3824341
20
22.9964113
40
0.5032026
50
256.6228565
51
270.5105488
0
ARC
8
DEFAULT_255_1_388
10
19.3372083
20
22.8222345
40
0.3233092
50
215.8618351
51
257.2787793
0
ARC
8
DEFAULT_255_1_388
10
19.452079
20
22.8993106
40
0.4615831
50
197.9695203
51
215.2622745
0
ARC
8
DEFAULT_255_1_388
10
19.7316466
20
22.9936641
40
0.7566307
50
187.8816486
51
198.2346584
0
ARC
8
DEFAULT_255_1_388
10
20.1769704
20
23.0579453
40
1.2065653
50
180.8977266
51
188.0054894
0
ARC
8
DEFAULT_255_1_388
10
20.4819918
20
23.06944
40
1.5117443
50
180.7434591
51
181.152202
0
ARC
8
DEFAULT_255_1_388
10
20.3144914
20
23.2784371
40
1.3441277
50
173.7674302
51
180.2315596
0
ARC
8
DEFAULT_255_1_388
10
19.8062783
20
23.3358779
40
0.8326847
50
164.3058537
51
173.9000553
0
ARC
8
DEFAULT_255_1_388
10
19.4786783
20
23.4302652
40
0.4917711
50
148.7922028
51
164.5682288
0
ARC
8
DEFAULT_255_1_388
10
19.371752
20
23.4899457
40
0.3694204
50
144.5883979
51
148.1161588
0
ARC
8
DEFAULT_255_1_388
10
19.3330266
20
23.5169667
40
0.322202
50
101.6440149
51
144.5142619
0
ARC
8
DEFAULT_255_1_388
10
19.3808458
20
23.3269337
40
0.5180451
50
89.528284
51
102.5820197
0
ARC
8
DEFAULT_255_1_388
10
19.389745
20
23.3225376
40
0.5224441
50
77.0437914
51
90.508231
0
ARC
8
DEFAULT_255_1_388
10
19.4349703
20
23.5073272
40
0.3322297
50
48.2777708
51
77.4996087
0
ARC
8
DEFAULT_255_1_388
10
19.4431443
20
23.5218557
40
0.315966
50
36.3141586
51
47.6307332
0
ARC
8
DEFAULT_255_1_388
10
19.3454165
20
23.4560159
40
0.4337313
50
18.2931065
51
35.6770203
0
ARC
8
DEFAULT_255_1_388
10
19.0593006
20
23.3578107
40
0.7362203
50
8.0246996
51
18.5605636
0
ARC
8
DEFAULT_255_1_388
10
18.5909362
20
23.2886432
40
1.2096583
50
1.127539
51
8.1718423
0
ARC
8
DEFAULT_255_1_388
10
18.2260495
20
23.2743374
40
1.5747719
50
0.5432713
51
1.38669
0
ARC
8
DEFAULT_255_1_388
10
18.4317874
20
23.3050163
40
1.2018103
50
359.8092569
51
4.9408001
0
ARC
8
DEFAULT_255_1_388
10
18.9054455
20
23.34729
40
0.7262727
50
4.8364937
51
12.2906017
0
ARC
8
DEFAULT_255_1_388
10
19.215392
20
23.4163485
40
0.4087324
50
12.0806994
51
23.8171225
0
ARC
8
DEFAULT_255_1_388
10
19.3474316
20
23.4722508
40
0.2653719
50
24.2874621
51
31.3934353
0
ARC
8
DEFAULT_255_1_388
10
19.4064752
20
23.5108822
40
0.1948607
50
30.7407708
51
82.4658033
0
ARC
8
DEFAULT_255_1_388
10
19.3862413
20
23.4115017
40
0.2961198
50
81.1057101
51
90.2187368
0
ARC
8
DEFAULT_255_1_388
10
19.3822225
20
23.4405421
40
0.2670929
50
89.380395
51
105.6763916
0
ARC
8
DEFAULT_255_1_388
10
19.3615947
20
23.515532
40
0.1893189
50
105.7980655
51
149.7387869
0
ARC
8
DEFAULT_255_1_388
10
19.4813087
20
23.4435719
40
0.3289892
50
149.4208441
51
163.628295
0
ARC
8
DEFAULT_255_1_388
10
19.7165316
20
23.3718345
40
0.5749004
50
163.3764549
51
172.141138
0
ARC
8
DEFAULT_255_1_388
10
20.0878038
20
23.3186582
40
0.9499585
50
172.0258462
51
178.0705453
0
ARC
8
DEFAULT_255_1_388
10
20.4299591
20
23.3024682
40
1.2924734
50
177.8639301
51
179.5036263
0
ARC
8
DEFAULT_255_1_388
10
20.3080609
20
23.0421151
40
1.170534
50
179.7995545
51
185.246089
0
ARC
8
DEFAULT_255_1_388
10
19.8532202
20
22.9990404
40
0.7136613
50
185.1411911
51
193.0082205
0
ARC
8
DEFAULT_255_1_388
10
19.5558463
20
22.9287441
40
0.4080987
50
192.7897338
51
205.2507384
0
ARC
8
DEFAULT_255_1_388
10
19.4380673
20
22.8761538
40
0.2791522
50
205.8001921
51
211.2545876
0
ARC
8
DEFAULT_255_1_388
10
19.3792212
20
22.8367132
40
0.2084074
50
210.3789935
51
238.4007996
0
ARC
8
DEFAULT_255_1_388
10
19.3770298
20
22.8419786
40
0.2117943
50
239.6521916
51
265.9793852
0
ARC
8
DEFAULT_255_1_388
10
19.3866147
20
22.9176358
40
0.2879689
50
265.1324455
51
270.0603288
0
ARC
8
DEFAULT_255_1_388
10
19.3898524
20
22.8811418
40
0.2514919
50
269.3314378
51
287.2180039
0
ARC
8
DEFAULT_255_1_388
10
19.4053606
20
22.8245291
40
0.1928357
50
287.7957942
51
329.0808983
0
ARC
8
DEFAULT_255_1_388
10
19.2976363
20
22.8917651
40
0.319808
50
328.6635261
51
343.3325043
0
ARC
8
DEFAULT_255_1_388
10
19.0531822
20
22.9679195
40
0.5758408
50
343.0498092
51
351.9392499
0
ARC
8
DEFAULT_255_1_388
10
18.6631144
20
23.0254205
40
0.9701202
50
351.8071632
51
357.7957897
0
ARC
8
DEFAULT_255_1_388
10
18.2996621
20
23.0442724
40
1.3340376
50
357.5870923
51
359.2682493
0
LINE
8
DEFAULT_255_1_388
10
20.2254257
20
23.1365666
11
20.0916982
21
23.1709021
0
LINE
8
DEFAULT_255_1_388
10
20.0916982
20
23.1709021
11
20.158562
21
23.8268898
0
LINE
8
DEFAULT_255_1_388
10
20.158562
20
23.8268898
11
20.832621
21
23.8268898
0
LINE
8
DEFAULT_255_1_388
10
20.832621
20
23.8268898
11
20.832621
21
23.6723803
0
LINE
8
DEFAULT_255_1_388
10
20.832621
20
23.6723803
11
20.3004216
21
23.6723803
0
LINE
8
DEFAULT_255_1_388
10
20.3004216
20
23.6723803
11
20.2606647
21
23.3136652
0
LINE
8
DEFAULT_255_1_388
10
20.0447128
20
22.8573652
11
20.2028366
21
22.8573652
0
LINE
8
DEFAULT_255_1_388
10
20.2697004
20
23.1727092
11
20.2254257
21
23.1365666
0
ARC
8
DEFAULT_255_1_388
10
20.4693261
20
22.9559241
40
0.4141476
50
93.7181681
51
120.253934
0
ARC
8
DEFAULT_255_1_388
10
20.4799313
20
22.8650284
40
0.5055616
50
89.9660471
51
94.2495185
0
ARC
8
DEFAULT_255_1_388
10
20.4845135
20
22.9313154
40
0.4392953
50
73.8045384
51
90.5585736
0
ARC
8
DEFAULT_255_1_388
10
20.5109393
20
23.027852
40
0.3392225
50
41.3071072
51
73.543002
0
ARC
8
DEFAULT_255_1_388
10
20.4641213
20
22.9875461
40
0.4009977
50
13.5075837
51
41.2174839
0
ARC
8
DEFAULT_255_1_388
10
20.279431
20
22.9391907
40
0.5918864
50
1.1330171
51
13.8830737
0
ARC
8
DEFAULT_255_1_388
10
20.1197956
20
22.9306522
40
0.7516787
50
359.9925091
51
1.5431298
0
ARC
8
DEFAULT_255_1_388
10
20.2642571
20
22.9260027
40
0.6072343
50
347.8572712
51
0.4294349
0
ARC
8
DEFAULT_255_1_388
10
20.4611706
20
22.8813898
40
0.4053482
50
323.6727442
51
348.1674594
0
ARC
8
DEFAULT_255_1_388
10
20.494267
20
22.8612175
40
0.3667495
50
316.8171818
51
323.1486802
0
ARC
8
DEFAULT_255_1_388
10
20.5011794
20
22.8570612
40
0.358869
50
281.839603
51
316.5458142
0
ARC
8
DEFAULT_255_1_388
10
20.4589081
20
23.0320363
40
0.5388223
50
269.5770964
51
282.4214641
0
ARC
8
DEFAULT_255_1_388
10
20.4509002
20
23.007993
40
0.5147801
50
256.2425863
51
270.4486481
0
ARC
8
DEFAULT_255_1_388
10
20.417253
20
22.8730124
40
0.3756708
50
228.9024379
51
256.33135
0
ARC
8
DEFAULT_255_1_388
10
20.408951
20
22.8599054
40
0.360344
50
193.7536029
51
228.5272638
0
ARC
8
DEFAULT_255_1_388
10
20.5482075
20
22.9007463
40
0.5053599
50
184.9244437
51
194.4976052
0
ARC
8
DEFAULT_255_1_388
10
20.5698716
20
22.9047722
40
0.3700839
50
187.3596909
51
198.6733728
0
ARC
8
DEFAULT_255_1_388
10
20.451796
20
22.8638373
40
0.2451195
50
198.4453795
51
217.7945479
0
ARC
8
DEFAULT_255_1_388
10
20.4185132
20
22.8402563
40
0.2043754
50
218.2887146
51
228.5613203
0
ARC
8
DEFAULT_255_1_388
10
20.4295139
20
22.8550902
40
0.2227819
50
228.9652423
51
258.1237049
0
ARC
8
DEFAULT_255_1_388
10
20.4526577
20
22.9541964
40
0.3245374
50
257.7260585
51
270.4013717
0
ARC
8
DEFAULT_255_1_388
10
20.4577075
20
22.9041255
40
0.2744726
50
269.4204315
51
286.420998
0
ARC
8
DEFAULT_255_1_388
10
20.474413
20
22.8434705
40
0.2115721
50
286.7250065
51
320.6004665
0
ARC
8
DEFAULT_255_1_388
10
20.4313046
20
22.8784527
40
0.2670878
50
320.6712228
51
344.5440474
0
ARC
8
DEFAULT_255_1_388
10
20.301176
20
22.9166394
40
0.4026927
50
344.241448
51
356.735803
0
ARC
8
DEFAULT_255_1_388
10
20.1608067
20
22.9282656
40
0.5435085
50
356.3547471
51
0.0507222
0
ARC
8
DEFAULT_255_1_388
10
20.3110332
20
22.9317812
40
0.3932934
50
359.5579289
51
12.9534322
0
ARC
8
DEFAULT_255_1_388
10
20.4297172
20
22.9605586
40
0.2711827
50
12.6489751
51
41.608121
0
ARC
8
DEFAULT_255_1_388
10
20.4556332
20
22.9825946
40
0.2371737
50
41.7851122
51
85.9892156
0
ARC
8
DEFAULT_255_1_388
10
20.4417642
20
22.8910738
40
0.3295244
50
84.6965848
51
90.0672125
0
ARC
8
DEFAULT_255_1_388
10
20.4391209
20
22.8159118
40
0.4046926
50
89.6804991
51
99.161352
0
ARC
8
DEFAULT_255_1_388
10
20.4160219
20
22.9539848
40
0.2647044
50
98.9836248
51
113.8905702
0
ARC
8
DEFAULT_255_1_388
10
20.3901894
20
23.0149118
40
0.1985386
50
114.195234
51
127.3641866
0
ARC
8
DEFAULT_255_2_778
10
13.4953021
20
26.2610533
40
2.3035416
50
339.8907409
51
346.994376
0
ARC
8
DEFAULT_255_2_778
10
14.4646357
20
25.9009276
40
1.2694939
50
328.7691853
51
340.1120733
0
ARC
8
DEFAULT_255_2_778
10
14.9922733
20
25.5742249
40
0.6489533
50
308.240385
51
329.2799976
0
ARC
8
DEFAULT_255_2_778
10
15.1335254
20
25.4053956
40
0.42897
50
290.2149747
51
307.3797345
0
ARC
8
DEFAULT_255_2_778
10
14.8550836
20
25.6680832
40
0.5085768
50
279.0582472
51
335.0254579
0
ARC
8
DEFAULT_255_2_778
10
14.4035606
20
25.9163036
40
1.0232605
50
333.100566
51
347.4967948
0
ARC
8
DEFAULT_255_2_778
10
13.9267879
20
26.0402273
40
1.515659
50
346.8251736
51
349.6433145
0
ARC
8
DEFAULT_255_2_778
10
16.7325297
20
26.3127541
40
0.6340004
50
90.2418805
51
180.4975197
0
ARC
8
DEFAULT_255_2_778
10
16.7271765
20
26.312754
40
0.6340006
50
359.5024881
51
89.7581009
0
ARC
8
DEFAULT_255_2_778
10
16.7271768
20
26.3017436
40
0.6340003
50
270.2418684
51
0.4975336
0
ARC
8
DEFAULT_255_2_778
10
16.7325299
20
26.3017437
40
0.6340005
50
179.5024805
51
269.758104
0
ARC
8
DEFAULT_255_2_778
10
17.1189581
20
26.3271235
40
0.5748535
50
158.6224664
51
180.7450103
0
ARC
8
DEFAULT_255_2_778
10
16.8143054
20
26.4541995
40
0.2449488
50
125.6968143
51
160.3264119
0
ARC
8
DEFAULT_255_2_778
10
16.7310393
20
26.5609868
40
0.1097683
50
90.6191325
51
122.9231799
0
ARC
8
DEFAULT_255_2_778
10
16.7161984
20
26.5228461
40
0.1485318
50
26.6299238
51
84.7252528
0
ARC
8
DEFAULT_255_2_778
10
16.4561415
20
26.357402
40
0.4562354
50
6.9672199
51
30.5675002
0
ARC
8
DEFAULT_255_2_778
10
16.261361
20
26.3204325
40
0.6541928
50
359.9313724
51
8.1119436
0
ARC
8
DEFAULT_255_2_778
10
16.3407903
20
26.3122075
40
0.5748111
50
338.6217917
51
0.7417631
0
ARC
8
DEFAULT_255_2_778
10
16.6452775
20
26.1851776
40
0.2450776
50
305.7107467
51
340.3279893
0
ARC
8
DEFAULT_255_2_778
10
16.7286626
20
26.0782757
40
0.1097331
50
270.6216799
51
302.9378787
0
ARC
8
DEFAULT_255_2_778
10
16.7435343
20
26.1164636
40
0.148546
50
206.6181959
51
264.7155805
0
ARC
8
DEFAULT_255_2_778
10
17.0037331
20
26.2819852
40
0.456409
50
186.9714802
51
210.5628916
0
ARC
8
DEFAULT_255_2_778
10
17.1979553
20
26.3188721
40
0.6538026
50
179.9319269
51
188.1143536
0
ARC
8
DEFAULT_255_2_778
10
14.2076298
20
26.3127541
40
0.6340005
50
90.2418914
51
180.4975151
0
ARC
8
DEFAULT_255_2_778
10
14.2022765
20
26.312754
40
0.6340006
50
359.5024881
51
89.7581009
0
ARC
8
DEFAULT_255_2_778
10
14.2022768
20
26.3017436
40
0.6340003
50
270.2418684
51
0.4975336
0
ARC
8
DEFAULT_255_2_778
10
14.2076299
20
26.3017437
40
0.6340005
50
179.5024805
51
269.758104
0
ARC
8
DEFAULT_255_2_778
10
14.5935296
20
26.3271068
40
0.5744248
50
158.6039448
51
180.7439081
0
ARC
8
DEFAULT_255_2_778
10
14.2894145
20
26.454083
40
0.2450547
50
125.6846154
51
160.3063409
0
ARC
8
DEFAULT_255_2_778
10
14.2061439
20
26.560937
40
0.1098183
50
90.6212609
51
122.9155624
0
ARC
8
DEFAULT_255_2_778
10
14.1912984
20
26.5228461
40
0.1485318
50
26.6299238
51
84.7252528
0
ARC
8
DEFAULT_255_2_778
10
13.9312415
20
26.357402
40
0.4562354
50
6.9672199
51
30.5675002
0
ARC
8
DEFAULT_255_2_778
10
13.736461
20
26.3204325
40
0.6541928
50
359.9313724
51
8.1119436
0
ARC
8
DEFAULT_255_2_778
10
13.8158903
20
26.3122075
40
0.5748111
50
338.6217917
51
0.7417631
0
ARC
8
DEFAULT_255_2_778
10
14.1203775
20
26.1851776
40
0.2450776
50
305.7107467
51
340.3279893
0
ARC
8
DEFAULT_255_2_778
10
14.2037626
20
26.0782757
40
0.1097331
50
270.6216799
51
302.9378787
0
ARC
8
DEFAULT_255_2_778
10
14.2183015
20
26.1157507
40
0.1478058
50
207.0367178
51
264.8185874
0
ARC
8
DEFAULT_255_2_778
10
14.4731143
20
26.2799943
40
0.4504617
50
187.4901111
51
210.9147812
0
ARC
8
DEFAULT_255_2_778
10
14.6699142
20
26.3187625
40
0.6507616
50
179.9219565
51
188.6157011
0
LINE
8
DEFAULT_255_2_778
10
14.8857532
20
26.9216489
11
15.3807532
21
26.9216489
0
LINE
8
DEFAULT_255_2_778
10
15.3807532
20
26.9216489
11
15.5540532
21
26.2569489
0
LINE
8
DEFAULT_255_2_778
10
15.5540532
20
26.2569489
11
15.7397532
21
26.9340489
0
LINE
8
DEFAULT_255_2_778
10
15.7397532
20
26.9340489
11
16.0369532
21
26.8462489
0
LINE
8
DEFAULT_255_2_778
10
16.0369532
20
26.8462489
11
15.7397532
21
25.7426489
0
LINE
8
DEFAULT_255_2_778
10
15.2817532
20
25.0028489
11
14.9351532
21
25.1658489
0
LINE
8
DEFAULT_255_2_778
10
15.4177532
20
25.7677489
11
15.2074532
21
25.7677489
0
LINE
8
DEFAULT_255_2_778
10
15.2074532
20
25.7677489
11
14.8857532
21
26.9216489
0
LINE
8
DEFAULT_255_2_778
10
16.0985532
20
26.3072489
11
16.0985532
21
26.3072489
0
LINE
8
DEFAULT_255_2_778
10
16.5441532
20
26.3196489
11
16.5441532
21
26.3196489
0
LINE
8
DEFAULT_255_2_778
10
13.5736532
20
26.3072489
11
13.5736532
21
26.3072489
0
LINE
8
DEFAULT_255_2_778
10
14.0191532
20
26.3196489
11
14.0191532
21
26.3196489
0
LINE
8
DEFAULT_255_2_778
10
12.0390532
20
27.6489489
11
12.5835532
21
27.6489489
0
LINE
8
DEFAULT_255_2_778
10
12.5835532
20
27.6489489
11
12.5835532
21
26.9216489
0
LINE
8
DEFAULT_255_2_778
10
12.5835532
20
26.9216489
11
13.0291532
21
27.6489489
0
LINE
8
DEFAULT_255_2_778
10
13.0291532
20
27.6489489
11
13.4995532
21
27.6489489
0
LINE
8
DEFAULT_255_2_778
10
13.4995532
20
27.6489489
11
12.9796532
21
26.7961489
0
LINE
8
DEFAULT_255_2_778
10
12.9796532
20
26.7961489
11
13.5985532
21
25.7428489
0
LINE
8
DEFAULT_255_2_778
10
13.5985532
20
25.7428489
11
13.0291532
21
25.7428489
0
LINE
8
DEFAULT_255_2_778
10
13.0291532
20
25.7428489
11
12.5586532
21
26.5453489
0
LINE
8
DEFAULT_255_2_778
10
12.5586532
20
26.5453489
11
12.5586532
21
25.7428489
0
LINE
8
DEFAULT_255_2_778
10
12.5586532
20
25.7428489
11
12.0390532
21
25.7428489
0
LINE
8
DEFAULT_255_2_778
10
12.0390532
20
25.7428489
11
12.0390532
21
27.6489489
0
LINE
8
DEFAULT_255_1_388
10
4.1939903
20
21.8424898
11
4.1939903
21
20.6687596
0
LINE
8
DEFAULT_255_1_388
10
4.1939903
20
20.6687596
11
4.8174498
21
20.6687596
0
LINE
8
DEFAULT_255_1_388
10
4.8174498
20
20.6687596
11
4.8174498
21
20.5269
0
LINE
8
DEFAULT_255_1_388
10
4.8174498
20
20.5269
11
4.0196024
21
20.5269
0
LINE
8
DEFAULT_255_1_388
10
4.0196024
20
20.5269
11
4.0196024
21
21.8424898
0
LINE
8
DEFAULT_255_1_388
10
4.0196024
20
21.8424898
11
4.1939903
21
21.8424898
0
LINE
8
DEFAULT_255_1_388
10
4.2005367
20
5.9674898
11
4.2005367
21
4.6519
0
LINE
8
DEFAULT_255_1_388
10
4.2005367
20
4.6519
11
4.0270523
21
4.6519
0
LINE
8
DEFAULT_255_1_388
10
4.0270523
20
4.6519
11
4.0270523
21
5.9674898
0
LINE
8
DEFAULT_255_1_388
10
4.0270523
20
5.9674898
11
4.2005367
21
5.9674898
0
LINE
8
DEFAULT_255_1_388
10
5.0733799
20
5.9674898
11
4.5249163
21
4.5389544
0
LINE
8
DEFAULT_255_1_388
10
4.5249163
20
4.5389544
11
4.3812496
21
4.5389544
0
LINE
8
DEFAULT_255_1_388
10
4.3812496
20
4.5389544
11
4.9306167
21
5.9674898
0
LINE
8
DEFAULT_255_1_388
10
4.9306167
20
5.9674898
11
5.0733799
21
5.9674898
0
LINE
8
DEFAULT_255_1_388
10
6.2922884
20
5.3503553
11
6.2922884
21
5.2672274
0
LINE
8
DEFAULT_255_1_388
10
5.2342144
20
5.2554811
11
5.2342144
21
5.3503553
0
LINE
8
DEFAULT_255_1_388
10
6.1197076
20
5.2545775
11
6.1197076
21
5.3521625
0
LINE
8
DEFAULT_255_1_388
10
5.4067952
20
5.3639088
11
5.4067952
21
5.2672274
0
ARC
8
DEFAULT_255_1_388
10
5.3200622
20
5.2627726
40
0.9722364
50
350.4878118
51
0.2625322
0
ARC
8
DEFAULT_255_1_388
10
5.5780582
20
5.2183994
40
0.7104556
50
336.0277991
51
350.5787241
0
ARC
8
DEFAULT_255_1_388
10
5.7293689
20
5.1500243
40
0.544417
50
319.887443
51
336.1331163
0
ARC
8
DEFAULT_255_1_388
10
5.7971501
20
5.0957733
40
0.4576311
50
302.4806296
51
319.6144102
0
ARC
8
DEFAULT_255_1_388
10
5.7842122
20
5.1207067
40
0.4856183
50
275.8196423
51
302.1885521
0
ARC
8
DEFAULT_255_1_388
10
5.7654984
20
5.2492466
40
0.6154183
50
269.9169897
51
276.339506
0
ARC
8
DEFAULT_255_1_388
10
5.7604584
20
5.172068
40
0.5382553
50
252.5221437
51
270.441579
0
ARC
8
DEFAULT_255_1_388
10
5.7442835
20
5.1114046
40
0.4755426
50
237.5349961
51
252.1858334
0
ARC
8
DEFAULT_255_1_388
10
5.7543211
20
5.124212
40
0.4917393
50
209.0632754
51
237.3492577
0
ARC
8
DEFAULT_255_1_388
10
5.8522537
20
5.1857104
40
0.6072464
50
205.118533
51
209.6465345
0
ARC
8
DEFAULT_255_1_388
10
5.9418539
20
5.2237174
40
0.7045164
50
188.7216633
51
204.8239753
0
ARC
8
DEFAULT_255_1_388
10
6.1665314
20
5.2615387
40
0.9323368
50
180.3722704
51
188.9253909
0
ARC
8
DEFAULT_255_1_388
10
6.1634876
20
5.3548416
40
0.929284
50
169.5253055
51
180.2766048
0
ARC
8
DEFAULT_255_1_388
10
5.9494675
20
5.3942024
40
0.7116745
50
155.8314601
51
169.5088611
0
ARC
8
DEFAULT_255_1_388
10
5.8054138
20
5.4610312
40
0.5528904
50
139.6259579
51
156.0379072
0
ARC
8
DEFAULT_255_1_388
10
5.7390671
20
5.5144143
40
0.4677708
50
122.6414784
51
139.3431662
0
ARC
8
DEFAULT_255_1_388
10
5.7503926
20
5.4937787
40
0.4912586
50
93.0224537
51
122.4556091
0
ARC
8
DEFAULT_255_1_388
10
5.7625447
20
5.3851776
40
0.6003837
50
89.9756766
51
93.6340839
0
ARC
8
DEFAULT_255_1_388
10
5.7669045
20
5.4300879
40
0.5554884
50
73.7463329
51
90.4234008
0
ARC
8
DEFAULT_255_1_388
10
5.7866518
20
5.5065772
40
0.4765353
50
57.663051
51
73.4516911
0
ARC
8
DEFAULT_255_1_388
10
5.7857556
20
5.5090108
40
0.4749629
50
29.1441355
51
57.4146687
0
ARC
8
DEFAULT_255_1_388
10
5.6805367
20
5.4433046
40
0.5988917
50
24.0985653
51
29.732054
0
ARC
8
DEFAULT_255_1_388
10
5.5642999
20
5.3951154
40
0.7246823
50
8.6654943
51
23.8241215
0
ARC
8
DEFAULT_255_1_388
10
5.3129417
20
5.3541037
40
0.9793537
50
359.7807044
51
8.8218476
0
ARC
8
DEFAULT_255_1_388
10
5.1839122
20
5.3569731
40
0.9358078
50
359.7054632
51
8.0359751
0
ARC
8
DEFAULT_255_1_388
10
5.5214173
20
5.4061252
40
0.5947474
50
7.8926278
51
20.2962188
0
ARC
8
DEFAULT_255_1_388
10
5.7045023
20
5.4736367
40
0.3996117
50
20.3231056
51
36.4990255
0
ARC
8
DEFAULT_255_1_388
10
5.7816321
20
5.5330399
40
0.3022818
50
36.1436715
51
85.6627846
0
ARC
8
DEFAULT_255_1_388
10
5.7633576
20
5.4160881
40
0.4203853
50
84.3845912
51
90.076054
0
ARC
8
DEFAULT_255_1_388
10
5.7585931
20
5.4903416
40
0.346157
50
89.3037228
51
109.9046209
0
ARC
8
DEFAULT_255_1_388
10
5.7481764
20
5.5333379
40
0.3022217
50
110.8229774
51
143.917961
0
ARC
8
DEFAULT_255_1_388
10
5.8532123
20
5.4531455
40
0.434348
50
143.5289166
51
163.2980252
0
ARC
8
DEFAULT_255_1_388
10
6.067841
20
5.3856685
40
0.659321
50
163.0418884
51
174.3139873
0
ARC
8
DEFAULT_255_1_388
10
6.3383375
20
5.3544378
40
0.9315905
50
174.050934
51
179.4174954
0
ARC
8
DEFAULT_255_1_388
10
6.2815319
20
5.2625382
40
0.8747493
50
179.6928582
51
188.7908948
0
ARC
8
DEFAULT_255_1_388
10
5.9819119
20
5.2146086
40
0.5713262
50
188.6328449
51
202.5630732
0
ARC
8
DEFAULT_255_1_388
10
5.8407956
20
5.1579142
40
0.4192612
50
202.8078931
51
216.1195888
0
ARC
8
DEFAULT_255_1_388
10
5.7497473
20
5.0846479
40
0.3025752
50
215.0755613
51
264.6379773
0
ARC
8
DEFAULT_255_1_388
10
5.764031
20
5.1781376
40
0.3970284
50
263.8464302
51
270.0830805
0
ARC
8
DEFAULT_255_1_388
10
5.7686855
20
5.1490808
40
0.3679937
50
269.3649295
51
287.5149684
0
ARC
8
DEFAULT_255_1_388
10
5.7887296
20
5.0762714
40
0.2925408
50
288.0629019
51
323.8115617
0
ARC
8
DEFAULT_255_1_388
10
5.6907272
20
5.1493754
40
0.4148018
50
323.6546541
51
342.6591359
0
ARC
8
DEFAULT_255_1_388
10
5.462193
20
5.223728
40
0.6551163
50
342.4092446
51
353.6451501
0
ARC
8
DEFAULT_255_1_388
10
5.1436723
20
5.2633565
40
0.9760748
50
353.4027553
51
359.4846611
0
LINE
8
DEFAULT_255_1_388
10
4.7349359
20
13.3393585
11
4.7349359
21
13.1974989
0
LINE
8
DEFAULT_255_1_388
10
4.7349359
20
13.1974989
11
4.1647868
21
13.1974989
0
LINE
8
DEFAULT_255_1_388
10
4.1647868
20
13.1974989
11
4.1647868
21
12.7312596
0
LINE
8
DEFAULT_255_1_388
10
4.1647868
20
12.7312596
11
4.8270995
21
12.7312596
0
LINE
8
DEFAULT_255_1_388
10
4.8270995
20
12.7312596
11
4.8270995
21
12.5894
0
LINE
8
DEFAULT_255_1_388
10
4.8270995
20
12.5894
11
3.9913024
21
12.5894
0
LINE
8
DEFAULT_255_1_388
10
3.9913024
20
12.5894
11
3.9913024
21
13.9049898
0
LINE
8
DEFAULT_255_1_388
10
3.9913024
20
13.9049898
11
4.8180639
21
13.9049898
0
LINE
8
DEFAULT_255_1_388
10
4.8180639
20
13.9049898
11
4.8180639
21
13.7622267
0
LINE
8
DEFAULT_255_1_388
10
4.8180639
20
13.7622267
11
4.1647868
21
13.7622267
0
LINE
8
DEFAULT_255_1_388
10
4.1647868
20
13.7622267
11
4.1647868
21
13.3393585
0
LINE
8
DEFAULT_255_1_388
10
4.1647868
20
13.3393585
11
4.7349359
21
13.3393585
0
LINE
8
DEFAULT_255_1_388
10
5.9701085
20
13.9049898
11
5.9701085
21
13.7622267
0
LINE
8
DEFAULT_255_1_388
10
5.9701085
20
13.7622267
11
5.5472404
21
13.7622267
0
LINE
8
DEFAULT_255_1_388
10
5.5472404
20
13.7622267
11
5.5472404
21
12.5894
0
LINE
8
DEFAULT_255_1_388
10
5.5472404
20
12.5894
11
5.3746596
21
12.5894
0
LINE
8
DEFAULT_255_1_388
10
5.3746596
20
12.5894
11
5.3746596
21
13.7622267
0
LINE
8
DEFAULT_255_1_388
10
5.3746596
20
13.7622267
11
4.952695
21
13.7622267
0
LINE
8
DEFAULT_255_1_388
10
4.952695
20
13.7622267
11
4.952695
21
13.9049898
0
LINE
8
DEFAULT_255_1_388
10
4.952695
20
13.9049898
11
5.9701085
21
13.9049898
0
LINE
8
DEFAULT_255_1_388
10
7.1763671
20
13.9049898
11
7.1763671
21
12.5894
0
LINE
8
DEFAULT_255_1_388
10
7.1763671
20
12.5894
11
7.0019792
21
12.5894
0
LINE
8
DEFAULT_255_1_388
10
7.0019792
20
12.5894
11
7.0019792
21
13.1974989
0
LINE
8
DEFAULT_255_1_388
10
7.0019792
20
13.1974989
11
6.3387628
21
13.1974989
0
LINE
8
DEFAULT_255_1_388
10
6.3387628
20
13.1974989
11
6.3387628
21
12.5894
0
LINE
8
DEFAULT_255_1_388
10
6.3387628
20
12.5894
11
6.1652785
21
12.5894
0
LINE
8
DEFAULT_255_1_388
10
6.1652785
20
12.5894
11
6.1652785
21
13.9049898
0
LINE
8
DEFAULT_255_1_388
10
6.1652785
20
13.9049898
11
6.3387628
21
13.9049898
0
LINE
8
DEFAULT_255_1_388
10
6.3387628
20
13.9049898
11
6.3387628
21
13.3393585
0
LINE
8
DEFAULT_255_1_388
10
6.3387628
20
13.3393585
11
7.0019792
21
13.3393585
0
LINE
8
DEFAULT_255_1_388
10
7.0019792
20
13.3393585
11
7.0019792
21
13.9049898
0
LINE
8
DEFAULT_255_1_388
10
7.0019792
20
13.9049898
11
7.1763671
21
13.9049898
0
LINE
8
DEFAULT_255_1_388
10
24.317791
20
21.8424898
11
24.317791
21
20.5269
0
LINE
8
DEFAULT_255_1_388
10
24.317791
20
20.5269
11
24.1434031
21
20.5269
0
LINE
8
DEFAULT_255_1_388
10
24.1434031
20
20.5269
11
23.4810903
21
21.5406993
0
LINE
8
DEFAULT_255_1_388
10
23.4810903
20
21.5406993
11
23.4810903
21
20.5269
0
LINE
8
DEFAULT_255_1_388
10
23.4810903
20
20.5269
11
23.3067024
21
20.5269
0
LINE
8
DEFAULT_255_1_388
10
23.3067024
20
20.5269
11
23.3067024
21
21.8424898
0
LINE
8
DEFAULT_255_1_388
10
23.3067024
20
21.8424898
11
23.4810903
21
21.8424898
0
LINE
8
DEFAULT_255_1_388
10
23.4810903
20
21.8424898
11
24.1452102
21
20.8241727
0
LINE
8
DEFAULT_255_1_388
10
24.1452102
20
20.8241727
11
24.1452102
21
21.8424898
0
LINE
8
DEFAULT_255_1_388
10
24.1452102
20
21.8424898
11
24.317791
21
21.8424898
0
LINE
8
DEFAULT_255_1_388
10
24.3076342
20
5.3069842
11
24.3076342
21
4.8244808
0
LINE
8
DEFAULT_255_1_388
10
23.2938349
20
5.2464454
11
23.2938349
21
5.3611981
0
LINE
8
DEFAULT_255_1_388
10
24.3076342
20
5.5816678
11
24.1341498
21
5.5816678
0
LINE
8
DEFAULT_255_1_388
10
23.4682228
20
5.3657159
11
23.4682228
21
5.2581917
0
LINE
8
DEFAULT_255_1_388
10
24.1350534
20
4.8705626
11
24.1350534
21
5.1660282
0
LINE
8
DEFAULT_255_1_388
10
24.1350534
20
5.1660282
11
23.8305521
21
5.1660282
0
LINE
8
DEFAULT_255_1_388
10
23.8305521
20
5.1660282
11
23.8305521
21
5.3069842
0
LINE
8
DEFAULT_255_1_388
10
23.8305521
20
5.3069842
11
24.3076342
21
5.3069842
0
ARC
8
DEFAULT_255_1_388
10
23.9890942
20
5.0487284
40
0.3895571
50
295.8437277
51
324.8549962
0
ARC
8
DEFAULT_255_1_388
10
23.9423325
20
5.1333619
40
0.4861381
50
291.5691164
51
296.4556269
0
ARC
8
DEFAULT_255_1_388
10
23.8848327
20
5.2869801
40
0.6501442
50
278.6622213
51
291.3047061
0
ARC
8
DEFAULT_255_1_388
10
23.8466359
20
5.5286557
40
0.8948168
50
270.0200506
51
278.7494673
0
ARC
8
DEFAULT_255_1_388
10
23.8422563
20
5.7132453
40
1.0794166
50
270.0022372
51
270.2490917
0
ARC
8
DEFAULT_255_1_388
10
23.8380456
20
5.2173827
40
0.5835695
50
253.5785313
51
270.4175629
0
ARC
8
DEFAULT_255_1_388
10
23.8185452
20
5.1418625
40
0.5056241
50
238.8203954
51
253.2788387
0
ARC
8
DEFAULT_255_1_388
10
23.8163367
20
5.1361224
40
0.4995712
50
206.7883476
51
238.696262
0
ARC
8
DEFAULT_255_1_388
10
23.9038763
20
5.1885847
40
0.6014056
50
206.1137778
51
207.4912776
0
ARC
8
DEFAULT_255_1_388
10
23.9705599
20
5.2169284
40
0.6737692
50
188.6922336
51
205.782076
0
ARC
8
DEFAULT_255_1_388
10
24.1793958
20
5.2524455
40
0.8855812
50
180.3881972
51
188.9218085
0
ARC
8
DEFAULT_255_1_388
10
24.3175116
20
5.3675622
40
1.0236965
50
170.2024645
51
180.3561986
0
ARC
8
DEFAULT_255_1_388
10
23.9616266
20
5.4312101
40
0.6621746
50
154.2856519
51
170.3893388
0
ARC
8
DEFAULT_255_1_388
10
23.817423
20
5.4972192
40
0.5036209
50
139.8400879
51
153.9334639
0
ARC
8
DEFAULT_255_1_388
10
23.7770133
20
5.5295716
40
0.4518751
50
98.4190017
51
139.6707015
0
ARC
8
DEFAULT_255_1_388
10
23.8197101
20
5.3219755
40
0.6635912
50
89.7660128
51
99.4415389
0
ARC
8
DEFAULT_255_1_388
10
23.8270497
20
5.3293517
40
0.6562258
50
78.0552044
51
90.4042252
0
ARC
8
DEFAULT_255_1_388
10
23.8725561
20
5.5339661
40
0.4466287
50
54.6380186
51
78.3338577
0
ARC
8
DEFAULT_255_1_388
10
23.8939859
20
5.5700444
40
0.4048184
50
50.0313964
51
54.1562739
0
ARC
8
DEFAULT_255_1_388
10
23.8818753
20
5.5591798
40
0.4209308
50
18.1092229
51
49.7179911
0
ARC
8
DEFAULT_255_1_388
10
23.7179833
20
5.4991399
40
0.5953982
50
7.967396
51
18.698492
0
ARC
8
DEFAULT_255_1_388
10
23.7349094
20
5.5130236
40
0.4050986
50
9.7558763
51
27.3214087
0
ARC
8
DEFAULT_255_1_388
10
23.8617559
20
5.5764087
40
0.2633168
50
27.736147
51
84.5257861
0
ARC
8
DEFAULT_255_1_388
10
23.8248968
20
5.3914988
40
0.4513019
50
82.1064239
51
90.1997295
0
ARC
8
DEFAULT_255_1_388
10
23.8192985
20
5.4486501
40
0.3941684
50
89.4148952
51
105.5824837
0
ARC
8
DEFAULT_255_1_388
10
23.7903865
20
5.5539043
40
0.2850167
50
105.6678541
51
144.2649156
0
ARC
8
DEFAULT_255_1_388
10
23.8908758
20
5.4824024
40
0.4083468
50
144.3560675
51
162.8564185
0
ARC
8
DEFAULT_255_1_388
10
24.12532
20
5.4071083
40
0.6545749
50
162.6076338
51
173.6779811
0
ARC
8
DEFAULT_255_1_388
10
24.4697315
20
5.3652422
40
1.0015089
50
173.4670996
51
179.9729015
0
ARC
8
DEFAULT_255_1_388
10
24.2550186
20
5.2534636
40
0.78681
50
179.6556955
51
190.007958
0
ARC
8
DEFAULT_255_1_388
10
23.9944468
20
5.205666
40
0.5218997
50
189.8117884
51
206.6795375
0
ARC
8
DEFAULT_255_1_388
10
23.8993914
20
5.1613514
40
0.4170788
50
207.1031171
51
217.7074698
0
ARC
8
DEFAULT_255_1_388
10
23.8280344
20
5.0992596
40
0.3226945
50
216.7345117
51
265.6812141
0
ARC
8
DEFAULT_255_1_388
10
23.8427486
20
5.201003
40
0.4253149
50
264.7367524
51
270.0610826
0
ARC
8
DEFAULT_255_1_388
10
23.8453672
20
5.5205173
40
0.7448321
50
269.8334494
51
276.0538364
0
ARC
8
DEFAULT_255_1_388
10
23.8686534
20
5.3065924
40
0.5296446
50
275.9894423
51
284.4615914
0
ARC
8
DEFAULT_255_1_388
10
23.8908047
20
5.213357
40
0.4338353
50
284.7038488
51
286.4938196
0
ARC
8
DEFAULT_255_1_388
10
23.9367196
20
5.0654371
40
0.2789738
50
286.0770429
51
304.2629628
0
ARC
8
DEFAULT_255_1_388
10
23.9517354
20
5.040868
40
0.2502188
50
304.5886247
51
317.1074126
0
LINE
8
DEFAULT_255_1_388
10
21.7503342
20
13.2444842
11
21.7503342
21
12.7619808
0
LINE
8
DEFAULT_255_1_388
10
20.7365349
20
13.1839454
11
20.7365349
21
13.2986981
0
LINE
8
DEFAULT_255_1_388
10
21.7503342
20
13.5191678
11
21.5768498
21
13.5191678
0
LINE
8
DEFAULT_255_1_388
10
20.9109228
20
13.3032159
11
20.9109228
21
13.1956917
0
LINE
8
DEFAULT_255_1_388
10
21.5777534
20
12.8080626
11
21.5777534
21
13.1035282
0
LINE
8
DEFAULT_255_1_388
10
21.5777534
20
13.1035282
11
21.2732521
21
13.1035282
0
LINE
8
DEFAULT_255_1_388
10
21.2732521
20
13.1035282
11
21.2732521
21
13.2444842
0
LINE
8
DEFAULT_255_1_388
10
21.2732521
20
13.2444842
11
21.7503342
21
13.2444842
0
ARC
8
DEFAULT_255_1_388
10
21.4317942
20
12.9862284
40
0.3895571
50
295.8437277
51
324.8549962
0
ARC
8
DEFAULT_255_1_388
10
21.3850325
20
13.0708619
40
0.4861381
50
291.5691164
51
296.4556269
0
ARC
8
DEFAULT_255_1_388
10
21.3275327
20
13.2244801
40
0.6501442
50
278.6622213
51
291.3047061
0
ARC
8
DEFAULT_255_1_388
10
21.2893359
20
13.4661557
40
0.8948168
50
270.0200506
51
278.7494673
0
ARC
8
DEFAULT_255_1_388
10
21.2849563
20
13.6507453
40
1.0794166
50
270.0022372
51
270.2490917
0
ARC
8
DEFAULT_255_1_388
10
21.2807456
20
13.1548827
40
0.5835695
50
253.5785313
51
270.4175629
0
ARC
8
DEFAULT_255_1_388
10
21.2612452
20
13.0793625
40
0.5056241
50
238.8203954
51
253.2788387
0
ARC
8
DEFAULT_255_1_388
10
21.2590367
20
13.0736224
40
0.4995712
50
206.7883476
51
238.696262
0
ARC
8
DEFAULT_255_1_388
10
21.3465763
20
13.1260847
40
0.6014056
50
206.1137778
51
207.4912776
0
ARC
8
DEFAULT_255_1_388
10
21.4132599
20
13.1544284
40
0.6737692
50
188.6922336
51
205.782076
0
ARC
8
DEFAULT_255_1_388
10
21.6220958
20
13.1899455
40
0.8855812
50
180.3881972
51
188.9218085
0
ARC
8
DEFAULT_255_1_388
10
21.7602116
20
13.3050622
40
1.0236965
50
170.2024645
51
180.3561986
0
ARC
8
DEFAULT_255_1_388
10
21.4043266
20
13.3687101
40
0.6621746
50
154.2856519
51
170.3893388
0
ARC
8
DEFAULT_255_1_388
10
21.260123
20
13.4347192
40
0.5036209
50
139.8400879
51
153.9334639
0
ARC
8
DEFAULT_255_1_388
10
21.2197133
20
13.4670716
40
0.4518751
50
98.4190017
51
139.6707015
0
ARC
8
DEFAULT_255_1_388
10
21.2624101
20
13.2594755
40
0.6635912
50
89.7660128
51
99.4415389
0
ARC
8
DEFAULT_255_1_388
10
21.2697497
20
13.2668517
40
0.6562258
50
78.0552044
51
90.4042252
0
ARC
8
DEFAULT_255_1_388
10
21.3152561
20
13.4714661
40
0.4466287
50
54.6380186
51
78.3338577
0
ARC
8
DEFAULT_255_1_388
10
21.3366859
20
13.5075444
40
0.4048184
50
50.0313964
51
54.1562739
0
ARC
8
DEFAULT_255_1_388
10
21.3245753
20
13.4966798
40
0.4209308
50
18.1092229
51
49.7179911
0
ARC
8
DEFAULT_255_1_388
10
21.1606833
20
13.4366399
40
0.5953982
50
7.967396
51
18.698492
0
ARC
8
DEFAULT_255_1_388
10
21.1776094
20
13.4505236
40
0.4050986
50
9.7558763
51
27.3214087
0
ARC
8
DEFAULT_255_1_388
10
21.3044559
20
13.5139087
40
0.2633168
50
27.736147
51
84.5257861
0
ARC
8
DEFAULT_255_1_388
10
21.2675968
20
13.3289988
40
0.4513019
50
82.1064239
51
90.1997295
0
ARC
8
DEFAULT_255_1_388
10
21.2619985
20
13.3861501
40
0.3941684
50
89.4148952
51
105.5824837
0
ARC
8
DEFAULT_255_1_388
10
21.2330865
20
13.4914043
40
0.2850167
50
105.6678541
51
144.2649156
0
ARC
8
DEFAULT_255_1_388
10
21.3335758
20
13.4199024
40
0.4083468
50
144.3560675
51
162.8564185
0
ARC
8
DEFAULT_255_1_388
10
21.56802
20
13.3446083
40
0.6545749
50
162.6076338
51
173.6779811
0
ARC
8
DEFAULT_255_1_388
10
21.9124315
20
13.3027422
40
1.0015089
50
173.4670996
51
179.9729015
0
ARC
8
DEFAULT_255_1_388
10
21.6977186
20
13.1909636
40
0.78681
50
179.6556955
51
190.007958
0
ARC
8
DEFAULT_255_1_388
10
21.4371468
20
13.143166
40
0.5218997
50
189.8117884
51
206.6795375
0
ARC
8
DEFAULT_255_1_388
10
21.3420914
20
13.0988514
40
0.4170788
50
207.1031171
51
217.7074698
0
ARC
8
DEFAULT_255_1_388
10
21.2707344
20
13.0367596
40
0.3226945
50
216.7345117
51
265.6812141
0
ARC
8
DEFAULT_255_1_388
10
21.2854486
20
13.138503
40
0.4253149
50
264.7367524
51
270.0610826
0
ARC
8
DEFAULT_255_1_388
10
21.2880672
20
13.4580173
40
0.7448321
50
269.8334494
51
276.0538364
0
ARC
8
DEFAULT_255_1_388
10
21.3113534
20
13.2440924
40
0.5296446
50
275.9894423
51
284.4615914
0
ARC
8
DEFAULT_255_1_388
10
21.3335047
20
13.150857
40
0.4338353
50
284.7038488
51
286.4938196
0
ARC
8
DEFAULT_255_1_388
10
21.3794196
20
13.0029371
40
0.2789738
50
286.0770429
51
304.2629628
0
ARC
8
DEFAULT_255_1_388
10
21.3944354
20
12.978368
40
0.2502188
50
304.5886247
51
317.1074126
0
LINE
8
DEFAULT_255_1_388
10
23.0505634
20
13.9049898
11
23.0505634
21
12.5894
0
LINE
8
DEFAULT_255_1_388
10
23.0505634
20
12.5894
11
22.8761755
21
12.5894
0
LINE
8
DEFAULT_255_1_388
10
22.8761755
20
12.5894
11
22.2138627
21
13.6031993
0
LINE
8
DEFAULT_255_1_388
10
22.2138627
20
13.6031993
11
22.2138627
21
12.5894
0
LINE
8
DEFAULT_255_1_388
10
22.2138627
20
12.5894
11
22.0394748
21
12.5894
0
LINE
8
DEFAULT_255_1_388
10
22.0394748
20
12.5894
11
22.0394748
21
13.9049898
0
LINE
8
DEFAULT_255_1_388
10
22.0394748
20
13.9049898
11
22.2138627
21
13.9049898
0
LINE
8
DEFAULT_255_1_388
10
22.2138627
20
13.9049898
11
22.8779826
21
12.8866727
0
LINE
8
DEFAULT_255_1_388
10
22.8779826
20
12.8866727
11
22.8779826
21
13.9049898
0
LINE
8
DEFAULT_255_1_388
10
22.8779826
20
13.9049898
11
23.0505634
21
13.9049898
0
LINE
8
DEFAULT_255_1_388
10
23.7228154
20
12.5894
11
23.3586789
21
12.5894
0
LINE
8
DEFAULT_255_1_388
10
23.3586789
20
12.5894
11
23.3586789
21
13.9049898
0
LINE
8
DEFAULT_255_1_388
10
23.3586789
20
13.9049898
11
23.7300439
21
13.9049898
0
LINE
8
DEFAULT_255_1_388
10
24.3101323
20
13.2914696
11
24.3101323
21
13.2074381
0
LINE
8
DEFAULT_255_1_388
10
23.7345617
20
13.7622267
11
23.5321633
21
13.7622267
0
LINE
8
DEFAULT_255_1_388
10
23.5321633
20
13.7622267
11
23.5321633
21
12.7312596
0
LINE
8
DEFAULT_255_1_388
10
23.5321633
20
12.7312596
11
23.7146833
21
12.7312596
0
LINE
8
DEFAULT_255_1_388
10
24.138455
20
13.2110523
11
24.138455
21
13.2878553
0
ARC
8
DEFAULT_255_1_388
10
23.7344234
20
13.2451436
40
0.6598608
50
75.4100343
51
90.3802731
0
ARC
8
DEFAULT_255_1_388
10
23.7602479
20
13.3527691
40
0.5492049
50
60.1455157
51
75.1889627
0
ARC
8
DEFAULT_255_1_388
10
23.7781071
20
13.3838914
40
0.5133226
50
26.525419
51
60.1451222
0
ARC
8
DEFAULT_255_1_388
10
23.6520857
20
13.3170642
40
0.6559324
50
7.4029944
51
26.832209
0
ARC
8
DEFAULT_255_1_388
10
23.4727254
20
13.2891229
40
0.8374103
50
0.1605597
51
7.7176135
0
ARC
8
DEFAULT_255_1_388
10
23.4911654
20
13.2031321
40
0.8189782
50
348.7289744
51
0.30125
0
ARC
8
DEFAULT_255_1_388
10
23.6775118
20
13.1661156
40
0.628991
50
333.0706936
51
348.7181455
0
ARC
8
DEFAULT_255_1_388
10
23.7862747
20
13.1070449
40
0.5052808
50
299.2531435
51
333.4571133
0
ARC
8
DEFAULT_255_1_388
10
23.7456777
20
13.1841629
40
0.5924066
50
278.1072193
51
299.0340218
0
ARC
8
DEFAULT_255_1_388
10
23.7168826
20
13.3537979
40
0.7644209
50
270.4446841
51
278.4508355
0
ARC
8
DEFAULT_255_1_388
10
23.719231
20
13.24923
40
0.5179903
50
269.4969684
51
284.0204874
0
ARC
8
DEFAULT_255_1_388
10
23.7592028
20
13.0956415
40
0.3592968
50
283.7699076
51
318.1557121
0
ARC
8
DEFAULT_255_1_388
10
23.7212573
20
13.1240399
40
0.4065308
50
318.7417595
51
343.687252
0
ARC
8
DEFAULT_255_1_388
10
23.5183152
20
13.1874275
40
0.6191194
50
343.3324891
51
355.8548594
0
ARC
8
DEFAULT_255_1_388
10
23.282219
20
13.2098719
40
0.856237
50
355.4988754
51
0.0789913
0
ARC
8
DEFAULT_255_1_388
10
23.3702989
20
13.292608
40
0.7681709
50
359.6455047
51
9.8607559
0
ARC
8
DEFAULT_255_1_388
10
23.6358712
20
13.3405664
40
0.498312
50
9.6573037
51
26.1931522
0
ARC
8
DEFAULT_255_1_388
10
23.7402787
20
13.3890587
40
0.3832303
50
26.5777895
51
40.1533752
0
ARC
8
DEFAULT_255_1_388
10
23.7690452
20
13.411502
40
0.3467742
50
40.3839958
51
80.1430923
0
ARC
8
DEFAULT_255_1_388
10
23.7322708
20
13.2484486
40
0.5137832
50
79.2153636
51
89.7445174
0
ENDSEC
0
EOF