0
SECTION
2
HEADER
9
$MEASUREMENT
70
1
0
ENDSEC
0
SECTION
2
TABLES
0
TABLE
2
LTYPE
0
LTYPE
72
65
70
64
2
CONTINUOUS
3
______
73
0
40
0
0
ENDTAB
0
TABLE
2
LAYER
0
LAYER
2
DEFAULT_255_2_778
70
0
62
255
6
CONTINUOUS
0
ENDTAB
0
ENDSEC
0
SECTION
2
ENTITIES
0
LINE
8
DEFAULT_255_2_778
10
12.9504521
20
149.8583072
11
12.9504521
21
142.1809072
0
LINE
8
DEFAULT_255_2_778
10
12.9504521
20
142.1809072
11
15.5121521
21
142.1809072
0
LINE
8
DEFAULT_255_2_778
10
15.5121521
20
142.1809072
11
15.5121521
21
149.8583072
0
LINE
8
DEFAULT_255_2_778
10
19.3544521
20
149.8583072
11
19.3544521
21
142.1809072
0
LINE
8
DEFAULT_255_2_778
10
19.3544521
20
142.1809072
11
21.9161521
21
142.1809072
0
LINE
8
DEFAULT_255_2_778
10
21.9161521
20
142.1809072
11
21.9161521
21
149.8583072
0
LINE
8
DEFAULT_255_2_778
10
25.7584521
20
149.8583072
11
25.7584521
21
142.1809072
0
LINE
8
DEFAULT_255_2_778
10
25.7584521
20
142.1809072
11
28.3201521
21
142.1809072
0
LINE
8
DEFAULT_255_2_778
10
28.3201521
20
142.1809072
11
28.3201521
21
149.8583072
0
LINE
8
DEFAULT_255_2_778
10
32.1623521
20
149.8583072
11
32.1623521
21
142.1809072
0
LINE
8
DEFAULT_255_2_778
10
32.1623521
20
142.1809072
11
34.7240521
21
142.1809072
0
LINE
8
DEFAULT_255_2_778
10
34.7240521
20
142.1809072
11
34.7240521
21
149.8583072
0
LINE
8
DEFAULT_255_2_778
10
38.5663521
20
149.8583072
11
38.5663521
21
142.1809072
0
LINE
8
DEFAULT_255_2_778
10
38.5663521
20
142.1809072
11
41.1280521
21
142.1809072
0
LINE
8
DEFAULT_255_2_778
10
41.1280521
20
142.1809072
11
41.1280521
21
149.8583072
0
LINE
8
DEFAULT_255_2_778
10
44.9703521
20
149.8583072
11
44.9703521
21
142.1809072
0
LINE
8
DEFAULT_255_2_778
10
44.9703521
20
142.1809072
11
47.5320521
21
142.1809072
0
LINE
8
DEFAULT_255_2_778
10
47.5320521
20
142.1809072
11
47.5320521
21
149.8583072
0
LINE
8
DEFAULT_255_2_778
10
51.3740521
20
149.8583072
11
51.3740521
21
142.1809072
0
LINE
8
DEFAULT_255_2_778
10
51.3740521
20
142.1809072
11
53.9357521
21
142.1809072
0
LINE
8
DEFAULT_255_2_778
10
53.9357521
20
142.1809072
11
53.9357521
21
149.8583072
0
LINE
8
DEFAULT_255_2_778
10
57.7780521
20
149.8583072
11
57.7780521
21
142.1809072
0
LINE
8
DEFAULT_255_2_778
10
57.7780521
20
142.1809072
11
60.3397521
21
142.1809072
0
LINE
8
DEFAULT_255_2_778
10
60.3397521
20
142.1809072
11
60.3397521
21
149.8583072
0
LINE
8
DEFAULT_255_2_778
10
64.1819653
20
149.8583072
11
64.1819653
21
142.1809072
0
LINE
8
DEFAULT_255_2_778
10
64.1819653
20
142.1809072
11
66.7436653
21
142.1809072
0
LINE
8
DEFAULT_255_2_778
10
66.7436653
20
142.1809072
11
66.7436653
21
149.8583072
0
LINE
8
DEFAULT_255_2_778
10
70.5859521
20
149.8583072
11
70.5859521
21
142.1809072
0
LINE
8
DEFAULT_255_2_778
10
70.5859521
20
142.1809072
11
73.1476521
21
142.1809072
0
LINE
8
DEFAULT_255_2_778
10
73.1476521
20
142.1809072
11
73.1476521
21
149.8583072
0
LINE
8
DEFAULT_255_2_778
10
76.9899521
20
149.8583072
11
76.9899521
21
142.1809072
0
LINE
8
DEFAULT_255_2_778
10
76.9899521
20
142.1809072
11
79.5516521
21
142.1809072
0
LINE
8
DEFAULT_255_2_778
10
79.5516521
20
142.1809072
11
79.5516521
21
149.8583072
0
LINE
8
DEFAULT_255_2_778
10
83.3939521
20
149.8583072
11
83.3939521
21
142.1809072
0
LINE
8
DEFAULT_255_2_778
10
83.3939521
20
142.1809072
11
85.9556521
21
142.1809072
0
LINE
8
DEFAULT_255_2_778
10
85.9556521
20
142.1809072
11
85.9556521
21
149.8583072
0
LINE
8
DEFAULT_255_2_778
10
89.7978521
20
149.8583072
11
89.7978521
21
142.1809072
0
LINE
8
DEFAULT_255_2_778
10
89.7978521
20
142.1809072
11
92.3595521
21
142.1809072
0
LINE
8
DEFAULT_255_2_778
10
92.3595521
20
142.1809072
11
92.3595521
21
149.8583072
0
ARC
8
DEFAULT_255_2_778
10
94.8347054
20
145.0963486
40
5.2605466
50
359.9545594
51
12.0785703
0
ARC
8
DEFAULT_255_2_778
10
95.0437269
20
145.1420293
40
5.0465938
50
12.0679993
51
26.318105
0
ARC
8
DEFAULT_255_2_778
10
95.3016688
20
145.2745013
40
4.7566586
50
26.2653334
51
43.6024806
0
ARC
8
DEFAULT_255_2_778
10
95.7350703
20
145.7391463
40
4.1225427
50
43.0802745
51
83.7487422
0
ARC
8
DEFAULT_255_2_778
10
95.7859711
20
145.9069626
40
3.950314
50
84.2175898
51
90.0075526
0
ARC
8
DEFAULT_255_2_778
10
4.450696
20
145.9281139
40
3.930263
50
89.9758827
51
108.8105602
0
ARC
8
DEFAULT_255_2_778
10
4.5851627
20
145.6173305
40
4.2678906
50
109.1740511
51
139.4230006
0
ARC
8
DEFAULT_255_2_778
10
4.9799999
20
145.2466832
40
4.8089404
50
139.1288415
51
155.8956581
0
ARC
8
DEFAULT_255_2_778
10
5.2242836
20
145.1331315
40
5.0782994
50
155.8518265
51
169.8200777
0
ARC
8
DEFAULT_255_2_778
10
5.4194608
20
145.0963139
40
5.2769115
50
169.8011588
51
180.0329796
0
LINE
8
DEFAULT_255_2_778
10
100.1378503
20
34.1303765
11
100.0952503
21
145.0921765
0
LINE
8
DEFAULT_255_2_778
10
95.7854503
20
149.8572765
11
94.6276503
21
149.8572765
0
LINE
8
DEFAULT_255_2_778
10
94.6273503
20
149.8583765
11
4.4523503
21
149.8583765
0
LINE
8
DEFAULT_255_2_778
10
0.1425503
20
145.0932765
11
0.1425503
21
116.2747765
0
LINE
8
DEFAULT_255_2_778
10
7.7600814
20
149.8541474
11
7.7431814
21
116.2536474
0
LINE
8
DEFAULT_255_2_778
10
7.7431814
20
116.2536474
11
0.1448814
21
116.2724474
0
LINE
8
DEFAULT_255_2_778
10
0.1385741
20
117.5035
11
7.7350741
21
117.5035
0
LINE
8
DEFAULT_255_2_778
10
2.8624
20
117.5034781
11
2.8624
21
116.2786781
0
LINE
8
DEFAULT_255_2_778
10
7.73
20
116.2535828
11
7.73
21
-0.1332172
0
LINE
8
DEFAULT_255_2_778
10
6.7306021
20
116.2536036
11
6.7306021
21
4.1478036
0
LINE
8
DEFAULT_255_2_778
10
6.7306021
20
4.1478036
11
7.7302021
21
4.1478036
0
ARC
8
DEFAULT_255_2_778
10
94.8777057
20
4.6204572
40
5.2607817
50
347.9217003
51
0.0453525
0
ARC
8
DEFAULT_255_2_778
10
95.0864019
20
4.574845
40
5.0471613
50
333.6832202
51
347.9322939
0
ARC
8
DEFAULT_255_2_778
10
95.3443098
20
4.4423942
40
4.757266
50
316.4037285
51
333.7360185
0
ARC
8
DEFAULT_255_2_778
10
95.778184
20
3.977302
40
4.1225041
50
276.2534954
51
316.9268663
0
ARC
8
DEFAULT_255_2_778
10
95.8292051
20
3.8090249
40
3.9498036
50
269.9924652
51
275.7836771
0
LINE
8
DEFAULT_255_2_778
10
100.1384857
20
34.1428214
11
100.1384857
21
4.6246214
0
LINE
8
DEFAULT_255_2_778
10
95.8286857
20
-0.1407786
11
94.6708857
21
-0.1407786
0
LINE
8
DEFAULT_255_2_778
10
94.6705857
20
-0.1415786
11
7.7626857
21
-0.1415786
0
LINE
8
DEFAULT_255_2_778
10
6.7303794
20
10.3970581
11
23.7224794
21
10.3970581
0
LINE
8
DEFAULT_255_2_778
10
23.7224794
20
10.3970581
11
23.7345794
21
104.0063581
0
LINE
8
DEFAULT_255_2_778
10
23.7345794
20
104.0063581
11
6.7366794
21
104.0058581
0
LINE
8
DEFAULT_255_2_778
10
92.3594521
20
-0.1158928
11
92.3594521
21
7.5615072
0
LINE
8
DEFAULT_255_2_778
10
92.3594521
20
7.5615072
11
89.7977521
21
7.5615072
0
LINE
8
DEFAULT_255_2_778
10
89.7977521
20
7.5615072
11
89.7977521
21
-0.1158928
0
LINE
8
DEFAULT_255_2_778
10
85.9555521
20
-0.1158928
11
85.9555521
21
7.5615072
0
LINE
8
DEFAULT_255_2_778
10
85.9555521
20
7.5615072
11
83.3938521
21
7.5615072
0
LINE
8
DEFAULT_255_2_778
10
83.3938521
20
7.5615072
11
83.3938521
21
-0.1158928
0
LINE
8
DEFAULT_255_2_778
10
79.5516521
20
-0.1158928
11
79.5516521
21
7.5615072
0
LINE
8
DEFAULT_255_2_778
10
79.5516521
20
7.5615072
11
76.9899521
21
7.5615072
0
LINE
8
DEFAULT_255_2_778
10
76.9899521
20
7.5615072
11
76.9899521
21
-0.1158928
0
LINE
8
DEFAULT_255_2_778
10
73.1476653
20
-0.1158928
11
73.1476653
21
7.5615072
0
LINE
8
DEFAULT_255_2_778
10
73.1476653
20
7.5615072
11
70.5859653
21
7.5615072
0
LINE
8
DEFAULT_255_2_778
10
70.5859653
20
7.5615072
11
70.5859653
21
-0.1158928
0
LINE
8
DEFAULT_255_2_778
10
66.7436521
20
-0.1158928
11
66.7436521
21
7.5615072
0
LINE
8
DEFAULT_255_2_778
10
66.7436521
20
7.5615072
11
64.1819521
21
7.5615072
0
LINE
8
DEFAULT_255_2_778
10
64.1819521
20
7.5615072
11
64.1819521
21
-0.1158928
0
LINE
8
DEFAULT_255_2_778
10
60.3397521
20
-0.1158928
11
60.3397521
21
7.5615072
0
LINE
8
DEFAULT_255_2_778
10
60.3397521
20
7.5615072
11
57.7780521
21
7.5615072
0
LINE
8
DEFAULT_255_2_778
10
57.7780521
20
7.5615072
11
57.7780521
21
-0.1158928
0
LINE
8
DEFAULT_255_2_778
10
53.9357521
20
-0.1158928
11
53.9357521
21
7.5615072
0
LINE
8
DEFAULT_255_2_778
10
53.9357521
20
7.5615072
11
51.3740521
21
7.5615072
0
LINE
8
DEFAULT_255_2_778
10
51.3740521
20
7.5615072
11
51.3740521
21
-0.1158928
0
LINE
8
DEFAULT_255_2_778
10
47.5318521
20
-0.1158928
11
47.5318521
21
7.5615072
0
LINE
8
DEFAULT_255_2_778
10
47.5318521
20
7.5615072
11
44.9701521
21
7.5615072
0
LINE
8
DEFAULT_255_2_778
10
44.9701521
20
7.5615072
11
44.9701521
21
-0.1158928
0
LINE
8
DEFAULT_255_2_778
10
41.1278521
20
-0.1158928
11
41.1278521
21
7.5615072
0
LINE
8
DEFAULT_255_2_778
10
41.1278521
20
7.5615072
11
38.5661521
21
7.5615072
0
LINE
8
DEFAULT_255_2_778
10
38.5661521
20
7.5615072
11
38.5661521
21
-0.1158928
0
LINE
8
DEFAULT_255_2_778
10
34.7239521
20
-0.1158928
11
34.7239521
21
7.5615072
0
LINE
8
DEFAULT_255_2_778
10
34.7239521
20
7.5615072
11
32.1622521
21
7.5615072
0
LINE
8
DEFAULT_255_2_778
10
32.1622521
20
7.5615072
11
32.1622521
21
-0.1158928
0
LINE
8
DEFAULT_255_2_778
10
28.3199521
20
-0.1158928
11
28.3199521
21
7.5615072
0
LINE
8
DEFAULT_255_2_778
10
28.3199521
20
7.5615072
11
25.7582521
21
7.5615072
0
LINE
8
DEFAULT_255_2_778
10
25.7582521
20
7.5615072
11
25.7582521
21
-0.1158928
0
ENDSEC
0
EOF