0
SECTION
2
HEADER
9
$MEASUREMENT
70
1
0
ENDSEC
0
SECTION
2
TABLES
0
TABLE
2
LTYPE
0
LTYPE
72
65
70
64
2
CONTINUOUS
3
______
73
0
40
0
0
ENDTAB
0
TABLE
2
LAYER
0
LAYER
2
DEFAULT_255_2_778
70
0
62
255
6
CONTINUOUS
0
ENDTAB
0
ENDSEC
0
SECTION
2
ENTITIES
0
ARC
8
DEFAULT_255_2_778
10
4.801461
20
145.648866
40
4.5743009
50
166.743763
51
180.0511769
0
ARC
8
DEFAULT_255_2_778
10
4.6265652
20
145.6909753
40
4.3944095
50
150.5741686
51
166.7552704
0
ARC
8
DEFAULT_255_2_778
10
4.398457
20
145.826819
40
4.1289942
50
129.4552642
51
150.6608971
0
ARC
8
DEFAULT_255_2_778
10
4.1179203
20
146.1873939
40
3.6723338
50
95.0436242
51
129.6507305
0
ARC
8
DEFAULT_255_2_778
10
4.0984043
20
146.2496432
40
3.6086369
50
89.9943218
51
94.8218512
0
ARC
8
DEFAULT_255_2_778
10
31.3571846
20
146.2754071
40
3.5828735
50
70.5246115
51
90.0291477
0
ARC
8
DEFAULT_255_2_778
10
31.2337228
20
146.0048175
40
3.879232
50
37.261244
51
70.1378917
0
ARC
8
DEFAULT_255_2_778
10
30.9116269
20
145.7297348
40
4.3021982
50
19.9331361
51
37.5798167
0
ARC
8
DEFAULT_255_2_778
10
30.7332921
20
145.6624301
40
4.4927956
50
5.600515
51
19.9646867
0
ARC
8
DEFAULT_255_2_778
10
30.5935539
20
145.6456211
40
4.6335081
50
359.9896015
51
5.6387425
0
ARC
8
DEFAULT_255_2_778
10
30.6927544
20
4.0676395
40
4.5343094
50
338.6640753
51
0.0523223
0
ARC
8
DEFAULT_255_2_778
10
30.9537327
20
3.9605148
40
4.2522447
50
317.5847462
51
338.7291507
0
ARC
8
DEFAULT_255_2_778
10
31.212623
20
3.7273108
40
3.9038171
50
299.6183822
51
317.5487528
0
ARC
8
DEFAULT_255_2_778
10
31.3484633
20
3.4797083
40
3.6214347
50
270.1091455
51
299.6860874
0
ARC
8
DEFAULT_255_2_778
10
4.0969458
20
3.4409115
40
3.5826318
50
250.5179541
51
270.0290457
0
ARC
8
DEFAULT_255_2_778
10
4.2205342
20
3.7117521
40
3.8792724
50
217.2578687
51
250.1312192
0
ARC
8
DEFAULT_255_2_778
10
4.5426796
20
3.9868495
40
4.3022855
50
199.9315054
51
217.5765232
0
ARC
8
DEFAULT_255_2_778
10
4.7209674
20
4.0541328
40
4.4928313
50
185.6000661
51
199.9630735
0
ARC
8
DEFAULT_255_2_778
10
4.8607302
20
4.0709419
40
4.6335683
50
179.9896344
51
185.6382783
0
LINE
8
DEFAULT_255_2_778
10
4.0987619
20
149.8582802
11
31.3553619
21
149.8582802
0
LINE
8
DEFAULT_255_2_778
10
35.2270619
20
145.6447802
11
35.2270619
21
4.0717802
0
LINE
8
DEFAULT_255_2_778
10
31.3553619
20
-0.1417198
11
4.0987619
21
-0.1417198
0
LINE
8
DEFAULT_255_2_778
10
0.2271619
20
4.0717802
11
0.2271619
21
145.6447802
0
LINE
8
DEFAULT_255_2_778
10
0.2271619
20
117.4986979
11
35.2270619
21
117.4986979
0
LINE
8
DEFAULT_255_2_778
10
0.2271619
20
119.1840979
11
35.2270619
21
119.1840979
0
ARC
8
DEFAULT_255_2_778
10
30.5554124
20
4.0669118
40
3.4327788
50
334.8348979
51
0.0812651
0
ARC
8
DEFAULT_255_2_778
10
30.7609771
20
3.9720002
40
3.2063664
50
317.540467
51
334.8079379
0
ARC
8
DEFAULT_255_2_778
10
30.9503803
20
3.7951764
40
2.9472662
50
296.2579808
51
317.5908615
0
ARC
8
DEFAULT_255_2_778
10
31.0421908
20
3.6115337
40
2.7419553
50
270.0751618
51
296.2351908
0
LINE
8
DEFAULT_255_2_778
10
33.9881877
20
117.4986807
11
33.9881877
21
4.0717807
0
LINE
8
DEFAULT_255_2_778
10
31.0457877
20
0.8695807
11
16.6431877
21
0.8695807
0
LINE
8
DEFAULT_255_2_778
10
16.6431877
20
0.8695807
11
16.6431877
21
-0.1417193
0
LINE
8
DEFAULT_255_2_778
10
3.873874
20
145.2452291
11
3.757974
21
145.5903291
0
LINE
8
DEFAULT_255_2_778
10
3.757974
20
145.5903291
11
3.249174
21
145.5903291
0
LINE
8
DEFAULT_255_2_778
10
3.249174
20
145.5903291
11
3.134874
21
145.2452291
0
LINE
8
DEFAULT_255_2_778
10
3.134874
20
145.2452291
11
2.969774
21
145.2452291
0
LINE
8
DEFAULT_255_2_778
10
2.969774
20
145.2452291
11
3.433574
21
146.5671291
0
LINE
8
DEFAULT_255_2_778
10
3.433574
20
146.5671291
11
3.573774
21
146.5671291
0
LINE
8
DEFAULT_255_2_778
10
3.573774
20
146.5671291
11
4.038474
21
145.2452291
0
LINE
8
DEFAULT_255_2_778
10
4.038474
20
145.2452291
11
3.874074
21
145.2452291
0
LINE
8
DEFAULT_255_2_778
10
3.874074
20
145.2452291
11
3.873874
21
145.2452291
0
LINE
8
DEFAULT_255_2_778
10
3.503474
20
146.3520291
11
3.297374
21
145.7337291
0
LINE
8
DEFAULT_255_2_778
10
3.297374
20
145.7337291
11
3.710374
21
145.7337291
0
LINE
8
DEFAULT_255_2_778
10
3.710374
20
145.7337291
11
3.503474
21
146.3520291
0
LINE
8
DEFAULT_255_2_778
10
3.503474
20
146.3520291
11
3.503474
21
146.3520291
0
LINE
8
DEFAULT_255_2_778
10
5.1351427
20
146.5671291
11
5.1351427
21
145.2452291
0
LINE
8
DEFAULT_255_2_778
10
5.1351427
20
145.2452291
11
4.9740427
21
145.2452291
0
LINE
8
DEFAULT_255_2_778
10
4.9740427
20
145.2452291
11
4.3625427
21
146.2639291
0
LINE
8
DEFAULT_255_2_778
10
4.3625427
20
146.2639291
11
4.3625427
21
145.2452291
0
LINE
8
DEFAULT_255_2_778
10
4.3625427
20
145.2452291
11
4.2014427
21
145.2452291
0
LINE
8
DEFAULT_255_2_778
10
4.2014427
20
145.2452291
11
4.2014427
21
146.5671291
0
LINE
8
DEFAULT_255_2_778
10
4.2014427
20
146.5671291
11
4.3625427
21
146.5671291
0
LINE
8
DEFAULT_255_2_778
10
4.3625427
20
146.5671291
11
4.9756427
21
145.5440291
0
LINE
8
DEFAULT_255_2_778
10
4.9756427
20
145.5440291
11
4.9756427
21
146.5671291
0
LINE
8
DEFAULT_255_2_778
10
4.9756427
20
146.5671291
11
5.1348427
21
146.5671291
0
LINE
8
DEFAULT_255_2_778
10
5.1348427
20
146.5671291
11
5.1351427
21
146.5671291
0
LINE
8
DEFAULT_255_2_778
10
6.221274
20
145.2452291
11
6.105374
21
145.5903291
0
LINE
8
DEFAULT_255_2_778
10
6.105374
20
145.5903291
11
5.596574
21
145.5903291
0
LINE
8
DEFAULT_255_2_778
10
5.596574
20
145.5903291
11
5.482274
21
145.2452291
0
LINE
8
DEFAULT_255_2_778
10
5.482274
20
145.2452291
11
5.317174
21
145.2452291
0
LINE
8
DEFAULT_255_2_778
10
5.317174
20
145.2452291
11
5.780974
21
146.5671291
0
LINE
8
DEFAULT_255_2_778
10
5.780974
20
146.5671291
11
5.921174
21
146.5671291
0
LINE
8
DEFAULT_255_2_778
10
5.921174
20
146.5671291
11
6.385874
21
145.2452291
0
LINE
8
DEFAULT_255_2_778
10
6.385874
20
145.2452291
11
6.221474
21
145.2452291
0
LINE
8
DEFAULT_255_2_778
10
6.221474
20
145.2452291
11
6.221274
21
145.2452291
0
LINE
8
DEFAULT_255_2_778
10
5.850874
20
146.3520291
11
5.644774
21
145.7337291
0
LINE
8
DEFAULT_255_2_778
10
5.644774
20
145.7337291
11
6.057774
21
145.7337291
0
LINE
8
DEFAULT_255_2_778
10
6.057774
20
145.7337291
11
5.850874
21
146.3520291
0
LINE
8
DEFAULT_255_2_778
10
5.850874
20
146.3520291
11
5.850874
21
146.3520291
0
LINE
8
DEFAULT_255_2_778
10
6.7102
20
146.5671291
11
6.7102
21
145.3879291
0
LINE
8
DEFAULT_255_2_778
10
6.7102
20
145.3879291
11
7.2857
21
145.3879291
0
LINE
8
DEFAULT_255_2_778
10
7.2857
20
145.3879291
11
7.2857
21
145.2452291
0
LINE
8
DEFAULT_255_2_778
10
7.2857
20
145.2452291
11
6.5491
21
145.2452291
0
LINE
8
DEFAULT_255_2_778
10
6.5491
20
145.2452291
11
6.5491
21
146.5671291
0
LINE
8
DEFAULT_255_2_778
10
6.5491
20
146.5671291
11
6.7102
21
146.5671291
0
LINE
8
DEFAULT_255_2_778
10
6.7102
20
146.5671291
11
6.7102
21
146.5671291
0
ARC
8
DEFAULT_255_2_778
10
7.4107167
20
145.8505382
40
0.9378542
50
343.2743061
51
0.8012484
0
ARC
8
DEFAULT_255_2_778
10
7.6483219
20
145.7888692
40
0.6926163
50
337.5569921
51
342.5032611
0
ARC
8
DEFAULT_255_2_778
10
7.831754
20
145.6996666
40
0.4891806
50
305.8686563
51
339.0116866
0
ARC
8
DEFAULT_255_2_778
10
7.8706394
20
145.6673134
40
0.4403576
50
268.7950407
51
304.2349348
0
ARC
8
DEFAULT_255_2_778
10
7.8542854
20
145.6640961
40
0.4371006
50
235.5270801
51
270.9299068
0
ARC
8
DEFAULT_255_2_778
10
7.8973586
20
145.7095287
40
0.4990312
50
202.0043616
51
234.4025525
0
ARC
8
DEFAULT_255_2_778
10
8.1912568
20
145.8360928
40
0.818973
50
181.3311522
51
202.5100205
0
ARC
8
DEFAULT_255_2_778
10
8.4969889
20
145.8611853
40
1.1253493
50
180.4802354
51
182.2467875
0
ARC
8
DEFAULT_255_2_778
10
8.2720179
20
145.9602894
40
0.9004375
50
161.5027948
51
180.8486341
0
ARC
8
DEFAULT_255_2_778
10
8.0760777
20
146.0155069
40
0.6971704
50
157.3708973
51
160.6974775
0
ARC
8
DEFAULT_255_2_778
10
7.8967381
20
146.1049405
40
0.4974108
50
125.9413932
51
158.9313169
0
ARC
8
DEFAULT_255_2_778
10
7.8527715
20
146.1499268
40
0.4352795
50
89.1038633
51
124.7314764
0
ARC
8
DEFAULT_255_2_778
10
7.8677867
20
146.1424383
40
0.4427908
50
55.7519307
51
91.0620823
0
ARC
8
DEFAULT_255_2_778
10
7.8336273
20
146.1127044
40
0.4867292
50
20.8513597
51
54.3977423
0
ARC
8
DEFAULT_255_2_778
10
7.4960213
20
145.9736621
40
0.8517718
50
1.3923676
51
21.5083555
0
ARC
8
DEFAULT_255_2_778
10
7.157732
20
145.9471138
40
1.1907473
50
359.9826434
51
2.2739338
0
ARC
8
DEFAULT_255_2_778
10
7.3053869
20
145.9614977
40
0.8839799
50
359.1933679
51
13.1457549
0
ARC
8
DEFAULT_255_2_778
10
7.7291151
20
146.0610787
40
0.4487083
50
13.0687106
51
33.6863496
0
ARC
8
DEFAULT_255_2_778
10
7.8696341
20
146.157522
40
0.2783021
50
33.2106002
51
92.0087229
0
ARC
8
DEFAULT_255_2_778
10
7.8521659
20
146.1602572
40
0.2755039
50
88.39568
51
147.0878025
0
ARC
8
DEFAULT_255_2_778
10
8.0433439
20
146.0328412
40
0.50524
50
146.7374945
51
172.019795
0
ARC
8
DEFAULT_255_2_778
10
8.4642497
20
145.954826
40
0.9330906
50
170.8637851
51
179.6237683
0
ARC
8
DEFAULT_255_2_778
10
8.3567317
20
145.8512922
40
0.825648
50
179.128302
51
194.7482248
0
ARC
8
DEFAULT_255_2_778
10
8.0071968
20
145.7617896
40
0.4648504
50
195.0474899
51
213.4362185
0
ARC
8
DEFAULT_255_2_778
10
7.8545888
20
145.6529968
40
0.2776342
50
212.0535364
51
271.4634192
0
ARC
8
DEFAULT_255_2_778
10
7.8724364
20
145.6503592
40
0.2751164
50
267.7591246
51
326.5102101
0
ARC
8
DEFAULT_255_2_778
10
7.694833
20
145.7645988
40
0.4862786
50
326.831341
51
351.2932628
0
ARC
8
DEFAULT_255_2_778
10
7.228541
20
145.8542843
40
0.9609432
50
350.2160135
51
359.8133012
0
LINE
8
DEFAULT_255_2_778
10
8.3484792
20
145.9472531
11
8.3484792
21
145.8636531
0
LINE
8
DEFAULT_255_2_778
10
7.3716792
20
145.8517531
11
7.3716792
21
145.9469531
0
LINE
8
DEFAULT_255_2_778
10
8.3484792
20
145.9467531
11
8.3484792
21
145.9472531
0
LINE
8
DEFAULT_255_2_778
10
8.1892792
20
145.8509531
11
8.1892792
21
145.9490531
0
LINE
8
DEFAULT_255_2_778
10
7.5311792
20
145.9609531
11
7.5311792
21
145.8638531
0
LINE
8
DEFAULT_255_2_778
10
8.1894792
20
145.8511531
11
8.1892792
21
145.8509531
0
ARC
8
DEFAULT_255_2_778
10
9.170427
20
145.6211598
40
0.3745693
50
292.4529684
51
327.3150857
0
ARC
8
DEFAULT_255_2_778
10
9.06996
20
145.8713787
40
0.6441965
50
268.9608809
51
292.2115921
0
ARC
8
DEFAULT_255_2_778
10
9.0559038
20
146.1652592
40
0.9379739
50
270.00492
51
270.1449931
0
ARC
8
DEFAULT_255_2_778
10
9.0480333
20
145.6945092
40
0.4672915
50
236.8472764
51
270.9749513
0
ARC
8
DEFAULT_255_2_778
10
9.0680596
20
145.7120798
40
0.4930057
50
203.070941
51
236.0154221
0
ARC
8
DEFAULT_255_2_778
10
9.3325859
20
145.8291526
40
0.782263
50
180.869979
51
203.3675269
0
ARC
8
DEFAULT_255_2_778
10
9.6231077
20
145.8521903
40
1.0732628
50
180.4914046
51
181.8642611
0
ARC
8
DEFAULT_255_2_778
10
9.5670784
20
145.9709215
40
1.0172712
50
166.4718105
51
180.7060888
0
ARC
8
DEFAULT_255_2_778
10
9.1323195
20
146.0779238
40
0.5695492
50
142.9119852
51
166.7065196
0
ARC
8
DEFAULT_255_2_778
10
9.0164352
20
146.1563256
40
0.4298903
50
87.153407
51
141.9335085
0
ARC
8
DEFAULT_255_2_778
10
9.0517298
20
146.1148153
40
0.4710765
50
60.8360089
51
91.6963951
0
ARC
8
DEFAULT_255_2_778
10
9.0901369
20
146.2022123
40
0.3761519
50
47.5778298
51
59.4571665
0
ARC
8
DEFAULT_255_2_778
10
9.0329715
20
146.1537106
40
0.4506183
50
10.0901776
51
46.3723033
0
ARC
8
DEFAULT_255_2_778
10
8.7894207
20
146.0876349
40
0.7023353
50
7.5392808
51
11.9165593
0
ARC
8
DEFAULT_255_2_778
10
8.9584358
20
146.129902
40
0.370621
50
7.7351521
51
35.6772103
0
ARC
8
DEFAULT_255_2_778
10
9.0571818
20
146.1824561
40
0.2601845
50
38.9601551
51
93.0920253
0
ARC
8
DEFAULT_255_2_778
10
9.0386123
20
146.0027952
40
0.4394901
50
89.4087429
51
90.0036402
0
ARC
8
DEFAULT_255_2_778
10
9.02421
20
146.1672842
40
0.2753766
50
87.0078556
51
146.4973406
0
ARC
8
DEFAULT_255_2_778
10
9.2013162
20
146.0607279
40
0.4819572
50
147.5560786
51
171.2248069
0
ARC
8
DEFAULT_255_2_778
10
9.6943825
20
145.9675634
40
0.9836092
50
170.2430745
51
180.2724993
0
ARC
8
DEFAULT_255_2_778
10
9.4586041
20
145.8423776
40
0.7479244
50
179.0417759
51
196.6401801
0
ARC
8
DEFAULT_255_2_778
10
9.1756715
20
145.7621944
40
0.4538985
50
197.1697826
51
215.0714464
0
ARC
8
DEFAULT_255_2_778
10
9.049257
20
145.664459
40
0.2943698
50
213.6401562
51
271.4652718
0
ARC
8
DEFAULT_255_2_778
10
9.0661677
20
145.8858691
40
0.5157691
50
268.9575647
51
286.712177
0
ARC
8
DEFAULT_255_2_778
10
9.1435497
20
145.6211018
40
0.2399414
50
287.1955158
51
319.566881
0
LINE
8
DEFAULT_255_2_778
10
9.4856844
20
145.9035854
11
9.4856844
21
145.4188854
0
LINE
8
DEFAULT_255_2_778
10
8.5498844
20
145.8429854
11
8.5498844
21
145.9583854
0
LINE
8
DEFAULT_255_2_778
10
9.4856844
20
146.1797854
11
9.3256844
21
146.1797854
0
LINE
8
DEFAULT_255_2_778
10
8.7107844
20
145.9628854
11
8.7107844
21
145.8548854
0
LINE
8
DEFAULT_255_2_778
10
9.3261844
20
145.4654854
11
9.3261844
21
145.7622854
0
LINE
8
DEFAULT_255_2_778
10
9.3261844
20
145.7622854
11
9.0448844
21
145.7622854
0
LINE
8
DEFAULT_255_2_778
10
9.0448844
20
145.7622854
11
9.0448844
21
145.9038854
0
LINE
8
DEFAULT_255_2_778
10
9.0448844
20
145.9038854
11
9.4854844
21
145.9038854
0
LINE
8
DEFAULT_255_2_778
10
9.4854844
20
145.9038854
11
9.4856844
21
145.9035854
0
LINE
8
DEFAULT_255_2_778
10
25.4001635
20
146.5674291
11
25.4001635
21
145.2455291
0
LINE
8
DEFAULT_255_2_778
10
25.4001635
20
145.2455291
11
25.2400635
21
145.2455291
0
LINE
8
DEFAULT_255_2_778
10
25.2400635
20
145.2455291
11
25.2400635
21
146.5674291
0
LINE
8
DEFAULT_255_2_778
10
25.2400635
20
146.5674291
11
25.4001635
21
146.5674291
0
LINE
8
DEFAULT_255_2_778
10
25.4001635
20
146.5674291
11
25.4001635
21
146.5674291
0
LINE
8
DEFAULT_255_2_778
10
26.6264427
20
146.5674291
11
26.6264427
21
145.2455291
0
LINE
8
DEFAULT_255_2_778
10
26.6264427
20
145.2455291
11
26.4653427
21
145.2455291
0
LINE
8
DEFAULT_255_2_778
10
26.4653427
20
145.2455291
11
25.8538427
21
146.2642291
0
LINE
8
DEFAULT_255_2_778
10
25.8538427
20
146.2642291
11
25.8538427
21
145.2455291
0
LINE
8
DEFAULT_255_2_778
10
25.8538427
20
145.2455291
11
25.6927427
21
145.2455291
0
LINE
8
DEFAULT_255_2_778
10
25.6927427
20
145.2455291
11
25.6927427
21
146.5674291
0
LINE
8
DEFAULT_255_2_778
10
25.6927427
20
146.5674291
11
25.8538427
21
146.5674291
0
LINE
8
DEFAULT_255_2_778
10
25.8538427
20
146.5674291
11
26.4669427
21
145.5443291
0
LINE
8
DEFAULT_255_2_778
10
26.4669427
20
145.5443291
11
26.4669427
21
146.5674291
0
LINE
8
DEFAULT_255_2_778
10
26.4669427
20
146.5674291
11
26.6261427
21
146.5674291
0
LINE
8
DEFAULT_255_2_778
10
26.6261427
20
146.5674291
11
26.6264427
21
146.5674291
0
ARC
8
DEFAULT_255_2_778
10
27.3724768
20
146.078364
40
0.4892479
50
64.4230159
51
91.5661339
0
ARC
8
DEFAULT_255_2_778
10
27.4231032
20
146.2033084
40
0.3547872
50
45.5388586
51
63.0863667
0
ARC
8
DEFAULT_255_2_778
10
27.3930081
20
146.1807878
40
0.3919816
50
357.4618569
51
44.7048321
0
ARC
8
DEFAULT_255_2_778
10
27.3379683
20
146.1500435
40
0.4468374
50
333.4083399
51
1.716631
0
ARC
8
DEFAULT_255_2_778
10
27.453948
20
146.1012978
40
0.3214141
50
313.2083564
51
331.9238807
0
ARC
8
DEFAULT_255_2_778
10
27.4117493
20
146.1614309
40
0.3942722
50
275.5823221
51
311.6949574
0
ARC
8
DEFAULT_255_2_778
10
27.3597713
20
146.4571584
40
0.6940336
50
269.7964145
51
277.4784852
0
ARC
8
DEFAULT_255_2_778
10
27.3721622
20
146.2069956
40
0.3015493
50
267.5183316
51
300.3453401
0
ARC
8
DEFAULT_255_2_778
10
27.4146835
20
146.1182334
40
0.2036287
50
302.6385565
51
313.9489195
0
ARC
8
DEFAULT_255_2_778
10
27.3804769
20
146.1408656
40
0.2438261
50
316.0455215
51
1.3260287
0
ARC
8
DEFAULT_255_2_778
10
27.1921477
20
146.1617122
40
0.4323574
50
357.9847438
51
0.0155028
0
ARC
8
DEFAULT_255_2_778
10
27.3644551
20
146.1743982
40
0.2603537
50
357.2328595
51
42.6310354
0
ARC
8
DEFAULT_255_2_778
10
27.3757489
20
146.1671594
40
0.2572746
50
45.5217831
51
91.6356699
0
LINE
8
DEFAULT_255_2_778
10
27.3573052
20
145.7631291
11
27.0713052
21
145.7631291
0
LINE
8
DEFAULT_255_2_778
10
27.0713052
20
145.7631291
11
27.0713052
21
145.2455291
0
LINE
8
DEFAULT_255_2_778
10
27.0713052
20
145.2455291
11
26.9112052
21
145.2455291
0
LINE
8
DEFAULT_255_2_778
10
26.9112052
20
145.2455291
11
26.9112052
21
146.5674291
0
LINE
8
DEFAULT_255_2_778
10
26.9112052
20
146.5674291
11
27.3591052
21
146.5674291
0
LINE
8
DEFAULT_255_2_778
10
27.3573052
20
145.7631291
11
27.3573052
21
145.7631291
0
LINE
8
DEFAULT_255_2_778
10
27.0713052
20
146.4240291
11
27.0713052
21
145.9057291
0
LINE
8
DEFAULT_255_2_778
10
27.0713052
20
145.9057291
11
27.3591052
21
145.9057291
0
LINE
8
DEFAULT_255_2_778
10
27.3684052
20
146.4243291
11
27.0715052
21
146.4243291
0
LINE
8
DEFAULT_255_2_778
10
27.0715052
20
146.4243291
11
27.0713052
21
146.4240291
0
ARC
8
DEFAULT_255_2_778
10
28.3897451
20
145.6553452
40
0.4543437
50
324.8217012
51
1.6745145
0
ARC
8
DEFAULT_255_2_778
10
28.4371173
20
145.6324291
40
0.4025119
50
317.9474537
51
323.6029289
0
ARC
8
DEFAULT_255_2_778
10
28.4288626
20
145.6486836
40
0.4195797
50
272.230815
51
317.054301
0
ARC
8
DEFAULT_255_2_778
10
28.3884903
20
145.6954231
40
0.4680139
50
240.1522533
51
271.726981
0
ARC
8
DEFAULT_255_2_778
10
28.3528657
20
145.6147557
40
0.380429
50
225.198397
51
238.7591534
0
ARC
8
DEFAULT_255_2_778
10
28.3838772
20
145.6359502
40
0.41738
50
182.5825364
51
224.2278919
0
ARC
8
DEFAULT_255_2_778
10
28.6256099
20
145.671537
40
0.6609305
50
180.3914163
51
184.7206652
0
ARC
8
DEFAULT_255_2_778
10
28.4790214
20
145.6595666
40
0.356066
50
177.8987647
51
208.0672008
0
ARC
8
DEFAULT_255_2_778
10
28.375095
20
145.6133816
40
0.242768
50
209.9897697
51
222.3555317
0
ARC
8
DEFAULT_255_2_778
10
28.3838612
20
145.6326612
40
0.2623677
50
224.1773673
51
272.2704353
0
ARC
8
DEFAULT_255_2_778
10
28.402565
20
145.8153726
40
0.4449508
50
268.929898
51
270.0038341
0
ARC
8
DEFAULT_255_2_778
10
28.4163853
20
145.6550293
40
0.2849414
50
267.2259333
51
306.055095
0
ARC
8
DEFAULT_255_2_778
10
28.4463175
20
145.599467
40
0.2225676
50
308.2446103
51
317.6462439
0
ARC
8
DEFAULT_255_2_778
10
28.3828482
20
145.6431368
40
0.2990759
50
319.6558482
51
358.8769444
0
ARC
8
DEFAULT_255_2_778
10
28.1589356
20
145.6716441
40
0.5240593
50
356.2397005
51
0.0522331
0
LINE
8
DEFAULT_255_2_778
10
28.6827948
20
146.5674219
11
28.8438948
21
146.5674219
0
LINE
8
DEFAULT_255_2_778
10
28.8438948
20
146.5674219
11
28.8438948
21
145.6686219
0
LINE
8
DEFAULT_255_2_778
10
28.4451948
20
145.2294219
11
28.4025948
21
145.2276219
0
LINE
8
DEFAULT_255_2_778
10
27.9646948
20
145.6670219
11
27.9646948
21
146.5677219
0
LINE
8
DEFAULT_255_2_778
10
27.9646948
20
146.5677219
11
28.1231948
21
146.5677219
0
LINE
8
DEFAULT_255_2_778
10
28.1231948
20
146.5677219
11
28.1231948
21
145.6726219
0
LINE
8
DEFAULT_255_2_778
10
28.6829948
20
145.6721219
11
28.6829948
21
146.5682219
0
LINE
8
DEFAULT_255_2_778
10
28.6829948
20
146.5682219
11
28.6827948
21
146.5674219
0
LINE
8
DEFAULT_255_2_778
10
29.9356646
20
146.5674291
11
29.9356646
21
146.4240291
0
LINE
8
DEFAULT_255_2_778
10
29.9356646
20
146.4240291
11
29.5450646
21
146.4240291
0
LINE
8
DEFAULT_255_2_778
10
29.5450646
20
146.4240291
11
29.5450646
21
145.2455291
0
LINE
8
DEFAULT_255_2_778
10
29.5450646
20
145.2455291
11
29.3858646
21
145.2455291
0
LINE
8
DEFAULT_255_2_778
10
29.3858646
20
145.2455291
11
29.3858646
21
146.4240291
0
LINE
8
DEFAULT_255_2_778
10
29.3858646
20
146.4240291
11
28.9963646
21
146.4240291
0
LINE
8
DEFAULT_255_2_778
10
28.9963646
20
146.4240291
11
28.9963646
21
146.5674291
0
LINE
8
DEFAULT_255_2_778
10
28.9963646
20
146.5674291
11
29.9356646
21
146.5674291
0
LINE
8
DEFAULT_255_2_778
10
29.9356646
20
146.5674291
11
29.9356646
21
146.5674291
0
LINE
8
DEFAULT_255_2_778
10
3.7572625
20
121.5672291
11
3.7572625
21
121.4246291
0
LINE
8
DEFAULT_255_2_778
10
3.7572625
20
121.4246291
11
3.2476625
21
121.4246291
0
LINE
8
DEFAULT_255_2_778
10
3.2476625
20
121.4246291
11
3.2476625
21
120.8409291
0
LINE
8
DEFAULT_255_2_778
10
3.2476625
20
120.8409291
11
3.0875625
21
120.8409291
0
LINE
8
DEFAULT_255_2_778
10
3.0875625
20
120.8409291
11
3.0875625
21
122.1628291
0
LINE
8
DEFAULT_255_2_778
10
3.0875625
20
122.1628291
11
3.8400625
21
122.1628291
0
LINE
8
DEFAULT_255_2_778
10
3.8400625
20
122.1628291
11
3.8400625
21
122.0194291
0
LINE
8
DEFAULT_255_2_778
10
3.8400625
20
122.0194291
11
3.2476625
21
122.0194291
0
LINE
8
DEFAULT_255_2_778
10
3.2476625
20
122.0194291
11
3.2476625
21
121.5672291
0
LINE
8
DEFAULT_255_2_778
10
3.2476625
20
121.5672291
11
3.7572625
21
121.5672291
0
LINE
8
DEFAULT_255_2_778
10
3.7572625
20
121.5672291
11
3.7572625
21
121.5672291
0
LINE
8
DEFAULT_255_2_778
10
4.6430177
20
122.1628291
11
4.6430177
21
121.2849291
0
LINE
8
DEFAULT_255_2_778
10
4.6430177
20
121.2849291
11
4.8116177
21
121.2849291
0
LINE
8
DEFAULT_255_2_778
10
4.8116177
20
121.2849291
11
4.8116177
21
121.1479291
0
LINE
8
DEFAULT_255_2_778
10
4.8116177
20
121.1479291
11
4.6430177
21
121.1479291
0
LINE
8
DEFAULT_255_2_778
10
4.6430177
20
121.1479291
11
4.6430177
21
120.8409291
0
LINE
8
DEFAULT_255_2_778
10
4.6430177
20
120.8409291
11
4.4880177
21
120.8409291
0
LINE
8
DEFAULT_255_2_778
10
4.4880177
20
120.8409291
11
4.4880177
21
121.1479291
0
LINE
8
DEFAULT_255_2_778
10
4.4880177
20
121.1479291
11
3.9350177
21
121.1479291
0
LINE
8
DEFAULT_255_2_778
10
3.9350177
20
121.1479291
11
3.9350177
21
121.2468291
0
LINE
8
DEFAULT_255_2_778
10
3.9350177
20
121.2468291
11
4.4790177
21
122.1628291
0
LINE
8
DEFAULT_255_2_778
10
4.4790177
20
122.1628291
11
4.6433177
21
122.1628291
0
LINE
8
DEFAULT_255_2_778
10
4.6433177
20
122.1628291
11
4.6430177
21
122.1628291
0
LINE
8
DEFAULT_255_2_778
10
4.4695177
20
121.8969291
11
4.1099177
21
121.2849291
0
LINE
8
DEFAULT_255_2_778
10
4.1099177
20
121.2849291
11
4.4877177
21
121.2849291
0
LINE
8
DEFAULT_255_2_778
10
4.4877177
20
121.2849291
11
4.4877177
21
121.9331291
0
LINE
8
DEFAULT_255_2_778
10
4.4877177
20
121.9331291
11
4.4695177
21
121.8969291
0
LINE
8
DEFAULT_255_2_778
10
4.4695177
20
121.8969291
11
4.4695177
21
121.8969291
0
LINE
8
DEFAULT_255_2_778
10
5.2881031
20
121.4709271
11
5.2881031
21
121.3338271
0
LINE
8
DEFAULT_255_2_778
10
5.2881031
20
121.3338271
11
4.8809031
21
121.3338271
0
LINE
8
DEFAULT_255_2_778
10
4.8809031
20
121.3338271
11
4.8809031
21
121.4709271
0
LINE
8
DEFAULT_255_2_778
10
4.8809031
20
121.4709271
11
5.2881031
21
121.4709271
0
LINE
8
DEFAULT_255_2_778
10
5.2881031
20
121.4709271
11
5.2881031
21
121.4709271
0
LINE
8
DEFAULT_255_2_778
10
5.9292021
20
122.1691041
11
5.9292021
21
120.8409041
0
LINE
8
DEFAULT_255_2_778
10
5.9292021
20
120.8409041
11
5.7741021
21
120.8409041
0
LINE
8
DEFAULT_255_2_778
10
5.7741021
20
120.8409041
11
5.7741021
21
121.9603041
0
LINE
8
DEFAULT_255_2_778
10
5.7741021
20
121.9603041
11
5.4630021
21
121.8360041
0
LINE
8
DEFAULT_255_2_778
10
5.4630021
20
121.8360041
11
5.4630021
21
121.9884041
0
LINE
8
DEFAULT_255_2_778
10
5.4630021
20
121.9884041
11
5.9051021
21
122.1691041
0
LINE
8
DEFAULT_255_2_778
10
5.9051021
20
122.1691041
11
5.9292021
21
122.1691041
0
LINE
8
DEFAULT_255_2_778
10
5.9292021
20
122.1691041
11
5.9292021
21
122.1691041
0
ARC
8
DEFAULT_255_2_778
10
6.9505279
20
121.6262808
40
0.3947563
50
88.8251368
51
131.4955754
0
ARC
8
DEFAULT_255_2_778
10
6.9385136
20
121.6513682
40
0.3680844
50
132.6822711
51
136.4756983
0
ARC
8
DEFAULT_255_2_778
10
7.0097189
20
121.598564
40
0.4562053
50
137.8258135
51
170.5962395
0
ARC
8
DEFAULT_255_2_778
10
7.3005298
20
121.5284694
40
0.754871
50
168.9537532
51
175.4651116
0
ARC
8
DEFAULT_255_2_778
10
6.7967147
20
121.3906514
40
0.3175775
50
87.6165381
51
141.5446863
0
ARC
8
DEFAULT_255_2_778
10
6.8194859
20
121.4036078
40
0.3044966
50
36.8577605
51
91.7999196
0
ARC
8
DEFAULT_255_2_778
10
6.6848275
20
121.3043936
40
0.4717542
50
2.1495933
51
36.6891478
0
ARC
8
DEFAULT_255_2_778
10
6.4322053
20
121.2728478
40
0.7257168
50
359.9531281
51
3.8905702
0
ARC
8
DEFAULT_255_2_778
10
6.5893286
20
121.2590843
40
0.5687458
50
337.2712557
51
1.3268521
0
ARC
8
DEFAULT_255_2_778
10
6.7488403
20
121.2006211
40
0.3991071
50
320.2570377
51
336.164753
0
ARC
8
DEFAULT_255_2_778
10
6.794887
20
121.1611791
40
0.338485
50
267.7540208
51
320.4073559
0
ARC
8
DEFAULT_255_2_778
10
6.7762469
20
121.1596942
40
0.336783
50
214.5380127
51
270.9144626
0
ARC
8
DEFAULT_255_2_778
10
6.9592818
20
121.2982128
40
0.5661857
50
184.4445383
51
215.5836829
0
ARC
8
DEFAULT_255_2_778
10
7.2614555
20
121.342554
40
0.8711352
50
179.8947553
51
185.8121362
0
ARC
8
DEFAULT_255_2_778
10
7.781637
20
121.4212161
40
1.3913709
50
169.4157834
51
180.513184
0
ARC
8
DEFAULT_255_2_778
10
7.1590706
20
121.5430783
40
0.7570326
50
150.0193432
51
169.8271634
0
ARC
8
DEFAULT_255_2_778
10
6.9777235
20
121.6373312
40
0.5529248
50
143.4702627
51
149.0888551
0
ARC
8
DEFAULT_255_2_778
10
6.9231651
20
121.6733884
40
0.4876344
50
93.3043755
51
143.0588212
0
ARC
8
DEFAULT_255_2_778
10
6.9708314
20
121.3916501
40
0.7722884
50
90.8464968
51
95.6306753
0
ARC
8
DEFAULT_255_2_778
10
6.7847136
20
121.3353635
40
0.2326909
50
90.0964574
51
129.0172965
0
ARC
8
DEFAULT_255_2_778
10
6.801181
20
121.3020325
40
0.2690795
50
127.273266
51
161.7599326
0
ARC
8
DEFAULT_255_2_778
10
7.0743383
20
121.3117474
40
0.5288715
50
178.6124387
51
200.9692265
0
ARC
8
DEFAULT_255_2_778
10
6.8947956
20
121.2509813
40
0.3395564
50
202.2366371
51
213.9490572
0
ARC
8
DEFAULT_255_2_778
10
6.78535
20
121.1599944
40
0.1984753
50
209.8010657
51
268.9237
0
ARC
8
DEFAULT_255_2_778
10
6.7877479
20
121.1523867
40
0.1909308
50
268.1613358
51
325.8313871
0
ARC
8
DEFAULT_255_2_778
10
6.6506166
20
121.2408323
40
0.3540862
50
326.4524668
51
359.7288753
0
ARC
8
DEFAULT_255_2_778
10
6.422554
20
121.2638396
40
0.582668
50
357.5721271
51
0.0210984
0
ARC
8
DEFAULT_255_2_778
10
6.6118029
20
121.2771751
40
0.3936378
50
358.0898342
51
26.8912414
0
ARC
8
DEFAULT_255_2_778
10
6.7216422
20
121.3232769
40
0.2749572
50
28.6759928
51
35.8100077
0
ARC
8
DEFAULT_255_2_778
10
6.7876127
20
121.3792687
40
0.1888196
50
33.743765
51
91.0896666
0
LINE
8
DEFAULT_255_2_778
10
6.9594219
20
122.1635541
11
6.9869219
21
122.1635541
0
LINE
8
DEFAULT_255_2_778
10
6.9869219
20
122.1635541
11
6.9869219
21
122.0209541
0
LINE
8
DEFAULT_255_2_778
10
6.9869219
20
122.0209541
11
6.9586219
21
122.0209541
0
LINE
8
DEFAULT_255_2_778
10
6.3903219
20
121.3441541
11
6.3903219
21
121.4087541
0
LINE
8
DEFAULT_255_2_778
10
6.9594219
20
122.1638541
11
6.9594219
21
122.1635541
0
LINE
8
DEFAULT_255_2_778
10
6.5456219
20
121.3862541
11
6.5456219
21
121.3245541
0
LINE
8
DEFAULT_255_2_778
10
6.7840219
20
121.5680541
11
6.7843219
21
121.5680541
0
LINE
8
DEFAULT_255_2_778
10
8.167574
20
120.8409291
11
8.051674
21
121.1860291
0
LINE
8
DEFAULT_255_2_778
10
8.051674
20
121.1860291
11
7.542874
21
121.1860291
0
LINE
8
DEFAULT_255_2_778
10
7.542874
20
121.1860291
11
7.428574
21
120.8409291
0
LINE
8
DEFAULT_255_2_778
10
7.428574
20
120.8409291
11
7.263474
21
120.8409291
0
LINE
8
DEFAULT_255_2_778
10
7.263474
20
120.8409291
11
7.727274
21
122.1628291
0
LINE
8
DEFAULT_255_2_778
10
7.727274
20
122.1628291
11
7.867474
21
122.1628291
0
LINE
8
DEFAULT_255_2_778
10
7.867474
20
122.1628291
11
8.332174
21
120.8409291
0
LINE
8
DEFAULT_255_2_778
10
8.332174
20
120.8409291
11
8.167774
21
120.8409291
0
LINE
8
DEFAULT_255_2_778
10
8.167774
20
120.8409291
11
8.167574
21
120.8409291
0
LINE
8
DEFAULT_255_2_778
10
7.797174
20
121.9477291
11
7.591074
21
121.3294291
0
LINE
8
DEFAULT_255_2_778
10
7.591074
20
121.3294291
11
8.004074
21
121.3294291
0
LINE
8
DEFAULT_255_2_778
10
8.004074
20
121.3294291
11
7.797174
21
121.9477291
0
LINE
8
DEFAULT_255_2_778
10
7.797174
20
121.9477291
11
7.797174
21
121.9477291
0
ARC
8
DEFAULT_255_2_778
10
8.8482208
20
121.6460018
40
0.5168551
50
58.4720685
51
91.1007616
0
ARC
8
DEFAULT_255_2_778
10
8.850164
20
121.6639451
40
0.5006039
50
24.2511101
51
57.5877077
0
ARC
8
DEFAULT_255_2_778
10
8.6197376
20
121.5584201
40
0.7540407
50
359.5089322
51
24.3702826
0
ARC
8
DEFAULT_255_2_778
10
8.3645743
20
121.5418098
40
1.0092273
50
0.2527313
51
0.5761142
0
ARC
8
DEFAULT_255_2_778
10
8.5867882
20
121.4485708
40
0.7871157
50
339.2718428
51
0.9675025
0
ARC
8
DEFAULT_255_2_778
10
8.7478677
20
121.397796
40
0.6185653
50
334.7629075
51
338.3896784
0
ARC
8
DEFAULT_255_2_778
10
8.8582161
20
121.3364965
40
0.4926851
50
301.820841
51
335.7398004
0
ARC
8
DEFAULT_255_2_778
10
8.8370523
20
121.3902387
40
0.5496064
50
269.4098774
51
300.7414372
0
ARC
8
DEFAULT_255_2_778
10
8.8426638
20
121.3349998
40
0.3519183
50
267.0074729
51
320.0361913
0
ARC
8
DEFAULT_255_2_778
10
8.7513351
20
121.3900745
40
0.4575876
50
322.096228
51
352.2418648
0
ARC
8
DEFAULT_255_2_778
10
8.3807971
20
121.4607145
40
0.8345087
50
350.8703622
51
0.3327814
0
ARC
8
DEFAULT_255_2_778
10
8.4911354
20
121.5555091
40
0.7242667
50
358.9994128
51
16.5446024
0
ARC
8
DEFAULT_255_2_778
10
8.7864013
20
121.6399516
40
0.417191
50
16.9750135
51
37.3167497
0
ARC
8
DEFAULT_255_2_778
10
8.856185
20
121.6863087
40
0.3336339
50
38.2504442
51
92.3522426
0
LINE
8
DEFAULT_255_2_778
10
8.8316917
20
120.8408614
11
8.4953917
21
120.8408614
0
LINE
8
DEFAULT_255_2_778
10
8.4953917
20
120.8408614
11
8.4953917
21
122.1627614
0
LINE
8
DEFAULT_255_2_778
10
8.4953917
20
122.1627614
11
8.8382917
21
122.1627614
0
LINE
8
DEFAULT_255_2_778
10
9.3737917
20
121.5462614
11
9.3737917
21
121.4618614
0
LINE
8
DEFAULT_255_2_778
10
8.8313917
20
120.8406614
11
8.8316917
21
120.8408614
0
LINE
8
DEFAULT_255_2_778
10
8.8424917
20
122.0193614
11
8.6556917
21
122.0193614
0
LINE
8
DEFAULT_255_2_778
10
8.6556917
20
122.0193614
11
8.6556917
21
120.9835614
0
LINE
8
DEFAULT_255_2_778
10
8.6556917
20
120.9835614
11
8.8242917
21
120.9835614
0
LINE
8
DEFAULT_255_2_778
10
9.2152917
20
121.4655614
11
9.2152917
21
121.5428614
0
LINE
8
DEFAULT_255_2_778
10
8.8424917
20
122.0196614
11
8.8424917
21
122.0193614
0
LINE
8
DEFAULT_255_2_778
10
9.9127031
20
121.4709271
11
9.9127031
21
121.3338271
0
LINE
8
DEFAULT_255_2_778
10
9.9127031
20
121.3338271
11
9.5055031
21
121.3338271
0
LINE
8
DEFAULT_255_2_778
10
9.5055031
20
121.3338271
11
9.5055031
21
121.4709271
0
LINE
8
DEFAULT_255_2_778
10
9.5055031
20
121.4709271
11
9.9127031
21
121.4709271
0
LINE
8
DEFAULT_255_2_778
10
9.9127031
20
121.4709271
11
9.9127031
21
121.4709271
0
LINE
8
DEFAULT_255_2_778
10
10.5541021
20
122.1691041
11
10.5541021
21
120.8409041
0
LINE
8
DEFAULT_255_2_778
10
10.5541021
20
120.8409041
11
10.3990021
21
120.8409041
0
LINE
8
DEFAULT_255_2_778
10
10.3990021
20
120.8409041
11
10.3990021
21
121.9603041
0
LINE
8
DEFAULT_255_2_778
10
10.3990021
20
121.9603041
11
10.0879021
21
121.8360041
0
LINE
8
DEFAULT_255_2_778
10
10.0879021
20
121.8360041
11
10.0879021
21
121.9884041
0
LINE
8
DEFAULT_255_2_778
10
10.0879021
20
121.9884041
11
10.5300021
21
122.1691041
0
LINE
8
DEFAULT_255_2_778
10
10.5300021
20
122.1691041
11
10.5541021
21
122.1691041
0
LINE
8
DEFAULT_255_2_778
10
10.5541021
20
122.1691041
11
10.5541021
21
122.1691041
0
ARC
8
DEFAULT_255_2_778
10
1.3034511
20
115.5844246
40
1.0319304
50
349.7878705
51
0.6476881
0
ARC
8
DEFAULT_255_2_778
10
1.8830862
20
115.4740658
40
0.4419507
50
328.8251806
51
350.54568
0
ARC
8
DEFAULT_255_2_778
10
2.0473731
20
115.3854759
40
0.2556967
50
266.0402061
51
326.7528049
0
ARC
8
DEFAULT_255_2_778
10
2.0122914
20
115.3868904
40
0.2570919
50
214.144429
51
273.8861538
0
ARC
8
DEFAULT_255_2_778
10
2.1811556
20
115.4801612
40
0.4495435
50
189.0624269
51
211.9023431
0
ARC
8
DEFAULT_255_2_778
10
2.7083538
20
115.5819407
40
0.986347
50
180.2411325
51
190.0772772
0
ARC
8
DEFAULT_255_2_778
10
2.7157023
20
115.7694286
40
0.993762
50
169.2436194
51
180.7056624
0
ARC
8
DEFAULT_255_2_778
10
2.1598365
20
115.879695
40
0.4271084
50
148.3849132
51
169.8588103
0
ARC
8
DEFAULT_255_2_778
10
2.0099359
20
115.9597584
40
0.2576947
50
85.8876979
51
146.072334
0
ARC
8
DEFAULT_255_2_778
10
2.0433352
20
115.9435937
40
0.273603
50
48.145005
51
93.1258952
0
ARC
8
DEFAULT_255_2_778
10
2.0548191
20
115.9696112
40
0.2467188
50
33.9761738
51
46.0994162
0
ARC
8
DEFAULT_255_2_778
10
1.9010577
20
115.880755
40
0.4240624
50
9.3654207
51
32.32171
0
ARC
8
DEFAULT_255_2_778
10
1.3421537
20
115.7713648
40
0.9934627
50
359.9322232
51
10.344833
0
ARC
8
DEFAULT_255_2_778
10
1.3878533
20
115.7919362
40
0.823949
50
359.1692225
51
10.2758976
0
ARC
8
DEFAULT_255_2_778
10
1.8966978
20
115.885599
40
0.3065611
50
10.0163793
51
27.8241878
0
ARC
8
DEFAULT_255_2_778
10
2.0370431
20
115.9585419
40
0.1483986
50
28.2095281
51
93.3328775
0
ARC
8
DEFAULT_255_2_778
10
2.0199605
20
115.9602299
40
0.1467036
50
86.6959575
51
152.0943739
0
ARC
8
DEFAULT_255_2_778
10
2.2165491
20
115.8634751
40
0.3657734
50
153.1130258
51
174.3633845
0
ARC
8
DEFAULT_255_2_778
10
2.7429238
20
115.78809
40
0.8973102
50
172.8741219
51
179.8787044
0
ARC
8
DEFAULT_255_2_778
10
2.652224
20
115.5628405
40
0.8066983
50
179.1441852
51
190.8230713
0
ARC
8
DEFAULT_255_2_778
10
2.1728842
20
115.4707599
40
0.318595
50
190.7450701
51
207.8980126
0
ARC
8
DEFAULT_255_2_778
10
2.0242661
20
115.388833
40
0.1489431
50
206.7949581
51
272.0968121
0
ARC
8
DEFAULT_255_2_778
10
2.0367109
20
115.3857362
40
0.1459144
50
267.2521389
51
331.8914542
0
ARC
8
DEFAULT_255_2_778
10
1.8571381
20
115.4791299
40
0.3483167
50
332.2576145
51
353.4858335
0
ARC
8
DEFAULT_255_2_778
10
1.3170781
20
115.5627544
40
0.894643
50
352.0885659
51
359.7973117
0
LINE
8
DEFAULT_255_2_778
10
2.3353156
20
115.7703896
11
2.3353156
21
115.5960896
0
LINE
8
DEFAULT_255_2_778
10
1.7220156
20
115.5777896
11
1.7220156
21
115.7571896
0
LINE
8
DEFAULT_255_2_778
10
2.3356156
20
115.7701896
11
2.3353156
21
115.7703896
0
LINE
8
DEFAULT_255_2_778
10
2.2117156
20
115.5597896
11
2.2117156
21
115.7799896
0
LINE
8
DEFAULT_255_2_778
10
1.8456156
20
115.7899896
11
1.8456156
21
115.5748896
0
LINE
8
DEFAULT_255_2_778
10
2.2117156
20
115.5595896
11
2.2117156
21
115.5597896
0
LINE
8
DEFAULT_255_2_778
10
2.763149
20
115.6489687
11
2.763149
21
115.5394687
0
LINE
8
DEFAULT_255_2_778
10
2.763149
20
115.5394687
11
2.437449
21
115.5394687
0
LINE
8
DEFAULT_255_2_778
10
2.437449
20
115.5394687
11
2.437449
21
115.6489687
0
LINE
8
DEFAULT_255_2_778
10
2.437449
20
115.6489687
11
2.763149
21
115.6489687
0
LINE
8
DEFAULT_255_2_778
10
2.763149
20
115.6489687
11
2.763149
21
115.6489687
0
ARC
8
DEFAULT_255_2_778
10
2.2916049
20
116.4022803
40
1.1857045
50
320.5271743
51
327.1505807
0
ARC
8
DEFAULT_255_2_778
10
2.8999781
20
116.0052883
40
0.4592825
50
327.5885698
51
333.2426697
0
ARC
8
DEFAULT_255_2_778
10
3.0699042
20
115.9184929
40
0.2684773
50
333.4557794
51
359.9190338
0
ARC
8
DEFAULT_255_2_778
10
3.139105
20
115.92619
40
0.1994398
50
357.6791149
51
39.8224829
0
ARC
8
DEFAULT_255_2_778
10
3.1757863
20
115.9524564
40
0.1544818
50
41.0530721
51
92.3020061
0
ARC
8
DEFAULT_255_2_778
10
3.1590947
20
115.9245595
40
0.1825554
50
86.7069422
51
136.633496
0
ARC
8
DEFAULT_255_2_778
10
3.2037046
20
115.9055159
40
0.2286794
50
140.8434441
51
183.211957
0
ARC
8
DEFAULT_255_2_778
10
3.3694172
20
115.8911149
40
0.3940361
50
179.7690848
51
180.000202
0
ARC
8
DEFAULT_255_2_778
10
3.1775653
20
115.9055576
40
0.3261041
50
137.2030364
51
182.5386245
0
ARC
8
DEFAULT_255_2_778
10
3.1553211
20
115.9115418
40
0.3059043
50
87.3280994
51
135.1944271
0
ARC
8
DEFAULT_255_2_778
10
3.1848462
20
115.9233237
40
0.2941862
50
48.0768132
51
92.9743325
0
ARC
8
DEFAULT_255_2_778
10
3.2048902
20
115.9571195
40
0.2557635
50
45.5865844
51
46.3591118
0
ARC
8
DEFAULT_255_2_778
10
3.1879552
20
115.9468081
40
0.2750239
50
357.3335409
51
44.569747
0
ARC
8
DEFAULT_255_2_778
10
3.0714171
20
115.9469997
40
0.3914796
50
331.9713866
51
358.0990382
0
ARC
8
DEFAULT_255_2_778
10
2.5973394
20
116.1809618
40
0.9200394
50
321.0203074
51
332.9836384
0
ARC
8
DEFAULT_255_2_778
10
2.1677889
20
116.5061253
40
1.4586055
50
319.6793643
51
321.705175
0
LINE
8
DEFAULT_255_2_778
10
3.5071813
20
115.2548135
11
3.5071813
21
115.1453135
0
LINE
8
DEFAULT_255_2_778
10
3.5071813
20
115.1453135
11
2.8705813
21
115.1453135
0
LINE
8
DEFAULT_255_2_778
10
2.8705813
20
115.1453135
11
2.8705813
21
115.2418135
0
LINE
8
DEFAULT_255_2_778
10
2.8705813
20
115.2418135
11
3.2068813
21
115.6485135
0
LINE
8
DEFAULT_255_2_778
10
2.9753813
20
115.8911135
11
2.8517813
21
115.8911135
0
LINE
8
DEFAULT_255_2_778
10
3.2798813
20
115.5623135
11
3.0194813
21
115.2551135
0
LINE
8
DEFAULT_255_2_778
10
3.0194813
20
115.2551135
11
3.5073813
21
115.2551135
0
LINE
8
DEFAULT_255_2_778
10
3.5073813
20
115.2551135
11
3.5071813
21
115.2548135
0
ARC
8
DEFAULT_255_2_778
10
3.2153511
20
115.5844246
40
1.0319304
50
349.7878705
51
0.6476881
0
ARC
8
DEFAULT_255_2_778
10
3.7949862
20
115.4740658
40
0.4419507
50
328.8251806
51
350.54568
0
ARC
8
DEFAULT_255_2_778
10
3.9592731
20
115.3854759
40
0.2556967
50
266.0402061
51
326.7528049
0
ARC
8
DEFAULT_255_2_778
10
3.9241914
20
115.3868904
40
0.2570919
50
214.144429
51
273.8861538
0
ARC
8
DEFAULT_255_2_778
10
4.0930556
20
115.4801612
40
0.4495435
50
189.0624269
51
211.9023431
0
ARC
8
DEFAULT_255_2_778
10
4.6202538
20
115.5819407
40
0.986347
50
180.2411325
51
190.0772772
0
ARC
8
DEFAULT_255_2_778
10
4.6276023
20
115.7694286
40
0.993762
50
169.2436194
51
180.7056624
0
ARC
8
DEFAULT_255_2_778
10
4.0717365
20
115.879695
40
0.4271084
50
148.3849132
51
169.8588103
0
ARC
8
DEFAULT_255_2_778
10
3.9218359
20
115.9597584
40
0.2576947
50
85.8876979
51
146.072334
0
ARC
8
DEFAULT_255_2_778
10
3.9552352
20
115.9435937
40
0.273603
50
48.145005
51
93.1258952
0
ARC
8
DEFAULT_255_2_778
10
3.9667191
20
115.9696112
40
0.2467188
50
33.9761738
51
46.0994162
0
ARC
8
DEFAULT_255_2_778
10
3.8129577
20
115.880755
40
0.4240624
50
9.3654207
51
32.32171
0
ARC
8
DEFAULT_255_2_778
10
3.2540537
20
115.7713648
40
0.9934627
50
359.9322232
51
10.344833
0
ARC
8
DEFAULT_255_2_778
10
3.2997533
20
115.7919362
40
0.823949
50
359.1692225
51
10.2758976
0
ARC
8
DEFAULT_255_2_778
10
3.8085978
20
115.885599
40
0.3065611
50
10.0163793
51
27.8241878
0
ARC
8
DEFAULT_255_2_778
10
3.9489431
20
115.9585419
40
0.1483986
50
28.2095281
51
93.3328775
0
ARC
8
DEFAULT_255_2_778
10
3.9318605
20
115.9602299
40
0.1467036
50
86.6959575
51
152.0943739
0
ARC
8
DEFAULT_255_2_778
10
4.1284491
20
115.8634751
40
0.3657734
50
153.1130258
51
174.3633845
0
ARC
8
DEFAULT_255_2_778
10
4.6548238
20
115.78809
40
0.8973102
50
172.8741219
51
179.8787044
0
ARC
8
DEFAULT_255_2_778
10
4.564124
20
115.5628405
40
0.8066983
50
179.1441852
51
190.8230713
0
ARC
8
DEFAULT_255_2_778
10
4.0847842
20
115.4707599
40
0.318595
50
190.7450701
51
207.8980126
0
ARC
8
DEFAULT_255_2_778
10
3.9361661
20
115.388833
40
0.1489431
50
206.7949581
51
272.0968121
0
ARC
8
DEFAULT_255_2_778
10
3.9486109
20
115.3857362
40
0.1459144
50
267.2521389
51
331.8914542
0
ARC
8
DEFAULT_255_2_778
10
3.7690381
20
115.4791299
40
0.3483167
50
332.2576145
51
353.4858335
0
ARC
8
DEFAULT_255_2_778
10
3.2289781
20
115.5627544
40
0.894643
50
352.0885659
51
359.7973117
0
LINE
8
DEFAULT_255_2_778
10
4.2472156
20
115.7703896
11
4.2472156
21
115.5960896
0
LINE
8
DEFAULT_255_2_778
10
3.6339156
20
115.5777896
11
3.6339156
21
115.7571896
0
LINE
8
DEFAULT_255_2_778
10
4.2475156
20
115.7701896
11
4.2472156
21
115.7703896
0
LINE
8
DEFAULT_255_2_778
10
4.1236156
20
115.5597896
11
4.1236156
21
115.7799896
0
LINE
8
DEFAULT_255_2_778
10
3.7575156
20
115.7899896
11
3.7575156
21
115.5748896
0
LINE
8
DEFAULT_255_2_778
10
4.1236156
20
115.5595896
11
4.1236156
21
115.5597896
0
ARC
8
DEFAULT_255_2_778
10
4.7428986
20
115.6878148
40
0.2577289
50
87.9718431
51
142.7595785
0
ARC
8
DEFAULT_255_2_778
10
4.769117
20
115.7420937
40
0.2040063
50
22.1110515
51
94.8074317
0
ARC
8
DEFAULT_255_2_778
10
5.1973994
20
115.6678411
40
0.2829631
50
120.9628655
51
147.738527
0
ARC
8
DEFAULT_255_2_778
10
5.1816425
20
115.6871108
40
0.2583578
50
88.5190097
51
120.1649946
0
ARC
8
DEFAULT_255_2_778
10
5.2021157
20
115.7080667
40
0.2377162
50
51.0645112
51
93.3270498
0
ARC
8
DEFAULT_255_2_778
10
5.1821111
20
115.7180924
40
0.243473
50
5.4225673
51
45.9130226
0
ARC
8
DEFAULT_255_2_778
10
4.9145987
20
115.6663376
40
0.5153478
50
0.5831062
51
8.3415107
0
ARC
8
DEFAULT_255_2_778
10
5.1031272
20
115.675841
40
0.203562
50
356.5475123
51
31.1086483
0
ARC
8
DEFAULT_255_2_778
10
5.1842045
20
115.7160933
40
0.1135907
50
34.8570438
51
40.3130408
0
ARC
8
DEFAULT_255_2_778
10
5.1703825
20
115.6900546
40
0.1413981
50
44.7393635
51
93.2942017
0
ARC
8
DEFAULT_255_2_778
10
5.1521114
20
115.5159502
40
0.315432
50
88.1567512
51
90.0166318
0
ARC
8
DEFAULT_255_2_778
10
5.1472675
20
115.675783
40
0.1556718
50
88.2506335
51
134.5701806
0
ARC
8
DEFAULT_255_2_778
10
5.1720968
20
115.6564007
40
0.186949
50
135.8225381
51
176.9087046
0
ARC
8
DEFAULT_255_2_778
10
4.6656359
20
115.6724028
40
0.196084
50
356.339024
51
33.8221077
0
ARC
8
DEFAULT_255_2_778
10
4.7193081
20
115.6882778
40
0.1436312
50
40.4934751
51
94.9079094
0
ARC
8
DEFAULT_255_2_778
10
4.6973032
20
115.6668597
40
0.1648093
50
86.620057
51
161.5997357
0
LINE
8
DEFAULT_255_2_778
10
4.4176198
20
115.9307823
11
4.5342198
21
115.9307823
0
LINE
8
DEFAULT_255_2_778
10
4.5342198
20
115.9307823
11
4.5377198
21
115.8437823
0
LINE
8
DEFAULT_255_2_778
10
5.4299198
20
115.6715823
11
5.4299198
21
115.1449823
0
LINE
8
DEFAULT_255_2_778
10
5.4299198
20
115.1449823
11
5.3063198
21
115.1449823
0
LINE
8
DEFAULT_255_2_778
10
5.3063198
20
115.1449823
11
5.3063198
21
115.6635823
0
LINE
8
DEFAULT_255_2_778
10
4.9854198
20
115.6664823
11
4.9854198
21
115.1449823
0
LINE
8
DEFAULT_255_2_778
10
4.9854198
20
115.1449823
11
4.8613198
21
115.1449823
0
LINE
8
DEFAULT_255_2_778
10
4.8613198
20
115.1449823
11
4.8613198
21
115.6598823
0
LINE
8
DEFAULT_255_2_778
10
4.5409198
20
115.7188823
11
4.5409198
21
115.1449823
0
LINE
8
DEFAULT_255_2_778
10
4.5409198
20
115.1449823
11
4.4173198
21
115.1449823
0
LINE
8
DEFAULT_255_2_778
10
4.4173198
20
115.1449823
11
4.4173198
21
115.9307823
0
LINE
8
DEFAULT_255_2_778
10
4.4173198
20
115.9307823
11
4.4176198
21
115.9307823
0
LINE
8
DEFAULT_255_2_778
10
6.2646656
20
115.1450698
11
6.1717656
21
115.4209698
0
LINE
8
DEFAULT_255_2_778
10
6.1717656
20
115.4209698
11
5.7648656
21
115.4209698
0
LINE
8
DEFAULT_255_2_778
10
5.7648656
20
115.4209698
11
5.6732656
21
115.1450698
0
LINE
8
DEFAULT_255_2_778
10
5.6732656
20
115.1450698
11
5.5412656
21
115.1450698
0
LINE
8
DEFAULT_255_2_778
10
5.5412656
20
115.1450698
11
5.9121656
21
116.2025698
0
LINE
8
DEFAULT_255_2_778
10
5.9121656
20
116.2025698
11
6.0243656
21
116.2025698
0
LINE
8
DEFAULT_255_2_778
10
6.0243656
20
116.2025698
11
6.3961656
21
115.1450698
0
LINE
8
DEFAULT_255_2_778
10
6.3961656
20
115.1450698
11
6.2646656
21
115.1450698
0
LINE
8
DEFAULT_255_2_778
10
6.2646656
20
115.1450698
11
6.2646656
21
115.1450698
0
LINE
8
DEFAULT_255_2_778
10
5.9682656
20
116.0303698
11
5.8034656
21
115.5358698
0
LINE
8
DEFAULT_255_2_778
10
5.8034656
20
115.5358698
11
6.1339656
21
115.5358698
0
LINE
8
DEFAULT_255_2_778
10
6.1339656
20
115.5358698
11
5.9682656
21
116.0303698
0
LINE
8
DEFAULT_255_2_778
10
5.9682656
20
116.0303698
11
5.9682656
21
116.0303698
0
LINE
8
DEFAULT_255_2_778
10
2.2472948
20
113.8929698
11
2.2472948
21
113.1907698
0
LINE
8
DEFAULT_255_2_778
10
2.2472948
20
113.1907698
11
2.3821948
21
113.1907698
0
LINE
8
DEFAULT_255_2_778
10
2.3821948
20
113.1907698
11
2.3821948
21
113.0812698
0
LINE
8
DEFAULT_255_2_778
10
2.3821948
20
113.0812698
11
2.2472948
21
113.0812698
0
LINE
8
DEFAULT_255_2_778
10
2.2472948
20
113.0812698
11
2.2472948
21
112.8357698
0
LINE
8
DEFAULT_255_2_778
10
2.2472948
20
112.8357698
11
2.1231948
21
112.8357698
0
LINE
8
DEFAULT_255_2_778
10
2.1231948
20
112.8357698
11
2.1231948
21
113.0812698
0
LINE
8
DEFAULT_255_2_778
10
2.1231948
20
113.0812698
11
1.6807948
21
113.0812698
0
LINE
8
DEFAULT_255_2_778
10
1.6807948
20
113.0812698
11
1.6807948
21
113.1603698
0
LINE
8
DEFAULT_255_2_778
10
1.6807948
20
113.1603698
11
2.1159948
21
113.8932698
0
LINE
8
DEFAULT_255_2_778
10
2.1159948
20
113.8932698
11
2.2474948
21
113.8932698
0
LINE
8
DEFAULT_255_2_778
10
2.2474948
20
113.8932698
11
2.2472948
21
113.8929698
0
LINE
8
DEFAULT_255_2_778
10
2.1083948
20
113.6802698
11
1.8207948
21
113.1907698
0
LINE
8
DEFAULT_255_2_778
10
1.8207948
20
113.1907698
11
2.1231948
21
113.1907698
0
LINE
8
DEFAULT_255_2_778
10
2.1231948
20
113.1907698
11
2.1231948
21
113.7093698
0
LINE
8
DEFAULT_255_2_778
10
2.1231948
20
113.7093698
11
2.1085948
21
113.6802698
0
LINE
8
DEFAULT_255_2_778
10
2.1085948
20
113.6802698
11
2.1083948
21
113.6802698
0
LINE
8
DEFAULT_255_2_778
10
2.763149
20
113.3394687
11
2.763149
21
113.2299687
0
LINE
8
DEFAULT_255_2_778
10
2.763149
20
113.2299687
11
2.437449
21
113.2299687
0
LINE
8
DEFAULT_255_2_778
10
2.437449
20
113.2299687
11
2.437449
21
113.3394687
0
LINE
8
DEFAULT_255_2_778
10
2.437449
20
113.3394687
11
2.763149
21
113.3394687
0
LINE
8
DEFAULT_255_2_778
10
2.763149
20
113.3394687
11
2.763149
21
113.3394687
0
ARC
8
DEFAULT_255_2_778
10
2.2919049
20
114.0926803
40
1.1857045
50
320.5271743
51
327.1505807
0
ARC
8
DEFAULT_255_2_778
10
2.9002781
20
113.6956883
40
0.4592825
50
327.5885698
51
333.2426697
0
ARC
8
DEFAULT_255_2_778
10
3.0702042
20
113.6088929
40
0.2684773
50
333.4557794
51
359.9190338
0
ARC
8
DEFAULT_255_2_778
10
3.139405
20
113.61659
40
0.1994398
50
357.6791149
51
39.8224829
0
ARC
8
DEFAULT_255_2_778
10
3.1760863
20
113.6428564
40
0.1544818
50
41.0530721
51
92.3020061
0
ARC
8
DEFAULT_255_2_778
10
3.1593947
20
113.6149595
40
0.1825554
50
86.7069422
51
136.633496
0
ARC
8
DEFAULT_255_2_778
10
3.2040046
20
113.5959159
40
0.2286794
50
140.8434441
51
183.211957
0
ARC
8
DEFAULT_255_2_778
10
3.3697172
20
113.5815149
40
0.3940361
50
179.7690848
51
180.000202
0
ARC
8
DEFAULT_255_2_778
10
3.1778653
20
113.5959576
40
0.3261041
50
137.2030364
51
182.5386245
0
ARC
8
DEFAULT_255_2_778
10
3.1556211
20
113.6019418
40
0.3059043
50
87.3280994
51
135.1944271
0
ARC
8
DEFAULT_255_2_778
10
3.1851462
20
113.6137237
40
0.2941862
50
48.0768132
51
92.9743325
0
ARC
8
DEFAULT_255_2_778
10
3.2051902
20
113.6475195
40
0.2557635
50
45.5865844
51
46.3591118
0
ARC
8
DEFAULT_255_2_778
10
3.1882552
20
113.6372081
40
0.2750239
50
357.3335409
51
44.569747
0
ARC
8
DEFAULT_255_2_778
10
3.0717171
20
113.6373997
40
0.3914796
50
331.9713866
51
358.0990382
0
ARC
8
DEFAULT_255_2_778
10
2.5976394
20
113.8713618
40
0.9200394
50
321.0203074
51
332.9836384
0
ARC
8
DEFAULT_255_2_778
10
2.1680889
20
114.1965253
40
1.4586055
50
319.6793643
51
321.705175
0
LINE
8
DEFAULT_255_2_778
10
3.5074813
20
112.9452135
11
3.5074813
21
112.8357135
0
LINE
8
DEFAULT_255_2_778
10
3.5074813
20
112.8357135
11
2.8708813
21
112.8357135
0
LINE
8
DEFAULT_255_2_778
10
2.8708813
20
112.8357135
11
2.8708813
21
112.9322135
0
LINE
8
DEFAULT_255_2_778
10
2.8708813
20
112.9322135
11
3.2071813
21
113.3389135
0
LINE
8
DEFAULT_255_2_778
10
2.9756813
20
113.5815135
11
2.8520813
21
113.5815135
0
LINE
8
DEFAULT_255_2_778
10
3.2801813
20
113.2527135
11
3.0197813
21
112.9455135
0
LINE
8
DEFAULT_255_2_778
10
3.0197813
20
112.9455135
11
3.5076813
21
112.9455135
0
LINE
8
DEFAULT_255_2_778
10
3.5076813
20
112.9455135
11
3.5074813
21
112.9452135
0
ARC
8
DEFAULT_255_2_778
10
3.2156511
20
113.2749246
40
1.0319304
50
349.7878705
51
0.6476881
0
ARC
8
DEFAULT_255_2_778
10
3.7952862
20
113.1645658
40
0.4419507
50
328.8251806
51
350.54568
0
ARC
8
DEFAULT_255_2_778
10
3.9595731
20
113.0759759
40
0.2556967
50
266.0402061
51
326.7528049
0
ARC
8
DEFAULT_255_2_778
10
3.9244914
20
113.0773904
40
0.2570919
50
214.144429
51
273.8861538
0
ARC
8
DEFAULT_255_2_778
10
4.0933556
20
113.1706612
40
0.4495435
50
189.0624269
51
211.9023431
0
ARC
8
DEFAULT_255_2_778
10
4.6205538
20
113.2724407
40
0.986347
50
180.2411325
51
190.0772772
0
ARC
8
DEFAULT_255_2_778
10
4.6279023
20
113.4599286
40
0.993762
50
169.2436194
51
180.7056624
0
ARC
8
DEFAULT_255_2_778
10
4.0720365
20
113.570195
40
0.4271084
50
148.3849132
51
169.8588103
0
ARC
8
DEFAULT_255_2_778
10
3.9221359
20
113.6502584
40
0.2576947
50
85.8876979
51
146.072334
0
ARC
8
DEFAULT_255_2_778
10
3.9555352
20
113.6340937
40
0.273603
50
48.145005
51
93.1258952
0
ARC
8
DEFAULT_255_2_778
10
3.9670191
20
113.6601112
40
0.2467188
50
33.9761738
51
46.0994162
0
ARC
8
DEFAULT_255_2_778
10
3.8132577
20
113.571255
40
0.4240624
50
9.3654207
51
32.32171
0
ARC
8
DEFAULT_255_2_778
10
3.2543537
20
113.4618648
40
0.9934627
50
359.9322232
51
10.344833
0
ARC
8
DEFAULT_255_2_778
10
3.3000533
20
113.4824362
40
0.823949
50
359.1692225
51
10.2758976
0
ARC
8
DEFAULT_255_2_778
10
3.8088978
20
113.576099
40
0.3065611
50
10.0163793
51
27.8241878
0
ARC
8
DEFAULT_255_2_778
10
3.9492431
20
113.6490419
40
0.1483986
50
28.2095281
51
93.3328775
0
ARC
8
DEFAULT_255_2_778
10
3.9321605
20
113.6507299
40
0.1467036
50
86.6959575
51
152.0943739
0
ARC
8
DEFAULT_255_2_778
10
4.1287491
20
113.5539751
40
0.3657734
50
153.1130258
51
174.3633845
0
ARC
8
DEFAULT_255_2_778
10
4.6551238
20
113.47859
40
0.8973102
50
172.8741219
51
179.8787044
0
ARC
8
DEFAULT_255_2_778
10
4.564424
20
113.2533405
40
0.8066983
50
179.1441852
51
190.8230713
0
ARC
8
DEFAULT_255_2_778
10
4.0850842
20
113.1612599
40
0.318595
50
190.7450701
51
207.8980126
0
ARC
8
DEFAULT_255_2_778
10
3.9364661
20
113.079333
40
0.1489431
50
206.7949581
51
272.0968121
0
ARC
8
DEFAULT_255_2_778
10
3.9489109
20
113.0762362
40
0.1459144
50
267.2521389
51
331.8914542
0
ARC
8
DEFAULT_255_2_778
10
3.7693381
20
113.1696299
40
0.3483167
50
332.2576145
51
353.4858335
0
ARC
8
DEFAULT_255_2_778
10
3.2292781
20
113.2532544
40
0.894643
50
352.0885659
51
359.7973117
0
LINE
8
DEFAULT_255_2_778
10
4.2475156
20
113.4608896
11
4.2475156
21
113.2865896
0
LINE
8
DEFAULT_255_2_778
10
3.6342156
20
113.2682896
11
3.6342156
21
113.4476896
0
LINE
8
DEFAULT_255_2_778
10
4.2478156
20
113.4606896
11
4.2475156
21
113.4608896
0
LINE
8
DEFAULT_255_2_778
10
4.1239156
20
113.2502896
11
4.1239156
21
113.4704896
0
LINE
8
DEFAULT_255_2_778
10
3.7578156
20
113.4804896
11
3.7578156
21
113.2653896
0
LINE
8
DEFAULT_255_2_778
10
4.1239156
20
113.2500896
11
4.1239156
21
113.2502896
0
ARC
8
DEFAULT_255_2_778
10
4.7428986
20
113.3782148
40
0.2577289
50
87.9718431
51
142.7595785
0
ARC
8
DEFAULT_255_2_778
10
4.769117
20
113.4324937
40
0.2040063
50
22.1110515
51
94.8074317
0
ARC
8
DEFAULT_255_2_778
10
5.1973994
20
113.3582411
40
0.2829631
50
120.9628655
51
147.738527
0
ARC
8
DEFAULT_255_2_778
10
5.1816425
20
113.3775108
40
0.2583578
50
88.5190097
51
120.1649946
0
ARC
8
DEFAULT_255_2_778
10
5.2021157
20
113.3984667
40
0.2377162
50
51.0645112
51
93.3270498
0
ARC
8
DEFAULT_255_2_778
10
5.1821111
20
113.4084924
40
0.243473
50
5.4225673
51
45.9130226
0
ARC
8
DEFAULT_255_2_778
10
4.9145987
20
113.3567376
40
0.5153478
50
0.5831062
51
8.3415107
0
ARC
8
DEFAULT_255_2_778
10
5.1031272
20
113.366241
40
0.203562
50
356.5475123
51
31.1086483
0
ARC
8
DEFAULT_255_2_778
10
5.1842045
20
113.4064933
40
0.1135907
50
34.8570438
51
40.3130408
0
ARC
8
DEFAULT_255_2_778
10
5.1703825
20
113.3804546
40
0.1413981
50
44.7393635
51
93.2942017
0
ARC
8
DEFAULT_255_2_778
10
5.1521114
20
113.2063502
40
0.315432
50
88.1567512
51
90.0166318
0
ARC
8
DEFAULT_255_2_778
10
5.1472675
20
113.366183
40
0.1556718
50
88.2506335
51
134.5701806
0
ARC
8
DEFAULT_255_2_778
10
5.1720968
20
113.3468007
40
0.186949
50
135.8225381
51
176.9087046
0
ARC
8
DEFAULT_255_2_778
10
4.6656359
20
113.3628028
40
0.196084
50
356.339024
51
33.8221077
0
ARC
8
DEFAULT_255_2_778
10
4.7193081
20
113.3786778
40
0.1436312
50
40.4934751
51
94.9079094
0
ARC
8
DEFAULT_255_2_778
10
4.6973032
20
113.3572597
40
0.1648093
50
86.620057
51
161.5997357
0
LINE
8
DEFAULT_255_2_778
10
4.4176198
20
113.6211823
11
4.5342198
21
113.6211823
0
LINE
8
DEFAULT_255_2_778
10
4.5342198
20
113.6211823
11
4.5377198
21
113.5341823
0
LINE
8
DEFAULT_255_2_778
10
5.4299198
20
113.3619823
11
5.4299198
21
112.8353823
0
LINE
8
DEFAULT_255_2_778
10
5.4299198
20
112.8353823
11
5.3063198
21
112.8353823
0
LINE
8
DEFAULT_255_2_778
10
5.3063198
20
112.8353823
11
5.3063198
21
113.3539823
0
LINE
8
DEFAULT_255_2_778
10
4.9854198
20
113.3568823
11
4.9854198
21
112.8353823
0
LINE
8
DEFAULT_255_2_778
10
4.9854198
20
112.8353823
11
4.8613198
21
112.8353823
0
LINE
8
DEFAULT_255_2_778
10
4.8613198
20
112.8353823
11
4.8613198
21
113.3502823
0
LINE
8
DEFAULT_255_2_778
10
4.5409198
20
113.4092823
11
4.5409198
21
112.8353823
0
LINE
8
DEFAULT_255_2_778
10
4.5409198
20
112.8353823
11
4.4173198
21
112.8353823
0
LINE
8
DEFAULT_255_2_778
10
4.4173198
20
112.8353823
11
4.4173198
21
113.6211823
0
LINE
8
DEFAULT_255_2_778
10
4.4173198
20
113.6211823
11
4.4176198
21
113.6211823
0
LINE
8
DEFAULT_255_2_778
10
6.2648656
20
112.8354698
11
6.1720656
21
113.1113698
0
LINE
8
DEFAULT_255_2_778
10
6.1720656
20
113.1113698
11
5.7648656
21
113.1113698
0
LINE
8
DEFAULT_255_2_778
10
5.7648656
20
113.1113698
11
5.6732656
21
112.8354698
0
LINE
8
DEFAULT_255_2_778
10
5.6732656
20
112.8354698
11
5.5412656
21
112.8354698
0
LINE
8
DEFAULT_255_2_778
10
5.5412656
20
112.8354698
11
5.9121656
21
113.8929698
0
LINE
8
DEFAULT_255_2_778
10
5.9121656
20
113.8929698
11
6.0243656
21
113.8929698
0
LINE
8
DEFAULT_255_2_778
10
6.0243656
20
113.8929698
11
6.3961656
21
112.8354698
0
LINE
8
DEFAULT_255_2_778
10
6.3961656
20
112.8354698
11
6.2646656
21
112.8354698
0
LINE
8
DEFAULT_255_2_778
10
6.2646656
20
112.8354698
11
6.2648656
21
112.8354698
0
LINE
8
DEFAULT_255_2_778
10
5.9685656
20
113.7207698
11
5.8037656
21
113.2262698
0
LINE
8
DEFAULT_255_2_778
10
5.8037656
20
113.2262698
11
6.1341656
21
113.2262698
0
LINE
8
DEFAULT_255_2_778
10
6.1341656
20
113.2262698
11
5.9685656
21
113.7207698
0
LINE
8
DEFAULT_255_2_778
10
5.9685656
20
113.7207698
11
5.9685656
21
113.7207698
0
LINE
8
DEFAULT_255_2_778
10
9.6376021
20
135.5033041
11
9.6376021
21
134.1751041
0
LINE
8
DEFAULT_255_2_778
10
9.6376021
20
134.1751041
11
9.4825021
21
134.1751041
0
LINE
8
DEFAULT_255_2_778
10
9.4825021
20
134.1751041
11
9.4825021
21
135.2945041
0
LINE
8
DEFAULT_255_2_778
10
9.4825021
20
135.2945041
11
9.1714021
21
135.1702041
0
LINE
8
DEFAULT_255_2_778
10
9.1714021
20
135.1702041
11
9.1714021
21
135.3226041
0
LINE
8
DEFAULT_255_2_778
10
9.1714021
20
135.3226041
11
9.6135021
21
135.5033041
0
LINE
8
DEFAULT_255_2_778
10
9.6135021
20
135.5033041
11
9.6376021
21
135.5033041
0
LINE
8
DEFAULT_255_2_778
10
9.6376021
20
135.5033041
11
9.6376021
21
135.5033041
0
ARC
8
DEFAULT_255_2_778
10
10.6589279
20
134.9607808
40
0.3947563
50
88.8251368
51
131.4955754
0
ARC
8
DEFAULT_255_2_778
10
10.6469136
20
134.9858682
40
0.3680844
50
132.6822711
51
136.4756983
0
ARC
8
DEFAULT_255_2_778
10
10.7181189
20
134.933064
40
0.4562053
50
137.8258135
51
170.5962395
0
ARC
8
DEFAULT_255_2_778
10
11.0089298
20
134.8629694
40
0.754871
50
168.9537532
51
175.4651116
0
ARC
8
DEFAULT_255_2_778
10
10.5051147
20
134.7251514
40
0.3175775
50
87.6165381
51
141.5446863
0
ARC
8
DEFAULT_255_2_778
10
10.5278859
20
134.7381078
40
0.3044966
50
36.8577605
51
91.7999196
0
ARC
8
DEFAULT_255_2_778
10
10.3932275
20
134.6388936
40
0.4717542
50
2.1495933
51
36.6891478
0
ARC
8
DEFAULT_255_2_778
10
10.1406053
20
134.6073478
40
0.7257168
50
359.9531281
51
3.8905702
0
ARC
8
DEFAULT_255_2_778
10
10.2977286
20
134.5935843
40
0.5687458
50
337.2712557
51
1.3268521
0
ARC
8
DEFAULT_255_2_778
10
10.4572403
20
134.5351211
40
0.3991071
50
320.2570377
51
336.164753
0
ARC
8
DEFAULT_255_2_778
10
10.503287
20
134.4956791
40
0.338485
50
267.7540208
51
320.4073559
0
ARC
8
DEFAULT_255_2_778
10
10.4846469
20
134.4941942
40
0.336783
50
214.5380127
51
270.9144626
0
ARC
8
DEFAULT_255_2_778
10
10.6676818
20
134.6327128
40
0.5661857
50
184.4445383
51
215.5836829
0
ARC
8
DEFAULT_255_2_778
10
10.9698555
20
134.677054
40
0.8711352
50
179.8947553
51
185.8121362
0
ARC
8
DEFAULT_255_2_778
10
11.490037
20
134.7557161
40
1.3913709
50
169.4157834
51
180.513184
0
ARC
8
DEFAULT_255_2_778
10
10.8674706
20
134.8775783
40
0.7570326
50
150.0193432
51
169.8271634
0
ARC
8
DEFAULT_255_2_778
10
10.6861235
20
134.9718312
40
0.5529248
50
143.4702627
51
149.0888551
0
ARC
8
DEFAULT_255_2_778
10
10.6315651
20
135.0078884
40
0.4876344
50
93.3043755
51
143.0588212
0
ARC
8
DEFAULT_255_2_778
10
10.6792314
20
134.7261501
40
0.7722884
50
90.8464968
51
95.6306753
0
ARC
8
DEFAULT_255_2_778
10
10.4931136
20
134.6698635
40
0.2326909
50
90.0964574
51
129.0172965
0
ARC
8
DEFAULT_255_2_778
10
10.509581
20
134.6365325
40
0.2690795
50
127.273266
51
161.7599326
0
ARC
8
DEFAULT_255_2_778
10
10.7827383
20
134.6462474
40
0.5288715
50
178.6124387
51
200.9692265
0
ARC
8
DEFAULT_255_2_778
10
10.6031956
20
134.5854813
40
0.3395564
50
202.2366371
51
213.9490572
0
ARC
8
DEFAULT_255_2_778
10
10.49375
20
134.4944944
40
0.1984753
50
209.8010657
51
268.9237
0
ARC
8
DEFAULT_255_2_778
10
10.4961479
20
134.4868867
40
0.1909308
50
268.1613358
51
325.8313871
0
ARC
8
DEFAULT_255_2_778
10
10.3590166
20
134.5753323
40
0.3540862
50
326.4524668
51
359.7288753
0
ARC
8
DEFAULT_255_2_778
10
10.130954
20
134.5983396
40
0.582668
50
357.5721271
51
0.0210984
0
ARC
8
DEFAULT_255_2_778
10
10.3202029
20
134.6116751
40
0.3936378
50
358.0898342
51
26.8912414
0
ARC
8
DEFAULT_255_2_778
10
10.4300422
20
134.6577769
40
0.2749572
50
28.6759928
51
35.8100077
0
ARC
8
DEFAULT_255_2_778
10
10.4960127
20
134.7137687
40
0.1888196
50
33.743765
51
91.0896666
0
LINE
8
DEFAULT_255_2_778
10
10.6678219
20
135.4980541
11
10.6953219
21
135.4980541
0
LINE
8
DEFAULT_255_2_778
10
10.6953219
20
135.4980541
11
10.6953219
21
135.3554541
0
LINE
8
DEFAULT_255_2_778
10
10.6953219
20
135.3554541
11
10.6670219
21
135.3554541
0
LINE
8
DEFAULT_255_2_778
10
10.0987219
20
134.6786541
11
10.0987219
21
134.7432541
0
LINE
8
DEFAULT_255_2_778
10
10.6678219
20
135.4983541
11
10.6678219
21
135.4980541
0
LINE
8
DEFAULT_255_2_778
10
10.2540219
20
134.7207541
11
10.2540219
21
134.6590541
0
LINE
8
DEFAULT_255_2_778
10
10.4924219
20
134.9025541
11
10.4927219
21
134.9025541
0
ARC
8
DEFAULT_255_2_778
10
11.8246111
20
134.6439658
40
0.5831126
50
331.4647177
51
355.165355
0
ARC
8
DEFAULT_255_2_778
10
11.9809167
20
134.5675322
40
0.4093511
50
313.6262271
51
330.4123121
0
ARC
8
DEFAULT_255_2_778
10
11.9726771
20
134.5875989
40
0.4296338
50
270.5919683
51
312.5751956
0
ARC
8
DEFAULT_255_2_778
10
11.9453051
20
134.8170554
40
0.6598347
50
269.9777573
51
272.7633147
0
ARC
8
DEFAULT_255_2_778
10
11.9334143
20
134.5717676
40
0.41471
50
216.4772858
51
271.607648
0
ARC
8
DEFAULT_255_2_778
10
12.099831
20
134.6969808
40
0.6229667
50
188.0515588
51
216.6380142
0
ARC
8
DEFAULT_255_2_778
10
12.4841666
20
134.7694948
40
1.0138296
50
179.72161
51
189.0670338
0
ARC
8
DEFAULT_255_2_778
10
12.3079849
20
134.91467
40
0.8377407
50
160.8200987
51
180.9061898
0
ARC
8
DEFAULT_255_2_778
10
12.123895
20
134.9684723
40
0.6462655
50
156.5627466
51
159.9632723
0
ARC
8
DEFAULT_255_2_778
10
11.9783332
20
135.0439454
40
0.4828274
50
124.8618848
51
157.9097236
0
ARC
8
DEFAULT_255_2_778
10
11.9504858
20
135.0670561
40
0.4480504
50
88.8793134
51
123.6291057
0
ARC
8
DEFAULT_255_2_778
10
11.9743079
20
135.0786512
40
0.4366294
50
55.2606389
51
91.9764653
0
ARC
8
DEFAULT_255_2_778
10
11.9963542
20
135.1261405
40
0.3851457
50
44.7986132
51
53.929841
0
ARC
8
DEFAULT_255_2_778
10
11.9236094
20
135.0674617
40
0.4782075
50
8.8392512
51
43.6459927
0
ARC
8
DEFAULT_255_2_778
10
11.6581851
20
135.003886
40
0.750572
50
5.2159874
51
10.5215471
0
ARC
8
DEFAULT_255_2_778
10
11.71624
20
135.0144637
40
0.5314459
50
6.2283414
51
24.1972367
0
ARC
8
DEFAULT_255_2_778
10
11.9691992
20
135.1243656
40
0.2556882
50
24.9673752
51
43.7014475
0
ARC
8
DEFAULT_255_2_778
10
11.9757991
20
135.1134675
40
0.2587455
50
46.4568923
51
92.802567
0
ARC
8
DEFAULT_255_2_778
10
11.9592332
20
134.9315674
40
0.4403535
50
89.4906412
51
89.9979494
0
ARC
8
DEFAULT_255_2_778
10
11.9502124
20
135.0933479
40
0.2787195
50
88.1420413
51
146.2191627
0
ARC
8
DEFAULT_255_2_778
10
12.1143546
20
134.9845946
40
0.4756192
50
146.3243846
51
171.7164912
0
ARC
8
DEFAULT_255_2_778
10
12.550295
20
134.9034458
40
0.9188693
50
170.6254878
51
180.4068638
0
ARC
8
DEFAULT_255_2_778
10
12.4141773
20
134.7562462
40
0.7828309
50
179.0723008
51
195.6007954
0
ARC
8
DEFAULT_255_2_778
10
12.100484
20
134.6729102
40
0.4583009
50
196.1129664
51
212.5214193
0
ARC
8
DEFAULT_255_2_778
10
11.9379139
20
134.5601255
40
0.2607023
50
210.8291465
51
271.5683107
0
ARC
8
DEFAULT_255_2_778
10
11.9580041
20
134.627197
40
0.3279322
50
267.7359145
51
298.1491342
0
ARC
8
DEFAULT_255_2_778
10
12.004894
20
134.5226986
40
0.2138205
50
300.2813085
51
312.6455
0
ARC
8
DEFAULT_255_2_778
10
11.9477732
20
134.565388
40
0.2842201
50
315.2863098
51
345.4152803
0
ARC
8
DEFAULT_255_2_778
10
11.5871017
20
134.6835918
40
0.6634534
50
343.3790324
51
352.2845447
0
LINE
8
DEFAULT_255_2_778
10
12.244549
20
134.5948208
11
12.405649
21
134.5948208
0
LINE
8
DEFAULT_255_2_778
10
11.470349
20
134.7744208
11
11.470349
21
134.9014208
0
LINE
8
DEFAULT_255_2_778
10
12.405649
20
135.0721208
11
12.244549
21
135.0721208
0
LINE
8
DEFAULT_255_2_778
10
11.631449
20
134.8969208
11
11.631449
21
134.7689208
0
LINE
8
DEFAULT_255_2_778
10
12.244549
20
134.5945208
11
12.244549
21
134.5948208
0
LINE
8
DEFAULT_255_2_778
10
13.557575
20
135.4970291
11
13.557575
21
134.1751291
0
LINE
8
DEFAULT_255_2_778
10
13.557575
20
134.1751291
11
13.396475
21
134.1751291
0
LINE
8
DEFAULT_255_2_778
10
13.396475
20
134.1751291
11
13.396475
21
134.7861291
0
LINE
8
DEFAULT_255_2_778
10
13.396475
20
134.7861291
11
12.784275
21
134.7861291
0
LINE
8
DEFAULT_255_2_778
10
12.784275
20
134.7861291
11
12.784275
21
134.1751291
0
LINE
8
DEFAULT_255_2_778
10
12.784275
20
134.1751291
11
12.624175
21
134.1751291
0
LINE
8
DEFAULT_255_2_778
10
12.624175
20
134.1751291
11
12.624175
21
135.4970291
0
LINE
8
DEFAULT_255_2_778
10
12.624175
20
135.4970291
11
12.784275
21
135.4970291
0
LINE
8
DEFAULT_255_2_778
10
12.784275
20
135.4970291
11
12.784275
21
134.9287291
0
LINE
8
DEFAULT_255_2_778
10
12.784275
20
134.9287291
11
13.396475
21
134.9287291
0
LINE
8
DEFAULT_255_2_778
10
13.396475
20
134.9287291
11
13.396475
21
135.4970291
0
LINE
8
DEFAULT_255_2_778
10
13.396475
20
135.4970291
11
13.557575
21
135.4970291
0
LINE
8
DEFAULT_255_2_778
10
13.557575
20
135.4970291
11
13.557575
21
135.4970291
0
LINE
8
DEFAULT_255_2_778
10
14.643774
20
134.1751291
11
14.527874
21
134.5202291
0
LINE
8
DEFAULT_255_2_778
10
14.527874
20
134.5202291
11
14.019074
21
134.5202291
0
LINE
8
DEFAULT_255_2_778
10
14.019074
20
134.5202291
11
13.904774
21
134.1751291
0
LINE
8
DEFAULT_255_2_778
10
13.904774
20
134.1751291
11
13.739674
21
134.1751291
0
LINE
8
DEFAULT_255_2_778
10
13.739674
20
134.1751291
11
14.203474
21
135.4970291
0
LINE
8
DEFAULT_255_2_778
10
14.203474
20
135.4970291
11
14.343674
21
135.4970291
0
LINE
8
DEFAULT_255_2_778
10
14.343674
20
135.4970291
11
14.808374
21
134.1751291
0
LINE
8
DEFAULT_255_2_778
10
14.808374
20
134.1751291
11
14.643974
21
134.1751291
0
LINE
8
DEFAULT_255_2_778
10
14.643974
20
134.1751291
11
14.643774
21
134.1751291
0
LINE
8
DEFAULT_255_2_778
10
14.273374
20
135.2819291
11
14.067274
21
134.6636291
0
LINE
8
DEFAULT_255_2_778
10
14.067274
20
134.6636291
11
14.480274
21
134.6636291
0
LINE
8
DEFAULT_255_2_778
10
14.480274
20
134.6636291
11
14.273374
21
135.2819291
0
LINE
8
DEFAULT_255_2_778
10
14.273374
20
135.2819291
11
14.273374
21
135.2819291
0
LINE
8
DEFAULT_255_2_778
10
15.9050427
20
135.4970291
11
15.9050427
21
134.1751291
0
LINE
8
DEFAULT_255_2_778
10
15.9050427
20
134.1751291
11
15.7439427
21
134.1751291
0
LINE
8
DEFAULT_255_2_778
10
15.7439427
20
134.1751291
11
15.1324427
21
135.1938291
0
LINE
8
DEFAULT_255_2_778
10
15.1324427
20
135.1938291
11
15.1324427
21
134.1751291
0
LINE
8
DEFAULT_255_2_778
10
15.1324427
20
134.1751291
11
14.9713427
21
134.1751291
0
LINE
8
DEFAULT_255_2_778
10
14.9713427
20
134.1751291
11
14.9713427
21
135.4970291
0
LINE
8
DEFAULT_255_2_778
10
14.9713427
20
135.4970291
11
15.1324427
21
135.4970291
0
LINE
8
DEFAULT_255_2_778
10
15.1324427
20
135.4970291
11
15.7455427
21
134.4739291
0
LINE
8
DEFAULT_255_2_778
10
15.7455427
20
134.4739291
11
15.7455427
21
135.4970291
0
LINE
8
DEFAULT_255_2_778
10
15.7455427
20
135.4970291
11
15.9047427
21
135.4970291
0
LINE
8
DEFAULT_255_2_778
10
15.9047427
20
135.4970291
11
15.9050427
21
135.4970291
0
LINE
8
DEFAULT_255_2_778
10
17.1228427
20
135.4970291
11
17.1228427
21
134.1751291
0
LINE
8
DEFAULT_255_2_778
10
17.1228427
20
134.1751291
11
16.9617427
21
134.1751291
0
LINE
8
DEFAULT_255_2_778
10
16.9617427
20
134.1751291
11
16.3502427
21
135.1938291
0
LINE
8
DEFAULT_255_2_778
10
16.3502427
20
135.1938291
11
16.3502427
21
134.1751291
0
LINE
8
DEFAULT_255_2_778
10
16.3502427
20
134.1751291
11
16.1891427
21
134.1751291
0
LINE
8
DEFAULT_255_2_778
10
16.1891427
20
134.1751291
11
16.1891427
21
135.4970291
0
LINE
8
DEFAULT_255_2_778
10
16.1891427
20
135.4970291
11
16.3502427
21
135.4970291
0
LINE
8
DEFAULT_255_2_778
10
16.3502427
20
135.4970291
11
16.9633427
21
134.4739291
0
LINE
8
DEFAULT_255_2_778
10
16.9633427
20
134.4739291
11
16.9633427
21
135.4970291
0
LINE
8
DEFAULT_255_2_778
10
16.9633427
20
135.4970291
11
17.1225427
21
135.4970291
0
LINE
8
DEFAULT_255_2_778
10
17.1225427
20
135.4970291
11
17.1228427
21
135.4970291
0
LINE
8
DEFAULT_255_2_778
10
18.0939375
20
134.9286291
11
18.0939375
21
134.7860291
0
LINE
8
DEFAULT_255_2_778
10
18.0939375
20
134.7860291
11
17.5677375
21
134.7860291
0
LINE
8
DEFAULT_255_2_778
10
17.5677375
20
134.7860291
11
17.5677375
21
134.3175291
0
LINE
8
DEFAULT_255_2_778
10
17.5677375
20
134.3175291
11
18.1791375
21
134.3175291
0
LINE
8
DEFAULT_255_2_778
10
18.1791375
20
134.3175291
11
18.1791375
21
134.1748291
0
LINE
8
DEFAULT_255_2_778
10
18.1791375
20
134.1748291
11
17.4076375
21
134.1748291
0
LINE
8
DEFAULT_255_2_778
10
17.4076375
20
134.1748291
11
17.4076375
21
135.4967291
0
LINE
8
DEFAULT_255_2_778
10
17.4076375
20
135.4967291
11
18.1709375
21
135.4967291
0
LINE
8
DEFAULT_255_2_778
10
18.1709375
20
135.4967291
11
18.1709375
21
135.3533291
0
LINE
8
DEFAULT_255_2_778
10
18.1709375
20
135.3533291
11
17.5677375
21
135.3533291
0
LINE
8
DEFAULT_255_2_778
10
17.5677375
20
135.3533291
11
17.5677375
21
134.9284291
0
LINE
8
DEFAULT_255_2_778
10
17.5677375
20
134.9284291
11
18.0939375
21
134.9284291
0
LINE
8
DEFAULT_255_2_778
10
18.0939375
20
134.9284291
11
18.0939375
21
134.9286291
0
LINE
8
DEFAULT_255_2_778
10
18.5395
20
135.4970291
11
18.5395
21
134.3178291
0
LINE
8
DEFAULT_255_2_778
10
18.5395
20
134.3178291
11
19.115
21
134.3178291
0
LINE
8
DEFAULT_255_2_778
10
19.115
20
134.3178291
11
19.115
21
134.1751291
0
LINE
8
DEFAULT_255_2_778
10
19.115
20
134.1751291
11
18.3784
21
134.1751291
0
LINE
8
DEFAULT_255_2_778
10
18.3784
20
134.1751291
11
18.3784
21
135.4970291
0
LINE
8
DEFAULT_255_2_778
10
18.3784
20
135.4970291
11
18.5395
21
135.4970291
0
LINE
8
DEFAULT_255_2_778
10
18.5395
20
135.4970291
11
18.5395
21
135.4970291
0
ARC
8
DEFAULT_255_2_778
10
19.9541371
20
135.7577713
40
1.0372989
50
242.0701522
51
253.2682225
0
ARC
8
DEFAULT_255_2_778
10
19.6969739
20
135.2748452
40
0.4901714
50
225.891866
51
242.1883721
0
ARC
8
DEFAULT_255_2_778
10
19.576716
20
135.1474377
40
0.3149968
50
178.6446278
51
225.4682393
0
ARC
8
DEFAULT_255_2_778
10
19.5925006
20
135.1624913
40
0.3307807
50
130.7209618
51
181.3170195
0
ARC
8
DEFAULT_255_2_778
10
19.6525528
20
135.0905869
40
0.4244556
50
89.4850526
51
130.5326053
0
ARC
8
DEFAULT_255_2_778
10
19.6747211
20
134.8752493
40
0.6400392
50
89.9922828
51
91.6432204
0
ARC
8
DEFAULT_255_2_778
10
19.6831819
20
135.052156
40
0.4632082
50
62.382845
51
91.0359352
0
ARC
8
DEFAULT_255_2_778
10
19.7215133
20
135.1260005
40
0.3800084
50
30.2412199
51
62.3425341
0
ARC
8
DEFAULT_255_2_778
10
19.7071754
20
135.118159
40
0.3963445
50
359.5416696
51
30.1766388
0
ARC
8
DEFAULT_255_2_778
10
19.6911918
20
135.1287947
40
0.2514947
50
356.8530752
51
43.9654479
0
ARC
8
DEFAULT_255_2_778
10
19.6954657
20
135.1087931
40
0.2628782
50
47.7526555
51
91.1214839
0
ARC
8
DEFAULT_255_2_778
10
19.6747222
20
134.9168244
40
0.455064
50
88.035665
51
90.0144634
0
ARC
8
DEFAULT_255_2_778
10
19.6615793
20
135.0756415
40
0.2965333
50
87.4819357
51
120.3279174
0
ARC
8
DEFAULT_255_2_778
10
19.619691
20
135.1635848
40
0.1996443
50
122.6965229
51
130.5472445
0
ARC
8
DEFAULT_255_2_778
10
19.6190459
20
135.1680986
40
0.1958103
50
131.2624417
51
183.0182175
0
ARC
8
DEFAULT_255_2_778
10
19.5992041
20
135.1560909
40
0.175705
50
179.4464031
51
230.103878
0
ARC
8
DEFAULT_255_2_778
10
19.7456125
20
135.3361459
40
0.407763
50
230.5480541
51
248.4793432
0
ARC
8
DEFAULT_255_2_778
10
20.0003771
20
135.9182132
40
1.0429729
50
247.1893487
51
253.3079964
0
ARC
8
DEFAULT_255_2_778
10
19.3678198
20
133.7900921
40
1.1771743
50
64.5104061
51
73.568421
0
ARC
8
DEFAULT_255_2_778
10
19.6112015
20
134.3115074
40
0.6017916
50
57.1534997
51
64.0631224
0
ARC
8
DEFAULT_255_2_778
10
19.7394148
20
134.4974767
40
0.3760745
50
30.2421165
51
58.1967872
0
ARC
8
DEFAULT_255_2_778
10
19.7503838
20
134.5204193
40
0.3553308
50
358.5920515
51
27.9363764
0
ARC
8
DEFAULT_255_2_778
10
19.7863653
20
134.5000078
40
0.3194556
50
309.7195924
51
2.0954636
0
ARC
8
DEFAULT_255_2_778
10
19.7206751
20
134.5916989
40
0.4320361
50
273.0839427
51
308.6498583
0
ARC
8
DEFAULT_255_2_778
10
19.6837866
20
134.8541001
40
0.6964123
50
269.9194331
51
274.9533605
0
ARC
8
DEFAULT_255_2_778
10
19.6788951
20
134.6898919
40
0.5322177
50
244.43293
51
270.4211714
0
ARC
8
DEFAULT_255_2_778
10
19.6157404
20
134.57414
40
0.4006062
50
213.5587063
51
245.436422
0
ARC
8
DEFAULT_255_2_778
10
19.5944638
20
134.553118
40
0.3712998
50
179.1249399
51
212.6703651
0
ARC
8
DEFAULT_255_2_778
10
19.6194914
20
134.5478748
40
0.2354372
50
177.3431001
51
229.1856608
0
ARC
8
DEFAULT_255_2_778
10
19.6623355
20
134.6149524
40
0.3144143
50
231.2666082
51
270.671689
0
ARC
8
DEFAULT_255_2_778
10
19.6827029
20
134.8134432
40
0.5131548
50
268.1371089
51
270.011654
0
ARC
8
DEFAULT_255_2_778
10
19.6952422
20
134.6424664
40
0.3424038
50
267.9187582
51
294.9485924
0
ARC
8
DEFAULT_255_2_778
10
19.7473157
20
134.5133991
40
0.2035436
50
296.9833187
51
309.6540689
0
ARC
8
DEFAULT_255_2_778
10
19.7557107
20
134.5017011
40
0.1891826
50
309.9574487
51
2.541059
0
ARC
8
DEFAULT_255_2_778
10
19.7584799
20
134.5208758
40
0.1865396
50
356.6848145
51
48.4086699
0
ARC
8
DEFAULT_255_2_778
10
19.6274238
20
134.3372722
40
0.4115456
50
51.7326026
51
67.7217797
0
ARC
8
DEFAULT_255_2_778
10
19.2951621
20
133.5873527
40
1.2316662
50
66.6442506
51
72.9980123
0
LINE
8
DEFAULT_255_2_778
10
20.1035073
20
135.1149885
11
19.9423073
21
135.1149885
0
LINE
8
DEFAULT_255_2_778
10
19.2232073
20
134.5587885
11
19.3843073
21
134.5587885
0
LINE
8
DEFAULT_255_2_778
10
19.6553073
20
134.7651885
11
19.6555073
21
134.7643885
0
ARC
8
DEFAULT_255_2_778
10
32.2959072
20
2.8879562
40
1.0727087
50
330.0350074
51
0.2236343
0
ARC
8
DEFAULT_255_2_778
10
32.4255119
20
2.7947574
40
0.9140184
50
270.8648396
51
331.0384844
0
ARC
8
DEFAULT_255_2_778
10
20.6901722
20
2.811123
40
0.9305071
50
200.3746303
51
268.7336465
0
ARC
8
DEFAULT_255_2_778
10
20.8251899
20
2.8897609
40
1.0847847
50
179.8741726
51
201.7855675
0
LINE
8
DEFAULT_255_2_778
10
26.5545078
20
109.0717432
11
26.5545078
21
10.6449432
0
LINE
8
DEFAULT_255_2_778
10
33.3686078
20
117.4987432
11
33.3686078
21
2.8921432
0
LINE
8
DEFAULT_255_2_778
10
32.4393078
20
1.8808432
11
20.6696078
21
1.8808432
0
LINE
8
DEFAULT_255_2_778
10
19.7404078
20
2.8921432
11
19.7404078
21
117.4987432
0
LINE
8
DEFAULT_255_2_778
10
19.7403887
20
109.0717583
11
33.3687887
21
109.0717583
0
LINE
8
DEFAULT_255_2_778
10
19.7403887
20
109.4088583
11
33.3687887
21
109.4088583
0
LINE
8
DEFAULT_255_2_778
10
19.7403887
20
110.4200583
11
33.3687887
21
110.4200583
0
LINE
8
DEFAULT_255_2_778
10
30.8534355
20
113.7908
11
33.3685355
21
113.7908
0
LINE
8
DEFAULT_255_2_778
10
19.7404605
20
104.0156187
11
26.5545605
21
104.0156187
0
LINE
8
DEFAULT_255_2_778
10
19.7404605
20
105.0268187
11
26.5545605
21
105.0268187
0
LINE
8
DEFAULT_255_2_778
10
19.7404605
20
94.5774187
11
26.5545605
21
94.5774187
0
LINE
8
DEFAULT_255_2_778
10
19.7404605
20
95.5886187
11
26.5545605
21
95.5886187
0
LINE
8
DEFAULT_255_2_778
10
19.7404605
20
85.1391187
11
26.5545605
21
85.1391187
0
LINE
8
DEFAULT_255_2_778
10
19.7404605
20
86.1503187
11
26.5545605
21
86.1503187
0
LINE
8
DEFAULT_255_2_778
10
19.7404605
20
67.2739187
11
26.5545605
21
67.2739187
0
LINE
8
DEFAULT_255_2_778
10
19.7404605
20
66.2627187
11
26.5545605
21
66.2627187
0
LINE
8
DEFAULT_255_2_778
10
19.7404605
20
76.7121187
11
26.5545605
21
76.7121187
0
LINE
8
DEFAULT_255_2_778
10
19.7404605
20
75.7009187
11
26.5545605
21
75.7009187
0
LINE
8
DEFAULT_255_2_778
10
19.7404605
20
47.3863187
11
26.5545605
21
47.3863187
0
LINE
8
DEFAULT_255_2_778
10
19.7404605
20
48.3975187
11
26.5545605
21
48.3975187
0
LINE
8
DEFAULT_255_2_778
10
19.7404605
20
37.9481187
11
26.5545605
21
37.9481187
0
LINE
8
DEFAULT_255_2_778
10
19.7404605
20
38.9593187
11
26.5545605
21
38.9593187
0
LINE
8
DEFAULT_255_2_778
10
19.7404605
20
57.8357187
11
26.5545605
21
57.8357187
0
LINE
8
DEFAULT_255_2_778
10
19.7404605
20
56.8245187
11
26.5545605
21
56.8245187
0
LINE
8
DEFAULT_255_2_778
10
19.7404605
20
20.0831187
11
26.5545605
21
20.0831187
0
LINE
8
DEFAULT_255_2_778
10
19.7404605
20
19.0719187
11
26.5545605
21
19.0719187
0
LINE
8
DEFAULT_255_2_778
10
19.7404605
20
29.5213187
11
26.5545605
21
29.5213187
0
LINE
8
DEFAULT_255_2_778
10
19.7404605
20
28.5101187
11
26.5545605
21
28.5101187
0
LINE
8
DEFAULT_255_2_778
10
19.7403887
20
9.6337187
11
33.3687887
21
9.6337187
0
LINE
8
DEFAULT_255_2_778
10
19.7403887
20
10.6449187
11
33.3687887
21
10.6449187
0
ARC
8
DEFAULT_255_2_778
10
24.0467371
20
99.5554046
40
2.1468857
50
237.8084817
51
247.1381874
0
ARC
8
DEFAULT_255_2_778
10
24.0063462
20
99.4599013
40
2.0431925
50
247.1413854
51
258.8564863
0
ARC
8
DEFAULT_255_2_778
10
23.9980698
20
99.422923
40
2.0053121
50
258.8843057
51
265.2122528
0
ARC
8
DEFAULT_255_2_778
10
23.9975676
20
99.4180418
40
2.0004061
50
265.2149156
51
270.0003771
0
ARC
8
DEFAULT_255_2_778
10
23.9908858
20
99.4751384
40
2.0575138
50
270.1864359
51
304.3264089
0
ARC
8
DEFAULT_255_2_778
10
23.8978408
20
99.6217042
40
2.2310297
50
304.1772184
51
320.8356855
0
ARC
8
DEFAULT_255_2_778
10
23.7574326
20
99.7381311
40
2.413423
50
320.7977997
51
332.1278457
0
ARC
8
DEFAULT_255_2_778
10
23.6672296
20
99.7896651
40
2.5172563
50
332.050781
51
343.4815842
0
ARC
8
DEFAULT_255_2_778
10
23.6354848
20
99.7985486
40
2.5502167
50
343.4930181
51
355.9782658
0
ARC
8
DEFAULT_255_2_778
10
23.6097344
20
99.8010957
40
2.5760824
50
355.9619223
51
0.0009742
0
ARC
8
DEFAULT_255_2_778
10
23.6733655
20
99.8110503
40
2.5124708
50
359.7739878
51
36.1572787
0
ARC
8
DEFAULT_255_2_778
10
23.8881018
20
99.9539736
40
2.2547957
50
36.4443931
51
57.7804003
0
ARC
8
DEFAULT_255_2_778
10
23.9461847
20
100.0442486
40
2.1474545
50
57.8072731
51
67.1070944
0
ARC
8
DEFAULT_255_2_778
10
23.9866971
20
100.1399316
40
2.0435483
50
67.1098912
51
78.8390849
0
ARC
8
DEFAULT_255_2_778
10
23.9950329
20
100.1771196
40
2.0054504
50
78.8670796
51
85.2028697
0
ARC
8
DEFAULT_255_2_778
10
23.9955466
20
100.1821342
40
2.0004105
50
85.2055197
51
90.0003986
0
ARC
8
DEFAULT_255_2_778
10
24.0022203
20
100.1251066
40
2.057449
50
90.1862388
51
124.326674
0
ARC
8
DEFAULT_255_2_778
10
24.0952638
20
99.9785502
40
2.2309563
50
124.1775602
51
140.8360344
0
ARC
8
DEFAULT_255_2_778
10
24.235707
20
99.8620927
40
2.4133961
50
140.7980835
51
152.127867
0
ARC
8
DEFAULT_255_2_778
10
24.3263549
20
99.8104215
40
2.5176866
50
152.0527868
51
163.479051
0
ARC
8
DEFAULT_255_2_778
10
24.3578183
20
99.801621
40
2.5503537
50
163.4905074
51
175.9719629
0
ARC
8
DEFAULT_255_2_778
10
24.3833662
20
99.7990911
40
2.5760162
50
175.9557484
51
180.001012
0
ARC
8
DEFAULT_255_2_778
10
24.3197448
20
99.7891411
40
2.5124143
50
179.7741255
51
216.1591441
0
ARC
8
DEFAULT_255_2_778
10
24.1054523
20
99.6465243
40
2.2552786
50
216.4460428
51
237.7793953
0
LINE
8
DEFAULT_255_2_778
10
23.0640816
20
101.0530552
11
22.8449816
21
100.8146552
0
LINE
8
DEFAULT_255_2_778
10
22.8449816
20
100.8146552
11
23.7773816
21
99.7999552
0
LINE
8
DEFAULT_255_2_778
10
23.7773816
20
99.7999552
11
22.8449816
21
98.7852552
0
LINE
8
DEFAULT_255_2_778
10
22.8449816
20
98.7852552
11
23.0640816
21
98.5468552
0
LINE
8
DEFAULT_255_2_778
10
23.0640816
20
98.5468552
11
23.9964816
21
99.5615552
0
LINE
8
DEFAULT_255_2_778
10
23.9964816
20
99.5615552
11
24.9288816
21
98.5468552
0
LINE
8
DEFAULT_255_2_778
10
24.9288816
20
98.5468552
11
25.1478816
21
98.7852552
0
LINE
8
DEFAULT_255_2_778
10
25.1478816
20
98.7852552
11
24.2155816
21
99.7999552
0
LINE
8
DEFAULT_255_2_778
10
24.2155816
20
99.7999552
11
25.1478816
21
100.8146552
0
LINE
8
DEFAULT_255_2_778
10
25.1478816
20
100.8146552
11
24.9288816
21
101.0530552
0
LINE
8
DEFAULT_255_2_778
10
24.9288816
20
101.0530552
11
23.9964816
21
100.0383552
0
LINE
8
DEFAULT_255_2_778
10
23.9964816
20
100.0383552
11
23.0640816
21
101.0530552
0
LINE
8
DEFAULT_255_2_778
10
22.9029816
20
97.7385552
11
22.9029816
21
97.7385552
0
ARC
8
DEFAULT_255_2_778
10
24.0467371
20
90.1172105
40
2.1468857
50
237.8084817
51
247.1381874
0
ARC
8
DEFAULT_255_2_778
10
24.0063462
20
90.0217072
40
2.0431925
50
247.1413854
51
258.8564863
0
ARC
8
DEFAULT_255_2_778
10
23.9980698
20
89.9847289
40
2.0053121
50
258.8843057
51
265.2122528
0
ARC
8
DEFAULT_255_2_778
10
23.9975676
20
89.9798477
40
2.0004061
50
265.2149156
51
270.0003771
0
ARC
8
DEFAULT_255_2_778
10
23.9908858
20
90.0369443
40
2.0575138
50
270.1864359
51
304.3264089
0
ARC
8
DEFAULT_255_2_778
10
23.8978408
20
90.1835101
40
2.2310297
50
304.1772184
51
320.8356855
0
ARC
8
DEFAULT_255_2_778
10
23.7574326
20
90.299937
40
2.413423
50
320.7977997
51
332.1278457
0
ARC
8
DEFAULT_255_2_778
10
23.6672296
20
90.351471
40
2.5172563
50
332.050781
51
343.4815842
0
ARC
8
DEFAULT_255_2_778
10
23.6354848
20
90.3603545
40
2.5502167
50
343.4930181
51
355.9782658
0
ARC
8
DEFAULT_255_2_778
10
23.6097344
20
90.3629016
40
2.5760824
50
355.9619223
51
0.0009742
0
ARC
8
DEFAULT_255_2_778
10
23.6733655
20
90.3728562
40
2.5124708
50
359.7739878
51
36.1572787
0
ARC
8
DEFAULT_255_2_778
10
23.8881018
20
90.5157795
40
2.2547957
50
36.4443931
51
57.7804003
0
ARC
8
DEFAULT_255_2_778
10
23.9461847
20
90.6060545
40
2.1474545
50
57.8072731
51
67.1070944
0
ARC
8
DEFAULT_255_2_778
10
23.9866971
20
90.7017375
40
2.0435483
50
67.1098912
51
78.8390849
0
ARC
8
DEFAULT_255_2_778
10
23.9950329
20
90.7389255
40
2.0054504
50
78.8670796
51
85.2028697
0
ARC
8
DEFAULT_255_2_778
10
23.9955466
20
90.7439401
40
2.0004105
50
85.2055197
51
90.0003986
0
ARC
8
DEFAULT_255_2_778
10
24.0022203
20
90.6869125
40
2.057449
50
90.1862388
51
124.326674
0
ARC
8
DEFAULT_255_2_778
10
24.0952638
20
90.5403561
40
2.2309563
50
124.1775602
51
140.8360344
0
ARC
8
DEFAULT_255_2_778
10
24.235707
20
90.4238986
40
2.4133961
50
140.7980835
51
152.127867
0
ARC
8
DEFAULT_255_2_778
10
24.3263549
20
90.3722274
40
2.5176866
50
152.0527868
51
163.479051
0
ARC
8
DEFAULT_255_2_778
10
24.3578183
20
90.3634269
40
2.5503537
50
163.4905074
51
175.9719629
0
ARC
8
DEFAULT_255_2_778
10
24.3833662
20
90.360897
40
2.5760162
50
175.9557484
51
180.001012
0
ARC
8
DEFAULT_255_2_778
10
24.3197448
20
90.350947
40
2.5124143
50
179.7741255
51
216.1591441
0
ARC
8
DEFAULT_255_2_778
10
24.1054523
20
90.2083301
40
2.2552786
50
216.4460428
51
237.7793953
0
LINE
8
DEFAULT_255_2_778
10
23.0640816
20
91.6148611
11
22.8449816
21
91.3764611
0
LINE
8
DEFAULT_255_2_778
10
22.8449816
20
91.3764611
11
23.7773816
21
90.3617611
0
LINE
8
DEFAULT_255_2_778
10
23.7773816
20
90.3617611
11
22.8449816
21
89.3470611
0
LINE
8
DEFAULT_255_2_778
10
22.8449816
20
89.3470611
11
23.0640816
21
89.1086611
0
LINE
8
DEFAULT_255_2_778
10
23.0640816
20
89.1086611
11
23.9964816
21
90.1233611
0
LINE
8
DEFAULT_255_2_778
10
23.9964816
20
90.1233611
11
24.9288816
21
89.1086611
0
LINE
8
DEFAULT_255_2_778
10
24.9288816
20
89.1086611
11
25.1478816
21
89.3470611
0
LINE
8
DEFAULT_255_2_778
10
25.1478816
20
89.3470611
11
24.2155816
21
90.3617611
0
LINE
8
DEFAULT_255_2_778
10
24.2155816
20
90.3617611
11
25.1478816
21
91.3764611
0
LINE
8
DEFAULT_255_2_778
10
25.1478816
20
91.3764611
11
24.9288816
21
91.6148611
0
LINE
8
DEFAULT_255_2_778
10
24.9288816
20
91.6148611
11
23.9964816
21
90.6001611
0
LINE
8
DEFAULT_255_2_778
10
23.9964816
20
90.6001611
11
23.0640816
21
91.6148611
0
LINE
8
DEFAULT_255_2_778
10
22.9029816
20
88.3003611
11
22.9029816
21
88.3003611
0
ARC
8
DEFAULT_255_2_778
10
24.0467371
20
80.6789105
40
2.1468857
50
237.8084817
51
247.1381874
0
ARC
8
DEFAULT_255_2_778
10
24.0063462
20
80.5834072
40
2.0431925
50
247.1413854
51
258.8564863
0
ARC
8
DEFAULT_255_2_778
10
23.9980698
20
80.5464289
40
2.0053121
50
258.8843057
51
265.2122528
0
ARC
8
DEFAULT_255_2_778
10
23.9975676
20
80.5415477
40
2.0004061
50
265.2149156
51
270.0003771
0
ARC
8
DEFAULT_255_2_778
10
23.9908858
20
80.5986443
40
2.0575138
50
270.1864359
51
304.3264089
0
ARC
8
DEFAULT_255_2_778
10
23.8978408
20
80.7452101
40
2.2310297
50
304.1772184
51
320.8356855
0
ARC
8
DEFAULT_255_2_778
10
23.7574326
20
80.861637
40
2.413423
50
320.7977997
51
332.1278457
0
ARC
8
DEFAULT_255_2_778
10
23.6672296
20
80.913171
40
2.5172563
50
332.050781
51
343.4815842
0
ARC
8
DEFAULT_255_2_778
10
23.6354848
20
80.9220545
40
2.5502167
50
343.4930181
51
355.9782658
0
ARC
8
DEFAULT_255_2_778
10
23.6097344
20
80.9246016
40
2.5760824
50
355.9619223
51
0.0009742
0
ARC
8
DEFAULT_255_2_778
10
23.6733655
20
80.9345562
40
2.5124708
50
359.7739878
51
36.1572787
0
ARC
8
DEFAULT_255_2_778
10
23.8881018
20
81.0774795
40
2.2547957
50
36.4443931
51
57.7804003
0
ARC
8
DEFAULT_255_2_778
10
23.9461847
20
81.1677545
40
2.1474545
50
57.8072731
51
67.1070944
0
ARC
8
DEFAULT_255_2_778
10
23.9866971
20
81.2634375
40
2.0435483
50
67.1098912
51
78.8390849
0
ARC
8
DEFAULT_255_2_778
10
23.9950329
20
81.3006255
40
2.0054504
50
78.8670796
51
85.2028697
0
ARC
8
DEFAULT_255_2_778
10
23.9955466
20
81.3056401
40
2.0004105
50
85.2055197
51
90.0003986
0
ARC
8
DEFAULT_255_2_778
10
24.0022203
20
81.2486125
40
2.057449
50
90.1862388
51
124.326674
0
ARC
8
DEFAULT_255_2_778
10
24.0952638
20
81.1020561
40
2.2309563
50
124.1775602
51
140.8360344
0
ARC
8
DEFAULT_255_2_778
10
24.235707
20
80.9855986
40
2.4133961
50
140.7980835
51
152.127867
0
ARC
8
DEFAULT_255_2_778
10
24.3263549
20
80.9339274
40
2.5176866
50
152.0527868
51
163.479051
0
ARC
8
DEFAULT_255_2_778
10
24.3578183
20
80.9251269
40
2.5503537
50
163.4905074
51
175.9719629
0
ARC
8
DEFAULT_255_2_778
10
24.3833662
20
80.922597
40
2.5760162
50
175.9557484
51
180.001012
0
ARC
8
DEFAULT_255_2_778
10
24.3197448
20
80.912647
40
2.5124143
50
179.7741255
51
216.1591441
0
ARC
8
DEFAULT_255_2_778
10
24.1054523
20
80.7700301
40
2.2552786
50
216.4460428
51
237.7793953
0
LINE
8
DEFAULT_255_2_778
10
23.0640816
20
82.1765611
11
22.8449816
21
81.9381611
0
LINE
8
DEFAULT_255_2_778
10
22.8449816
20
81.9381611
11
23.7773816
21
80.9234611
0
LINE
8
DEFAULT_255_2_778
10
23.7773816
20
80.9234611
11
22.8449816
21
79.9087611
0
LINE
8
DEFAULT_255_2_778
10
22.8449816
20
79.9087611
11
23.0640816
21
79.6703611
0
LINE
8
DEFAULT_255_2_778
10
23.0640816
20
79.6703611
11
23.9964816
21
80.6850611
0
LINE
8
DEFAULT_255_2_778
10
23.9964816
20
80.6850611
11
24.9288816
21
79.6703611
0
LINE
8
DEFAULT_255_2_778
10
24.9288816
20
79.6703611
11
25.1478816
21
79.9087611
0
LINE
8
DEFAULT_255_2_778
10
25.1478816
20
79.9087611
11
24.2155816
21
80.9234611
0
LINE
8
DEFAULT_255_2_778
10
24.2155816
20
80.9234611
11
25.1478816
21
81.9381611
0
LINE
8
DEFAULT_255_2_778
10
25.1478816
20
81.9381611
11
24.9288816
21
82.1765611
0
LINE
8
DEFAULT_255_2_778
10
24.9288816
20
82.1765611
11
23.9964816
21
81.1618611
0
LINE
8
DEFAULT_255_2_778
10
23.9964816
20
81.1618611
11
23.0640816
21
82.1765611
0
LINE
8
DEFAULT_255_2_778
10
22.9029816
20
78.8620611
11
22.9029816
21
78.8620611
0
ARC
8
DEFAULT_255_2_778
10
24.0467371
20
71.2407105
40
2.1468857
50
237.8084817
51
247.1381874
0
ARC
8
DEFAULT_255_2_778
10
24.0063462
20
71.1452072
40
2.0431925
50
247.1413854
51
258.8564863
0
ARC
8
DEFAULT_255_2_778
10
23.9980698
20
71.1082289
40
2.0053121
50
258.8843057
51
265.2122528
0
ARC
8
DEFAULT_255_2_778
10
23.9975676
20
71.1033477
40
2.0004061
50
265.2149156
51
270.0003771
0
ARC
8
DEFAULT_255_2_778
10
23.9908858
20
71.1604443
40
2.0575138
50
270.1864359
51
304.3264089
0
ARC
8
DEFAULT_255_2_778
10
23.8978408
20
71.3070101
40
2.2310297
50
304.1772184
51
320.8356855
0
ARC
8
DEFAULT_255_2_778
10
23.7574326
20
71.423437
40
2.413423
50
320.7977997
51
332.1278457
0
ARC
8
DEFAULT_255_2_778
10
23.6672296
20
71.474971
40
2.5172563
50
332.050781
51
343.4815842
0
ARC
8
DEFAULT_255_2_778
10
23.6354848
20
71.4838545
40
2.5502167
50
343.4930181
51
355.9782658
0
ARC
8
DEFAULT_255_2_778
10
23.6097344
20
71.4864016
40
2.5760824
50
355.9619223
51
0.0009742
0
ARC
8
DEFAULT_255_2_778
10
23.6733655
20
71.4963562
40
2.5124708
50
359.7739878
51
36.1572787
0
ARC
8
DEFAULT_255_2_778
10
23.8881018
20
71.6392795
40
2.2547957
50
36.4443931
51
57.7804003
0
ARC
8
DEFAULT_255_2_778
10
23.9461847
20
71.7295545
40
2.1474545
50
57.8072731
51
67.1070944
0
ARC
8
DEFAULT_255_2_778
10
23.9866971
20
71.8252375
40
2.0435483
50
67.1098912
51
78.8390849
0
ARC
8
DEFAULT_255_2_778
10
23.9950329
20
71.8624255
40
2.0054504
50
78.8670796
51
85.2028697
0
ARC
8
DEFAULT_255_2_778
10
23.9955466
20
71.8674401
40
2.0004105
50
85.2055197
51
90.0003986
0
ARC
8
DEFAULT_255_2_778
10
24.0022203
20
71.8104125
40
2.057449
50
90.1862388
51
124.326674
0
ARC
8
DEFAULT_255_2_778
10
24.0952638
20
71.6638561
40
2.2309563
50
124.1775602
51
140.8360344
0
ARC
8
DEFAULT_255_2_778
10
24.235707
20
71.5473986
40
2.4133961
50
140.7980835
51
152.127867
0
ARC
8
DEFAULT_255_2_778
10
24.3263549
20
71.4957274
40
2.5176866
50
152.0527868
51
163.479051
0
ARC
8
DEFAULT_255_2_778
10
24.3578183
20
71.4869269
40
2.5503537
50
163.4905074
51
175.9719629
0
ARC
8
DEFAULT_255_2_778
10
24.3833662
20
71.484397
40
2.5760162
50
175.9557484
51
180.001012
0
ARC
8
DEFAULT_255_2_778
10
24.3197448
20
71.474447
40
2.5124143
50
179.7741255
51
216.1591441
0
ARC
8
DEFAULT_255_2_778
10
24.1054523
20
71.3318301
40
2.2552786
50
216.4460428
51
237.7793953
0
LINE
8
DEFAULT_255_2_778
10
23.0640816
20
72.7383611
11
22.8449816
21
72.4999611
0
LINE
8
DEFAULT_255_2_778
10
22.8449816
20
72.4999611
11
23.7773816
21
71.4852611
0
LINE
8
DEFAULT_255_2_778
10
23.7773816
20
71.4852611
11
22.8449816
21
70.4705611
0
LINE
8
DEFAULT_255_2_778
10
22.8449816
20
70.4705611
11
23.0640816
21
70.2321611
0
LINE
8
DEFAULT_255_2_778
10
23.0640816
20
70.2321611
11
23.9964816
21
71.2468611
0
LINE
8
DEFAULT_255_2_778
10
23.9964816
20
71.2468611
11
24.9288816
21
70.2321611
0
LINE
8
DEFAULT_255_2_778
10
24.9288816
20
70.2321611
11
25.1478816
21
70.4705611
0
LINE
8
DEFAULT_255_2_778
10
25.1478816
20
70.4705611
11
24.2155816
21
71.4852611
0
LINE
8
DEFAULT_255_2_778
10
24.2155816
20
71.4852611
11
25.1478816
21
72.4999611
0
LINE
8
DEFAULT_255_2_778
10
25.1478816
20
72.4999611
11
24.9288816
21
72.7383611
0
LINE
8
DEFAULT_255_2_778
10
24.9288816
20
72.7383611
11
23.9964816
21
71.7236611
0
LINE
8
DEFAULT_255_2_778
10
23.9964816
20
71.7236611
11
23.0640816
21
72.7383611
0
LINE
8
DEFAULT_255_2_778
10
22.9029816
20
69.4238611
11
22.9029816
21
69.4238611
0
ARC
8
DEFAULT_255_2_778
10
24.0467371
20
61.8024958
40
2.1468857
50
237.8084817
51
247.1381874
0
ARC
8
DEFAULT_255_2_778
10
24.0063462
20
61.7069925
40
2.0431925
50
247.1413854
51
258.8564863
0
ARC
8
DEFAULT_255_2_778
10
23.9980698
20
61.6700142
40
2.0053121
50
258.8843057
51
265.2122528
0
ARC
8
DEFAULT_255_2_778
10
23.9975676
20
61.665133
40
2.0004061
50
265.2149156
51
270.0003771
0
ARC
8
DEFAULT_255_2_778
10
23.9908858
20
61.7222297
40
2.0575138
50
270.1864359
51
304.3264089
0
ARC
8
DEFAULT_255_2_778
10
23.8978408
20
61.8687955
40
2.2310297
50
304.1772184
51
320.8356855
0
ARC
8
DEFAULT_255_2_778
10
23.7574326
20
61.9852223
40
2.413423
50
320.7977997
51
332.1278457
0
ARC
8
DEFAULT_255_2_778
10
23.6672296
20
62.0367563
40
2.5172563
50
332.050781
51
343.4815842
0
ARC
8
DEFAULT_255_2_778
10
23.6354848
20
62.0456399
40
2.5502167
50
343.4930181
51
355.9782658
0
ARC
8
DEFAULT_255_2_778
10
23.6097344
20
62.0481869
40
2.5760824
50
355.9619223
51
0.0009742
0
ARC
8
DEFAULT_255_2_778
10
23.6733655
20
62.0581416
40
2.5124708
50
359.7739878
51
36.1572787
0
ARC
8
DEFAULT_255_2_778
10
23.8881018
20
62.2010648
40
2.2547957
50
36.4443931
51
57.7804003
0
ARC
8
DEFAULT_255_2_778
10
23.9461847
20
62.2913399
40
2.1474545
50
57.8072731
51
67.1070944
0
ARC
8
DEFAULT_255_2_778
10
23.9866971
20
62.3870228
40
2.0435483
50
67.1098912
51
78.8390849
0
ARC
8
DEFAULT_255_2_778
10
23.9950329
20
62.4242108
40
2.0054504
50
78.8670796
51
85.2028697
0
ARC
8
DEFAULT_255_2_778
10
23.9955466
20
62.4292254
40
2.0004105
50
85.2055197
51
90.0003986
0
ARC
8
DEFAULT_255_2_778
10
24.0022203
20
62.3721978
40
2.057449
50
90.1862388
51
124.326674
0
ARC
8
DEFAULT_255_2_778
10
24.0952638
20
62.2256414
40
2.2309563
50
124.1775602
51
140.8360344
0
ARC
8
DEFAULT_255_2_778
10
24.235707
20
62.109184
40
2.4133961
50
140.7980835
51
152.127867
0
ARC
8
DEFAULT_255_2_778
10
24.3263549
20
62.0575127
40
2.5176866
50
152.0527868
51
163.479051
0
ARC
8
DEFAULT_255_2_778
10
24.3578183
20
62.0487122
40
2.5503537
50
163.4905074
51
175.9719629
0
ARC
8
DEFAULT_255_2_778
10
24.3833662
20
62.0461824
40
2.5760162
50
175.9557484
51
180.001012
0
ARC
8
DEFAULT_255_2_778
10
24.3197448
20
62.0362323
40
2.5124143
50
179.7741255
51
216.1591441
0
ARC
8
DEFAULT_255_2_778
10
24.1054523
20
61.8936155
40
2.2552786
50
216.4460428
51
237.7793953
0
LINE
8
DEFAULT_255_2_778
10
23.0640816
20
63.3001464
11
22.8449816
21
63.0617464
0
LINE
8
DEFAULT_255_2_778
10
22.8449816
20
63.0617464
11
23.7773816
21
62.0470464
0
LINE
8
DEFAULT_255_2_778
10
23.7773816
20
62.0470464
11
22.8449816
21
61.0324464
0
LINE
8
DEFAULT_255_2_778
10
22.8449816
20
61.0324464
11
23.0640816
21
60.7940464
0
LINE
8
DEFAULT_255_2_778
10
23.0640816
20
60.7940464
11
23.9964816
21
61.8086464
0
LINE
8
DEFAULT_255_2_778
10
23.9964816
20
61.8086464
11
24.9288816
21
60.7940464
0
LINE
8
DEFAULT_255_2_778
10
24.9288816
20
60.7940464
11
25.1478816
21
61.0324464
0
LINE
8
DEFAULT_255_2_778
10
25.1478816
20
61.0324464
11
24.2155816
21
62.0470464
0
LINE
8
DEFAULT_255_2_778
10
24.2155816
20
62.0470464
11
25.1478816
21
63.0617464
0
LINE
8
DEFAULT_255_2_778
10
25.1478816
20
63.0617464
11
24.9288816
21
63.3001464
0
LINE
8
DEFAULT_255_2_778
10
24.9288816
20
63.3001464
11
23.9964816
21
62.2854464
0
LINE
8
DEFAULT_255_2_778
10
23.9964816
20
62.2854464
11
23.0640816
21
63.3001464
0
LINE
8
DEFAULT_255_2_778
10
22.9029816
20
59.9856464
11
22.9029816
21
59.9856464
0
ARC
8
DEFAULT_255_2_778
10
24.0467371
20
52.3642958
40
2.1468857
50
237.8084817
51
247.1381874
0
ARC
8
DEFAULT_255_2_778
10
24.0063462
20
52.2687925
40
2.0431925
50
247.1413854
51
258.8564863
0
ARC
8
DEFAULT_255_2_778
10
23.9980698
20
52.2318142
40
2.0053121
50
258.8843057
51
265.2122528
0
ARC
8
DEFAULT_255_2_778
10
23.9975676
20
52.226933
40
2.0004061
50
265.2149156
51
270.0003771
0
ARC
8
DEFAULT_255_2_778
10
23.9908858
20
52.2840297
40
2.0575138
50
270.1864359
51
304.3264089
0
ARC
8
DEFAULT_255_2_778
10
23.8978408
20
52.4305955
40
2.2310297
50
304.1772184
51
320.8356855
0
ARC
8
DEFAULT_255_2_778
10
23.7574326
20
52.5470223
40
2.413423
50
320.7977997
51
332.1278457
0
ARC
8
DEFAULT_255_2_778
10
23.6672296
20
52.5985563
40
2.5172563
50
332.050781
51
343.4815842
0
ARC
8
DEFAULT_255_2_778
10
23.6354848
20
52.6074399
40
2.5502167
50
343.4930181
51
355.9782658
0
ARC
8
DEFAULT_255_2_778
10
23.6097344
20
52.6099869
40
2.5760824
50
355.9619223
51
0.0009742
0
ARC
8
DEFAULT_255_2_778
10
23.6733655
20
52.6199416
40
2.5124708
50
359.7739878
51
36.1572787
0
ARC
8
DEFAULT_255_2_778
10
23.8881018
20
52.7628648
40
2.2547957
50
36.4443931
51
57.7804003
0
ARC
8
DEFAULT_255_2_778
10
23.9461847
20
52.8531399
40
2.1474545
50
57.8072731
51
67.1070944
0
ARC
8
DEFAULT_255_2_778
10
23.9866971
20
52.9488228
40
2.0435483
50
67.1098912
51
78.8390849
0
ARC
8
DEFAULT_255_2_778
10
23.9950329
20
52.9860108
40
2.0054504
50
78.8670796
51
85.2028697
0
ARC
8
DEFAULT_255_2_778
10
23.9955466
20
52.9910254
40
2.0004105
50
85.2055197
51
90.0003986
0
ARC
8
DEFAULT_255_2_778
10
24.0022203
20
52.9339978
40
2.057449
50
90.1862388
51
124.326674
0
ARC
8
DEFAULT_255_2_778
10
24.0952638
20
52.7874414
40
2.2309563
50
124.1775602
51
140.8360344
0
ARC
8
DEFAULT_255_2_778
10
24.235707
20
52.670984
40
2.4133961
50
140.7980835
51
152.127867
0
ARC
8
DEFAULT_255_2_778
10
24.3263549
20
52.6193127
40
2.5176866
50
152.0527868
51
163.479051
0
ARC
8
DEFAULT_255_2_778
10
24.3578183
20
52.6105122
40
2.5503537
50
163.4905074
51
175.9719629
0
ARC
8
DEFAULT_255_2_778
10
24.3833662
20
52.6079824
40
2.5760162
50
175.9557484
51
180.001012
0
ARC
8
DEFAULT_255_2_778
10
24.3197448
20
52.5980323
40
2.5124143
50
179.7741255
51
216.1591441
0
ARC
8
DEFAULT_255_2_778
10
24.1054523
20
52.4554155
40
2.2552786
50
216.4460428
51
237.7793953
0
LINE
8
DEFAULT_255_2_778
10
23.0640816
20
53.8619464
11
22.8449816
21
53.6235464
0
LINE
8
DEFAULT_255_2_778
10
22.8449816
20
53.6235464
11
23.7773816
21
52.6088464
0
LINE
8
DEFAULT_255_2_778
10
23.7773816
20
52.6088464
11
22.8449816
21
51.5942464
0
LINE
8
DEFAULT_255_2_778
10
22.8449816
20
51.5942464
11
23.0640816
21
51.3558464
0
LINE
8
DEFAULT_255_2_778
10
23.0640816
20
51.3558464
11
23.9964816
21
52.3704464
0
LINE
8
DEFAULT_255_2_778
10
23.9964816
20
52.3704464
11
24.9288816
21
51.3558464
0
LINE
8
DEFAULT_255_2_778
10
24.9288816
20
51.3558464
11
25.1478816
21
51.5942464
0
LINE
8
DEFAULT_255_2_778
10
25.1478816
20
51.5942464
11
24.2155816
21
52.6088464
0
LINE
8
DEFAULT_255_2_778
10
24.2155816
20
52.6088464
11
25.1478816
21
53.6235464
0
LINE
8
DEFAULT_255_2_778
10
25.1478816
20
53.6235464
11
24.9288816
21
53.8619464
0
LINE
8
DEFAULT_255_2_778
10
24.9288816
20
53.8619464
11
23.9964816
21
52.8472464
0
LINE
8
DEFAULT_255_2_778
10
23.9964816
20
52.8472464
11
23.0640816
21
53.8619464
0
LINE
8
DEFAULT_255_2_778
10
22.9029816
20
50.5474464
11
22.9029816
21
50.5474464
0
ARC
8
DEFAULT_255_2_778
10
24.0467371
20
42.9260958
40
2.1468857
50
237.8084817
51
247.1381874
0
ARC
8
DEFAULT_255_2_778
10
24.0063462
20
42.8305925
40
2.0431925
50
247.1413854
51
258.8564863
0
ARC
8
DEFAULT_255_2_778
10
23.9980698
20
42.7936142
40
2.0053121
50
258.8843057
51
265.2122528
0
ARC
8
DEFAULT_255_2_778
10
23.9975676
20
42.788733
40
2.0004061
50
265.2149156
51
270.0003771
0
ARC
8
DEFAULT_255_2_778
10
23.9908858
20
42.8458297
40
2.0575138
50
270.1864359
51
304.3264089
0
ARC
8
DEFAULT_255_2_778
10
23.8978408
20
42.9923955
40
2.2310297
50
304.1772184
51
320.8356855
0
ARC
8
DEFAULT_255_2_778
10
23.7574326
20
43.1088223
40
2.413423
50
320.7977997
51
332.1278457
0
ARC
8
DEFAULT_255_2_778
10
23.6672296
20
43.1603563
40
2.5172563
50
332.050781
51
343.4815842
0
ARC
8
DEFAULT_255_2_778
10
23.6354848
20
43.1692399
40
2.5502167
50
343.4930181
51
355.9782658
0
ARC
8
DEFAULT_255_2_778
10
23.6097344
20
43.1717869
40
2.5760824
50
355.9619223
51
0.0009742
0
ARC
8
DEFAULT_255_2_778
10
23.6733655
20
43.1817416
40
2.5124708
50
359.7739878
51
36.1572787
0
ARC
8
DEFAULT_255_2_778
10
23.8881018
20
43.3246648
40
2.2547957
50
36.4443931
51
57.7804003
0
ARC
8
DEFAULT_255_2_778
10
23.9461847
20
43.4149399
40
2.1474545
50
57.8072731
51
67.1070944
0
ARC
8
DEFAULT_255_2_778
10
23.9866971
20
43.5106228
40
2.0435483
50
67.1098912
51
78.8390849
0
ARC
8
DEFAULT_255_2_778
10
23.9950329
20
43.5478108
40
2.0054504
50
78.8670796
51
85.2028697
0
ARC
8
DEFAULT_255_2_778
10
23.9955466
20
43.5528254
40
2.0004105
50
85.2055197
51
90.0003986
0
ARC
8
DEFAULT_255_2_778
10
24.0022203
20
43.4957978
40
2.057449
50
90.1862388
51
124.326674
0
ARC
8
DEFAULT_255_2_778
10
24.0952638
20
43.3492414
40
2.2309563
50
124.1775602
51
140.8360344
0
ARC
8
DEFAULT_255_2_778
10
24.235707
20
43.232784
40
2.4133961
50
140.7980835
51
152.127867
0
ARC
8
DEFAULT_255_2_778
10
24.3263549
20
43.1811127
40
2.5176866
50
152.0527868
51
163.479051
0
ARC
8
DEFAULT_255_2_778
10
24.3578183
20
43.1723122
40
2.5503537
50
163.4905074
51
175.9719629
0
ARC
8
DEFAULT_255_2_778
10
24.3833662
20
43.1697824
40
2.5760162
50
175.9557484
51
180.001012
0
ARC
8
DEFAULT_255_2_778
10
24.3197448
20
43.1598323
40
2.5124143
50
179.7741255
51
216.1591441
0
ARC
8
DEFAULT_255_2_778
10
24.1054523
20
43.0172155
40
2.2552786
50
216.4460428
51
237.7793953
0
LINE
8
DEFAULT_255_2_778
10
23.0640816
20
44.4237464
11
22.8449816
21
44.1853464
0
LINE
8
DEFAULT_255_2_778
10
22.8449816
20
44.1853464
11
23.7773816
21
43.1706464
0
LINE
8
DEFAULT_255_2_778
10
23.7773816
20
43.1706464
11
22.8449816
21
42.1560464
0
LINE
8
DEFAULT_255_2_778
10
22.8449816
20
42.1560464
11
23.0640816
21
41.9176464
0
LINE
8
DEFAULT_255_2_778
10
23.0640816
20
41.9176464
11
23.9964816
21
42.9322464
0
LINE
8
DEFAULT_255_2_778
10
23.9964816
20
42.9322464
11
24.9288816
21
41.9176464
0
LINE
8
DEFAULT_255_2_778
10
24.9288816
20
41.9176464
11
25.1478816
21
42.1560464
0
LINE
8
DEFAULT_255_2_778
10
25.1478816
20
42.1560464
11
24.2155816
21
43.1706464
0
LINE
8
DEFAULT_255_2_778
10
24.2155816
20
43.1706464
11
25.1478816
21
44.1853464
0
LINE
8
DEFAULT_255_2_778
10
25.1478816
20
44.1853464
11
24.9288816
21
44.4237464
0
LINE
8
DEFAULT_255_2_778
10
24.9288816
20
44.4237464
11
23.9964816
21
43.4090464
0
LINE
8
DEFAULT_255_2_778
10
23.9964816
20
43.4090464
11
23.0640816
21
44.4237464
0
LINE
8
DEFAULT_255_2_778
10
22.9029816
20
41.1092464
11
22.9029816
21
41.1092464
0
ARC
8
DEFAULT_255_2_778
10
24.0469566
20
33.4880853
40
2.1470798
50
237.8048194
51
247.1079611
0
ARC
8
DEFAULT_255_2_778
10
24.0064733
20
33.3924698
40
2.0432472
50
247.1107864
51
258.8438682
0
ARC
8
DEFAULT_255_2_778
10
23.9981543
20
33.3553532
40
2.0052227
50
258.8718792
51
265.2096143
0
ARC
8
DEFAULT_255_2_778
10
23.9976479
20
33.3504245
40
2.0002692
50
265.2122814
51
270.0003636
0
ARC
8
DEFAULT_255_2_778
10
23.9909627
20
33.4075382
40
2.0573939
50
270.1865272
51
304.3271507
0
ARC
8
DEFAULT_255_2_778
10
23.8978833
20
33.5541602
40
2.2309756
50
304.1778151
51
320.8360921
0
ARC
8
DEFAULT_255_2_778
10
23.7574423
20
33.6706155
40
2.4134121
50
320.7981426
51
332.1278477
0
ARC
8
DEFAULT_255_2_778
10
23.6672296
20
33.7221548
40
2.5172563
50
332.050781
51
343.4815842
0
ARC
8
DEFAULT_255_2_778
10
23.6354848
20
33.7310383
40
2.5502167
50
343.4930181
51
355.9782658
0
ARC
8
DEFAULT_255_2_778
10
23.6097344
20
33.7335854
40
2.5760824
50
355.9619223
51
0.0009742
0
ARC
8
DEFAULT_255_2_778
10
23.6733655
20
33.74354
40
2.5124708
50
359.7739878
51
36.1572787
0
ARC
8
DEFAULT_255_2_778
10
23.8881018
20
33.8864633
40
2.2547957
50
36.4443931
51
57.7804003
0
ARC
8
DEFAULT_255_2_778
10
23.9461847
20
33.9767383
40
2.1474545
50
57.8072731
51
67.1070944
0
ARC
8
DEFAULT_255_2_778
10
23.9866971
20
34.0724213
40
2.0435483
50
67.1098912
51
78.8390849
0
ARC
8
DEFAULT_255_2_778
10
23.9950329
20
34.1096093
40
2.0054504
50
78.8670796
51
85.2028697
0
ARC
8
DEFAULT_255_2_778
10
23.9955466
20
34.1146238
40
2.0004105
50
85.2055197
51
90.0003986
0
ARC
8
DEFAULT_255_2_778
10
24.0022203
20
34.0575963
40
2.057449
50
90.1862388
51
124.326674
0
ARC
8
DEFAULT_255_2_778
10
24.0952638
20
33.9110399
40
2.2309563
50
124.1775602
51
140.8360344
0
ARC
8
DEFAULT_255_2_778
10
24.235707
20
33.7945824
40
2.4133961
50
140.7980835
51
152.127867
0
ARC
8
DEFAULT_255_2_778
10
24.3263529
20
33.7429116
40
2.5176846
50
152.0527739
51
163.478017
0
ARC
8
DEFAULT_255_2_778
10
24.3577955
20
33.734115
40
2.5503307
50
163.4894395
51
175.9698589
0
ARC
8
DEFAULT_255_2_778
10
24.3832699
20
33.7315869
40
2.5759199
50
175.9535887
51
180.0010685
0
ARC
8
DEFAULT_255_2_778
10
24.3195721
20
33.7216201
40
2.5122418
50
179.7737851
51
216.1604314
0
ARC
8
DEFAULT_255_2_778
10
24.1051475
20
33.578914
40
2.2549471
50
216.4476692
51
237.783238
0
LINE
8
DEFAULT_255_2_778
10
23.0640816
20
34.9855449
11
22.8449816
21
34.7471449
0
LINE
8
DEFAULT_255_2_778
10
22.8449816
20
34.7471449
11
23.7773816
21
33.7324449
0
LINE
8
DEFAULT_255_2_778
10
23.7773816
20
33.7324449
11
22.8449816
21
32.7178449
0
LINE
8
DEFAULT_255_2_778
10
22.8449816
20
32.7178449
11
23.0640816
21
32.4794449
0
LINE
8
DEFAULT_255_2_778
10
23.0640816
20
32.4794449
11
23.9964816
21
33.4940449
0
LINE
8
DEFAULT_255_2_778
10
23.9964816
20
33.4940449
11
24.9288816
21
32.4794449
0
LINE
8
DEFAULT_255_2_778
10
24.9288816
20
32.4794449
11
25.1478816
21
32.7178449
0
LINE
8
DEFAULT_255_2_778
10
25.1478816
20
32.7178449
11
24.2155816
21
33.7324449
0
LINE
8
DEFAULT_255_2_778
10
24.2155816
20
33.7324449
11
25.1478816
21
34.7471449
0
LINE
8
DEFAULT_255_2_778
10
25.1478816
20
34.7471449
11
24.9288816
21
34.9855449
0
LINE
8
DEFAULT_255_2_778
10
24.9288816
20
34.9855449
11
23.9964816
21
33.9708449
0
LINE
8
DEFAULT_255_2_778
10
23.9964816
20
33.9708449
11
23.0640816
21
34.9855449
0
LINE
8
DEFAULT_255_2_778
10
22.9029816
20
31.6711449
11
22.9029816
21
31.6711449
0
ARC
8
DEFAULT_255_2_778
10
24.0467371
20
24.049605
40
2.1468857
50
237.8084817
51
247.1381874
0
ARC
8
DEFAULT_255_2_778
10
24.0063462
20
23.9541018
40
2.0431925
50
247.1413854
51
258.8564863
0
ARC
8
DEFAULT_255_2_778
10
23.9980698
20
23.9171235
40
2.0053121
50
258.8843057
51
265.2122528
0
ARC
8
DEFAULT_255_2_778
10
23.9975676
20
23.9122422
40
2.0004061
50
265.2149156
51
270.0003771
0
ARC
8
DEFAULT_255_2_778
10
23.9908858
20
23.9693389
40
2.0575138
50
270.1864359
51
304.3264089
0
ARC
8
DEFAULT_255_2_778
10
23.8978408
20
24.1159047
40
2.2310297
50
304.1772184
51
320.8356855
0
ARC
8
DEFAULT_255_2_778
10
23.7574326
20
24.2323316
40
2.413423
50
320.7977997
51
332.1278457
0
ARC
8
DEFAULT_255_2_778
10
23.6672296
20
24.2838656
40
2.5172563
50
332.050781
51
343.4815842
0
ARC
8
DEFAULT_255_2_778
10
23.6354848
20
24.2927491
40
2.5502167
50
343.4930181
51
355.9782658
0
ARC
8
DEFAULT_255_2_778
10
23.6097344
20
24.2952962
40
2.5760824
50
355.9619223
51
0.0009742
0
ARC
8
DEFAULT_255_2_778
10
23.6733655
20
24.3052508
40
2.5124708
50
359.7739878
51
36.1572787
0
ARC
8
DEFAULT_255_2_778
10
23.8881018
20
24.4481741
40
2.2547957
50
36.4443931
51
57.7804003
0
ARC
8
DEFAULT_255_2_778
10
23.9461847
20
24.5384491
40
2.1474545
50
57.8072731
51
67.1070944
0
ARC
8
DEFAULT_255_2_778
10
23.9866971
20
24.6341321
40
2.0435483
50
67.1098912
51
78.8390849
0
ARC
8
DEFAULT_255_2_778
10
23.9950329
20
24.6713201
40
2.0054504
50
78.8670796
51
85.2028697
0
ARC
8
DEFAULT_255_2_778
10
23.9955466
20
24.6763347
40
2.0004105
50
85.2055197
51
90.0003986
0
ARC
8
DEFAULT_255_2_778
10
24.0022203
20
24.6193071
40
2.057449
50
90.1862388
51
124.326674
0
ARC
8
DEFAULT_255_2_778
10
24.0952638
20
24.4727507
40
2.2309563
50
124.1775602
51
140.8360344
0
ARC
8
DEFAULT_255_2_778
10
24.235707
20
24.3562932
40
2.4133961
50
140.7980835
51
152.127867
0
ARC
8
DEFAULT_255_2_778
10
24.3263549
20
24.304622
40
2.5176866
50
152.0527868
51
163.479051
0
ARC
8
DEFAULT_255_2_778
10
24.3578183
20
24.2958215
40
2.5503537
50
163.4905074
51
175.9719629
0
ARC
8
DEFAULT_255_2_778
10
24.3833662
20
24.2932916
40
2.5760162
50
175.9557484
51
180.001012
0
ARC
8
DEFAULT_255_2_778
10
24.3197448
20
24.2833416
40
2.5124143
50
179.7741255
51
216.1591441
0
ARC
8
DEFAULT_255_2_778
10
24.1054523
20
24.1407247
40
2.2552786
50
216.4460428
51
237.7793953
0
LINE
8
DEFAULT_255_2_778
10
23.0640816
20
25.5472557
11
22.8449816
21
25.3088557
0
LINE
8
DEFAULT_255_2_778
10
22.8449816
20
25.3088557
11
23.7773816
21
24.2941557
0
LINE
8
DEFAULT_255_2_778
10
23.7773816
20
24.2941557
11
22.8449816
21
23.2794557
0
LINE
8
DEFAULT_255_2_778
10
22.8449816
20
23.2794557
11
23.0640816
21
23.0410557
0
LINE
8
DEFAULT_255_2_778
10
23.0640816
20
23.0410557
11
23.9964816
21
24.0557557
0
LINE
8
DEFAULT_255_2_778
10
23.9964816
20
24.0557557
11
24.9288816
21
23.0410557
0
LINE
8
DEFAULT_255_2_778
10
24.9288816
20
23.0410557
11
25.1478816
21
23.2794557
0
LINE
8
DEFAULT_255_2_778
10
25.1478816
20
23.2794557
11
24.2155816
21
24.2941557
0
LINE
8
DEFAULT_255_2_778
10
24.2155816
20
24.2941557
11
25.1478816
21
25.3088557
0
LINE
8
DEFAULT_255_2_778
10
25.1478816
20
25.3088557
11
24.9288816
21
25.5472557
0
LINE
8
DEFAULT_255_2_778
10
24.9288816
20
25.5472557
11
23.9964816
21
24.5325557
0
LINE
8
DEFAULT_255_2_778
10
23.9964816
20
24.5325557
11
23.0640816
21
25.5472557
0
LINE
8
DEFAULT_255_2_778
10
22.9029816
20
22.2327557
11
22.9029816
21
22.2327557
0
ARC
8
DEFAULT_255_2_778
10
30.8611371
20
19.330507
40
2.1468857
50
237.8084817
51
247.1381874
0
ARC
8
DEFAULT_255_2_778
10
30.8207462
20
19.2350037
40
2.0431925
50
247.1413854
51
258.8564863
0
ARC
8
DEFAULT_255_2_778
10
30.8124698
20
19.1980254
40
2.0053121
50
258.8843057
51
265.2122528
0
ARC
8
DEFAULT_255_2_778
10
30.8119676
20
19.1931442
40
2.0004061
50
265.2149156
51
270.0003771
0
ARC
8
DEFAULT_255_2_778
10
30.8052858
20
19.2502409
40
2.0575138
50
270.1864359
51
304.3264089
0
ARC
8
DEFAULT_255_2_778
10
30.7122408
20
19.3968067
40
2.2310297
50
304.1772184
51
320.8356855
0
ARC
8
DEFAULT_255_2_778
10
30.5718326
20
19.5132335
40
2.413423
50
320.7977997
51
332.1278457
0
ARC
8
DEFAULT_255_2_778
10
30.4816296
20
19.5647675
40
2.5172563
50
332.050781
51
343.4815842
0
ARC
8
DEFAULT_255_2_778
10
30.4498848
20
19.573651
40
2.5502167
50
343.4930181
51
355.9782658
0
ARC
8
DEFAULT_255_2_778
10
30.4241344
20
19.5761981
40
2.5760824
50
355.9619223
51
0.0009742
0
ARC
8
DEFAULT_255_2_778
10
30.4877655
20
19.5861528
40
2.5124708
50
359.7739878
51
36.1572787
0
ARC
8
DEFAULT_255_2_778
10
30.7025018
20
19.729076
40
2.2547957
50
36.4443931
51
57.7804003
0
ARC
8
DEFAULT_255_2_778
10
30.7605847
20
19.8193511
40
2.1474545
50
57.8072731
51
67.1070944
0
ARC
8
DEFAULT_255_2_778
10
30.8010971
20
19.915034
40
2.0435483
50
67.1098912
51
78.8390849
0
ARC
8
DEFAULT_255_2_778
10
30.8094329
20
19.952222
40
2.0054504
50
78.8670796
51
85.2028697
0
ARC
8
DEFAULT_255_2_778
10
30.8099466
20
19.9572366
40
2.0004105
50
85.2055197
51
90.0003986
0
ARC
8
DEFAULT_255_2_778
10
30.8166203
20
19.900209
40
2.057449
50
90.1862388
51
124.326674
0
ARC
8
DEFAULT_255_2_778
10
30.9096638
20
19.7536526
40
2.2309563
50
124.1775602
51
140.8360344
0
ARC
8
DEFAULT_255_2_778
10
31.050107
20
19.6371952
40
2.4133961
50
140.7980835
51
152.127867
0
ARC
8
DEFAULT_255_2_778
10
31.1407549
20
19.5855239
40
2.5176866
50
152.0527868
51
163.479051
0
ARC
8
DEFAULT_255_2_778
10
31.1722183
20
19.5767234
40
2.5503537
50
163.4905074
51
175.9719629
0
ARC
8
DEFAULT_255_2_778
10
31.1977662
20
19.5741936
40
2.5760162
50
175.9557484
51
180.001012
0
ARC
8
DEFAULT_255_2_778
10
31.1341448
20
19.5642435
40
2.5124143
50
179.7741255
51
216.1591441
0
ARC
8
DEFAULT_255_2_778
10
30.9198523
20
19.4216267
40
2.2552786
50
216.4460428
51
237.7793953
0
LINE
8
DEFAULT_255_2_778
10
29.8784816
20
20.8281576
11
29.6593816
21
20.5897576
0
LINE
8
DEFAULT_255_2_778
10
29.6593816
20
20.5897576
11
30.5917816
21
19.5750576
0
LINE
8
DEFAULT_255_2_778
10
30.5917816
20
19.5750576
11
29.6593816
21
18.5603576
0
LINE
8
DEFAULT_255_2_778
10
29.6593816
20
18.5603576
11
29.8784816
21
18.3219576
0
LINE
8
DEFAULT_255_2_778
10
29.8784816
20
18.3219576
11
30.8108816
21
19.3366576
0
LINE
8
DEFAULT_255_2_778
10
30.8108816
20
19.3366576
11
31.7432816
21
18.3219576
0
LINE
8
DEFAULT_255_2_778
10
31.7432816
20
18.3219576
11
31.9622816
21
18.5603576
0
LINE
8
DEFAULT_255_2_778
10
31.9622816
20
18.5603576
11
31.0299816
21
19.5750576
0
LINE
8
DEFAULT_255_2_778
10
31.0299816
20
19.5750576
11
31.9622816
21
20.5897576
0
LINE
8
DEFAULT_255_2_778
10
31.9622816
20
20.5897576
11
31.7432816
21
20.8281576
0
LINE
8
DEFAULT_255_2_778
10
31.7432816
20
20.8281576
11
30.8108816
21
19.8134576
0
LINE
8
DEFAULT_255_2_778
10
30.8108816
20
19.8134576
11
29.8784816
21
20.8281576
0
LINE
8
DEFAULT_255_2_778
10
29.7173816
20
17.5136576
11
29.7173816
21
17.5136576
0
LINE
8
DEFAULT_255_2_778
10
26.5544605
20
24.8022187
11
33.3685605
21
24.8022187
0
LINE
8
DEFAULT_255_2_778
10
26.5544605
20
23.7910187
11
33.3685605
21
23.7910187
0
LINE
8
DEFAULT_255_2_778
10
26.5544605
20
15.3640187
11
33.3685605
21
15.3640187
0
LINE
8
DEFAULT_255_2_778
10
26.5544605
20
14.3528187
11
33.3685605
21
14.3528187
0
ARC
8
DEFAULT_255_2_778
10
24.0467371
20
14.611405
40
2.1468857
50
237.8084817
51
247.1381874
0
ARC
8
DEFAULT_255_2_778
10
24.0063462
20
14.5159018
40
2.0431925
50
247.1413854
51
258.8564863
0
ARC
8
DEFAULT_255_2_778
10
23.9980698
20
14.4789235
40
2.0053121
50
258.8843057
51
265.2122528
0
ARC
8
DEFAULT_255_2_778
10
23.9975676
20
14.4740422
40
2.0004061
50
265.2149156
51
270.0003771
0
ARC
8
DEFAULT_255_2_778
10
23.9908858
20
14.5311389
40
2.0575138
50
270.1864359
51
304.3264089
0
ARC
8
DEFAULT_255_2_778
10
23.8978408
20
14.6777047
40
2.2310297
50
304.1772184
51
320.8356855
0
ARC
8
DEFAULT_255_2_778
10
23.7574326
20
14.7941316
40
2.413423
50
320.7977997
51
332.1278457
0
ARC
8
DEFAULT_255_2_778
10
23.6672296
20
14.8456656
40
2.5172563
50
332.050781
51
343.4815842
0
ARC
8
DEFAULT_255_2_778
10
23.6354848
20
14.8545491
40
2.5502167
50
343.4930181
51
355.9782658
0
ARC
8
DEFAULT_255_2_778
10
23.6097344
20
14.8570962
40
2.5760824
50
355.9619223
51
0.0009742
0
ARC
8
DEFAULT_255_2_778
10
23.6733655
20
14.8670508
40
2.5124708
50
359.7739878
51
36.1572787
0
ARC
8
DEFAULT_255_2_778
10
23.8881018
20
15.0099741
40
2.2547957
50
36.4443931
51
57.7804003
0
ARC
8
DEFAULT_255_2_778
10
23.9461847
20
15.1002491
40
2.1474545
50
57.8072731
51
67.1070944
0
ARC
8
DEFAULT_255_2_778
10
23.9866971
20
15.1959321
40
2.0435483
50
67.1098912
51
78.8390849
0
ARC
8
DEFAULT_255_2_778
10
23.9950329
20
15.2331201
40
2.0054504
50
78.8670796
51
85.2028697
0
ARC
8
DEFAULT_255_2_778
10
23.9955466
20
15.2381347
40
2.0004105
50
85.2055197
51
90.0003986
0
ARC
8
DEFAULT_255_2_778
10
24.0022203
20
15.1811071
40
2.057449
50
90.1862388
51
124.326674
0
ARC
8
DEFAULT_255_2_778
10
24.0952638
20
15.0345507
40
2.2309563
50
124.1775602
51
140.8360344
0
ARC
8
DEFAULT_255_2_778
10
24.235707
20
14.9180932
40
2.4133961
50
140.7980835
51
152.127867
0
ARC
8
DEFAULT_255_2_778
10
24.3263549
20
14.866422
40
2.5176866
50
152.0527868
51
163.479051
0
ARC
8
DEFAULT_255_2_778
10
24.3578183
20
14.8576215
40
2.5503537
50
163.4905074
51
175.9719629
0
ARC
8
DEFAULT_255_2_778
10
24.3833662
20
14.8550916
40
2.5760162
50
175.9557484
51
180.001012
0
ARC
8
DEFAULT_255_2_778
10
24.3197448
20
14.8451416
40
2.5124143
50
179.7741255
51
216.1591441
0
ARC
8
DEFAULT_255_2_778
10
24.1054523
20
14.7025247
40
2.2552786
50
216.4460428
51
237.7793953
0
LINE
8
DEFAULT_255_2_778
10
23.0640816
20
16.1090557
11
22.8449816
21
15.8706557
0
LINE
8
DEFAULT_255_2_778
10
22.8449816
20
15.8706557
11
23.7773816
21
14.8559557
0
LINE
8
DEFAULT_255_2_778
10
23.7773816
20
14.8559557
11
22.8449816
21
13.8412557
0
LINE
8
DEFAULT_255_2_778
10
22.8449816
20
13.8412557
11
23.0640816
21
13.6028557
0
LINE
8
DEFAULT_255_2_778
10
23.0640816
20
13.6028557
11
23.9964816
21
14.6175557
0
LINE
8
DEFAULT_255_2_778
10
23.9964816
20
14.6175557
11
24.9288816
21
13.6028557
0
LINE
8
DEFAULT_255_2_778
10
24.9288816
20
13.6028557
11
25.1478816
21
13.8412557
0
LINE
8
DEFAULT_255_2_778
10
25.1478816
20
13.8412557
11
24.2155816
21
14.8559557
0
LINE
8
DEFAULT_255_2_778
10
24.2155816
20
14.8559557
11
25.1478816
21
15.8706557
0
LINE
8
DEFAULT_255_2_778
10
25.1478816
20
15.8706557
11
24.9288816
21
16.1090557
0
LINE
8
DEFAULT_255_2_778
10
24.9288816
20
16.1090557
11
23.9964816
21
15.0943557
0
LINE
8
DEFAULT_255_2_778
10
23.9964816
20
15.0943557
11
23.0640816
21
16.1090557
0
LINE
8
DEFAULT_255_2_778
10
22.9029816
20
12.7945557
11
22.9029816
21
12.7945557
0
ARC
8
DEFAULT_255_2_778
10
30.8611371
20
28.7688075
40
2.1468857
50
237.8084817
51
247.1381874
0
ARC
8
DEFAULT_255_2_778
10
30.8207462
20
28.6733042
40
2.0431925
50
247.1413854
51
258.8564863
0
ARC
8
DEFAULT_255_2_778
10
30.8124698
20
28.6363259
40
2.0053121
50
258.8843057
51
265.2122528
0
ARC
8
DEFAULT_255_2_778
10
30.8119676
20
28.6314447
40
2.0004061
50
265.2149156
51
270.0003771
0
ARC
8
DEFAULT_255_2_778
10
30.8052858
20
28.6885413
40
2.0575138
50
270.1864359
51
304.3264089
0
ARC
8
DEFAULT_255_2_778
10
30.7122408
20
28.8351071
40
2.2310297
50
304.1772184
51
320.8356855
0
ARC
8
DEFAULT_255_2_778
10
30.5718326
20
28.951534
40
2.413423
50
320.7977997
51
332.1278457
0
ARC
8
DEFAULT_255_2_778
10
30.4816296
20
29.003068
40
2.5172563
50
332.050781
51
343.4815842
0
ARC
8
DEFAULT_255_2_778
10
30.4498848
20
29.0119515
40
2.5502167
50
343.4930181
51
355.9782658
0
ARC
8
DEFAULT_255_2_778
10
30.4241344
20
29.0144986
40
2.5760824
50
355.9619223
51
0.0009742
0
ARC
8
DEFAULT_255_2_778
10
30.4877655
20
29.0244532
40
2.5124708
50
359.7739878
51
36.1572787
0
ARC
8
DEFAULT_255_2_778
10
30.7025018
20
29.1673765
40
2.2547957
50
36.4443931
51
57.7804003
0
ARC
8
DEFAULT_255_2_778
10
30.7605847
20
29.2576515
40
2.1474545
50
57.8072731
51
67.1070944
0
ARC
8
DEFAULT_255_2_778
10
30.8010971
20
29.3533345
40
2.0435483
50
67.1098912
51
78.8390849
0
ARC
8
DEFAULT_255_2_778
10
30.8094329
20
29.3905225
40
2.0054504
50
78.8670796
51
85.2028697
0
ARC
8
DEFAULT_255_2_778
10
30.8099466
20
29.3955371
40
2.0004105
50
85.2055197
51
90.0003986
0
ARC
8
DEFAULT_255_2_778
10
30.8166203
20
29.3385095
40
2.057449
50
90.1862388
51
124.326674
0
ARC
8
DEFAULT_255_2_778
10
30.9096638
20
29.1919531
40
2.2309563
50
124.1775602
51
140.8360344
0
ARC
8
DEFAULT_255_2_778
10
31.050107
20
29.0754956
40
2.4133961
50
140.7980835
51
152.127867
0
ARC
8
DEFAULT_255_2_778
10
31.1407549
20
29.0238244
40
2.5176866
50
152.0527868
51
163.479051
0
ARC
8
DEFAULT_255_2_778
10
31.1722183
20
29.0150239
40
2.5503537
50
163.4905074
51
175.9719629
0
ARC
8
DEFAULT_255_2_778
10
31.1977662
20
29.012494
40
2.5760162
50
175.9557484
51
180.001012
0
ARC
8
DEFAULT_255_2_778
10
31.1341448
20
29.002544
40
2.5124143
50
179.7741255
51
216.1591441
0
ARC
8
DEFAULT_255_2_778
10
30.9198523
20
28.8599271
40
2.2552786
50
216.4460428
51
237.7793953
0
LINE
8
DEFAULT_255_2_778
10
29.8784816
20
30.2664581
11
29.6593816
21
30.0280581
0
LINE
8
DEFAULT_255_2_778
10
29.6593816
20
30.0280581
11
30.5917816
21
29.0133581
0
LINE
8
DEFAULT_255_2_778
10
30.5917816
20
29.0133581
11
29.6593816
21
27.9986581
0
LINE
8
DEFAULT_255_2_778
10
29.6593816
20
27.9986581
11
29.8784816
21
27.7602581
0
LINE
8
DEFAULT_255_2_778
10
29.8784816
20
27.7602581
11
30.8108816
21
28.7749581
0
LINE
8
DEFAULT_255_2_778
10
30.8108816
20
28.7749581
11
31.7432816
21
27.7602581
0
LINE
8
DEFAULT_255_2_778
10
31.7432816
20
27.7602581
11
31.9622816
21
27.9986581
0
LINE
8
DEFAULT_255_2_778
10
31.9622816
20
27.9986581
11
31.0299816
21
29.0133581
0
LINE
8
DEFAULT_255_2_778
10
31.0299816
20
29.0133581
11
31.9622816
21
30.0280581
0
LINE
8
DEFAULT_255_2_778
10
31.9622816
20
30.0280581
11
31.7432816
21
30.2664581
0
LINE
8
DEFAULT_255_2_778
10
31.7432816
20
30.2664581
11
30.8108816
21
29.2517581
0
LINE
8
DEFAULT_255_2_778
10
30.8108816
20
29.2517581
11
29.8784816
21
30.2664581
0
LINE
8
DEFAULT_255_2_778
10
29.7173816
20
26.9519581
11
29.7173816
21
26.9519581
0
LINE
8
DEFAULT_255_2_778
10
26.5544605
20
34.2401187
11
33.3685605
21
34.2401187
0
LINE
8
DEFAULT_255_2_778
10
26.5544605
20
33.2289187
11
33.3685605
21
33.2289187
0
LINE
8
DEFAULT_255_2_778
10
26.5544605
20
42.6672187
11
33.3685605
21
42.6672187
0
LINE
8
DEFAULT_255_2_778
10
26.5544605
20
43.6784187
11
33.3685605
21
43.6784187
0
ARC
8
DEFAULT_255_2_778
10
30.8611371
20
38.2069958
40
2.1468857
50
237.8084817
51
247.1381874
0
ARC
8
DEFAULT_255_2_778
10
30.8207462
20
38.1114925
40
2.0431925
50
247.1413854
51
258.8564863
0
ARC
8
DEFAULT_255_2_778
10
30.8124698
20
38.0745142
40
2.0053121
50
258.8843057
51
265.2122528
0
ARC
8
DEFAULT_255_2_778
10
30.8119676
20
38.069633
40
2.0004061
50
265.2149156
51
270.0003771
0
ARC
8
DEFAULT_255_2_778
10
30.8052858
20
38.1267297
40
2.0575138
50
270.1864359
51
304.3264089
0
ARC
8
DEFAULT_255_2_778
10
30.7122408
20
38.2732955
40
2.2310297
50
304.1772184
51
320.8356855
0
ARC
8
DEFAULT_255_2_778
10
30.5718326
20
38.3897223
40
2.413423
50
320.7977997
51
332.1278457
0
ARC
8
DEFAULT_255_2_778
10
30.4816296
20
38.4412563
40
2.5172563
50
332.050781
51
343.4815842
0
ARC
8
DEFAULT_255_2_778
10
30.4498848
20
38.4501399
40
2.5502167
50
343.4930181
51
355.9782658
0
ARC
8
DEFAULT_255_2_778
10
30.4241344
20
38.4526869
40
2.5760824
50
355.9619223
51
0.0009742
0
ARC
8
DEFAULT_255_2_778
10
30.4877655
20
38.4626416
40
2.5124708
50
359.7739878
51
36.1572787
0
ARC
8
DEFAULT_255_2_778
10
30.7025018
20
38.6055648
40
2.2547957
50
36.4443931
51
57.7804003
0
ARC
8
DEFAULT_255_2_778
10
30.7605847
20
38.6958399
40
2.1474545
50
57.8072731
51
67.1070944
0
ARC
8
DEFAULT_255_2_778
10
30.8010971
20
38.7915228
40
2.0435483
50
67.1098912
51
78.8390849
0
ARC
8
DEFAULT_255_2_778
10
30.8094329
20
38.8287108
40
2.0054504
50
78.8670796
51
85.2028697
0
ARC
8
DEFAULT_255_2_778
10
30.8099466
20
38.8337254
40
2.0004105
50
85.2055197
51
90.0003986
0
ARC
8
DEFAULT_255_2_778
10
30.8166203
20
38.7766978
40
2.057449
50
90.1862388
51
124.326674
0
ARC
8
DEFAULT_255_2_778
10
30.9096638
20
38.6301414
40
2.2309563
50
124.1775602
51
140.8360344
0
ARC
8
DEFAULT_255_2_778
10
31.050107
20
38.513684
40
2.4133961
50
140.7980835
51
152.127867
0
ARC
8
DEFAULT_255_2_778
10
31.1407549
20
38.4620127
40
2.5176866
50
152.0527868
51
163.479051
0
ARC
8
DEFAULT_255_2_778
10
31.1722183
20
38.4532122
40
2.5503537
50
163.4905074
51
175.9719629
0
ARC
8
DEFAULT_255_2_778
10
31.1977662
20
38.4506824
40
2.5760162
50
175.9557484
51
180.001012
0
ARC
8
DEFAULT_255_2_778
10
31.1341448
20
38.4407323
40
2.5124143
50
179.7741255
51
216.1591441
0
ARC
8
DEFAULT_255_2_778
10
30.9198523
20
38.2981155
40
2.2552786
50
216.4460428
51
237.7793953
0
LINE
8
DEFAULT_255_2_778
10
29.8784816
20
39.7046464
11
29.6593816
21
39.4662464
0
LINE
8
DEFAULT_255_2_778
10
29.6593816
20
39.4662464
11
30.5917816
21
38.4515464
0
LINE
8
DEFAULT_255_2_778
10
30.5917816
20
38.4515464
11
29.6593816
21
37.4369464
0
LINE
8
DEFAULT_255_2_778
10
29.6593816
20
37.4369464
11
29.8784816
21
37.1985464
0
LINE
8
DEFAULT_255_2_778
10
29.8784816
20
37.1985464
11
30.8108816
21
38.2131464
0
LINE
8
DEFAULT_255_2_778
10
30.8108816
20
38.2131464
11
31.7432816
21
37.1985464
0
LINE
8
DEFAULT_255_2_778
10
31.7432816
20
37.1985464
11
31.9622816
21
37.4369464
0
LINE
8
DEFAULT_255_2_778
10
31.9622816
20
37.4369464
11
31.0299816
21
38.4515464
0
LINE
8
DEFAULT_255_2_778
10
31.0299816
20
38.4515464
11
31.9622816
21
39.4662464
0
LINE
8
DEFAULT_255_2_778
10
31.9622816
20
39.4662464
11
31.7432816
21
39.7046464
0
LINE
8
DEFAULT_255_2_778
10
31.7432816
20
39.7046464
11
30.8108816
21
38.6899464
0
LINE
8
DEFAULT_255_2_778
10
30.8108816
20
38.6899464
11
29.8784816
21
39.7046464
0
LINE
8
DEFAULT_255_2_778
10
29.7173816
20
36.3901464
11
29.7173816
21
36.3901464
0
LINE
8
DEFAULT_255_2_778
10
26.5544605
20
52.1054187
11
33.3685605
21
52.1054187
0
LINE
8
DEFAULT_255_2_778
10
26.5544605
20
53.1166187
11
33.3685605
21
53.1166187
0
ARC
8
DEFAULT_255_2_778
10
30.8611371
20
47.6451958
40
2.1468857
50
237.8084817
51
247.1381874
0
ARC
8
DEFAULT_255_2_778
10
30.8207462
20
47.5496925
40
2.0431925
50
247.1413854
51
258.8564863
0
ARC
8
DEFAULT_255_2_778
10
30.8124698
20
47.5127142
40
2.0053121
50
258.8843057
51
265.2122528
0
ARC
8
DEFAULT_255_2_778
10
30.8119676
20
47.507833
40
2.0004061
50
265.2149156
51
270.0003771
0
ARC
8
DEFAULT_255_2_778
10
30.8052858
20
47.5649297
40
2.0575138
50
270.1864359
51
304.3264089
0
ARC
8
DEFAULT_255_2_778
10
30.7122408
20
47.7114955
40
2.2310297
50
304.1772184
51
320.8356855
0
ARC
8
DEFAULT_255_2_778
10
30.5718326
20
47.8279223
40
2.413423
50
320.7977997
51
332.1278457
0
ARC
8
DEFAULT_255_2_778
10
30.4816296
20
47.8794563
40
2.5172563
50
332.050781
51
343.4815842
0
ARC
8
DEFAULT_255_2_778
10
30.4498848
20
47.8883399
40
2.5502167
50
343.4930181
51
355.9782658
0
ARC
8
DEFAULT_255_2_778
10
30.4241344
20
47.8908869
40
2.5760824
50
355.9619223
51
0.0009742
0
ARC
8
DEFAULT_255_2_778
10
30.4877655
20
47.9008416
40
2.5124708
50
359.7739878
51
36.1572787
0
ARC
8
DEFAULT_255_2_778
10
30.7025018
20
48.0437648
40
2.2547957
50
36.4443931
51
57.7804003
0
ARC
8
DEFAULT_255_2_778
10
30.7605847
20
48.1340399
40
2.1474545
50
57.8072731
51
67.1070944
0
ARC
8
DEFAULT_255_2_778
10
30.8010971
20
48.2297228
40
2.0435483
50
67.1098912
51
78.8390849
0
ARC
8
DEFAULT_255_2_778
10
30.8094329
20
48.2669108
40
2.0054504
50
78.8670796
51
85.2028697
0
ARC
8
DEFAULT_255_2_778
10
30.8099466
20
48.2719254
40
2.0004105
50
85.2055197
51
90.0003986
0
ARC
8
DEFAULT_255_2_778
10
30.8166203
20
48.2148978
40
2.057449
50
90.1862388
51
124.326674
0
ARC
8
DEFAULT_255_2_778
10
30.9096638
20
48.0683414
40
2.2309563
50
124.1775602
51
140.8360344
0
ARC
8
DEFAULT_255_2_778
10
31.050107
20
47.951884
40
2.4133961
50
140.7980835
51
152.127867
0
ARC
8
DEFAULT_255_2_778
10
31.1407549
20
47.9002127
40
2.5176866
50
152.0527868
51
163.479051
0
ARC
8
DEFAULT_255_2_778
10
31.1722183
20
47.8914122
40
2.5503537
50
163.4905074
51
175.9719629
0
ARC
8
DEFAULT_255_2_778
10
31.1977662
20
47.8888824
40
2.5760162
50
175.9557484
51
180.001012
0
ARC
8
DEFAULT_255_2_778
10
31.1341448
20
47.8789323
40
2.5124143
50
179.7741255
51
216.1591441
0
ARC
8
DEFAULT_255_2_778
10
30.9198523
20
47.7363155
40
2.2552786
50
216.4460428
51
237.7793953
0
LINE
8
DEFAULT_255_2_778
10
29.8784816
20
49.1428464
11
29.6593816
21
48.9044464
0
LINE
8
DEFAULT_255_2_778
10
29.6593816
20
48.9044464
11
30.5917816
21
47.8897464
0
LINE
8
DEFAULT_255_2_778
10
30.5917816
20
47.8897464
11
29.6593816
21
46.8751464
0
LINE
8
DEFAULT_255_2_778
10
29.6593816
20
46.8751464
11
29.8784816
21
46.6367464
0
LINE
8
DEFAULT_255_2_778
10
29.8784816
20
46.6367464
11
30.8108816
21
47.6513464
0
LINE
8
DEFAULT_255_2_778
10
30.8108816
20
47.6513464
11
31.7432816
21
46.6367464
0
LINE
8
DEFAULT_255_2_778
10
31.7432816
20
46.6367464
11
31.9622816
21
46.8751464
0
LINE
8
DEFAULT_255_2_778
10
31.9622816
20
46.8751464
11
31.0299816
21
47.8897464
0
LINE
8
DEFAULT_255_2_778
10
31.0299816
20
47.8897464
11
31.9622816
21
48.9044464
0
LINE
8
DEFAULT_255_2_778
10
31.9622816
20
48.9044464
11
31.7432816
21
49.1428464
0
LINE
8
DEFAULT_255_2_778
10
31.7432816
20
49.1428464
11
30.8108816
21
48.1281464
0
LINE
8
DEFAULT_255_2_778
10
30.8108816
20
48.1281464
11
29.8784816
21
49.1428464
0
LINE
8
DEFAULT_255_2_778
10
29.7173816
20
45.8283464
11
29.7173816
21
45.8283464
0
LINE
8
DEFAULT_255_2_778
10
26.5544605
20
61.5436187
11
33.3685605
21
61.5436187
0
LINE
8
DEFAULT_255_2_778
10
26.5544605
20
62.5548187
11
33.3685605
21
62.5548187
0
ARC
8
DEFAULT_255_2_778
10
30.8611371
20
57.0833958
40
2.1468857
50
237.8084817
51
247.1381874
0
ARC
8
DEFAULT_255_2_778
10
30.8207462
20
56.9878925
40
2.0431925
50
247.1413854
51
258.8564863
0
ARC
8
DEFAULT_255_2_778
10
30.8124698
20
56.9509142
40
2.0053121
50
258.8843057
51
265.2122528
0
ARC
8
DEFAULT_255_2_778
10
30.8119676
20
56.946033
40
2.0004061
50
265.2149156
51
270.0003771
0
ARC
8
DEFAULT_255_2_778
10
30.8052858
20
57.0031297
40
2.0575138
50
270.1864359
51
304.3264089
0
ARC
8
DEFAULT_255_2_778
10
30.7122408
20
57.1496955
40
2.2310297
50
304.1772184
51
320.8356855
0
ARC
8
DEFAULT_255_2_778
10
30.5718326
20
57.2661223
40
2.413423
50
320.7977997
51
332.1278457
0
ARC
8
DEFAULT_255_2_778
10
30.4816296
20
57.3176563
40
2.5172563
50
332.050781
51
343.4815842
0
ARC
8
DEFAULT_255_2_778
10
30.4498848
20
57.3265399
40
2.5502167
50
343.4930181
51
355.9782658
0
ARC
8
DEFAULT_255_2_778
10
30.4241344
20
57.3290869
40
2.5760824
50
355.9619223
51
0.0009742
0
ARC
8
DEFAULT_255_2_778
10
30.4877655
20
57.3390416
40
2.5124708
50
359.7739878
51
36.1572787
0
ARC
8
DEFAULT_255_2_778
10
30.7025018
20
57.4819648
40
2.2547957
50
36.4443931
51
57.7804003
0
ARC
8
DEFAULT_255_2_778
10
30.7605847
20
57.5722399
40
2.1474545
50
57.8072731
51
67.1070944
0
ARC
8
DEFAULT_255_2_778
10
30.8010971
20
57.6679228
40
2.0435483
50
67.1098912
51
78.8390849
0
ARC
8
DEFAULT_255_2_778
10
30.8094329
20
57.7051108
40
2.0054504
50
78.8670796
51
85.2028697
0
ARC
8
DEFAULT_255_2_778
10
30.8099466
20
57.7101254
40
2.0004105
50
85.2055197
51
90.0003986
0
ARC
8
DEFAULT_255_2_778
10
30.8166203
20
57.6530978
40
2.057449
50
90.1862388
51
124.326674
0
ARC
8
DEFAULT_255_2_778
10
30.9096638
20
57.5065414
40
2.2309563
50
124.1775602
51
140.8360344
0
ARC
8
DEFAULT_255_2_778
10
31.050107
20
57.390084
40
2.4133961
50
140.7980835
51
152.127867
0
ARC
8
DEFAULT_255_2_778
10
31.1407549
20
57.3384127
40
2.5176866
50
152.0527868
51
163.479051
0
ARC
8
DEFAULT_255_2_778
10
31.1722183
20
57.3296122
40
2.5503537
50
163.4905074
51
175.9719629
0
ARC
8
DEFAULT_255_2_778
10
31.1977662
20
57.3270824
40
2.5760162
50
175.9557484
51
180.001012
0
ARC
8
DEFAULT_255_2_778
10
31.1341448
20
57.3171323
40
2.5124143
50
179.7741255
51
216.1591441
0
ARC
8
DEFAULT_255_2_778
10
30.9198523
20
57.1745155
40
2.2552786
50
216.4460428
51
237.7793953
0
LINE
8
DEFAULT_255_2_778
10
29.8784816
20
58.5810464
11
29.6593816
21
58.3426464
0
LINE
8
DEFAULT_255_2_778
10
29.6593816
20
58.3426464
11
30.5917816
21
57.3279464
0
LINE
8
DEFAULT_255_2_778
10
30.5917816
20
57.3279464
11
29.6593816
21
56.3133464
0
LINE
8
DEFAULT_255_2_778
10
29.6593816
20
56.3133464
11
29.8784816
21
56.0749464
0
LINE
8
DEFAULT_255_2_778
10
29.8784816
20
56.0749464
11
30.8108816
21
57.0895464
0
LINE
8
DEFAULT_255_2_778
10
30.8108816
20
57.0895464
11
31.7432816
21
56.0749464
0
LINE
8
DEFAULT_255_2_778
10
31.7432816
20
56.0749464
11
31.9622816
21
56.3133464
0
LINE
8
DEFAULT_255_2_778
10
31.9622816
20
56.3133464
11
31.0299816
21
57.3279464
0
LINE
8
DEFAULT_255_2_778
10
31.0299816
20
57.3279464
11
31.9622816
21
58.3426464
0
LINE
8
DEFAULT_255_2_778
10
31.9622816
20
58.3426464
11
31.7432816
21
58.5810464
0
LINE
8
DEFAULT_255_2_778
10
31.7432816
20
58.5810464
11
30.8108816
21
57.5663464
0
LINE
8
DEFAULT_255_2_778
10
30.8108816
20
57.5663464
11
29.8784816
21
58.5810464
0
LINE
8
DEFAULT_255_2_778
10
29.7173816
20
55.2665464
11
29.7173816
21
55.2665464
0
LINE
8
DEFAULT_255_2_778
10
26.5544605
20
70.9818187
11
33.3685605
21
70.9818187
0
LINE
8
DEFAULT_255_2_778
10
26.5544605
20
71.9930187
11
33.3685605
21
71.9930187
0
ARC
8
DEFAULT_255_2_778
10
30.8611371
20
66.5216105
40
2.1468857
50
237.8084817
51
247.1381874
0
ARC
8
DEFAULT_255_2_778
10
30.8207462
20
66.4261072
40
2.0431925
50
247.1413854
51
258.8564863
0
ARC
8
DEFAULT_255_2_778
10
30.8124698
20
66.3891289
40
2.0053121
50
258.8843057
51
265.2122528
0
ARC
8
DEFAULT_255_2_778
10
30.8119676
20
66.3842477
40
2.0004061
50
265.2149156
51
270.0003771
0
ARC
8
DEFAULT_255_2_778
10
30.8052858
20
66.4413443
40
2.0575138
50
270.1864359
51
304.3264089
0
ARC
8
DEFAULT_255_2_778
10
30.7122408
20
66.5879101
40
2.2310297
50
304.1772184
51
320.8356855
0
ARC
8
DEFAULT_255_2_778
10
30.5718326
20
66.704337
40
2.413423
50
320.7977997
51
332.1278457
0
ARC
8
DEFAULT_255_2_778
10
30.4816296
20
66.755871
40
2.5172563
50
332.050781
51
343.4815842
0
ARC
8
DEFAULT_255_2_778
10
30.4498848
20
66.7647545
40
2.5502167
50
343.4930181
51
355.9782658
0
ARC
8
DEFAULT_255_2_778
10
30.4241344
20
66.7673016
40
2.5760824
50
355.9619223
51
0.0009742
0
ARC
8
DEFAULT_255_2_778
10
30.4877655
20
66.7772562
40
2.5124708
50
359.7739878
51
36.1572787
0
ARC
8
DEFAULT_255_2_778
10
30.7025018
20
66.9201795
40
2.2547957
50
36.4443931
51
57.7804003
0
ARC
8
DEFAULT_255_2_778
10
30.7605847
20
67.0104545
40
2.1474545
50
57.8072731
51
67.1070944
0
ARC
8
DEFAULT_255_2_778
10
30.8010971
20
67.1061375
40
2.0435483
50
67.1098912
51
78.8390849
0
ARC
8
DEFAULT_255_2_778
10
30.8094329
20
67.1433255
40
2.0054504
50
78.8670796
51
85.2028697
0
ARC
8
DEFAULT_255_2_778
10
30.8099466
20
67.1483401
40
2.0004105
50
85.2055197
51
90.0003986
0
ARC
8
DEFAULT_255_2_778
10
30.8166203
20
67.0913125
40
2.057449
50
90.1862388
51
124.326674
0
ARC
8
DEFAULT_255_2_778
10
30.9096638
20
66.9447561
40
2.2309563
50
124.1775602
51
140.8360344
0
ARC
8
DEFAULT_255_2_778
10
31.050107
20
66.8282986
40
2.4133961
50
140.7980835
51
152.127867
0
ARC
8
DEFAULT_255_2_778
10
31.1407549
20
66.7766274
40
2.5176866
50
152.0527868
51
163.479051
0
ARC
8
DEFAULT_255_2_778
10
31.1722183
20
66.7678269
40
2.5503537
50
163.4905074
51
175.9719629
0
ARC
8
DEFAULT_255_2_778
10
31.1977662
20
66.765297
40
2.5760162
50
175.9557484
51
180.001012
0
ARC
8
DEFAULT_255_2_778
10
31.1341448
20
66.755347
40
2.5124143
50
179.7741255
51
216.1591441
0
ARC
8
DEFAULT_255_2_778
10
30.9198523
20
66.6127301
40
2.2552786
50
216.4460428
51
237.7793953
0
LINE
8
DEFAULT_255_2_778
10
29.8784816
20
68.0192611
11
29.6593816
21
67.7808611
0
LINE
8
DEFAULT_255_2_778
10
29.6593816
20
67.7808611
11
30.5917816
21
66.7661611
0
LINE
8
DEFAULT_255_2_778
10
30.5917816
20
66.7661611
11
29.6593816
21
65.7514611
0
LINE
8
DEFAULT_255_2_778
10
29.6593816
20
65.7514611
11
29.8784816
21
65.5130611
0
LINE
8
DEFAULT_255_2_778
10
29.8784816
20
65.5130611
11
30.8108816
21
66.5277611
0
LINE
8
DEFAULT_255_2_778
10
30.8108816
20
66.5277611
11
31.7432816
21
65.5130611
0
LINE
8
DEFAULT_255_2_778
10
31.7432816
20
65.5130611
11
31.9622816
21
65.7514611
0
LINE
8
DEFAULT_255_2_778
10
31.9622816
20
65.7514611
11
31.0299816
21
66.7661611
0
LINE
8
DEFAULT_255_2_778
10
31.0299816
20
66.7661611
11
31.9622816
21
67.7808611
0
LINE
8
DEFAULT_255_2_778
10
31.9622816
20
67.7808611
11
31.7432816
21
68.0192611
0
LINE
8
DEFAULT_255_2_778
10
31.7432816
20
68.0192611
11
30.8108816
21
67.0045611
0
LINE
8
DEFAULT_255_2_778
10
30.8108816
20
67.0045611
11
29.8784816
21
68.0192611
0
LINE
8
DEFAULT_255_2_778
10
29.7173816
20
64.7047611
11
29.7173816
21
64.7047611
0
LINE
8
DEFAULT_255_2_778
10
26.5544605
20
80.4200187
11
33.3685605
21
80.4200187
0
LINE
8
DEFAULT_255_2_778
10
26.5544605
20
81.4312187
11
33.3685605
21
81.4312187
0
ARC
8
DEFAULT_255_2_778
10
30.8611371
20
75.9598105
40
2.1468857
50
237.8084817
51
247.1381874
0
ARC
8
DEFAULT_255_2_778
10
30.8207462
20
75.8643072
40
2.0431925
50
247.1413854
51
258.8564863
0
ARC
8
DEFAULT_255_2_778
10
30.8124698
20
75.8273289
40
2.0053121
50
258.8843057
51
265.2122528
0
ARC
8
DEFAULT_255_2_778
10
30.8119676
20
75.8224477
40
2.0004061
50
265.2149156
51
270.0003771
0
ARC
8
DEFAULT_255_2_778
10
30.8052858
20
75.8795443
40
2.0575138
50
270.1864359
51
304.3264089
0
ARC
8
DEFAULT_255_2_778
10
30.7122408
20
76.0261101
40
2.2310297
50
304.1772184
51
320.8356855
0
ARC
8
DEFAULT_255_2_778
10
30.5718326
20
76.142537
40
2.413423
50
320.7977997
51
332.1278457
0
ARC
8
DEFAULT_255_2_778
10
30.4816296
20
76.194071
40
2.5172563
50
332.050781
51
343.4815842
0
ARC
8
DEFAULT_255_2_778
10
30.4498848
20
76.2029545
40
2.5502167
50
343.4930181
51
355.9782658
0
ARC
8
DEFAULT_255_2_778
10
30.4241344
20
76.2055016
40
2.5760824
50
355.9619223
51
0.0009742
0
ARC
8
DEFAULT_255_2_778
10
30.4877655
20
76.2154562
40
2.5124708
50
359.7739878
51
36.1572787
0
ARC
8
DEFAULT_255_2_778
10
30.7025018
20
76.3583795
40
2.2547957
50
36.4443931
51
57.7804003
0
ARC
8
DEFAULT_255_2_778
10
30.7605847
20
76.4486545
40
2.1474545
50
57.8072731
51
67.1070944
0
ARC
8
DEFAULT_255_2_778
10
30.8010971
20
76.5443375
40
2.0435483
50
67.1098912
51
78.8390849
0
ARC
8
DEFAULT_255_2_778
10
30.8094329
20
76.5815255
40
2.0054504
50
78.8670796
51
85.2028697
0
ARC
8
DEFAULT_255_2_778
10
30.8099466
20
76.5865401
40
2.0004105
50
85.2055197
51
90.0003986
0
ARC
8
DEFAULT_255_2_778
10
30.8166203
20
76.5295125
40
2.057449
50
90.1862388
51
124.326674
0
ARC
8
DEFAULT_255_2_778
10
30.9096638
20
76.3829561
40
2.2309563
50
124.1775602
51
140.8360344
0
ARC
8
DEFAULT_255_2_778
10
31.050107
20
76.2664986
40
2.4133961
50
140.7980835
51
152.127867
0
ARC
8
DEFAULT_255_2_778
10
31.1407549
20
76.2148274
40
2.5176866
50
152.0527868
51
163.479051
0
ARC
8
DEFAULT_255_2_778
10
31.1722183
20
76.2060269
40
2.5503537
50
163.4905074
51
175.9719629
0
ARC
8
DEFAULT_255_2_778
10
31.1977662
20
76.203497
40
2.5760162
50
175.9557484
51
180.001012
0
ARC
8
DEFAULT_255_2_778
10
31.1341448
20
76.193547
40
2.5124143
50
179.7741255
51
216.1591441
0
ARC
8
DEFAULT_255_2_778
10
30.9198523
20
76.0509301
40
2.2552786
50
216.4460428
51
237.7793953
0
LINE
8
DEFAULT_255_2_778
10
29.8784816
20
77.4574611
11
29.6593816
21
77.2190611
0
LINE
8
DEFAULT_255_2_778
10
29.6593816
20
77.2190611
11
30.5917816
21
76.2043611
0
LINE
8
DEFAULT_255_2_778
10
30.5917816
20
76.2043611
11
29.6593816
21
75.1896611
0
LINE
8
DEFAULT_255_2_778
10
29.6593816
20
75.1896611
11
29.8784816
21
74.9512611
0
LINE
8
DEFAULT_255_2_778
10
29.8784816
20
74.9512611
11
30.8108816
21
75.9659611
0
LINE
8
DEFAULT_255_2_778
10
30.8108816
20
75.9659611
11
31.7432816
21
74.9512611
0
LINE
8
DEFAULT_255_2_778
10
31.7432816
20
74.9512611
11
31.9622816
21
75.1896611
0
LINE
8
DEFAULT_255_2_778
10
31.9622816
20
75.1896611
11
31.0299816
21
76.2043611
0
LINE
8
DEFAULT_255_2_778
10
31.0299816
20
76.2043611
11
31.9622816
21
77.2190611
0
LINE
8
DEFAULT_255_2_778
10
31.9622816
20
77.2190611
11
31.7432816
21
77.4574611
0
LINE
8
DEFAULT_255_2_778
10
31.7432816
20
77.4574611
11
30.8108816
21
76.4427611
0
LINE
8
DEFAULT_255_2_778
10
30.8108816
20
76.4427611
11
29.8784816
21
77.4574611
0
LINE
8
DEFAULT_255_2_778
10
29.7173816
20
74.1429611
11
29.7173816
21
74.1429611
0
LINE
8
DEFAULT_255_2_778
10
26.5544605
20
89.8582187
11
33.3685605
21
89.8582187
0
LINE
8
DEFAULT_255_2_778
10
26.5544605
20
90.8694187
11
33.3685605
21
90.8694187
0
ARC
8
DEFAULT_255_2_778
10
30.8611371
20
85.3981105
40
2.1468857
50
237.8084817
51
247.1381874
0
ARC
8
DEFAULT_255_2_778
10
30.8207462
20
85.3026072
40
2.0431925
50
247.1413854
51
258.8564863
0
ARC
8
DEFAULT_255_2_778
10
30.8124698
20
85.2656289
40
2.0053121
50
258.8843057
51
265.2122528
0
ARC
8
DEFAULT_255_2_778
10
30.8119676
20
85.2607477
40
2.0004061
50
265.2149156
51
270.0003771
0
ARC
8
DEFAULT_255_2_778
10
30.8052858
20
85.3178443
40
2.0575138
50
270.1864359
51
304.3264089
0
ARC
8
DEFAULT_255_2_778
10
30.7122408
20
85.4644101
40
2.2310297
50
304.1772184
51
320.8356855
0
ARC
8
DEFAULT_255_2_778
10
30.5718326
20
85.580837
40
2.413423
50
320.7977997
51
332.1278457
0
ARC
8
DEFAULT_255_2_778
10
30.4816296
20
85.632371
40
2.5172563
50
332.050781
51
343.4815842
0
ARC
8
DEFAULT_255_2_778
10
30.4498848
20
85.6412545
40
2.5502167
50
343.4930181
51
355.9782658
0
ARC
8
DEFAULT_255_2_778
10
30.4241344
20
85.6438016
40
2.5760824
50
355.9619223
51
0.0009742
0
ARC
8
DEFAULT_255_2_778
10
30.4877655
20
85.6537562
40
2.5124708
50
359.7739878
51
36.1572787
0
ARC
8
DEFAULT_255_2_778
10
30.7025018
20
85.7966795
40
2.2547957
50
36.4443931
51
57.7804003
0
ARC
8
DEFAULT_255_2_778
10
30.7605847
20
85.8869545
40
2.1474545
50
57.8072731
51
67.1070944
0
ARC
8
DEFAULT_255_2_778
10
30.8010971
20
85.9826375
40
2.0435483
50
67.1098912
51
78.8390849
0
ARC
8
DEFAULT_255_2_778
10
30.8094329
20
86.0198255
40
2.0054504
50
78.8670796
51
85.2028697
0
ARC
8
DEFAULT_255_2_778
10
30.8099466
20
86.0248401
40
2.0004105
50
85.2055197
51
90.0003986
0
ARC
8
DEFAULT_255_2_778
10
30.8166203
20
85.9678125
40
2.057449
50
90.1862388
51
124.326674
0
ARC
8
DEFAULT_255_2_778
10
30.9096638
20
85.8212561
40
2.2309563
50
124.1775602
51
140.8360344
0
ARC
8
DEFAULT_255_2_778
10
31.050107
20
85.7047986
40
2.4133961
50
140.7980835
51
152.127867
0
ARC
8
DEFAULT_255_2_778
10
31.1407549
20
85.6531274
40
2.5176866
50
152.0527868
51
163.479051
0
ARC
8
DEFAULT_255_2_778
10
31.1722183
20
85.6443269
40
2.5503537
50
163.4905074
51
175.9719629
0
ARC
8
DEFAULT_255_2_778
10
31.1977662
20
85.641797
40
2.5760162
50
175.9557484
51
180.001012
0
ARC
8
DEFAULT_255_2_778
10
31.1341448
20
85.631847
40
2.5124143
50
179.7741255
51
216.1591441
0
ARC
8
DEFAULT_255_2_778
10
30.9198523
20
85.4892301
40
2.2552786
50
216.4460428
51
237.7793953
0
LINE
8
DEFAULT_255_2_778
10
29.8784816
20
86.8957611
11
29.6593816
21
86.6573611
0
LINE
8
DEFAULT_255_2_778
10
29.6593816
20
86.6573611
11
30.5917816
21
85.6426611
0
LINE
8
DEFAULT_255_2_778
10
30.5917816
20
85.6426611
11
29.6593816
21
84.6279611
0
LINE
8
DEFAULT_255_2_778
10
29.6593816
20
84.6279611
11
29.8784816
21
84.3895611
0
LINE
8
DEFAULT_255_2_778
10
29.8784816
20
84.3895611
11
30.8108816
21
85.4042611
0
LINE
8
DEFAULT_255_2_778
10
30.8108816
20
85.4042611
11
31.7432816
21
84.3895611
0
LINE
8
DEFAULT_255_2_778
10
31.7432816
20
84.3895611
11
31.9622816
21
84.6279611
0
LINE
8
DEFAULT_255_2_778
10
31.9622816
20
84.6279611
11
31.0299816
21
85.6426611
0
LINE
8
DEFAULT_255_2_778
10
31.0299816
20
85.6426611
11
31.9622816
21
86.6573611
0
LINE
8
DEFAULT_255_2_778
10
31.9622816
20
86.6573611
11
31.7432816
21
86.8957611
0
LINE
8
DEFAULT_255_2_778
10
31.7432816
20
86.8957611
11
30.8108816
21
85.8810611
0
LINE
8
DEFAULT_255_2_778
10
30.8108816
20
85.8810611
11
29.8784816
21
86.8957611
0
LINE
8
DEFAULT_255_2_778
10
29.7173816
20
83.5812611
11
29.7173816
21
83.5812611
0
LINE
8
DEFAULT_255_2_778
10
26.5544605
20
99.2965187
11
33.3685605
21
99.2965187
0
LINE
8
DEFAULT_255_2_778
10
26.5544605
20
100.3077187
11
33.3685605
21
100.3077187
0
ARC
8
DEFAULT_255_2_778
10
30.8611371
20
94.8363046
40
2.1468857
50
237.8084817
51
247.1381874
0
ARC
8
DEFAULT_255_2_778
10
30.8207462
20
94.7408013
40
2.0431925
50
247.1413854
51
258.8564863
0
ARC
8
DEFAULT_255_2_778
10
30.8124698
20
94.703823
40
2.0053121
50
258.8843057
51
265.2122528
0
ARC
8
DEFAULT_255_2_778
10
30.8119676
20
94.6989418
40
2.0004061
50
265.2149156
51
270.0003771
0
ARC
8
DEFAULT_255_2_778
10
30.8052858
20
94.7560384
40
2.0575138
50
270.1864359
51
304.3264089
0
ARC
8
DEFAULT_255_2_778
10
30.7122408
20
94.9026042
40
2.2310297
50
304.1772184
51
320.8356855
0
ARC
8
DEFAULT_255_2_778
10
30.5718326
20
95.0190311
40
2.413423
50
320.7977997
51
332.1278457
0
ARC
8
DEFAULT_255_2_778
10
30.4816296
20
95.0705651
40
2.5172563
50
332.050781
51
343.4815842
0
ARC
8
DEFAULT_255_2_778
10
30.4498848
20
95.0794486
40
2.5502167
50
343.4930181
51
355.9782658
0
ARC
8
DEFAULT_255_2_778
10
30.4241344
20
95.0819957
40
2.5760824
50
355.9619223
51
0.0009742
0
ARC
8
DEFAULT_255_2_778
10
30.4877655
20
95.0919503
40
2.5124708
50
359.7739878
51
36.1572787
0
ARC
8
DEFAULT_255_2_778
10
30.7025018
20
95.2348736
40
2.2547957
50
36.4443931
51
57.7804003
0
ARC
8
DEFAULT_255_2_778
10
30.7605847
20
95.3251486
40
2.1474545
50
57.8072731
51
67.1070944
0
ARC
8
DEFAULT_255_2_778
10
30.8010971
20
95.4208316
40
2.0435483
50
67.1098912
51
78.8390849
0
ARC
8
DEFAULT_255_2_778
10
30.8094329
20
95.4580196
40
2.0054504
50
78.8670796
51
85.2028697
0
ARC
8
DEFAULT_255_2_778
10
30.8099466
20
95.4630342
40
2.0004105
50
85.2055197
51
90.0003986
0
ARC
8
DEFAULT_255_2_778
10
30.8166203
20
95.4060066
40
2.057449
50
90.1862388
51
124.326674
0
ARC
8
DEFAULT_255_2_778
10
30.9096638
20
95.2594502
40
2.2309563
50
124.1775602
51
140.8360344
0
ARC
8
DEFAULT_255_2_778
10
31.050107
20
95.1429927
40
2.4133961
50
140.7980835
51
152.127867
0
ARC
8
DEFAULT_255_2_778
10
31.1407549
20
95.0913215
40
2.5176866
50
152.0527868
51
163.479051
0
ARC
8
DEFAULT_255_2_778
10
31.1722183
20
95.082521
40
2.5503537
50
163.4905074
51
175.9719629
0
ARC
8
DEFAULT_255_2_778
10
31.1977662
20
95.0799911
40
2.5760162
50
175.9557484
51
180.001012
0
ARC
8
DEFAULT_255_2_778
10
31.1341448
20
95.0700411
40
2.5124143
50
179.7741255
51
216.1591441
0
ARC
8
DEFAULT_255_2_778
10
30.9198523
20
94.9274243
40
2.2552786
50
216.4460428
51
237.7793953
0
LINE
8
DEFAULT_255_2_778
10
29.8784816
20
96.3339552
11
29.6593816
21
96.0955552
0
LINE
8
DEFAULT_255_2_778
10
29.6593816
20
96.0955552
11
30.5917816
21
95.0808552
0
LINE
8
DEFAULT_255_2_778
10
30.5917816
20
95.0808552
11
29.6593816
21
94.0661552
0
LINE
8
DEFAULT_255_2_778
10
29.6593816
20
94.0661552
11
29.8784816
21
93.8277552
0
LINE
8
DEFAULT_255_2_778
10
29.8784816
20
93.8277552
11
30.8108816
21
94.8424552
0
LINE
8
DEFAULT_255_2_778
10
30.8108816
20
94.8424552
11
31.7432816
21
93.8277552
0
LINE
8
DEFAULT_255_2_778
10
31.7432816
20
93.8277552
11
31.9622816
21
94.0661552
0
LINE
8
DEFAULT_255_2_778
10
31.9622816
20
94.0661552
11
31.0299816
21
95.0808552
0
LINE
8
DEFAULT_255_2_778
10
31.0299816
20
95.0808552
11
31.9622816
21
96.0955552
0
LINE
8
DEFAULT_255_2_778
10
31.9622816
20
96.0955552
11
31.7432816
21
96.3339552
0
LINE
8
DEFAULT_255_2_778
10
31.7432816
20
96.3339552
11
30.8108816
21
95.3192552
0
LINE
8
DEFAULT_255_2_778
10
30.8108816
20
95.3192552
11
29.8784816
21
96.3339552
0
LINE
8
DEFAULT_255_2_778
10
29.7173816
20
93.0194552
11
29.7173816
21
93.0194552
0
ARC
8
DEFAULT_255_2_778
10
30.8611371
20
104.2745046
40
2.1468857
50
237.8084817
51
247.1381874
0
ARC
8
DEFAULT_255_2_778
10
30.8207462
20
104.1790013
40
2.0431925
50
247.1413854
51
258.8564863
0
ARC
8
DEFAULT_255_2_778
10
30.8124698
20
104.142023
40
2.0053121
50
258.8843057
51
265.2122528
0
ARC
8
DEFAULT_255_2_778
10
30.8119676
20
104.1371418
40
2.0004061
50
265.2149156
51
270.0003771
0
ARC
8
DEFAULT_255_2_778
10
30.8052858
20
104.1942384
40
2.0575138
50
270.1864359
51
304.3264089
0
ARC
8
DEFAULT_255_2_778
10
30.7122408
20
104.3408042
40
2.2310297
50
304.1772184
51
320.8356855
0
ARC
8
DEFAULT_255_2_778
10
30.5718326
20
104.4572311
40
2.413423
50
320.7977997
51
332.1278457
0
ARC
8
DEFAULT_255_2_778
10
30.4816296
20
104.5087651
40
2.5172563
50
332.050781
51
343.4815842
0
ARC
8
DEFAULT_255_2_778
10
30.4498848
20
104.5176486
40
2.5502167
50
343.4930181
51
355.9782658
0
ARC
8
DEFAULT_255_2_778
10
30.4241344
20
104.5201957
40
2.5760824
50
355.9619223
51
0.0009742
0
ARC
8
DEFAULT_255_2_778
10
30.4877655
20
104.5301503
40
2.5124708
50
359.7739878
51
36.1572787
0
ARC
8
DEFAULT_255_2_778
10
30.7025018
20
104.6730736
40
2.2547957
50
36.4443931
51
57.7804003
0
ARC
8
DEFAULT_255_2_778
10
30.7605847
20
104.7633486
40
2.1474545
50
57.8072731
51
67.1070944
0
ARC
8
DEFAULT_255_2_778
10
30.8010971
20
104.8590316
40
2.0435483
50
67.1098912
51
78.8390849
0
ARC
8
DEFAULT_255_2_778
10
30.8094329
20
104.8962196
40
2.0054504
50
78.8670796
51
85.2028697
0
ARC
8
DEFAULT_255_2_778
10
30.8099466
20
104.9012342
40
2.0004105
50
85.2055197
51
90.0003986
0
ARC
8
DEFAULT_255_2_778
10
30.8166203
20
104.8442066
40
2.057449
50
90.1862388
51
124.326674
0
ARC
8
DEFAULT_255_2_778
10
30.9096638
20
104.6976502
40
2.2309563
50
124.1775602
51
140.8360344
0
ARC
8
DEFAULT_255_2_778
10
31.050107
20
104.5811927
40
2.4133961
50
140.7980835
51
152.127867
0
ARC
8
DEFAULT_255_2_778
10
31.1407549
20
104.5295215
40
2.5176866
50
152.0527868
51
163.479051
0
ARC
8
DEFAULT_255_2_778
10
31.1722183
20
104.520721
40
2.5503537
50
163.4905074
51
175.9719629
0
ARC
8
DEFAULT_255_2_778
10
31.1977662
20
104.5181911
40
2.5760162
50
175.9557484
51
180.001012
0
ARC
8
DEFAULT_255_2_778
10
31.1341448
20
104.5082411
40
2.5124143
50
179.7741255
51
216.1591441
0
ARC
8
DEFAULT_255_2_778
10
30.9198523
20
104.3656243
40
2.2552786
50
216.4460428
51
237.7793953
0
LINE
8
DEFAULT_255_2_778
10
29.8784816
20
105.7721552
11
29.6593816
21
105.5337552
0
LINE
8
DEFAULT_255_2_778
10
29.6593816
20
105.5337552
11
30.5917816
21
104.5190552
0
LINE
8
DEFAULT_255_2_778
10
30.5917816
20
104.5190552
11
29.6593816
21
103.5043552
0
LINE
8
DEFAULT_255_2_778
10
29.6593816
20
103.5043552
11
29.8784816
21
103.2659552
0
LINE
8
DEFAULT_255_2_778
10
29.8784816
20
103.2659552
11
30.8108816
21
104.2806552
0
LINE
8
DEFAULT_255_2_778
10
30.8108816
20
104.2806552
11
31.7432816
21
103.2659552
0
LINE
8
DEFAULT_255_2_778
10
31.7432816
20
103.2659552
11
31.9622816
21
103.5043552
0
LINE
8
DEFAULT_255_2_778
10
31.9622816
20
103.5043552
11
31.0299816
21
104.5190552
0
LINE
8
DEFAULT_255_2_778
10
31.0299816
20
104.5190552
11
31.9622816
21
105.5337552
0
LINE
8
DEFAULT_255_2_778
10
31.9622816
20
105.5337552
11
31.7432816
21
105.7721552
0
LINE
8
DEFAULT_255_2_778
10
31.7432816
20
105.7721552
11
30.8108816
21
104.7574552
0
LINE
8
DEFAULT_255_2_778
10
30.8108816
20
104.7574552
11
29.8784816
21
105.7721552
0
LINE
8
DEFAULT_255_2_778
10
29.7173816
20
102.4576552
11
29.7173816
21
102.4576552
0
LINE
8
DEFAULT_255_2_778
10
26.5544605
20
108.4272
11
33.3685605
21
108.4272
0
LINE
8
DEFAULT_255_2_778
10
30.8534355
20
5.8808
11
33.3685355
21
5.8808
0
LINE
8
DEFAULT_255_2_778
10
19.7403959
20
5.8808
11
26.4787959
21
5.8808
0
ARC
8
DEFAULT_255_2_778
10
28.7185371
20
5.634107
40
2.1468857
50
237.8084817
51
247.1381874
0
ARC
8
DEFAULT_255_2_778
10
28.6781462
20
5.5386037
40
2.0431925
50
247.1413854
51
258.8564863
0
ARC
8
DEFAULT_255_2_778
10
28.6698698
20
5.5016254
40
2.0053121
50
258.8843057
51
265.2122528
0
ARC
8
DEFAULT_255_2_778
10
28.6693676
20
5.4967442
40
2.0004061
50
265.2149156
51
270.0003771
0
ARC
8
DEFAULT_255_2_778
10
28.6626858
20
5.5538409
40
2.0575138
50
270.1864359
51
304.3264089
0
ARC
8
DEFAULT_255_2_778
10
28.5696408
20
5.7004067
40
2.2310297
50
304.1772184
51
320.8356855
0
ARC
8
DEFAULT_255_2_778
10
28.4292326
20
5.8168335
40
2.413423
50
320.7977997
51
332.1278457
0
ARC
8
DEFAULT_255_2_778
10
28.3390296
20
5.8683675
40
2.5172563
50
332.050781
51
343.4815842
0
ARC
8
DEFAULT_255_2_778
10
28.3072848
20
5.877251
40
2.5502167
50
343.4930181
51
355.9782658
0
ARC
8
DEFAULT_255_2_778
10
28.2815344
20
5.8797981
40
2.5760824
50
355.9619223
51
0.0009742
0
ARC
8
DEFAULT_255_2_778
10
28.3451655
20
5.8897528
40
2.5124708
50
359.7739878
51
36.1572787
0
ARC
8
DEFAULT_255_2_778
10
28.5599018
20
6.032676
40
2.2547957
50
36.4443931
51
57.7804003
0
ARC
8
DEFAULT_255_2_778
10
28.6179847
20
6.1229511
40
2.1474545
50
57.8072731
51
67.1070944
0
ARC
8
DEFAULT_255_2_778
10
28.6584971
20
6.218634
40
2.0435483
50
67.1098912
51
78.8390849
0
ARC
8
DEFAULT_255_2_778
10
28.6668329
20
6.255822
40
2.0054504
50
78.8670796
51
85.2028697
0
ARC
8
DEFAULT_255_2_778
10
28.6673466
20
6.2608366
40
2.0004105
50
85.2055197
51
90.0003986
0
ARC
8
DEFAULT_255_2_778
10
28.6740203
20
6.203809
40
2.057449
50
90.1862388
51
124.326674
0
ARC
8
DEFAULT_255_2_778
10
28.7670638
20
6.0572526
40
2.2309563
50
124.1775602
51
140.8360344
0
ARC
8
DEFAULT_255_2_778
10
28.907507
20
5.9407952
40
2.4133961
50
140.7980835
51
152.127867
0
ARC
8
DEFAULT_255_2_778
10
28.9981549
20
5.8891239
40
2.5176866
50
152.0527868
51
163.479051
0
ARC
8
DEFAULT_255_2_778
10
29.0296183
20
5.8803234
40
2.5503537
50
163.4905074
51
175.9719629
0
ARC
8
DEFAULT_255_2_778
10
29.0551662
20
5.8777936
40
2.5760162
50
175.9557484
51
180.001012
0
ARC
8
DEFAULT_255_2_778
10
28.9915448
20
5.8678435
40
2.5124143
50
179.7741255
51
216.1591441
0
ARC
8
DEFAULT_255_2_778
10
28.7772523
20
5.7252267
40
2.2552786
50
216.4460428
51
237.7793953
0
LINE
8
DEFAULT_255_2_778
10
27.7358816
20
7.1317576
11
27.5167816
21
6.8933576
0
LINE
8
DEFAULT_255_2_778
10
27.5167816
20
6.8933576
11
28.4491816
21
5.8786576
0
LINE
8
DEFAULT_255_2_778
10
28.4491816
20
5.8786576
11
27.5167816
21
4.8639576
0
LINE
8
DEFAULT_255_2_778
10
27.5167816
20
4.8639576
11
27.7358816
21
4.6255576
0
LINE
8
DEFAULT_255_2_778
10
27.7358816
20
4.6255576
11
28.6682816
21
5.6402576
0
LINE
8
DEFAULT_255_2_778
10
28.6682816
20
5.6402576
11
29.6006816
21
4.6255576
0
LINE
8
DEFAULT_255_2_778
10
29.6006816
20
4.6255576
11
29.8196816
21
4.8639576
0
LINE
8
DEFAULT_255_2_778
10
29.8196816
20
4.8639576
11
28.8873816
21
5.8786576
0
LINE
8
DEFAULT_255_2_778
10
28.8873816
20
5.8786576
11
29.8196816
21
6.8933576
0
LINE
8
DEFAULT_255_2_778
10
29.8196816
20
6.8933576
11
29.6006816
21
7.1317576
0
LINE
8
DEFAULT_255_2_778
10
29.6006816
20
7.1317576
11
28.6682816
21
6.1170576
0
LINE
8
DEFAULT_255_2_778
10
28.6682816
20
6.1170576
11
27.7358816
21
7.1317576
0
LINE
8
DEFAULT_255_2_778
10
27.5747816
20
3.8172576
11
27.5747816
21
3.8172576
0
LINE
8
DEFAULT_255_2_778
10
19.7403959
20
113.7908
11
26.4787959
21
113.7908
0
ARC
8
DEFAULT_255_2_778
10
28.7164371
20
113.5463046
40
2.1468857
50
237.8084817
51
247.1381874
0
ARC
8
DEFAULT_255_2_778
10
28.6760462
20
113.4508013
40
2.0431925
50
247.1413854
51
258.8564863
0
ARC
8
DEFAULT_255_2_778
10
28.6677698
20
113.413823
40
2.0053121
50
258.8843057
51
265.2122528
0
ARC
8
DEFAULT_255_2_778
10
28.6672676
20
113.4089418
40
2.0004061
50
265.2149156
51
270.0003771
0
ARC
8
DEFAULT_255_2_778
10
28.6605858
20
113.4660384
40
2.0575138
50
270.1864359
51
304.3264089
0
ARC
8
DEFAULT_255_2_778
10
28.5675408
20
113.6126042
40
2.2310297
50
304.1772184
51
320.8356855
0
ARC
8
DEFAULT_255_2_778
10
28.4271326
20
113.7290311
40
2.413423
50
320.7977997
51
332.1278457
0
ARC
8
DEFAULT_255_2_778
10
28.3369296
20
113.7805651
40
2.5172563
50
332.050781
51
343.4815842
0
ARC
8
DEFAULT_255_2_778
10
28.3051848
20
113.7894486
40
2.5502167
50
343.4930181
51
355.9782658
0
ARC
8
DEFAULT_255_2_778
10
28.2794344
20
113.7919957
40
2.5760824
50
355.9619223
51
0.0009742
0
ARC
8
DEFAULT_255_2_778
10
28.3430655
20
113.8019503
40
2.5124708
50
359.7739878
51
36.1572787
0
ARC
8
DEFAULT_255_2_778
10
28.5578018
20
113.9448736
40
2.2547957
50
36.4443931
51
57.7804003
0
ARC
8
DEFAULT_255_2_778
10
28.6158847
20
114.0351486
40
2.1474545
50
57.8072731
51
67.1070944
0
ARC
8
DEFAULT_255_2_778
10
28.6563971
20
114.1308316
40
2.0435483
50
67.1098912
51
78.8390849
0
ARC
8
DEFAULT_255_2_778
10
28.6647329
20
114.1680196
40
2.0054504
50
78.8670796
51
85.2028697
0
ARC
8
DEFAULT_255_2_778
10
28.6652466
20
114.1730342
40
2.0004105
50
85.2055197
51
90.0003986
0
ARC
8
DEFAULT_255_2_778
10
28.6719203
20
114.1160066
40
2.057449
50
90.1862388
51
124.326674
0
ARC
8
DEFAULT_255_2_778
10
28.7649638
20
113.9694502
40
2.2309563
50
124.1775602
51
140.8360344
0
ARC
8
DEFAULT_255_2_778
10
28.905407
20
113.8529927
40
2.4133961
50
140.7980835
51
152.127867
0
ARC
8
DEFAULT_255_2_778
10
28.9960549
20
113.8013215
40
2.5176866
50
152.0527868
51
163.479051
0
ARC
8
DEFAULT_255_2_778
10
29.0275183
20
113.792521
40
2.5503537
50
163.4905074
51
175.9719629
0
ARC
8
DEFAULT_255_2_778
10
29.0530662
20
113.7899911
40
2.5760162
50
175.9557484
51
180.001012
0
ARC
8
DEFAULT_255_2_778
10
28.9894448
20
113.7800411
40
2.5124143
50
179.7741255
51
216.1591441
0
ARC
8
DEFAULT_255_2_778
10
28.7751523
20
113.6374243
40
2.2552786
50
216.4460428
51
237.7793953
0
LINE
8
DEFAULT_255_2_778
10
27.7337816
20
115.0439552
11
27.5146816
21
114.8055552
0
LINE
8
DEFAULT_255_2_778
10
27.5146816
20
114.8055552
11
28.4470816
21
113.7908552
0
LINE
8
DEFAULT_255_2_778
10
28.4470816
20
113.7908552
11
27.5146816
21
112.7761552
0
LINE
8
DEFAULT_255_2_778
10
27.5146816
20
112.7761552
11
27.7337816
21
112.5377552
0
LINE
8
DEFAULT_255_2_778
10
27.7337816
20
112.5377552
11
28.6661816
21
113.5524552
0
LINE
8
DEFAULT_255_2_778
10
28.6661816
20
113.5524552
11
29.5985816
21
112.5377552
0
LINE
8
DEFAULT_255_2_778
10
29.5985816
20
112.5377552
11
29.8175816
21
112.7761552
0
LINE
8
DEFAULT_255_2_778
10
29.8175816
20
112.7761552
11
28.8852816
21
113.7908552
0
LINE
8
DEFAULT_255_2_778
10
28.8852816
20
113.7908552
11
29.8175816
21
114.8055552
0
LINE
8
DEFAULT_255_2_778
10
29.8175816
20
114.8055552
11
29.5985816
21
115.0439552
0
LINE
8
DEFAULT_255_2_778
10
29.5985816
20
115.0439552
11
28.6661816
21
114.0292552
0
LINE
8
DEFAULT_255_2_778
10
28.6661816
20
114.0292552
11
27.7337816
21
115.0439552
0
LINE
8
DEFAULT_255_2_778
10
27.5726816
20
111.7294552
11
27.5726816
21
111.7294552
0
LINE
8
DEFAULT_255_2_778
10
17.2625887
20
109.2403197
11
10.4482887
21
109.2403197
0
LINE
8
DEFAULT_255_2_778
10
10.4482887
20
109.2403197
11
10.4482887
21
29.0155197
0
LINE
8
DEFAULT_255_2_778
10
10.4482887
20
29.0155197
11
3.6341887
21
29.0155197
0
LINE
8
DEFAULT_255_2_778
10
10.4482605
20
104.5212
11
3.6341605
21
104.5212
0
LINE
8
DEFAULT_255_2_778
10
10.4482605
20
95.083
11
3.6341605
21
95.083
0
LINE
8
DEFAULT_255_2_778
10
17.2623605
20
99.8021
11
10.4482605
21
99.8021
0
LINE
8
DEFAULT_255_2_778
10
10.4482605
20
85.6447
11
3.6341605
21
85.6447
0
LINE
8
DEFAULT_255_2_778
10
17.2623605
20
90.3638
11
10.4482605
21
90.3638
0
LINE
8
DEFAULT_255_2_778
10
10.4482605
20
76.2065
11
3.6341605
21
76.2065
0
LINE
8
DEFAULT_255_2_778
10
17.2623605
20
80.9256
11
10.4482605
21
80.9256
0
LINE
8
DEFAULT_255_2_778
10
10.4482605
20
66.7683
11
3.6341605
21
66.7683
0
LINE
8
DEFAULT_255_2_778
10
17.2623605
20
71.4874
11
10.4482605
21
71.4874
0
LINE
8
DEFAULT_255_2_778
10
10.4482605
20
57.3301
11
3.6341605
21
57.3301
0
LINE
8
DEFAULT_255_2_778
10
17.2623605
20
62.0492
11
10.4482605
21
62.0492
0
LINE
8
DEFAULT_255_2_778
10
10.4482605
20
47.8919
11
3.6341605
21
47.8919
0
LINE
8
DEFAULT_255_2_778
10
17.2623605
20
52.611
11
10.4482605
21
52.611
0
LINE
8
DEFAULT_255_2_778
10
10.4482605
20
38.4537
11
3.6341605
21
38.4537
0
LINE
8
DEFAULT_255_2_778
10
17.2623605
20
43.1728
11
10.4482605
21
43.1728
0
LINE
8
DEFAULT_255_2_778
10
17.2623605
20
33.7345
11
10.4482605
21
33.7345
0
ARC
8
DEFAULT_255_2_778
10
12.9718196
20
104.4230241
40
0.5022327
50
328.9889976
51
355.4399627
0
ARC
8
DEFAULT_255_2_778
10
13.0975595
20
104.3571551
40
0.3606254
50
313.6677831
51
327.6658527
0
ARC
8
DEFAULT_255_2_778
10
13.0866543
20
104.3806179
40
0.3852167
50
269.230867
51
312.4313551
0
ARC
8
DEFAULT_255_2_778
10
13.0645508
20
104.5901373
40
0.5949425
50
269.991498
51
271.6309062
0
ARC
8
DEFAULT_255_2_778
10
13.0540402
20
104.3617124
40
0.3666657
50
216.3866469
51
271.6288267
0
ARC
8
DEFAULT_255_2_778
10
13.2085468
20
104.4769485
40
0.5594113
50
186.8625834
51
216.5004044
0
ARC
8
DEFAULT_255_2_778
10
13.5600216
20
104.538813
40
0.915966
50
179.7759504
51
188.0776926
0
ARC
8
DEFAULT_255_2_778
10
13.3699006
20
104.6685402
40
0.7259626
50
158.8485288
51
181.0612252
0
ARC
8
DEFAULT_255_2_778
10
13.2173495
20
104.7170241
40
0.5662797
50
156.5697959
51
157.8540711
0
ARC
8
DEFAULT_255_2_778
10
13.0943341
20
104.7812358
40
0.4279916
50
124.8670283
51
157.9089339
0
ARC
8
DEFAULT_255_2_778
10
13.0697436
20
104.801317
40
0.3975527
50
88.8874652
51
123.6136267
0
ARC
8
DEFAULT_255_2_778
10
13.0944915
20
104.8290006
40
0.3701861
50
45.8452771
51
92.6366046
0
ARC
8
DEFAULT_255_2_778
10
13.0395604
20
104.798508
40
0.4307117
50
7.3606857
51
43.4274936
0
ARC
8
DEFAULT_255_2_778
10
12.7970853
20
104.7444026
40
0.6784968
50
5.2252945
51
9.2690677
0
ARC
8
DEFAULT_255_2_778
10
12.877281
20
104.7582883
40
0.4554083
50
6.0383724
51
25.7122471
0
ARC
8
DEFAULT_255_2_778
10
13.0917559
20
104.8564571
40
0.2196272
50
26.9128243
51
43.9172913
0
ARC
8
DEFAULT_255_2_778
10
13.0912802
20
104.8408692
40
0.2310392
50
46.6210799
51
93.4287092
0
ARC
8
DEFAULT_255_2_778
10
13.0693937
20
104.8247141
40
0.2469126
50
88.1273033
51
146.2211301
0
ARC
8
DEFAULT_255_2_778
10
13.2221212
20
104.7248192
40
0.4294027
50
146.4724241
51
172.8208473
0
ARC
8
DEFAULT_255_2_778
10
13.6191298
20
104.6555059
40
0.8321818
50
171.5019161
51
180.3381329
0
ARC
8
DEFAULT_255_2_778
10
13.4647632
20
104.5245459
40
0.6779169
50
178.9393444
51
196.7458564
0
ARC
8
DEFAULT_255_2_778
10
13.1941698
20
104.4484839
40
0.3969164
50
197.4862455
51
212.7272696
0
ARC
8
DEFAULT_255_2_778
10
13.0589024
20
104.3524333
40
0.2313205
50
210.8266702
51
271.5259706
0
ARC
8
DEFAULT_255_2_778
10
13.0780729
20
104.4029172
40
0.2820227
50
267.3558672
51
300.8985392
0
ARC
8
DEFAULT_255_2_778
10
13.1197013
20
104.3175021
40
0.1875296
50
303.3869136
51
312.5696495
0
ARC
8
DEFAULT_255_2_778
10
13.0625967
20
104.3597968
40
0.2576592
50
315.5603791
51
346.6826411
0
ARC
8
DEFAULT_255_2_778
10
12.7290386
20
104.4644515
40
0.6068698
50
344.3209987
51
352.2481202
0
LINE
8
DEFAULT_255_2_778
10
13.3298625
20
104.3830948
11
13.4724625
21
104.3830948
0
LINE
8
DEFAULT_255_2_778
10
12.6440625
20
104.5423948
11
12.6440625
21
104.6550948
0
LINE
8
DEFAULT_255_2_778
10
13.4727625
20
104.8061948
11
13.3301625
21
104.8061948
0
LINE
8
DEFAULT_255_2_778
10
12.7869625
20
104.6505948
11
12.7869625
21
104.5370948
0
LINE
8
DEFAULT_255_2_778
10
13.3303625
20
104.3825948
11
13.3298625
21
104.3830948
0
LINE
8
DEFAULT_255_2_778
10
14.4932563
20
105.1826552
11
14.4932563
21
104.0113552
0
LINE
8
DEFAULT_255_2_778
10
14.4932563
20
104.0113552
11
14.3506563
21
104.0113552
0
LINE
8
DEFAULT_255_2_778
10
14.3506563
20
104.0113552
11
14.3506563
21
104.5526552
0
LINE
8
DEFAULT_255_2_778
10
14.3506563
20
104.5526552
11
13.8079563
21
104.5526552
0
LINE
8
DEFAULT_255_2_778
10
13.8079563
20
104.5526552
11
13.8079563
21
104.0113552
0
LINE
8
DEFAULT_255_2_778
10
13.8079563
20
104.0113552
11
13.6661563
21
104.0113552
0
LINE
8
DEFAULT_255_2_778
10
13.6661563
20
104.0113552
11
13.6661563
21
105.1826552
0
LINE
8
DEFAULT_255_2_778
10
13.6661563
20
105.1826552
11
13.8079563
21
105.1826552
0
LINE
8
DEFAULT_255_2_778
10
13.8079563
20
105.1826552
11
13.8079563
21
104.6791552
0
LINE
8
DEFAULT_255_2_778
10
13.8079563
20
104.6791552
11
14.3506563
21
104.6791552
0
LINE
8
DEFAULT_255_2_778
10
14.3506563
20
104.6791552
11
14.3506563
21
105.1826552
0
LINE
8
DEFAULT_255_2_778
10
14.3506563
20
105.1826552
11
14.4932563
21
105.1826552
0
LINE
8
DEFAULT_255_2_778
10
14.4932563
20
105.1826552
11
14.4932563
21
105.1826552
0
LINE
8
DEFAULT_255_2_778
10
15.1594604
20
105.1882333
11
15.1594604
21
104.0113333
0
LINE
8
DEFAULT_255_2_778
10
15.1594604
20
104.0113333
11
15.0218604
21
104.0113333
0
LINE
8
DEFAULT_255_2_778
10
15.0218604
20
104.0113333
11
15.0218604
21
105.0033333
0
LINE
8
DEFAULT_255_2_778
10
15.0218604
20
105.0033333
11
14.7461604
21
104.8929333
0
LINE
8
DEFAULT_255_2_778
10
14.7461604
20
104.8929333
11
14.7461604
21
105.0281333
0
LINE
8
DEFAULT_255_2_778
10
14.7461604
20
105.0281333
11
15.1379604
21
105.1882333
0
LINE
8
DEFAULT_255_2_778
10
15.1379604
20
105.1882333
11
15.1594604
21
105.1882333
0
LINE
8
DEFAULT_255_2_778
10
15.1594604
20
105.1882333
11
15.1594604
21
105.1882333
0
LINE
8
DEFAULT_255_2_778
10
13.5059917
20
102.5584552
11
13.5059917
21
101.3871552
0
LINE
8
DEFAULT_255_2_778
10
13.5059917
20
101.3871552
11
13.3641917
21
101.3871552
0
LINE
8
DEFAULT_255_2_778
10
13.3641917
20
101.3871552
11
13.3641917
21
102.5584552
0
LINE
8
DEFAULT_255_2_778
10
13.3641917
20
102.5584552
11
13.5059917
21
102.5584552
0
LINE
8
DEFAULT_255_2_778
10
13.5059917
20
102.5584552
11
13.5059917
21
102.5584552
0
LINE
8
DEFAULT_255_2_778
10
14.592724
20
102.5584552
11
14.592724
21
101.3871552
0
LINE
8
DEFAULT_255_2_778
10
14.592724
20
101.3871552
11
14.450124
21
101.3871552
0
LINE
8
DEFAULT_255_2_778
10
14.450124
20
101.3871552
11
13.908224
21
102.2898552
0
LINE
8
DEFAULT_255_2_778
10
13.908224
20
102.2898552
11
13.908224
21
101.3871552
0
LINE
8
DEFAULT_255_2_778
10
13.908224
20
101.3871552
11
13.765624
21
101.3871552
0
LINE
8
DEFAULT_255_2_778
10
13.765624
20
101.3871552
11
13.765624
21
102.5584552
0
LINE
8
DEFAULT_255_2_778
10
13.765624
20
102.5584552
11
13.908224
21
102.5584552
0
LINE
8
DEFAULT_255_2_778
10
13.908224
20
102.5584552
11
14.451724
21
101.6517552
0
LINE
8
DEFAULT_255_2_778
10
14.451724
20
101.6517552
11
14.451724
21
102.5584552
0
LINE
8
DEFAULT_255_2_778
10
14.451724
20
102.5584552
11
14.593024
21
102.5584552
0
LINE
8
DEFAULT_255_2_778
10
14.593024
20
102.5584552
11
14.592724
21
102.5584552
0
LINE
8
DEFAULT_255_2_778
10
13.5059917
20
93.1202552
11
13.5059917
21
91.9489552
0
LINE
8
DEFAULT_255_2_778
10
13.5059917
20
91.9489552
11
13.3641917
21
91.9489552
0
LINE
8
DEFAULT_255_2_778
10
13.3641917
20
91.9489552
11
13.3641917
21
93.1202552
0
LINE
8
DEFAULT_255_2_778
10
13.3641917
20
93.1202552
11
13.5059917
21
93.1202552
0
LINE
8
DEFAULT_255_2_778
10
13.5059917
20
93.1202552
11
13.5059917
21
93.1202552
0
LINE
8
DEFAULT_255_2_778
10
14.592724
20
93.1202552
11
14.592724
21
91.9489552
0
LINE
8
DEFAULT_255_2_778
10
14.592724
20
91.9489552
11
14.450124
21
91.9489552
0
LINE
8
DEFAULT_255_2_778
10
14.450124
20
91.9489552
11
13.908224
21
92.8516552
0
LINE
8
DEFAULT_255_2_778
10
13.908224
20
92.8516552
11
13.908224
21
91.9489552
0
LINE
8
DEFAULT_255_2_778
10
13.908224
20
91.9489552
11
13.765624
21
91.9489552
0
LINE
8
DEFAULT_255_2_778
10
13.765624
20
91.9489552
11
13.765624
21
93.1202552
0
LINE
8
DEFAULT_255_2_778
10
13.765624
20
93.1202552
11
13.908224
21
93.1202552
0
LINE
8
DEFAULT_255_2_778
10
13.908224
20
93.1202552
11
14.451724
21
92.2135552
0
LINE
8
DEFAULT_255_2_778
10
14.451724
20
92.2135552
11
14.451724
21
93.1202552
0
LINE
8
DEFAULT_255_2_778
10
14.451724
20
93.1202552
11
14.593024
21
93.1202552
0
LINE
8
DEFAULT_255_2_778
10
14.593024
20
93.1202552
11
14.592724
21
93.1202552
0
ARC
8
DEFAULT_255_2_778
10
12.9718196
20
94.9848241
40
0.5022327
50
328.9889976
51
355.4399627
0
ARC
8
DEFAULT_255_2_778
10
13.0975595
20
94.9189551
40
0.3606254
50
313.6677831
51
327.6658527
0
ARC
8
DEFAULT_255_2_778
10
13.0866543
20
94.9424179
40
0.3852167
50
269.230867
51
312.4313551
0
ARC
8
DEFAULT_255_2_778
10
13.0645508
20
95.1519373
40
0.5949425
50
269.991498
51
271.6309062
0
ARC
8
DEFAULT_255_2_778
10
13.0540402
20
94.9235124
40
0.3666657
50
216.3866469
51
271.6288267
0
ARC
8
DEFAULT_255_2_778
10
13.2085468
20
95.0387485
40
0.5594113
50
186.8625834
51
216.5004044
0
ARC
8
DEFAULT_255_2_778
10
13.5600216
20
95.100613
40
0.915966
50
179.7759504
51
188.0776926
0
ARC
8
DEFAULT_255_2_778
10
13.3699006
20
95.2303402
40
0.7259626
50
158.8485288
51
181.0612252
0
ARC
8
DEFAULT_255_2_778
10
13.2173495
20
95.2788241
40
0.5662797
50
156.5697959
51
157.8540711
0
ARC
8
DEFAULT_255_2_778
10
13.0943341
20
95.3430358
40
0.4279916
50
124.8670283
51
157.9089339
0
ARC
8
DEFAULT_255_2_778
10
13.0697436
20
95.363117
40
0.3975527
50
88.8874652
51
123.6136267
0
ARC
8
DEFAULT_255_2_778
10
13.0944915
20
95.3908006
40
0.3701861
50
45.8452771
51
92.6366046
0
ARC
8
DEFAULT_255_2_778
10
13.0395604
20
95.360308
40
0.4307117
50
7.3606857
51
43.4274936
0
ARC
8
DEFAULT_255_2_778
10
12.7970853
20
95.3062026
40
0.6784968
50
5.2252945
51
9.2690677
0
ARC
8
DEFAULT_255_2_778
10
12.877281
20
95.3200883
40
0.4554083
50
6.0383724
51
25.7122471
0
ARC
8
DEFAULT_255_2_778
10
13.0917559
20
95.4182571
40
0.2196272
50
26.9128243
51
43.9172913
0
ARC
8
DEFAULT_255_2_778
10
13.0912802
20
95.4026692
40
0.2310392
50
46.6210799
51
93.4287092
0
ARC
8
DEFAULT_255_2_778
10
13.0693937
20
95.3865141
40
0.2469126
50
88.1273033
51
146.2211301
0
ARC
8
DEFAULT_255_2_778
10
13.2221212
20
95.2866192
40
0.4294027
50
146.4724241
51
172.8208473
0
ARC
8
DEFAULT_255_2_778
10
13.6191298
20
95.2173059
40
0.8321818
50
171.5019161
51
180.3381329
0
ARC
8
DEFAULT_255_2_778
10
13.4647632
20
95.0863459
40
0.6779169
50
178.9393444
51
196.7458564
0
ARC
8
DEFAULT_255_2_778
10
13.1941698
20
95.0102839
40
0.3969164
50
197.4862455
51
212.7272696
0
ARC
8
DEFAULT_255_2_778
10
13.0589024
20
94.9142333
40
0.2313205
50
210.8266702
51
271.5259706
0
ARC
8
DEFAULT_255_2_778
10
13.0780729
20
94.9647172
40
0.2820227
50
267.3558672
51
300.8985392
0
ARC
8
DEFAULT_255_2_778
10
13.1197013
20
94.8793021
40
0.1875296
50
303.3869136
51
312.5696495
0
ARC
8
DEFAULT_255_2_778
10
13.0625967
20
94.9215968
40
0.2576592
50
315.5603791
51
346.6826411
0
ARC
8
DEFAULT_255_2_778
10
12.7290386
20
95.0262515
40
0.6068698
50
344.3209987
51
352.2481202
0
LINE
8
DEFAULT_255_2_778
10
13.3298625
20
94.9448948
11
13.4724625
21
94.9448948
0
LINE
8
DEFAULT_255_2_778
10
12.6440625
20
95.1041948
11
12.6440625
21
95.2168948
0
LINE
8
DEFAULT_255_2_778
10
13.4727625
20
95.3679948
11
13.3301625
21
95.3679948
0
LINE
8
DEFAULT_255_2_778
10
12.7869625
20
95.2123948
11
12.7869625
21
95.0988948
0
LINE
8
DEFAULT_255_2_778
10
13.3303625
20
94.9443948
11
13.3298625
21
94.9448948
0
LINE
8
DEFAULT_255_2_778
10
14.4932563
20
95.7444552
11
14.4932563
21
94.5731552
0
LINE
8
DEFAULT_255_2_778
10
14.4932563
20
94.5731552
11
14.3506563
21
94.5731552
0
LINE
8
DEFAULT_255_2_778
10
14.3506563
20
94.5731552
11
14.3506563
21
95.1144552
0
LINE
8
DEFAULT_255_2_778
10
14.3506563
20
95.1144552
11
13.8079563
21
95.1144552
0
LINE
8
DEFAULT_255_2_778
10
13.8079563
20
95.1144552
11
13.8079563
21
94.5731552
0
LINE
8
DEFAULT_255_2_778
10
13.8079563
20
94.5731552
11
13.6661563
21
94.5731552
0
LINE
8
DEFAULT_255_2_778
10
13.6661563
20
94.5731552
11
13.6661563
21
95.7444552
0
LINE
8
DEFAULT_255_2_778
10
13.6661563
20
95.7444552
11
13.8079563
21
95.7444552
0
LINE
8
DEFAULT_255_2_778
10
13.8079563
20
95.7444552
11
13.8079563
21
95.2409552
0
LINE
8
DEFAULT_255_2_778
10
13.8079563
20
95.2409552
11
14.3506563
21
95.2409552
0
LINE
8
DEFAULT_255_2_778
10
14.3506563
20
95.2409552
11
14.3506563
21
95.7444552
0
LINE
8
DEFAULT_255_2_778
10
14.3506563
20
95.7444552
11
14.4932563
21
95.7444552
0
LINE
8
DEFAULT_255_2_778
10
14.4932563
20
95.7444552
11
14.4932563
21
95.7444552
0
ARC
8
DEFAULT_255_2_778
10
14.0670449
20
95.9684547
40
1.3167119
50
320.4775549
51
326.8384444
0
ARC
8
DEFAULT_255_2_778
10
14.7369986
20
95.5273819
40
0.5146124
50
327.1468692
51
333.3707966
0
ARC
8
DEFAULT_255_2_778
10
14.9323201
20
95.4296497
40
0.2962045
50
333.3358472
51
359.8791573
0
ARC
8
DEFAULT_255_2_778
10
15.0077919
20
95.4380039
40
0.2209146
50
357.6706216
51
39.8376625
0
ARC
8
DEFAULT_255_2_778
10
15.0481652
20
95.4672381
40
0.1712197
50
40.9808014
51
92.2564307
0
ARC
8
DEFAULT_255_2_778
10
15.0297677
20
95.4374236
40
0.2012392
50
86.6794404
51
136.8610395
0
ARC
8
DEFAULT_255_2_778
10
15.0754188
20
95.4168223
40
0.2491633
50
140.5847859
51
182.0202137
0
ARC
8
DEFAULT_255_2_778
10
15.2620549
20
95.399362
40
0.435731
50
178.8589829
51
180.0048709
0
ARC
8
DEFAULT_255_2_778
10
15.0510191
20
95.41519
40
0.3618431
50
137.2466387
51
182.5129474
0
ARC
8
DEFAULT_255_2_778
10
15.0256669
20
95.4222275
40
0.3386643
50
87.333227
51
135.2088045
0
ARC
8
DEFAULT_255_2_778
10
15.05594
20
95.4245008
40
0.3363375
50
53.5961417
51
92.4736106
0
ARC
8
DEFAULT_255_2_778
10
15.0828134
20
95.4753844
40
0.2795666
50
45.5115714
51
51.8397147
0
ARC
8
DEFAULT_255_2_778
10
15.0611743
20
95.4608068
40
0.3051748
50
357.3552286
51
44.5311545
0
ARC
8
DEFAULT_255_2_778
10
14.939812
20
95.4598015
40
0.4264125
50
332.8539887
51
358.2426767
0
ARC
8
DEFAULT_255_2_778
10
14.4512255
20
95.6927919
40
0.9676094
50
321.8964938
51
333.7775577
0
ARC
8
DEFAULT_255_2_778
10
13.970162
20
96.0481796
40
1.5655555
50
319.6582754
51
322.5260975
0
LINE
8
DEFAULT_255_2_778
10
15.415324
20
94.694525
11
15.415324
21
94.573125
0
LINE
8
DEFAULT_255_2_778
10
15.415324
20
94.573125
11
14.710124
21
94.573125
0
LINE
8
DEFAULT_255_2_778
10
14.710124
20
94.573125
11
14.710124
21
94.679925
0
LINE
8
DEFAULT_255_2_778
10
14.710124
20
94.679925
11
15.082724
21
95.130525
0
LINE
8
DEFAULT_255_2_778
10
14.826324
20
95.399325
11
14.689524
21
95.399325
0
LINE
8
DEFAULT_255_2_778
10
15.163424
20
95.034725
11
14.875024
21
94.694525
0
LINE
8
DEFAULT_255_2_778
10
14.875024
20
94.694525
11
15.415324
21
94.694525
0
LINE
8
DEFAULT_255_2_778
10
15.415324
20
94.694525
11
15.415324
21
94.694525
0
LINE
8
DEFAULT_255_2_778
10
13.5059917
20
83.6823552
11
13.5059917
21
82.5110552
0
LINE
8
DEFAULT_255_2_778
10
13.5059917
20
82.5110552
11
13.3641917
21
82.5110552
0
LINE
8
DEFAULT_255_2_778
10
13.3641917
20
82.5110552
11
13.3641917
21
83.6823552
0
LINE
8
DEFAULT_255_2_778
10
13.3641917
20
83.6823552
11
13.5059917
21
83.6823552
0
LINE
8
DEFAULT_255_2_778
10
13.5059917
20
83.6823552
11
13.5059917
21
83.6823552
0
LINE
8
DEFAULT_255_2_778
10
14.592724
20
83.6823552
11
14.592724
21
82.5110552
0
LINE
8
DEFAULT_255_2_778
10
14.592724
20
82.5110552
11
14.450124
21
82.5110552
0
LINE
8
DEFAULT_255_2_778
10
14.450124
20
82.5110552
11
13.908224
21
83.4137552
0
LINE
8
DEFAULT_255_2_778
10
13.908224
20
83.4137552
11
13.908224
21
82.5110552
0
LINE
8
DEFAULT_255_2_778
10
13.908224
20
82.5110552
11
13.765624
21
82.5110552
0
LINE
8
DEFAULT_255_2_778
10
13.765624
20
82.5110552
11
13.765624
21
83.6823552
0
LINE
8
DEFAULT_255_2_778
10
13.765624
20
83.6823552
11
13.908224
21
83.6823552
0
LINE
8
DEFAULT_255_2_778
10
13.908224
20
83.6823552
11
14.451724
21
82.7756552
0
LINE
8
DEFAULT_255_2_778
10
14.451724
20
82.7756552
11
14.451724
21
83.6823552
0
LINE
8
DEFAULT_255_2_778
10
14.451724
20
83.6823552
11
14.593024
21
83.6823552
0
LINE
8
DEFAULT_255_2_778
10
14.593024
20
83.6823552
11
14.592724
21
83.6823552
0
ARC
8
DEFAULT_255_2_778
10
12.9718196
20
85.5465241
40
0.5022327
50
328.9889976
51
355.4399627
0
ARC
8
DEFAULT_255_2_778
10
13.0975595
20
85.4806551
40
0.3606254
50
313.6677831
51
327.6658527
0
ARC
8
DEFAULT_255_2_778
10
13.0866543
20
85.5041179
40
0.3852167
50
269.230867
51
312.4313551
0
ARC
8
DEFAULT_255_2_778
10
13.0645508
20
85.7136373
40
0.5949425
50
269.991498
51
271.6309062
0
ARC
8
DEFAULT_255_2_778
10
13.0540402
20
85.4852124
40
0.3666657
50
216.3866469
51
271.6288267
0
ARC
8
DEFAULT_255_2_778
10
13.2085468
20
85.6004485
40
0.5594113
50
186.8625834
51
216.5004044
0
ARC
8
DEFAULT_255_2_778
10
13.5600216
20
85.662313
40
0.915966
50
179.7759504
51
188.0776926
0
ARC
8
DEFAULT_255_2_778
10
13.3699006
20
85.7920402
40
0.7259626
50
158.8485288
51
181.0612252
0
ARC
8
DEFAULT_255_2_778
10
13.2173495
20
85.8405241
40
0.5662797
50
156.5697959
51
157.8540711
0
ARC
8
DEFAULT_255_2_778
10
13.0943341
20
85.9047358
40
0.4279916
50
124.8670283
51
157.9089339
0
ARC
8
DEFAULT_255_2_778
10
13.0697436
20
85.924817
40
0.3975527
50
88.8874652
51
123.6136267
0
ARC
8
DEFAULT_255_2_778
10
13.0944915
20
85.9525006
40
0.3701861
50
45.8452771
51
92.6366046
0
ARC
8
DEFAULT_255_2_778
10
13.0395604
20
85.922008
40
0.4307117
50
7.3606857
51
43.4274936
0
ARC
8
DEFAULT_255_2_778
10
12.7970853
20
85.8679026
40
0.6784968
50
5.2252945
51
9.2690677
0
ARC
8
DEFAULT_255_2_778
10
12.877281
20
85.8817883
40
0.4554083
50
6.0383724
51
25.7122471
0
ARC
8
DEFAULT_255_2_778
10
13.0917559
20
85.9799571
40
0.2196272
50
26.9128243
51
43.9172913
0
ARC
8
DEFAULT_255_2_778
10
13.0912802
20
85.9643692
40
0.2310392
50
46.6210799
51
93.4287092
0
ARC
8
DEFAULT_255_2_778
10
13.0693937
20
85.9482141
40
0.2469126
50
88.1273033
51
146.2211301
0
ARC
8
DEFAULT_255_2_778
10
13.2221212
20
85.8483192
40
0.4294027
50
146.4724241
51
172.8208473
0
ARC
8
DEFAULT_255_2_778
10
13.6191298
20
85.7790059
40
0.8321818
50
171.5019161
51
180.3381329
0
ARC
8
DEFAULT_255_2_778
10
13.4647632
20
85.6480459
40
0.6779169
50
178.9393444
51
196.7458564
0
ARC
8
DEFAULT_255_2_778
10
13.1941698
20
85.5719839
40
0.3969164
50
197.4862455
51
212.7272696
0
ARC
8
DEFAULT_255_2_778
10
13.0589024
20
85.4759333
40
0.2313205
50
210.8266702
51
271.5259706
0
ARC
8
DEFAULT_255_2_778
10
13.0780729
20
85.5264172
40
0.2820227
50
267.3558672
51
300.8985392
0
ARC
8
DEFAULT_255_2_778
10
13.1197013
20
85.4410021
40
0.1875296
50
303.3869136
51
312.5696495
0
ARC
8
DEFAULT_255_2_778
10
13.0625967
20
85.4832968
40
0.2576592
50
315.5603791
51
346.6826411
0
ARC
8
DEFAULT_255_2_778
10
12.7290386
20
85.5879515
40
0.6068698
50
344.3209987
51
352.2481202
0
LINE
8
DEFAULT_255_2_778
10
13.3298625
20
85.5065948
11
13.4724625
21
85.5065948
0
LINE
8
DEFAULT_255_2_778
10
12.6440625
20
85.6658948
11
12.6440625
21
85.7785948
0
LINE
8
DEFAULT_255_2_778
10
13.4727625
20
85.9296948
11
13.3301625
21
85.9296948
0
LINE
8
DEFAULT_255_2_778
10
12.7869625
20
85.7740948
11
12.7869625
21
85.6605948
0
LINE
8
DEFAULT_255_2_778
10
13.3303625
20
85.5060948
11
13.3298625
21
85.5065948
0
LINE
8
DEFAULT_255_2_778
10
14.4932563
20
86.3061552
11
14.4932563
21
85.1348552
0
LINE
8
DEFAULT_255_2_778
10
14.4932563
20
85.1348552
11
14.3506563
21
85.1348552
0
LINE
8
DEFAULT_255_2_778
10
14.3506563
20
85.1348552
11
14.3506563
21
85.6761552
0
LINE
8
DEFAULT_255_2_778
10
14.3506563
20
85.6761552
11
13.8079563
21
85.6761552
0
LINE
8
DEFAULT_255_2_778
10
13.8079563
20
85.6761552
11
13.8079563
21
85.1348552
0
LINE
8
DEFAULT_255_2_778
10
13.8079563
20
85.1348552
11
13.6661563
21
85.1348552
0
LINE
8
DEFAULT_255_2_778
10
13.6661563
20
85.1348552
11
13.6661563
21
86.3061552
0
LINE
8
DEFAULT_255_2_778
10
13.6661563
20
86.3061552
11
13.8079563
21
86.3061552
0
LINE
8
DEFAULT_255_2_778
10
13.8079563
20
86.3061552
11
13.8079563
21
85.8026552
0
LINE
8
DEFAULT_255_2_778
10
13.8079563
20
85.8026552
11
14.3506563
21
85.8026552
0
LINE
8
DEFAULT_255_2_778
10
14.3506563
20
85.8026552
11
14.3506563
21
86.3061552
0
LINE
8
DEFAULT_255_2_778
10
14.3506563
20
86.3061552
11
14.4932563
21
86.3061552
0
LINE
8
DEFAULT_255_2_778
10
14.4932563
20
86.3061552
11
14.4932563
21
86.3061552
0
ARC
8
DEFAULT_255_2_778
10
15.0196164
20
86.0073345
40
0.2146248
50
267.8380446
51
312.2488673
0
ARC
8
DEFAULT_255_2_778
10
15.0262884
20
85.9844289
40
0.1934665
50
315.3486795
51
2.824549
0
ARC
8
DEFAULT_255_2_778
10
14.9725549
20
86.0064827
40
0.2472821
50
357.097807
51
29.6198864
0
ARC
8
DEFAULT_255_2_778
10
15.0498278
20
86.0318875
40
0.1683231
50
35.1108423
51
94.0367117
0
ARC
8
DEFAULT_255_2_778
10
15.0311511
20
85.8649495
40
0.3349131
50
88.8318927
51
90.0053576
0
ARC
8
DEFAULT_255_2_778
10
15.0223919
20
86.0130361
40
0.1870301
50
87.3252809
51
135.226526
0
ARC
8
DEFAULT_255_2_778
10
15.0379289
20
86.0083044
40
0.2015351
50
137.3830743
51
182.7137443
0
ARC
8
DEFAULT_255_2_778
10
15.0108694
20
86.0076111
40
0.3110755
50
134.37461
51
181.6300188
0
ARC
8
DEFAULT_255_2_778
10
15.0197681
20
85.998289
40
0.3239621
50
88.0450148
51
134.346522
0
ARC
8
DEFAULT_255_2_778
10
15.044976
20
85.9837395
40
0.338619
50
55.4248987
51
92.3959945
0
ARC
8
DEFAULT_255_2_778
10
15.0756346
20
86.0436617
40
0.2720228
50
44.5406109
51
53.579208
0
ARC
8
DEFAULT_255_2_778
10
15.0367089
20
86.0170244
40
0.3185596
50
0.4325273
51
43.0445165
0
ARC
8
DEFAULT_255_2_778
10
14.8261719
20
85.9910551
40
0.5298479
50
359.9683617
51
3.0697403
0
ARC
8
DEFAULT_255_2_778
10
15.0841486
20
85.9934522
40
0.2718845
50
326.3668137
51
359.4331729
0
ARC
8
DEFAULT_255_2_778
10
15.0744363
20
85.9911329
40
0.2787822
50
293.7510906
51
327.8694368
0
ARC
8
DEFAULT_255_2_778
10
15.1057753
20
85.483201
40
0.2654061
50
34.797541
51
72.2428266
0
ARC
8
DEFAULT_255_2_778
10
15.0732836
20
85.4711551
40
0.2990869
50
358.1812092
51
33.1401338
0
ARC
8
DEFAULT_255_2_778
10
15.0347326
20
85.445858
40
0.337857
50
318.4316018
51
2.6812016
0
ARC
8
DEFAULT_255_2_778
10
15.0623914
20
85.4315296
40
0.3077511
50
314.3235011
51
317.0105695
0
ARC
8
DEFAULT_255_2_778
10
15.0451234
20
85.4554179
40
0.3369342
50
267.6690549
51
313.585905
0
ARC
8
DEFAULT_255_2_778
10
15.016967
20
85.4637054
40
0.3452456
50
227.7465193
51
272.3992391
0
ARC
8
DEFAULT_255_2_778
10
14.9981179
20
85.4311284
40
0.308561
50
177.6347751
51
226.2694898
0
ARC
8
DEFAULT_255_2_778
10
15.0266649
20
85.4342666
40
0.199476
50
177.2427048
51
223.8948561
0
ARC
8
DEFAULT_255_2_778
10
15.0219054
20
85.4413894
40
0.2011616
50
226.2973982
51
272.7679629
0
ARC
8
DEFAULT_255_2_778
10
15.044739
20
85.4373941
40
0.1973681
50
266.1886919
51
314.5584849
0
ARC
8
DEFAULT_255_2_778
10
15.0125228
20
85.4404676
40
0.2231336
50
319.9068884
51
2.1138789
0
ARC
8
DEFAULT_255_2_778
10
14.8262072
20
85.4584098
40
0.4094127
50
358.640751
51
0.0073738
0
ARC
8
DEFAULT_255_2_778
10
15.0297585
20
85.471911
40
0.2063002
50
356.2622917
51
44.0553741
0
ARC
8
DEFAULT_255_2_778
10
15.0276005
20
85.441377
40
0.2299933
50
49.1549212
51
90.6677302
0
ARC
8
DEFAULT_255_2_778
10
15.0054222
20
85.2510273
40
0.4207794
50
87.3440923
51
89.1696896
0
LINE
8
DEFAULT_255_2_778
10
14.9089198
20
85.6714625
11
14.9089198
21
85.7928625
0
LINE
8
DEFAULT_255_2_778
10
14.9089198
20
85.7928625
11
15.0115198
21
85.7928625
0
LINE
8
DEFAULT_255_2_778
10
14.8366198
20
85.9987625
11
14.6999198
21
85.9987625
0
LINE
8
DEFAULT_255_2_778
10
14.6898198
20
85.4438625
11
14.8274198
21
85.4438625
0
LINE
8
DEFAULT_255_2_778
10
15.0115198
20
85.6717625
11
14.9089198
21
85.6717625
0
LINE
8
DEFAULT_255_2_778
10
14.9089198
20
85.6717625
11
14.9089198
21
85.6714625
0
LINE
8
DEFAULT_255_2_778
10
13.5059917
20
74.2441552
11
13.5059917
21
73.0728552
0
LINE
8
DEFAULT_255_2_778
10
13.5059917
20
73.0728552
11
13.3641917
21
73.0728552
0
LINE
8
DEFAULT_255_2_778
10
13.3641917
20
73.0728552
11
13.3641917
21
74.2441552
0
LINE
8
DEFAULT_255_2_778
10
13.3641917
20
74.2441552
11
13.5059917
21
74.2441552
0
LINE
8
DEFAULT_255_2_778
10
13.5059917
20
74.2441552
11
13.5059917
21
74.2441552
0
LINE
8
DEFAULT_255_2_778
10
14.592724
20
74.2441552
11
14.592724
21
73.0728552
0
LINE
8
DEFAULT_255_2_778
10
14.592724
20
73.0728552
11
14.450124
21
73.0728552
0
LINE
8
DEFAULT_255_2_778
10
14.450124
20
73.0728552
11
13.908224
21
73.9755552
0
LINE
8
DEFAULT_255_2_778
10
13.908224
20
73.9755552
11
13.908224
21
73.0728552
0
LINE
8
DEFAULT_255_2_778
10
13.908224
20
73.0728552
11
13.765624
21
73.0728552
0
LINE
8
DEFAULT_255_2_778
10
13.765624
20
73.0728552
11
13.765624
21
74.2441552
0
LINE
8
DEFAULT_255_2_778
10
13.765624
20
74.2441552
11
13.908224
21
74.2441552
0
LINE
8
DEFAULT_255_2_778
10
13.908224
20
74.2441552
11
14.451724
21
73.3374552
0
LINE
8
DEFAULT_255_2_778
10
14.451724
20
73.3374552
11
14.451724
21
74.2441552
0
LINE
8
DEFAULT_255_2_778
10
14.451724
20
74.2441552
11
14.593024
21
74.2441552
0
LINE
8
DEFAULT_255_2_778
10
14.593024
20
74.2441552
11
14.592724
21
74.2441552
0
ARC
8
DEFAULT_255_2_778
10
12.9718196
20
76.1083241
40
0.5022327
50
328.9889976
51
355.4399627
0
ARC
8
DEFAULT_255_2_778
10
13.0975595
20
76.0424551
40
0.3606254
50
313.6677831
51
327.6658527
0
ARC
8
DEFAULT_255_2_778
10
13.0866543
20
76.0659179
40
0.3852167
50
269.230867
51
312.4313551
0
ARC
8
DEFAULT_255_2_778
10
13.0645508
20
76.2754373
40
0.5949425
50
269.991498
51
271.6309062
0
ARC
8
DEFAULT_255_2_778
10
13.0540402
20
76.0470124
40
0.3666657
50
216.3866469
51
271.6288267
0
ARC
8
DEFAULT_255_2_778
10
13.2085468
20
76.1622485
40
0.5594113
50
186.8625834
51
216.5004044
0
ARC
8
DEFAULT_255_2_778
10
13.5600216
20
76.224113
40
0.915966
50
179.7759504
51
188.0776926
0
ARC
8
DEFAULT_255_2_778
10
13.3699006
20
76.3538402
40
0.7259626
50
158.8485288
51
181.0612252
0
ARC
8
DEFAULT_255_2_778
10
13.2173495
20
76.4023241
40
0.5662797
50
156.5697959
51
157.8540711
0
ARC
8
DEFAULT_255_2_778
10
13.0943341
20
76.4665358
40
0.4279916
50
124.8670283
51
157.9089339
0
ARC
8
DEFAULT_255_2_778
10
13.0697436
20
76.486617
40
0.3975527
50
88.8874652
51
123.6136267
0
ARC
8
DEFAULT_255_2_778
10
13.0944915
20
76.5143006
40
0.3701861
50
45.8452771
51
92.6366046
0
ARC
8
DEFAULT_255_2_778
10
13.0395604
20
76.483808
40
0.4307117
50
7.3606857
51
43.4274936
0
ARC
8
DEFAULT_255_2_778
10
12.7970853
20
76.4297026
40
0.6784968
50
5.2252945
51
9.2690677
0
ARC
8
DEFAULT_255_2_778
10
12.877281
20
76.4435883
40
0.4554083
50
6.0383724
51
25.7122471
0
ARC
8
DEFAULT_255_2_778
10
13.0917559
20
76.5417571
40
0.2196272
50
26.9128243
51
43.9172913
0
ARC
8
DEFAULT_255_2_778
10
13.0912802
20
76.5261692
40
0.2310392
50
46.6210799
51
93.4287092
0
ARC
8
DEFAULT_255_2_778
10
13.0693937
20
76.5100141
40
0.2469126
50
88.1273033
51
146.2211301
0
ARC
8
DEFAULT_255_2_778
10
13.2221212
20
76.4101192
40
0.4294027
50
146.4724241
51
172.8208473
0
ARC
8
DEFAULT_255_2_778
10
13.6191298
20
76.3408059
40
0.8321818
50
171.5019161
51
180.3381329
0
ARC
8
DEFAULT_255_2_778
10
13.4647632
20
76.2098459
40
0.6779169
50
178.9393444
51
196.7458564
0
ARC
8
DEFAULT_255_2_778
10
13.1941698
20
76.1337839
40
0.3969164
50
197.4862455
51
212.7272696
0
ARC
8
DEFAULT_255_2_778
10
13.0589024
20
76.0377333
40
0.2313205
50
210.8266702
51
271.5259706
0
ARC
8
DEFAULT_255_2_778
10
13.0780729
20
76.0882172
40
0.2820227
50
267.3558672
51
300.8985392
0
ARC
8
DEFAULT_255_2_778
10
13.1197013
20
76.0028021
40
0.1875296
50
303.3869136
51
312.5696495
0
ARC
8
DEFAULT_255_2_778
10
13.0625967
20
76.0450968
40
0.2576592
50
315.5603791
51
346.6826411
0
ARC
8
DEFAULT_255_2_778
10
12.7290386
20
76.1497515
40
0.6068698
50
344.3209987
51
352.2481202
0
LINE
8
DEFAULT_255_2_778
10
13.3298625
20
76.0683948
11
13.4724625
21
76.0683948
0
LINE
8
DEFAULT_255_2_778
10
12.6440625
20
76.2276948
11
12.6440625
21
76.3403948
0
LINE
8
DEFAULT_255_2_778
10
13.4727625
20
76.4914948
11
13.3301625
21
76.4914948
0
LINE
8
DEFAULT_255_2_778
10
12.7869625
20
76.3358948
11
12.7869625
21
76.2223948
0
LINE
8
DEFAULT_255_2_778
10
13.3303625
20
76.0678948
11
13.3298625
21
76.0683948
0
LINE
8
DEFAULT_255_2_778
10
14.4932563
20
76.8679552
11
14.4932563
21
75.6966552
0
LINE
8
DEFAULT_255_2_778
10
14.4932563
20
75.6966552
11
14.3506563
21
75.6966552
0
LINE
8
DEFAULT_255_2_778
10
14.3506563
20
75.6966552
11
14.3506563
21
76.2379552
0
LINE
8
DEFAULT_255_2_778
10
14.3506563
20
76.2379552
11
13.8079563
21
76.2379552
0
LINE
8
DEFAULT_255_2_778
10
13.8079563
20
76.2379552
11
13.8079563
21
75.6966552
0
LINE
8
DEFAULT_255_2_778
10
13.8079563
20
75.6966552
11
13.6661563
21
75.6966552
0
LINE
8
DEFAULT_255_2_778
10
13.6661563
20
75.6966552
11
13.6661563
21
76.8679552
0
LINE
8
DEFAULT_255_2_778
10
13.6661563
20
76.8679552
11
13.8079563
21
76.8679552
0
LINE
8
DEFAULT_255_2_778
10
13.8079563
20
76.8679552
11
13.8079563
21
76.3644552
0
LINE
8
DEFAULT_255_2_778
10
13.8079563
20
76.3644552
11
14.3506563
21
76.3644552
0
LINE
8
DEFAULT_255_2_778
10
14.3506563
20
76.3644552
11
14.3506563
21
76.8679552
0
LINE
8
DEFAULT_255_2_778
10
14.3506563
20
76.8679552
11
14.4932563
21
76.8679552
0
LINE
8
DEFAULT_255_2_778
10
14.4932563
20
76.8679552
11
14.4932563
21
76.8679552
0
LINE
8
DEFAULT_255_2_778
10
15.2871917
20
76.8679552
11
15.2871917
21
76.0900552
0
LINE
8
DEFAULT_255_2_778
10
15.2871917
20
76.0900552
11
15.4363917
21
76.0900552
0
LINE
8
DEFAULT_255_2_778
10
15.4363917
20
76.0900552
11
15.4363917
21
75.9686552
0
LINE
8
DEFAULT_255_2_778
10
15.4363917
20
75.9686552
11
15.2871917
21
75.9686552
0
LINE
8
DEFAULT_255_2_778
10
15.2871917
20
75.9686552
11
15.2871917
21
75.6966552
0
LINE
8
DEFAULT_255_2_778
10
15.2871917
20
75.6966552
11
15.1495917
21
75.6966552
0
LINE
8
DEFAULT_255_2_778
10
15.1495917
20
75.6966552
11
15.1495917
21
75.9686552
0
LINE
8
DEFAULT_255_2_778
10
15.1495917
20
75.9686552
11
14.6595917
21
75.9686552
0
LINE
8
DEFAULT_255_2_778
10
14.6595917
20
75.9686552
11
14.6595917
21
76.0562552
0
LINE
8
DEFAULT_255_2_778
10
14.6595917
20
76.0562552
11
15.1416917
21
76.8679552
0
LINE
8
DEFAULT_255_2_778
10
15.1416917
20
76.8679552
11
15.2871917
21
76.8679552
0
LINE
8
DEFAULT_255_2_778
10
15.2871917
20
76.8679552
11
15.2871917
21
76.8679552
0
LINE
8
DEFAULT_255_2_778
10
15.1334917
20
76.6322552
11
14.8148917
21
76.0900552
0
LINE
8
DEFAULT_255_2_778
10
14.8148917
20
76.0900552
11
15.1495917
21
76.0900552
0
LINE
8
DEFAULT_255_2_778
10
15.1495917
20
76.0900552
11
15.1495917
21
76.6644552
0
LINE
8
DEFAULT_255_2_778
10
15.1495917
20
76.6644552
11
15.1334917
21
76.6322552
0
LINE
8
DEFAULT_255_2_778
10
15.1334917
20
76.6322552
11
15.1334917
21
76.6322552
0
LINE
8
DEFAULT_255_2_778
10
13.5059917
20
64.8058552
11
13.5059917
21
63.6345552
0
LINE
8
DEFAULT_255_2_778
10
13.5059917
20
63.6345552
11
13.3641917
21
63.6345552
0
LINE
8
DEFAULT_255_2_778
10
13.3641917
20
63.6345552
11
13.3641917
21
64.8058552
0
LINE
8
DEFAULT_255_2_778
10
13.3641917
20
64.8058552
11
13.5059917
21
64.8058552
0
LINE
8
DEFAULT_255_2_778
10
13.5059917
20
64.8058552
11
13.5059917
21
64.8058552
0
LINE
8
DEFAULT_255_2_778
10
14.592724
20
64.8058552
11
14.592724
21
63.6345552
0
LINE
8
DEFAULT_255_2_778
10
14.592724
20
63.6345552
11
14.450124
21
63.6345552
0
LINE
8
DEFAULT_255_2_778
10
14.450124
20
63.6345552
11
13.908224
21
64.5372552
0
LINE
8
DEFAULT_255_2_778
10
13.908224
20
64.5372552
11
13.908224
21
63.6345552
0
LINE
8
DEFAULT_255_2_778
10
13.908224
20
63.6345552
11
13.765624
21
63.6345552
0
LINE
8
DEFAULT_255_2_778
10
13.765624
20
63.6345552
11
13.765624
21
64.8058552
0
LINE
8
DEFAULT_255_2_778
10
13.765624
20
64.8058552
11
13.908224
21
64.8058552
0
LINE
8
DEFAULT_255_2_778
10
13.908224
20
64.8058552
11
14.451724
21
63.8991552
0
LINE
8
DEFAULT_255_2_778
10
14.451724
20
63.8991552
11
14.451724
21
64.8058552
0
LINE
8
DEFAULT_255_2_778
10
14.451724
20
64.8058552
11
14.593024
21
64.8058552
0
LINE
8
DEFAULT_255_2_778
10
14.593024
20
64.8058552
11
14.592724
21
64.8058552
0
ARC
8
DEFAULT_255_2_778
10
12.9718196
20
66.6701241
40
0.5022327
50
328.9889976
51
355.4399627
0
ARC
8
DEFAULT_255_2_778
10
13.0975595
20
66.6042551
40
0.3606254
50
313.6677831
51
327.6658527
0
ARC
8
DEFAULT_255_2_778
10
13.0866543
20
66.6277179
40
0.3852167
50
269.230867
51
312.4313551
0
ARC
8
DEFAULT_255_2_778
10
13.0645508
20
66.8372373
40
0.5949425
50
269.991498
51
271.6309062
0
ARC
8
DEFAULT_255_2_778
10
13.0540402
20
66.6088124
40
0.3666657
50
216.3866469
51
271.6288267
0
ARC
8
DEFAULT_255_2_778
10
13.2085468
20
66.7240485
40
0.5594113
50
186.8625834
51
216.5004044
0
ARC
8
DEFAULT_255_2_778
10
13.5600216
20
66.785913
40
0.915966
50
179.7759504
51
188.0776926
0
ARC
8
DEFAULT_255_2_778
10
13.3699006
20
66.9156402
40
0.7259626
50
158.8485288
51
181.0612252
0
ARC
8
DEFAULT_255_2_778
10
13.2173495
20
66.9641241
40
0.5662797
50
156.5697959
51
157.8540711
0
ARC
8
DEFAULT_255_2_778
10
13.0943341
20
67.0283358
40
0.4279916
50
124.8670283
51
157.9089339
0
ARC
8
DEFAULT_255_2_778
10
13.0697436
20
67.048417
40
0.3975527
50
88.8874652
51
123.6136267
0
ARC
8
DEFAULT_255_2_778
10
13.0944915
20
67.0761006
40
0.3701861
50
45.8452771
51
92.6366046
0
ARC
8
DEFAULT_255_2_778
10
13.0395604
20
67.045608
40
0.4307117
50
7.3606857
51
43.4274936
0
ARC
8
DEFAULT_255_2_778
10
12.7970853
20
66.9915026
40
0.6784968
50
5.2252945
51
9.2690677
0
ARC
8
DEFAULT_255_2_778
10
12.877281
20
67.0053883
40
0.4554083
50
6.0383724
51
25.7122471
0
ARC
8
DEFAULT_255_2_778
10
13.0917559
20
67.1035571
40
0.2196272
50
26.9128243
51
43.9172913
0
ARC
8
DEFAULT_255_2_778
10
13.0912802
20
67.0879692
40
0.2310392
50
46.6210799
51
93.4287092
0
ARC
8
DEFAULT_255_2_778
10
13.0693937
20
67.0718141
40
0.2469126
50
88.1273033
51
146.2211301
0
ARC
8
DEFAULT_255_2_778
10
13.2221212
20
66.9719192
40
0.4294027
50
146.4724241
51
172.8208473
0
ARC
8
DEFAULT_255_2_778
10
13.6191298
20
66.9026059
40
0.8321818
50
171.5019161
51
180.3381329
0
ARC
8
DEFAULT_255_2_778
10
13.4647632
20
66.7716459
40
0.6779169
50
178.9393444
51
196.7458564
0
ARC
8
DEFAULT_255_2_778
10
13.1941698
20
66.6955839
40
0.3969164
50
197.4862455
51
212.7272696
0
ARC
8
DEFAULT_255_2_778
10
13.0589024
20
66.5995333
40
0.2313205
50
210.8266702
51
271.5259706
0
ARC
8
DEFAULT_255_2_778
10
13.0780729
20
66.6500172
40
0.2820227
50
267.3558672
51
300.8985392
0
ARC
8
DEFAULT_255_2_778
10
13.1197013
20
66.5646021
40
0.1875296
50
303.3869136
51
312.5696495
0
ARC
8
DEFAULT_255_2_778
10
13.0625967
20
66.6068968
40
0.2576592
50
315.5603791
51
346.6826411
0
ARC
8
DEFAULT_255_2_778
10
12.7290386
20
66.7115515
40
0.6068698
50
344.3209987
51
352.2481202
0
LINE
8
DEFAULT_255_2_778
10
13.3298625
20
66.6301948
11
13.4724625
21
66.6301948
0
LINE
8
DEFAULT_255_2_778
10
12.6440625
20
66.7894948
11
12.6440625
21
66.9021948
0
LINE
8
DEFAULT_255_2_778
10
13.4727625
20
67.0532948
11
13.3301625
21
67.0532948
0
LINE
8
DEFAULT_255_2_778
10
12.7869625
20
66.8976948
11
12.7869625
21
66.7841948
0
LINE
8
DEFAULT_255_2_778
10
13.3303625
20
66.6296948
11
13.3298625
21
66.6301948
0
LINE
8
DEFAULT_255_2_778
10
14.4932563
20
67.4297552
11
14.4932563
21
66.2584552
0
LINE
8
DEFAULT_255_2_778
10
14.4932563
20
66.2584552
11
14.3506563
21
66.2584552
0
LINE
8
DEFAULT_255_2_778
10
14.3506563
20
66.2584552
11
14.3506563
21
66.7997552
0
LINE
8
DEFAULT_255_2_778
10
14.3506563
20
66.7997552
11
13.8079563
21
66.7997552
0
LINE
8
DEFAULT_255_2_778
10
13.8079563
20
66.7997552
11
13.8079563
21
66.2584552
0
LINE
8
DEFAULT_255_2_778
10
13.8079563
20
66.2584552
11
13.6661563
21
66.2584552
0
LINE
8
DEFAULT_255_2_778
10
13.6661563
20
66.2584552
11
13.6661563
21
67.4297552
0
LINE
8
DEFAULT_255_2_778
10
13.6661563
20
67.4297552
11
13.8079563
21
67.4297552
0
LINE
8
DEFAULT_255_2_778
10
13.8079563
20
67.4297552
11
13.8079563
21
66.9262552
0
LINE
8
DEFAULT_255_2_778
10
13.8079563
20
66.9262552
11
14.3506563
21
66.9262552
0
LINE
8
DEFAULT_255_2_778
10
14.3506563
20
66.9262552
11
14.3506563
21
67.4297552
0
LINE
8
DEFAULT_255_2_778
10
14.3506563
20
67.4297552
11
14.4932563
21
67.4297552
0
LINE
8
DEFAULT_255_2_778
10
14.4932563
20
67.4297552
11
14.4932563
21
67.4297552
0
ARC
8
DEFAULT_255_2_778
10
15.0853315
20
66.6985298
40
0.3251342
50
89.1133972
51
122.4737969
0
ARC
8
DEFAULT_255_2_778
10
15.1016521
20
66.7377244
40
0.2861234
50
38.9838417
51
92.2613141
0
ARC
8
DEFAULT_255_2_778
10
15.0049505
20
66.6707982
40
0.4034914
50
3.3081621
51
37.7324724
0
ARC
8
DEFAULT_255_2_778
10
14.7380809
20
66.6328476
40
0.6724824
50
359.9043551
51
5.2244491
0
ARC
8
DEFAULT_255_2_778
10
14.9199731
20
66.6187717
40
0.4907604
50
336.5119056
51
1.512456
0
ARC
8
DEFAULT_255_2_778
10
15.0696339
20
66.5619299
40
0.3309306
50
319.3900229
51
335.210425
0
ARC
8
DEFAULT_255_2_778
10
15.0870269
20
66.5553705
40
0.3135213
50
266.8433566
51
318.2310129
0
ARC
8
DEFAULT_255_2_778
10
15.056875
20
66.565807
40
0.3237386
50
227.2118047
51
272.2814601
0
ARC
8
DEFAULT_255_2_778
10
15.0848411
20
66.5754791
40
0.350112
50
183.4130938
51
224.9277343
0
ARC
8
DEFAULT_255_2_778
10
15.2802259
20
66.6108455
40
0.5477675
50
184.6514411
51
185.8898799
0
ARC
8
DEFAULT_255_2_778
10
15.1134551
20
66.5840166
40
0.2504113
50
184.0283932
51
220.498115
0
ARC
8
DEFAULT_255_2_778
10
15.0478157
20
66.5388528
40
0.1713672
50
223.2688962
51
226.3653442
0
ARC
8
DEFAULT_255_2_778
10
15.0610383
20
66.5576159
40
0.1941009
50
227.3624599
51
272.6647786
0
ARC
8
DEFAULT_255_2_778
10
15.0772495
20
66.5420403
40
0.1784601
50
267.6919467
51
322.993824
0
ARC
8
DEFAULT_255_2_778
10
14.9791602
20
66.603546
40
0.2939792
50
324.9282449
51
359.2726356
0
ARC
8
DEFAULT_255_2_778
10
14.7454561
20
66.629726
40
0.5285067
50
356.7554851
51
0.0432488
0
ARC
8
DEFAULT_255_2_778
10
14.9866812
20
66.6442793
40
0.2876297
50
357.179322
51
37.2220038
0
ARC
8
DEFAULT_255_2_778
10
14.9852685
20
66.6294083
40
0.297953
50
39.3352915
51
39.473918
0
ARC
8
DEFAULT_255_2_778
10
15.0657145
20
66.6976999
40
0.1924471
50
39.0054347
51
92.0404306
0
ARC
8
DEFAULT_255_2_778
10
15.0465952
20
66.6774911
40
0.2128876
50
86.6965826
51
127.0383232
0
LINE
8
DEFAULT_255_2_778
10
14.8821625
20
66.815125
11
14.7726625
21
66.845825
0
LINE
8
DEFAULT_255_2_778
10
14.7726625
20
66.845825
11
14.8273625
21
67.429725
0
LINE
8
DEFAULT_255_2_778
10
14.8273625
20
67.429725
11
15.3787625
21
67.429725
0
LINE
8
DEFAULT_255_2_778
10
15.3787625
20
67.429725
11
15.3787625
21
67.292125
0
LINE
8
DEFAULT_255_2_778
10
15.3787625
20
67.292125
11
14.9432625
21
67.292125
0
LINE
8
DEFAULT_255_2_778
10
14.9432625
20
67.292125
11
14.9107625
21
66.972825
0
LINE
8
DEFAULT_255_2_778
10
14.7342625
20
66.566425
11
14.8636625
21
66.566425
0
LINE
8
DEFAULT_255_2_778
10
14.9183625
20
66.847425
11
14.8821625
21
66.815125
0
LINE
8
DEFAULT_255_2_778
10
14.8821625
20
66.815125
11
14.8821625
21
66.815125
0
LINE
8
DEFAULT_255_2_778
10
13.5059917
20
55.3676552
11
13.5059917
21
54.1963552
0
LINE
8
DEFAULT_255_2_778
10
13.5059917
20
54.1963552
11
13.3641917
21
54.1963552
0
LINE
8
DEFAULT_255_2_778
10
13.3641917
20
54.1963552
11
13.3641917
21
55.3676552
0
LINE
8
DEFAULT_255_2_778
10
13.3641917
20
55.3676552
11
13.5059917
21
55.3676552
0
LINE
8
DEFAULT_255_2_778
10
13.5059917
20
55.3676552
11
13.5059917
21
55.3676552
0
LINE
8
DEFAULT_255_2_778
10
14.592724
20
55.3676552
11
14.592724
21
54.1963552
0
LINE
8
DEFAULT_255_2_778
10
14.592724
20
54.1963552
11
14.450124
21
54.1963552
0
LINE
8
DEFAULT_255_2_778
10
14.450124
20
54.1963552
11
13.908224
21
55.0990552
0
LINE
8
DEFAULT_255_2_778
10
13.908224
20
55.0990552
11
13.908224
21
54.1963552
0
LINE
8
DEFAULT_255_2_778
10
13.908224
20
54.1963552
11
13.765624
21
54.1963552
0
LINE
8
DEFAULT_255_2_778
10
13.765624
20
54.1963552
11
13.765624
21
55.3676552
0
LINE
8
DEFAULT_255_2_778
10
13.765624
20
55.3676552
11
13.908224
21
55.3676552
0
LINE
8
DEFAULT_255_2_778
10
13.908224
20
55.3676552
11
14.451724
21
54.4609552
0
LINE
8
DEFAULT_255_2_778
10
14.451724
20
54.4609552
11
14.451724
21
55.3676552
0
LINE
8
DEFAULT_255_2_778
10
14.451724
20
55.3676552
11
14.593024
21
55.3676552
0
LINE
8
DEFAULT_255_2_778
10
14.593024
20
55.3676552
11
14.592724
21
55.3676552
0
ARC
8
DEFAULT_255_2_778
10
12.9718196
20
57.2319241
40
0.5022327
50
328.9889976
51
355.4399627
0
ARC
8
DEFAULT_255_2_778
10
13.0975595
20
57.1660551
40
0.3606254
50
313.6677831
51
327.6658527
0
ARC
8
DEFAULT_255_2_778
10
13.0866543
20
57.1895179
40
0.3852167
50
269.230867
51
312.4313551
0
ARC
8
DEFAULT_255_2_778
10
13.0645508
20
57.3990373
40
0.5949425
50
269.991498
51
271.6309062
0
ARC
8
DEFAULT_255_2_778
10
13.0540402
20
57.1706124
40
0.3666657
50
216.3866469
51
271.6288267
0
ARC
8
DEFAULT_255_2_778
10
13.2085468
20
57.2858485
40
0.5594113
50
186.8625834
51
216.5004044
0
ARC
8
DEFAULT_255_2_778
10
13.5600216
20
57.347713
40
0.915966
50
179.7759504
51
188.0776926
0
ARC
8
DEFAULT_255_2_778
10
13.3699006
20
57.4774402
40
0.7259626
50
158.8485288
51
181.0612252
0
ARC
8
DEFAULT_255_2_778
10
13.2173495
20
57.5259241
40
0.5662797
50
156.5697959
51
157.8540711
0
ARC
8
DEFAULT_255_2_778
10
13.0943341
20
57.5901358
40
0.4279916
50
124.8670283
51
157.9089339
0
ARC
8
DEFAULT_255_2_778
10
13.0697436
20
57.610217
40
0.3975527
50
88.8874652
51
123.6136267
0
ARC
8
DEFAULT_255_2_778
10
13.0944915
20
57.6379006
40
0.3701861
50
45.8452771
51
92.6366046
0
ARC
8
DEFAULT_255_2_778
10
13.0395604
20
57.607408
40
0.4307117
50
7.3606857
51
43.4274936
0
ARC
8
DEFAULT_255_2_778
10
12.7970853
20
57.5533026
40
0.6784968
50
5.2252945
51
9.2690677
0
ARC
8
DEFAULT_255_2_778
10
12.877281
20
57.5671883
40
0.4554083
50
6.0383724
51
25.7122471
0
ARC
8
DEFAULT_255_2_778
10
13.0917559
20
57.6653571
40
0.2196272
50
26.9128243
51
43.9172913
0
ARC
8
DEFAULT_255_2_778
10
13.0912802
20
57.6497692
40
0.2310392
50
46.6210799
51
93.4287092
0
ARC
8
DEFAULT_255_2_778
10
13.0693937
20
57.6336141
40
0.2469126
50
88.1273033
51
146.2211301
0
ARC
8
DEFAULT_255_2_778
10
13.2221212
20
57.5337192
40
0.4294027
50
146.4724241
51
172.8208473
0
ARC
8
DEFAULT_255_2_778
10
13.6191298
20
57.4644059
40
0.8321818
50
171.5019161
51
180.3381329
0
ARC
8
DEFAULT_255_2_778
10
13.4647632
20
57.3334459
40
0.6779169
50
178.9393444
51
196.7458564
0
ARC
8
DEFAULT_255_2_778
10
13.1941698
20
57.2573839
40
0.3969164
50
197.4862455
51
212.7272696
0
ARC
8
DEFAULT_255_2_778
10
13.0589024
20
57.1613333
40
0.2313205
50
210.8266702
51
271.5259706
0
ARC
8
DEFAULT_255_2_778
10
13.0780729
20
57.2118172
40
0.2820227
50
267.3558672
51
300.8985392
0
ARC
8
DEFAULT_255_2_778
10
13.1197013
20
57.1264021
40
0.1875296
50
303.3869136
51
312.5696495
0
ARC
8
DEFAULT_255_2_778
10
13.0625967
20
57.1686968
40
0.2576592
50
315.5603791
51
346.6826411
0
ARC
8
DEFAULT_255_2_778
10
12.7290386
20
57.2733515
40
0.6068698
50
344.3209987
51
352.2481202
0
LINE
8
DEFAULT_255_2_778
10
13.3298625
20
57.1919948
11
13.4724625
21
57.1919948
0
LINE
8
DEFAULT_255_2_778
10
12.6440625
20
57.3512948
11
12.6440625
21
57.4639948
0
LINE
8
DEFAULT_255_2_778
10
13.4727625
20
57.6150948
11
13.3301625
21
57.6150948
0
LINE
8
DEFAULT_255_2_778
10
12.7869625
20
57.4594948
11
12.7869625
21
57.3459948
0
LINE
8
DEFAULT_255_2_778
10
13.3303625
20
57.1914948
11
13.3298625
21
57.1919948
0
LINE
8
DEFAULT_255_2_778
10
14.4932563
20
57.9915552
11
14.4932563
21
56.8202552
0
LINE
8
DEFAULT_255_2_778
10
14.4932563
20
56.8202552
11
14.3506563
21
56.8202552
0
LINE
8
DEFAULT_255_2_778
10
14.3506563
20
56.8202552
11
14.3506563
21
57.3615552
0
LINE
8
DEFAULT_255_2_778
10
14.3506563
20
57.3615552
11
13.8079563
21
57.3615552
0
LINE
8
DEFAULT_255_2_778
10
13.8079563
20
57.3615552
11
13.8079563
21
56.8202552
0
LINE
8
DEFAULT_255_2_778
10
13.8079563
20
56.8202552
11
13.6661563
21
56.8202552
0
LINE
8
DEFAULT_255_2_778
10
13.6661563
20
56.8202552
11
13.6661563
21
57.9915552
0
LINE
8
DEFAULT_255_2_778
10
13.6661563
20
57.9915552
11
13.8079563
21
57.9915552
0
LINE
8
DEFAULT_255_2_778
10
13.8079563
20
57.9915552
11
13.8079563
21
57.4880552
0
LINE
8
DEFAULT_255_2_778
10
13.8079563
20
57.4880552
11
14.3506563
21
57.4880552
0
LINE
8
DEFAULT_255_2_778
10
14.3506563
20
57.4880552
11
14.3506563
21
57.9915552
0
LINE
8
DEFAULT_255_2_778
10
14.3506563
20
57.9915552
11
14.4932563
21
57.9915552
0
LINE
8
DEFAULT_255_2_778
10
14.4932563
20
57.9915552
11
14.4932563
21
57.9915552
0
ARC
8
DEFAULT_255_2_778
10
15.2127063
20
57.5216734
40
0.3445237
50
88.5689515
51
135.4915176
0
ARC
8
DEFAULT_255_2_778
10
15.2719977
20
57.4886414
40
0.4103583
50
138.0065972
51
171.7662108
0
ARC
8
DEFAULT_255_2_778
10
15.5375728
20
57.4280082
40
0.6822332
50
169.9204135
51
175.4280544
0
ARC
8
DEFAULT_255_2_778
10
15.0776907
20
57.3076372
40
0.281101
50
87.5901267
51
141.561724
0
ARC
8
DEFAULT_255_2_778
10
15.0980845
20
57.3185774
40
0.2700483
50
36.9450331
51
91.8194481
0
ARC
8
DEFAULT_255_2_778
10
14.9741341
20
57.2291452
40
0.4228749
50
0.9983495
51
36.5351968
0
ARC
8
DEFAULT_255_2_778
10
14.7406739
20
57.2027979
40
0.6571366
50
359.9731126
51
2.9409231
0
ARC
8
DEFAULT_255_2_778
10
14.9060399
20
57.1892127
40
0.4919497
50
335.0471818
51
1.5465066
0
ARC
8
DEFAULT_255_2_778
10
15.0369753
20
57.1374284
40
0.3514878
50
320.2746288
51
333.6961193
0
ARC
8
DEFAULT_255_2_778
10
15.0761628
20
57.1041208
40
0.3000615
50
267.7553544
51
320.3839276
0
ARC
8
DEFAULT_255_2_778
10
15.0595762
20
57.1026793
40
0.2984289
50
214.5600715
51
270.9281767
0
ARC
8
DEFAULT_255_2_778
10
15.2276531
20
57.2277716
40
0.5078646
50
183.3309725
51
215.4256895
0
ARC
8
DEFAULT_255_2_778
10
15.5033956
20
57.2649625
40
0.7855859
50
179.9250906
51
184.870529
0
ARC
8
DEFAULT_255_2_778
10
15.925359
20
57.335814
40
1.2076146
50
168.5081468
51
180.5989841
0
ARC
8
DEFAULT_255_2_778
10
15.357591
20
57.4574003
40
0.6270341
50
145.9755413
51
169.0594458
0
ARC
8
DEFAULT_255_2_778
10
15.2254418
20
57.5350034
40
0.4741843
50
143.4502928
51
144.8123142
0
ARC
8
DEFAULT_255_2_778
10
15.1916412
20
57.5554876
40
0.4348476
50
92.1322231
51
142.9663133
0
ARC
8
DEFAULT_255_2_778
10
15.2323908
20
57.2975749
40
0.6947954
50
90.872536
51
94.6998262
0
ARC
8
DEFAULT_255_2_778
10
15.0673331
20
57.2573142
40
0.207176
50
90.1445411
51
128.8374041
0
ARC
8
DEFAULT_255_2_778
10
15.0791845
20
57.2309269
40
0.2352758
50
127.055388
51
162.0106459
0
ARC
8
DEFAULT_255_2_778
10
15.3106224
20
57.2359325
40
0.4553935
50
178.3821626
51
203.0369948
0
ARC
8
DEFAULT_255_2_778
10
15.162046
20
57.181541
40
0.2974909
50
204.5948642
51
213.9295418
0
ARC
8
DEFAULT_255_2_778
10
15.0678376
20
57.1029825
40
0.1759263
50
209.8233224
51
268.8837632
0
ARC
8
DEFAULT_255_2_778
10
15.0697688
20
57.0960893
40
0.1690847
50
268.1839714
51
325.8573141
0
ARC
8
DEFAULT_255_2_778
10
14.9431428
20
57.1771806
40
0.3194231
50
326.5667408
51
1.2159022
0
ARC
8
DEFAULT_255_2_778
10
14.7350643
20
57.1950308
40
0.5275461
50
358.7973997
51
0.006387
0
ARC
8
DEFAULT_255_2_778
10
14.9247319
20
57.20832
40
0.3381375
50
357.7575989
51
29.6799872
0
ARC
8
DEFAULT_255_2_778
10
15.0139172
20
57.2492036
40
0.2405643
50
31.738406
51
35.8487572
0
ARC
8
DEFAULT_255_2_778
10
15.0697199
20
57.2971572
40
0.1673631
50
33.7295731
51
91.0988201
0
LINE
8
DEFAULT_255_2_778
10
15.2221104
20
57.9922896
11
15.2464104
21
57.9922896
0
LINE
8
DEFAULT_255_2_778
10
15.2464104
20
57.9922896
11
15.2464104
21
57.8660896
0
LINE
8
DEFAULT_255_2_778
10
15.2464104
20
57.8660896
11
15.2213104
21
57.8660896
0
LINE
8
DEFAULT_255_2_778
10
14.7178104
20
57.2659896
11
14.7178104
21
57.3231896
0
LINE
8
DEFAULT_255_2_778
10
15.2218104
20
57.9922896
11
15.2221104
21
57.9922896
0
LINE
8
DEFAULT_255_2_778
10
14.8554104
20
57.3035896
11
14.8554104
21
57.2487896
0
LINE
8
DEFAULT_255_2_778
10
15.0665104
20
57.4644896
11
15.0668104
21
57.4644896
0
LINE
8
DEFAULT_255_2_778
10
13.5059917
20
45.9294552
11
13.5059917
21
44.7581552
0
LINE
8
DEFAULT_255_2_778
10
13.5059917
20
44.7581552
11
13.3641917
21
44.7581552
0
LINE
8
DEFAULT_255_2_778
10
13.3641917
20
44.7581552
11
13.3641917
21
45.9294552
0
LINE
8
DEFAULT_255_2_778
10
13.3641917
20
45.9294552
11
13.5059917
21
45.9294552
0
LINE
8
DEFAULT_255_2_778
10
13.5059917
20
45.9294552
11
13.5059917
21
45.9294552
0
LINE
8
DEFAULT_255_2_778
10
14.592724
20
45.9294552
11
14.592724
21
44.7581552
0
LINE
8
DEFAULT_255_2_778
10
14.592724
20
44.7581552
11
14.450124
21
44.7581552
0
LINE
8
DEFAULT_255_2_778
10
14.450124
20
44.7581552
11
13.908224
21
45.6608552
0
LINE
8
DEFAULT_255_2_778
10
13.908224
20
45.6608552
11
13.908224
21
44.7581552
0
LINE
8
DEFAULT_255_2_778
10
13.908224
20
44.7581552
11
13.765624
21
44.7581552
0
LINE
8
DEFAULT_255_2_778
10
13.765624
20
44.7581552
11
13.765624
21
45.9294552
0
LINE
8
DEFAULT_255_2_778
10
13.765624
20
45.9294552
11
13.908224
21
45.9294552
0
LINE
8
DEFAULT_255_2_778
10
13.908224
20
45.9294552
11
14.451724
21
45.0227552
0
LINE
8
DEFAULT_255_2_778
10
14.451724
20
45.0227552
11
14.451724
21
45.9294552
0
LINE
8
DEFAULT_255_2_778
10
14.451724
20
45.9294552
11
14.593024
21
45.9294552
0
LINE
8
DEFAULT_255_2_778
10
14.593024
20
45.9294552
11
14.592724
21
45.9294552
0
ARC
8
DEFAULT_255_2_778
10
12.9718196
20
47.7937241
40
0.5022327
50
328.9889976
51
355.4399627
0
ARC
8
DEFAULT_255_2_778
10
13.0975595
20
47.7278551
40
0.3606254
50
313.6677831
51
327.6658527
0
ARC
8
DEFAULT_255_2_778
10
13.0866543
20
47.7513179
40
0.3852167
50
269.230867
51
312.4313551
0
ARC
8
DEFAULT_255_2_778
10
13.0645508
20
47.9608373
40
0.5949425
50
269.991498
51
271.6309062
0
ARC
8
DEFAULT_255_2_778
10
13.0540402
20
47.7324124
40
0.3666657
50
216.3866469
51
271.6288267
0
ARC
8
DEFAULT_255_2_778
10
13.2085468
20
47.8476485
40
0.5594113
50
186.8625834
51
216.5004044
0
ARC
8
DEFAULT_255_2_778
10
13.5600216
20
47.909513
40
0.915966
50
179.7759504
51
188.0776926
0
ARC
8
DEFAULT_255_2_778
10
13.3699006
20
48.0392402
40
0.7259626
50
158.8485288
51
181.0612252
0
ARC
8
DEFAULT_255_2_778
10
13.2173495
20
48.0877241
40
0.5662797
50
156.5697959
51
157.8540711
0
ARC
8
DEFAULT_255_2_778
10
13.0943341
20
48.1519358
40
0.4279916
50
124.8670283
51
157.9089339
0
ARC
8
DEFAULT_255_2_778
10
13.0697436
20
48.172017
40
0.3975527
50
88.8874652
51
123.6136267
0
ARC
8
DEFAULT_255_2_778
10
13.0944915
20
48.1997006
40
0.3701861
50
45.8452771
51
92.6366046
0
ARC
8
DEFAULT_255_2_778
10
13.0395604
20
48.169208
40
0.4307117
50
7.3606857
51
43.4274936
0
ARC
8
DEFAULT_255_2_778
10
12.7970853
20
48.1151026
40
0.6784968
50
5.2252945
51
9.2690677
0
ARC
8
DEFAULT_255_2_778
10
12.877281
20
48.1289883
40
0.4554083
50
6.0383724
51
25.7122471
0
ARC
8
DEFAULT_255_2_778
10
13.0917559
20
48.2271571
40
0.2196272
50
26.9128243
51
43.9172913
0
ARC
8
DEFAULT_255_2_778
10
13.0912802
20
48.2115692
40
0.2310392
50
46.6210799
51
93.4287092
0
ARC
8
DEFAULT_255_2_778
10
13.0693937
20
48.1954141
40
0.2469126
50
88.1273033
51
146.2211301
0
ARC
8
DEFAULT_255_2_778
10
13.2221212
20
48.0955192
40
0.4294027
50
146.4724241
51
172.8208473
0
ARC
8
DEFAULT_255_2_778
10
13.6191298
20
48.0262059
40
0.8321818
50
171.5019161
51
180.3381329
0
ARC
8
DEFAULT_255_2_778
10
13.4647632
20
47.8952459
40
0.6779169
50
178.9393444
51
196.7458564
0
ARC
8
DEFAULT_255_2_778
10
13.1941698
20
47.8191839
40
0.3969164
50
197.4862455
51
212.7272696
0
ARC
8
DEFAULT_255_2_778
10
13.0589024
20
47.7231333
40
0.2313205
50
210.8266702
51
271.5259706
0
ARC
8
DEFAULT_255_2_778
10
13.0780729
20
47.7736172
40
0.2820227
50
267.3558672
51
300.8985392
0
ARC
8
DEFAULT_255_2_778
10
13.1197013
20
47.6882021
40
0.1875296
50
303.3869136
51
312.5696495
0
ARC
8
DEFAULT_255_2_778
10
13.0625967
20
47.7304968
40
0.2576592
50
315.5603791
51
346.6826411
0
ARC
8
DEFAULT_255_2_778
10
12.7290386
20
47.8351515
40
0.6068698
50
344.3209987
51
352.2481202
0
LINE
8
DEFAULT_255_2_778
10
13.3298625
20
47.7537948
11
13.4724625
21
47.7537948
0
LINE
8
DEFAULT_255_2_778
10
12.6440625
20
47.9130948
11
12.6440625
21
48.0257948
0
LINE
8
DEFAULT_255_2_778
10
13.4727625
20
48.1768948
11
13.3301625
21
48.1768948
0
LINE
8
DEFAULT_255_2_778
10
12.7869625
20
48.0212948
11
12.7869625
21
47.9077948
0
LINE
8
DEFAULT_255_2_778
10
13.3303625
20
47.7532948
11
13.3298625
21
47.7537948
0
LINE
8
DEFAULT_255_2_778
10
14.4932563
20
48.5533552
11
14.4932563
21
47.3820552
0
LINE
8
DEFAULT_255_2_778
10
14.4932563
20
47.3820552
11
14.3506563
21
47.3820552
0
LINE
8
DEFAULT_255_2_778
10
14.3506563
20
47.3820552
11
14.3506563
21
47.9233552
0
LINE
8
DEFAULT_255_2_778
10
14.3506563
20
47.9233552
11
13.8079563
21
47.9233552
0
LINE
8
DEFAULT_255_2_778
10
13.8079563
20
47.9233552
11
13.8079563
21
47.3820552
0
LINE
8
DEFAULT_255_2_778
10
13.8079563
20
47.3820552
11
13.6661563
21
47.3820552
0
LINE
8
DEFAULT_255_2_778
10
13.6661563
20
47.3820552
11
13.6661563
21
48.5533552
0
LINE
8
DEFAULT_255_2_778
10
13.6661563
20
48.5533552
11
13.8079563
21
48.5533552
0
LINE
8
DEFAULT_255_2_778
10
13.8079563
20
48.5533552
11
13.8079563
21
48.0498552
0
LINE
8
DEFAULT_255_2_778
10
13.8079563
20
48.0498552
11
14.3506563
21
48.0498552
0
LINE
8
DEFAULT_255_2_778
10
14.3506563
20
48.0498552
11
14.3506563
21
48.5533552
0
LINE
8
DEFAULT_255_2_778
10
14.3506563
20
48.5533552
11
14.4932563
21
48.5533552
0
LINE
8
DEFAULT_255_2_778
10
14.4932563
20
48.5533552
11
14.4932563
21
48.5533552
0
LINE
8
DEFAULT_255_2_778
10
15.4046979
20
48.5533552
11
15.4046979
21
48.4697552
0
LINE
8
DEFAULT_255_2_778
10
15.4046979
20
48.4697552
11
14.9588979
21
47.3820552
0
LINE
8
DEFAULT_255_2_778
10
14.9588979
20
47.3820552
11
14.8154979
21
47.3820552
0
LINE
8
DEFAULT_255_2_778
10
14.8154979
20
47.3820552
11
15.2596979
21
48.4311552
0
LINE
8
DEFAULT_255_2_778
10
15.2596979
20
48.4311552
11
14.6770979
21
48.4311552
0
LINE
8
DEFAULT_255_2_778
10
14.6770979
20
48.4311552
11
14.6770979
21
48.5533552
0
LINE
8
DEFAULT_255_2_778
10
14.6770979
20
48.5533552
11
15.4043979
21
48.5533552
0
LINE
8
DEFAULT_255_2_778
10
15.4043979
20
48.5533552
11
15.4046979
21
48.5533552
0
LINE
8
DEFAULT_255_2_778
10
13.5059917
20
36.4912552
11
13.5059917
21
35.3199552
0
LINE
8
DEFAULT_255_2_778
10
13.5059917
20
35.3199552
11
13.3641917
21
35.3199552
0
LINE
8
DEFAULT_255_2_778
10
13.3641917
20
35.3199552
11
13.3641917
21
36.4912552
0
LINE
8
DEFAULT_255_2_778
10
13.3641917
20
36.4912552
11
13.5059917
21
36.4912552
0
LINE
8
DEFAULT_255_2_778
10
13.5059917
20
36.4912552
11
13.5059917
21
36.4912552
0
LINE
8
DEFAULT_255_2_778
10
14.592724
20
36.4912552
11
14.592724
21
35.3199552
0
LINE
8
DEFAULT_255_2_778
10
14.592724
20
35.3199552
11
14.450124
21
35.3199552
0
LINE
8
DEFAULT_255_2_778
10
14.450124
20
35.3199552
11
13.908224
21
36.2226552
0
LINE
8
DEFAULT_255_2_778
10
13.908224
20
36.2226552
11
13.908224
21
35.3199552
0
LINE
8
DEFAULT_255_2_778
10
13.908224
20
35.3199552
11
13.765624
21
35.3199552
0
LINE
8
DEFAULT_255_2_778
10
13.765624
20
35.3199552
11
13.765624
21
36.4912552
0
LINE
8
DEFAULT_255_2_778
10
13.765624
20
36.4912552
11
13.908224
21
36.4912552
0
LINE
8
DEFAULT_255_2_778
10
13.908224
20
36.4912552
11
14.451724
21
35.5845552
0
LINE
8
DEFAULT_255_2_778
10
14.451724
20
35.5845552
11
14.451724
21
36.4912552
0
LINE
8
DEFAULT_255_2_778
10
14.451724
20
36.4912552
11
14.593024
21
36.4912552
0
LINE
8
DEFAULT_255_2_778
10
14.593024
20
36.4912552
11
14.592724
21
36.4912552
0
ARC
8
DEFAULT_255_2_778
10
12.9718196
20
38.3555241
40
0.5022327
50
328.9889976
51
355.4399627
0
ARC
8
DEFAULT_255_2_778
10
13.0975595
20
38.2896551
40
0.3606254
50
313.6677831
51
327.6658527
0
ARC
8
DEFAULT_255_2_778
10
13.0866543
20
38.3131179
40
0.3852167
50
269.230867
51
312.4313551
0
ARC
8
DEFAULT_255_2_778
10
13.0645508
20
38.5226373
40
0.5949425
50
269.991498
51
271.6309062
0
ARC
8
DEFAULT_255_2_778
10
13.0540402
20
38.2942124
40
0.3666657
50
216.3866469
51
271.6288267
0
ARC
8
DEFAULT_255_2_778
10
13.2085468
20
38.4094485
40
0.5594113
50
186.8625834
51
216.5004044
0
ARC
8
DEFAULT_255_2_778
10
13.5600216
20
38.471313
40
0.915966
50
179.7759504
51
188.0776926
0
ARC
8
DEFAULT_255_2_778
10
13.3699006
20
38.6010402
40
0.7259626
50
158.8485288
51
181.0612252
0
ARC
8
DEFAULT_255_2_778
10
13.2173495
20
38.6495241
40
0.5662797
50
156.5697959
51
157.8540711
0
ARC
8
DEFAULT_255_2_778
10
13.0943341
20
38.7137358
40
0.4279916
50
124.8670283
51
157.9089339
0
ARC
8
DEFAULT_255_2_778
10
13.0697436
20
38.733817
40
0.3975527
50
88.8874652
51
123.6136267
0
ARC
8
DEFAULT_255_2_778
10
13.0944915
20
38.7615006
40
0.3701861
50
45.8452771
51
92.6366046
0
ARC
8
DEFAULT_255_2_778
10
13.0395604
20
38.731008
40
0.4307117
50
7.3606857
51
43.4274936
0
ARC
8
DEFAULT_255_2_778
10
12.7970853
20
38.6769026
40
0.6784968
50
5.2252945
51
9.2690677
0
ARC
8
DEFAULT_255_2_778
10
12.877281
20
38.6907883
40
0.4554083
50
6.0383724
51
25.7122471
0
ARC
8
DEFAULT_255_2_778
10
13.0917559
20
38.7889571
40
0.2196272
50
26.9128243
51
43.9172913
0
ARC
8
DEFAULT_255_2_778
10
13.0912802
20
38.7733692
40
0.2310392
50
46.6210799
51
93.4287092
0
ARC
8
DEFAULT_255_2_778
10
13.0693937
20
38.7572141
40
0.2469126
50
88.1273033
51
146.2211301
0
ARC
8
DEFAULT_255_2_778
10
13.2221212
20
38.6573192
40
0.4294027
50
146.4724241
51
172.8208473
0
ARC
8
DEFAULT_255_2_778
10
13.6191298
20
38.5880059
40
0.8321818
50
171.5019161
51
180.3381329
0
ARC
8
DEFAULT_255_2_778
10
13.4647632
20
38.4570459
40
0.6779169
50
178.9393444
51
196.7458564
0
ARC
8
DEFAULT_255_2_778
10
13.1941698
20
38.3809839
40
0.3969164
50
197.4862455
51
212.7272696
0
ARC
8
DEFAULT_255_2_778
10
13.0589024
20
38.2849333
40
0.2313205
50
210.8266702
51
271.5259706
0
ARC
8
DEFAULT_255_2_778
10
13.0780729
20
38.3354172
40
0.2820227
50
267.3558672
51
300.8985392
0
ARC
8
DEFAULT_255_2_778
10
13.1197013
20
38.2500021
40
0.1875296
50
303.3869136
51
312.5696495
0
ARC
8
DEFAULT_255_2_778
10
13.0625967
20
38.2922968
40
0.2576592
50
315.5603791
51
346.6826411
0
ARC
8
DEFAULT_255_2_778
10
12.7290386
20
38.3969515
40
0.6068698
50
344.3209987
51
352.2481202
0
LINE
8
DEFAULT_255_2_778
10
13.3298625
20
38.3155948
11
13.4724625
21
38.3155948
0
LINE
8
DEFAULT_255_2_778
10
12.6440625
20
38.4748948
11
12.6440625
21
38.5875948
0
LINE
8
DEFAULT_255_2_778
10
13.4727625
20
38.7386948
11
13.3301625
21
38.7386948
0
LINE
8
DEFAULT_255_2_778
10
12.7869625
20
38.5830948
11
12.7869625
21
38.4695948
0
LINE
8
DEFAULT_255_2_778
10
13.3303625
20
38.3150948
11
13.3298625
21
38.3155948
0
LINE
8
DEFAULT_255_2_778
10
14.4932563
20
39.1151552
11
14.4932563
21
37.9438552
0
LINE
8
DEFAULT_255_2_778
10
14.4932563
20
37.9438552
11
14.3506563
21
37.9438552
0
LINE
8
DEFAULT_255_2_778
10
14.3506563
20
37.9438552
11
14.3506563
21
38.4851552
0
LINE
8
DEFAULT_255_2_778
10
14.3506563
20
38.4851552
11
13.8079563
21
38.4851552
0
LINE
8
DEFAULT_255_2_778
10
13.8079563
20
38.4851552
11
13.8079563
21
37.9438552
0
LINE
8
DEFAULT_255_2_778
10
13.8079563
20
37.9438552
11
13.6661563
21
37.9438552
0
LINE
8
DEFAULT_255_2_778
10
13.6661563
20
37.9438552
11
13.6661563
21
39.1151552
0
LINE
8
DEFAULT_255_2_778
10
13.6661563
20
39.1151552
11
13.8079563
21
39.1151552
0
LINE
8
DEFAULT_255_2_778
10
13.8079563
20
39.1151552
11
13.8079563
21
38.6116552
0
LINE
8
DEFAULT_255_2_778
10
13.8079563
20
38.6116552
11
14.3506563
21
38.6116552
0
LINE
8
DEFAULT_255_2_778
10
14.3506563
20
38.6116552
11
14.3506563
21
39.1151552
0
LINE
8
DEFAULT_255_2_778
10
14.3506563
20
39.1151552
11
14.4932563
21
39.1151552
0
LINE
8
DEFAULT_255_2_778
10
14.4932563
20
39.1151552
11
14.4932563
21
39.1151552
0
ARC
8
DEFAULT_255_2_778
10
15.0732932
20
38.80471
40
0.2894418
50
328.5041188
51
0.9670101
0
ARC
8
DEFAULT_255_2_778
10
15.0663801
20
38.8109961
40
0.2986257
50
297.6999818
51
328.16866
0
ARC
8
DEFAULT_255_2_778
10
15.0756058
20
38.2615486
40
0.3131204
50
32.8710647
51
65.5524645
0
ARC
8
DEFAULT_255_2_778
10
15.08005
20
38.2645164
40
0.307777
50
359.1582306
51
32.8560719
0
ARC
8
DEFAULT_255_2_778
10
15.0690564
20
38.2446376
40
0.3191071
50
314.7199892
51
2.758444
0
ARC
8
DEFAULT_255_2_778
10
15.0611997
20
38.2708355
40
0.3434909
50
267.4126537
51
312.5758267
0
ARC
8
DEFAULT_255_2_778
10
15.0299939
20
38.2725433
40
0.3452057
50
229.1902797
51
272.6066959
0
ARC
8
DEFAULT_255_2_778
10
15.0132431
20
38.2413561
40
0.3107487
50
225.9011955
51
227.769687
0
ARC
8
DEFAULT_255_2_778
10
15.0244335
20
38.2449866
40
0.3211906
50
177.3217872
51
224.9182791
0
ARC
8
DEFAULT_255_2_778
10
15.0215645
20
38.2640974
40
0.3179972
50
148.2366858
51
180.7392168
0
ARC
8
DEFAULT_255_2_778
10
15.0085006
20
38.2714548
40
0.3030175
50
114.406022
51
148.1191813
0
ARC
8
DEFAULT_255_2_778
10
15.0182777
20
38.8032553
40
0.289284
50
210.992653
51
242.1852883
0
ARC
8
DEFAULT_255_2_778
10
15.0227943
20
38.8045856
40
0.2938432
50
179.023221
51
210.7615255
0
ARC
8
DEFAULT_255_2_778
10
15.045454
20
38.8256636
40
0.3168679
50
136.3643041
51
182.9067919
0
LINE
8
DEFAULT_255_2_778
10
14.8161233
20
39.0443248
11
14.8162938
21
39.0444948
0
ARC
8
DEFAULT_255_2_778
10
15.0324713
20
38.8197818
40
0.311815
50
87.4776867
51
133.8909189
0
ARC
8
DEFAULT_255_2_778
10
15.059421
20
38.8189692
40
0.3126056
50
46.1733507
51
92.4250766
0
ARC
8
DEFAULT_255_2_778
10
15.0483378
20
38.8258893
40
0.3155473
50
357.145125
51
43.8507306
0
ARC
8
DEFAULT_255_2_778
10
14.945685
20
38.8097394
40
0.4178087
50
359.9801705
51
0.0594726
0
ARC
8
DEFAULT_255_2_778
10
15.0250783
20
38.2725379
40
0.2261086
50
357.6317818
51
41.8163637
0
ARC
8
DEFAULT_255_2_778
10
15.0510859
20
38.2906198
40
0.1947079
50
42.9535634
51
92.1168688
0
ARC
8
DEFAULT_255_2_778
10
15.0358875
20
38.2943322
40
0.1910304
50
87.5979866
51
137.2128312
0
ARC
8
DEFAULT_255_2_778
10
15.0689579
20
38.2738812
40
0.2293133
50
139.0759262
51
182.6710583
0
ARC
8
DEFAULT_255_2_778
10
15.0584047
20
38.2508663
40
0.2188584
50
176.7707813
51
221.3434414
0
ARC
8
DEFAULT_255_2_778
10
15.0336806
20
38.2472014
40
0.198341
50
225.2695771
51
273.3277234
0
ARC
8
DEFAULT_255_2_778
10
15.0560434
20
38.2474801
40
0.198582
50
266.8680613
51
314.809252
0
ARC
8
DEFAULT_255_2_778
10
15.0341268
20
38.2511032
40
0.2169876
50
318.242769
51
3.1151019
0
ARC
8
DEFAULT_255_2_778
10
15.0389771
20
38.840778
40
0.168439
50
87.8168132
51
137.3979552
0
ARC
8
DEFAULT_255_2_778
10
15.0739138
20
38.8186912
40
0.2092361
50
139.4223312
51
183.1496998
0
ARC
8
DEFAULT_255_2_778
10
15.0735796
20
38.7975891
40
0.2088069
50
177.3633083
51
220.2425101
0
ARC
8
DEFAULT_255_2_778
10
15.0383707
20
38.7749274
40
0.16738
50
222.107651
51
272.4047736
0
ARC
8
DEFAULT_255_2_778
10
15.0524633
20
38.7750424
40
0.1674969
50
267.581014
51
317.8754402
0
ARC
8
DEFAULT_255_2_778
10
15.0173079
20
38.7975891
40
0.2088069
50
319.7574899
51
2.6366917
0
ARC
8
DEFAULT_255_2_778
10
15.0183912
20
38.8160426
40
0.2076911
50
357.5584229
51
41.1444073
0
ARC
8
DEFAULT_255_2_778
10
15.0496907
20
38.8423105
40
0.1668396
50
41.4234672
51
91.4758218
0
LINE
8
DEFAULT_255_2_778
10
15.3634938
20
38.8095948
11
15.3626938
21
38.8095948
0
LINE
8
DEFAULT_255_2_778
10
15.2507938
20
38.2628948
11
15.2509938
21
38.2631948
0
LINE
8
DEFAULT_255_2_778
10
15.0453938
20
39.0090948
11
15.0453938
21
39.0090948
0
ARC
8
DEFAULT_255_2_778
10
5.0793196
20
97.9396241
40
0.5022327
50
328.9889976
51
355.4399627
0
ARC
8
DEFAULT_255_2_778
10
5.2050595
20
97.8737551
40
0.3606254
50
313.6677831
51
327.6658527
0
ARC
8
DEFAULT_255_2_778
10
5.1941543
20
97.8972179
40
0.3852167
50
269.230867
51
312.4313551
0
ARC
8
DEFAULT_255_2_778
10
5.1720508
20
98.1067373
40
0.5949425
50
269.991498
51
271.6309062
0
ARC
8
DEFAULT_255_2_778
10
5.1615402
20
97.8783124
40
0.3666657
50
216.3866469
51
271.6288267
0
ARC
8
DEFAULT_255_2_778
10
5.3160468
20
97.9935485
40
0.5594113
50
186.8625834
51
216.5004044
0
ARC
8
DEFAULT_255_2_778
10
5.6675216
20
98.055413
40
0.915966
50
179.7759504
51
188.0776926
0
ARC
8
DEFAULT_255_2_778
10
5.4774006
20
98.1851402
40
0.7259626
50
158.8485288
51
181.0612252
0
ARC
8
DEFAULT_255_2_778
10
5.3248495
20
98.2336241
40
0.5662797
50
156.5697959
51
157.8540711
0
ARC
8
DEFAULT_255_2_778
10
5.2018341
20
98.2978358
40
0.4279916
50
124.8670283
51
157.9089339
0
ARC
8
DEFAULT_255_2_778
10
5.1772436
20
98.317917
40
0.3975527
50
88.8874652
51
123.6136267
0
ARC
8
DEFAULT_255_2_778
10
5.2019915
20
98.3456006
40
0.3701861
50
45.8452771
51
92.6366046
0
ARC
8
DEFAULT_255_2_778
10
5.1470604
20
98.315108
40
0.4307117
50
7.3606857
51
43.4274936
0
ARC
8
DEFAULT_255_2_778
10
4.9045853
20
98.2610026
40
0.6784968
50
5.2252945
51
9.2690677
0
ARC
8
DEFAULT_255_2_778
10
4.984781
20
98.2748883
40
0.4554083
50
6.0383724
51
25.7122471
0
ARC
8
DEFAULT_255_2_778
10
5.1992559
20
98.3730571
40
0.2196272
50
26.9128243
51
43.9172913
0
ARC
8
DEFAULT_255_2_778
10
5.1987802
20
98.3574692
40
0.2310392
50
46.6210799
51
93.4287092
0
ARC
8
DEFAULT_255_2_778
10
5.1768937
20
98.3413141
40
0.2469126
50
88.1273033
51
146.2211301
0
ARC
8
DEFAULT_255_2_778
10
5.3296212
20
98.2414192
40
0.4294027
50
146.4724241
51
172.8208473
0
ARC
8
DEFAULT_255_2_778
10
5.7266298
20
98.1721059
40
0.8321818
50
171.5019161
51
180.3381329
0
ARC
8
DEFAULT_255_2_778
10
5.5722632
20
98.0411459
40
0.6779169
50
178.9393444
51
196.7458564
0
ARC
8
DEFAULT_255_2_778
10
5.3016698
20
97.9650839
40
0.3969164
50
197.4862455
51
212.7272696
0
ARC
8
DEFAULT_255_2_778
10
5.1664024
20
97.8690333
40
0.2313205
50
210.8266702
51
271.5259706
0
ARC
8
DEFAULT_255_2_778
10
5.1855729
20
97.9195172
40
0.2820227
50
267.3558672
51
300.8985392
0
ARC
8
DEFAULT_255_2_778
10
5.2272013
20
97.8341021
40
0.1875296
50
303.3869136
51
312.5696495
0
ARC
8
DEFAULT_255_2_778
10
5.1700967
20
97.8763968
40
0.2576592
50
315.5603791
51
346.6826411
0
ARC
8
DEFAULT_255_2_778
10
4.8365386
20
97.9810515
40
0.6068698
50
344.3209987
51
352.2481202
0
LINE
8
DEFAULT_255_2_778
10
5.4373625
20
97.8996948
11
5.5799625
21
97.8996948
0
LINE
8
DEFAULT_255_2_778
10
4.7515625
20
98.0589948
11
4.7515625
21
98.1716948
0
LINE
8
DEFAULT_255_2_778
10
5.5802625
20
98.3227948
11
5.4376625
21
98.3227948
0
LINE
8
DEFAULT_255_2_778
10
4.8944625
20
98.1671948
11
4.8944625
21
98.0536948
0
LINE
8
DEFAULT_255_2_778
10
5.4378625
20
97.8991948
11
5.4373625
21
97.8996948
0
ARC
8
DEFAULT_255_2_778
10
5.7848675
20
98.0626718
40
0.8169764
50
342.1352665
51
0.9063419
0
ARC
8
DEFAULT_255_2_778
10
5.9903045
20
98.0063326
40
0.6042348
50
337.4992597
51
341.2439484
0
ARC
8
DEFAULT_255_2_778
10
6.1474682
20
97.9280199
40
0.4292389
50
305.6662935
51
339.1286733
0
ARC
8
DEFAULT_255_2_778
10
6.1781498
20
97.9022353
40
0.3905268
50
268.7956665
51
304.214769
0
ARC
8
DEFAULT_255_2_778
10
6.1634974
20
97.8980012
40
0.3862602
50
235.4684017
51
270.9559546
0
ARC
8
DEFAULT_255_2_778
10
6.2003653
20
97.9383379
40
0.440453
50
201.9504145
51
234.4918175
0
ARC
8
DEFAULT_255_2_778
10
6.4795952
20
98.0558427
40
0.7433791
50
180.1651534
51
202.305681
0
ARC
8
DEFAULT_255_2_778
10
6.7618704
20
98.0752088
40
1.0258767
50
180.5537141
51
181.2013698
0
ARC
8
DEFAULT_255_2_778
10
6.5192383
20
98.1630375
40
0.7833102
50
159.9284254
51
180.9760097
0
ARC
8
DEFAULT_255_2_778
10
6.3535717
20
98.2130669
40
0.6106155
50
157.3521004
51
159.0027375
0
ARC
8
DEFAULT_255_2_778
10
6.2006601
20
98.2902527
40
0.4399467
50
125.9073576
51
158.9610411
0
ARC
8
DEFAULT_255_2_778
10
6.1625183
20
98.3299174
40
0.385526
50
89.0899268
51
124.7731697
0
ARC
8
DEFAULT_255_2_778
10
6.1759259
20
98.3232583
40
0.3922042
50
55.7356159
51
91.0641827
0
ARC
8
DEFAULT_255_2_778
10
6.1465014
20
98.2976622
40
0.4300385
50
20.7890196
51
54.4155663
0
ARC
8
DEFAULT_255_2_778
10
5.8399806
20
98.1717195
40
0.761356
50
0.7344222
51
21.4625838
0
ARC
8
DEFAULT_255_2_778
10
5.5336956
20
98.1498836
40
1.0680459
50
359.9898688
51
1.6951605
0
ARC
8
DEFAULT_255_2_778
10
5.694998
20
98.1635553
40
0.7655419
50
359.0823412
51
14.1192106
0
ARC
8
DEFAULT_255_2_778
10
6.059035
20
98.2538731
40
0.3904721
50
14.2973334
51
33.8183297
0
ARC
8
DEFAULT_255_2_778
10
6.1769739
20
98.3358965
40
0.2468493
50
33.2368233
51
92.0040205
0
ARC
8
DEFAULT_255_2_778
10
6.1616192
20
98.3387009
40
0.2439865
50
88.4211465
51
147.1093257
0
ARC
8
DEFAULT_255_2_778
10
6.3369472
20
98.2226675
40
0.4542268
50
146.8287319
51
173.1129404
0
ARC
8
DEFAULT_255_2_778
10
6.7167014
20
98.1567921
40
0.8393751
50
171.7569824
51
179.6516893
0
ARC
8
DEFAULT_255_2_778
10
6.5920949
20
98.0633138
40
0.7148639
50
178.991591
51
195.9756451
0
ARC
8
DEFAULT_255_2_778
10
6.2927119
20
97.9817814
40
0.4046235
50
196.5442278
51
213.5101694
0
ARC
8
DEFAULT_255_2_778
10
6.1638671
20
97.8889192
40
0.2460071
50
212.044111
51
271.4848301
0
ARC
8
DEFAULT_255_2_778
10
6.1798505
20
97.886709
40
0.2439036
50
267.7421891
51
326.5014572
0
ARC
8
DEFAULT_255_2_778
10
6.014177
20
97.9915066
40
0.4399168
50
327.0285796
51
352.3765953
0
ARC
8
DEFAULT_255_2_778
10
5.5896461
20
98.0682738
40
0.8711038
50
351.0761438
51
359.7514416
0
LINE
8
DEFAULT_255_2_778
10
6.6017417
20
98.1496948
11
6.6017417
21
98.0755948
0
LINE
8
DEFAULT_255_2_778
10
5.7360417
20
98.0652948
11
5.7360417
21
98.1496948
0
LINE
8
DEFAULT_255_2_778
10
6.6017417
20
98.1496948
11
6.6017417
21
98.1496948
0
LINE
8
DEFAULT_255_2_778
10
6.4604417
20
98.0644948
11
6.4604417
21
98.1512948
0
LINE
8
DEFAULT_255_2_778
10
5.8773417
20
98.1618948
11
5.8773417
21
98.0758948
0
LINE
8
DEFAULT_255_2_778
10
6.4607417
20
98.0644948
11
6.4604417
21
98.0644948
0
LINE
8
DEFAULT_255_2_778
10
6.8144511
20
98.6992552
11
6.9978511
21
98.6992552
0
LINE
8
DEFAULT_255_2_778
10
6.9978511
20
98.6992552
11
7.3497511
21
97.7435552
0
LINE
8
DEFAULT_255_2_778
10
7.3497511
20
97.7435552
11
7.7015511
21
98.6992552
0
LINE
8
DEFAULT_255_2_778
10
7.7015511
20
98.6992552
11
7.8857511
21
98.6992552
0
LINE
8
DEFAULT_255_2_778
10
7.8857511
20
98.6992552
11
7.8857511
21
97.5279552
0
LINE
8
DEFAULT_255_2_778
10
7.8857511
20
97.5279552
11
7.7439511
21
97.5279552
0
LINE
8
DEFAULT_255_2_778
10
7.7439511
20
97.5279552
11
7.7439511
21
97.9840552
0
LINE
8
DEFAULT_255_2_778
10
7.7439511
20
97.9840552
11
7.7571511
21
98.4764552
0
LINE
8
DEFAULT_255_2_778
10
7.7571511
20
98.4764552
11
7.4036511
21
97.5279552
0
LINE
8
DEFAULT_255_2_778
10
7.4036511
20
97.5279552
11
7.2949511
21
97.5279552
0
LINE
8
DEFAULT_255_2_778
10
7.2949511
20
97.5279552
11
6.9422511
21
98.4740552
0
LINE
8
DEFAULT_255_2_778
10
6.9422511
20
98.4740552
11
6.9562511
21
97.9840552
0
LINE
8
DEFAULT_255_2_778
10
6.9562511
20
97.9840552
11
6.9562511
21
97.5279552
0
LINE
8
DEFAULT_255_2_778
10
6.9562511
20
97.5279552
11
6.8144511
21
97.5279552
0
LINE
8
DEFAULT_255_2_778
10
6.8144511
20
97.5279552
11
6.8144511
21
98.6992552
0
LINE
8
DEFAULT_255_2_778
10
6.8144511
20
98.6992552
11
6.8144511
21
98.6992552
0
ARC
8
DEFAULT_255_2_778
10
5.3044196
20
100.5638241
40
0.5022327
50
328.9889976
51
355.4399627
0
ARC
8
DEFAULT_255_2_778
10
5.4301595
20
100.4979551
40
0.3606254
50
313.6677831
51
327.6658527
0
ARC
8
DEFAULT_255_2_778
10
5.4192543
20
100.5214179
40
0.3852167
50
269.230867
51
312.4313551
0
ARC
8
DEFAULT_255_2_778
10
5.3971508
20
100.7309373
40
0.5949425
50
269.991498
51
271.6309062
0
ARC
8
DEFAULT_255_2_778
10
5.3866402
20
100.5025124
40
0.3666657
50
216.3866469
51
271.6288267
0
ARC
8
DEFAULT_255_2_778
10
5.5411468
20
100.6177485
40
0.5594113
50
186.8625834
51
216.5004044
0
ARC
8
DEFAULT_255_2_778
10
5.8926216
20
100.679613
40
0.915966
50
179.7759504
51
188.0776926
0
ARC
8
DEFAULT_255_2_778
10
5.7025006
20
100.8093402
40
0.7259626
50
158.8485288
51
181.0612252
0
ARC
8
DEFAULT_255_2_778
10
5.5499495
20
100.8578241
40
0.5662797
50
156.5697959
51
157.8540711
0
ARC
8
DEFAULT_255_2_778
10
5.4269341
20
100.9220358
40
0.4279916
50
124.8670283
51
157.9089339
0
ARC
8
DEFAULT_255_2_778
10
5.4023436
20
100.942117
40
0.3975527
50
88.8874652
51
123.6136267
0
ARC
8
DEFAULT_255_2_778
10
5.4270915
20
100.9698006
40
0.3701861
50
45.8452771
51
92.6366046
0
ARC
8
DEFAULT_255_2_778
10
5.3721604
20
100.939308
40
0.4307117
50
7.3606857
51
43.4274936
0
ARC
8
DEFAULT_255_2_778
10
5.1296853
20
100.8852026
40
0.6784968
50
5.2252945
51
9.2690677
0
ARC
8
DEFAULT_255_2_778
10
5.209881
20
100.8990883
40
0.4554083
50
6.0383724
51
25.7122471
0
ARC
8
DEFAULT_255_2_778
10
5.4243559
20
100.9972571
40
0.2196272
50
26.9128243
51
43.9172913
0
ARC
8
DEFAULT_255_2_778
10
5.4238802
20
100.9816692
40
0.2310392
50
46.6210799
51
93.4287092
0
ARC
8
DEFAULT_255_2_778
10
5.4019937
20
100.9655141
40
0.2469126
50
88.1273033
51
146.2211301
0
ARC
8
DEFAULT_255_2_778
10
5.5547212
20
100.8656192
40
0.4294027
50
146.4724241
51
172.8208473
0
ARC
8
DEFAULT_255_2_778
10
5.9517298
20
100.7963059
40
0.8321818
50
171.5019161
51
180.3381329
0
ARC
8
DEFAULT_255_2_778
10
5.7973632
20
100.6653459
40
0.6779169
50
178.9393444
51
196.7458564
0
ARC
8
DEFAULT_255_2_778
10
5.5267698
20
100.5892839
40
0.3969164
50
197.4862455
51
212.7272696
0
ARC
8
DEFAULT_255_2_778
10
5.3915024
20
100.4932333
40
0.2313205
50
210.8266702
51
271.5259706
0
ARC
8
DEFAULT_255_2_778
10
5.4106729
20
100.5437172
40
0.2820227
50
267.3558672
51
300.8985392
0
ARC
8
DEFAULT_255_2_778
10
5.4523013
20
100.4583021
40
0.1875296
50
303.3869136
51
312.5696495
0
ARC
8
DEFAULT_255_2_778
10
5.3951967
20
100.5005968
40
0.2576592
50
315.5603791
51
346.6826411
0
ARC
8
DEFAULT_255_2_778
10
5.0616386
20
100.6052515
40
0.6068698
50
344.3209987
51
352.2481202
0
LINE
8
DEFAULT_255_2_778
10
5.6624625
20
100.5238948
11
5.8050625
21
100.5238948
0
LINE
8
DEFAULT_255_2_778
10
4.9766625
20
100.6831948
11
4.9766625
21
100.7958948
0
LINE
8
DEFAULT_255_2_778
10
5.8053625
20
100.9469948
11
5.6627625
21
100.9469948
0
LINE
8
DEFAULT_255_2_778
10
5.1195625
20
100.7913948
11
5.1195625
21
100.6778948
0
LINE
8
DEFAULT_255_2_778
10
5.6629625
20
100.5233948
11
5.6624625
21
100.5238948
0
LINE
8
DEFAULT_255_2_778
10
6.8258563
20
101.3234552
11
6.8258563
21
100.1521552
0
LINE
8
DEFAULT_255_2_778
10
6.8258563
20
100.1521552
11
6.6832563
21
100.1521552
0
LINE
8
DEFAULT_255_2_778
10
6.6832563
20
100.1521552
11
6.6832563
21
100.6934552
0
LINE
8
DEFAULT_255_2_778
10
6.6832563
20
100.6934552
11
6.1405563
21
100.6934552
0
LINE
8
DEFAULT_255_2_778
10
6.1405563
20
100.6934552
11
6.1405563
21
100.1521552
0
LINE
8
DEFAULT_255_2_778
10
6.1405563
20
100.1521552
11
5.9987563
21
100.1521552
0
LINE
8
DEFAULT_255_2_778
10
5.9987563
20
100.1521552
11
5.9987563
21
101.3234552
0
LINE
8
DEFAULT_255_2_778
10
5.9987563
20
101.3234552
11
6.1405563
21
101.3234552
0
LINE
8
DEFAULT_255_2_778
10
6.1405563
20
101.3234552
11
6.1405563
21
100.8199552
0
LINE
8
DEFAULT_255_2_778
10
6.1405563
20
100.8199552
11
6.6832563
21
100.8199552
0
LINE
8
DEFAULT_255_2_778
10
6.6832563
20
100.8199552
11
6.6832563
21
101.3234552
0
LINE
8
DEFAULT_255_2_778
10
6.6832563
20
101.3234552
11
6.8258563
21
101.3234552
0
LINE
8
DEFAULT_255_2_778
10
6.8258563
20
101.3234552
11
6.8258563
21
101.3234552
0
LINE
8
DEFAULT_255_2_778
10
7.4920604
20
101.3289333
11
7.4920604
21
100.1520333
0
LINE
8
DEFAULT_255_2_778
10
7.4920604
20
100.1520333
11
7.3544604
21
100.1520333
0
LINE
8
DEFAULT_255_2_778
10
7.3544604
20
100.1520333
11
7.3544604
21
101.1440333
0
LINE
8
DEFAULT_255_2_778
10
7.3544604
20
101.1440333
11
7.0787604
21
101.0336333
0
LINE
8
DEFAULT_255_2_778
10
7.0787604
20
101.0336333
11
7.0787604
21
101.1688333
0
LINE
8
DEFAULT_255_2_778
10
7.0787604
20
101.1688333
11
7.4705604
21
101.3289333
0
LINE
8
DEFAULT_255_2_778
10
7.4705604
20
101.3289333
11
7.4920604
21
101.3289333
0
LINE
8
DEFAULT_255_2_778
10
7.4920604
20
101.3289333
11
7.4920604
21
101.3289333
0
ARC
8
DEFAULT_255_2_778
10
5.0793196
20
88.5014241
40
0.5022327
50
328.9889976
51
355.4399627
0
ARC
8
DEFAULT_255_2_778
10
5.2050595
20
88.4355551
40
0.3606254
50
313.6677831
51
327.6658527
0
ARC
8
DEFAULT_255_2_778
10
5.1941543
20
88.4590179
40
0.3852167
50
269.230867
51
312.4313551
0
ARC
8
DEFAULT_255_2_778
10
5.1720508
20
88.6685373
40
0.5949425
50
269.991498
51
271.6309062
0
ARC
8
DEFAULT_255_2_778
10
5.1615402
20
88.4401124
40
0.3666657
50
216.3866469
51
271.6288267
0
ARC
8
DEFAULT_255_2_778
10
5.3160468
20
88.5553485
40
0.5594113
50
186.8625834
51
216.5004044
0
ARC
8
DEFAULT_255_2_778
10
5.6675216
20
88.617213
40
0.915966
50
179.7759504
51
188.0776926
0
ARC
8
DEFAULT_255_2_778
10
5.4774006
20
88.7469402
40
0.7259626
50
158.8485288
51
181.0612252
0
ARC
8
DEFAULT_255_2_778
10
5.3248495
20
88.7954241
40
0.5662797
50
156.5697959
51
157.8540711
0
ARC
8
DEFAULT_255_2_778
10
5.2018341
20
88.8596358
40
0.4279916
50
124.8670283
51
157.9089339
0
ARC
8
DEFAULT_255_2_778
10
5.1772436
20
88.879717
40
0.3975527
50
88.8874652
51
123.6136267
0
ARC
8
DEFAULT_255_2_778
10
5.2019915
20
88.9074006
40
0.3701861
50
45.8452771
51
92.6366046
0
ARC
8
DEFAULT_255_2_778
10
5.1470604
20
88.876908
40
0.4307117
50
7.3606857
51
43.4274936
0
ARC
8
DEFAULT_255_2_778
10
4.9045853
20
88.8228026
40
0.6784968
50
5.2252945
51
9.2690677
0
ARC
8
DEFAULT_255_2_778
10
4.984781
20
88.8366883
40
0.4554083
50
6.0383724
51
25.7122471
0
ARC
8
DEFAULT_255_2_778
10
5.1992559
20
88.9348571
40
0.2196272
50
26.9128243
51
43.9172913
0
ARC
8
DEFAULT_255_2_778
10
5.1987802
20
88.9192692
40
0.2310392
50
46.6210799
51
93.4287092
0
ARC
8
DEFAULT_255_2_778
10
5.1768937
20
88.9031141
40
0.2469126
50
88.1273033
51
146.2211301
0
ARC
8
DEFAULT_255_2_778
10
5.3296212
20
88.8032192
40
0.4294027
50
146.4724241
51
172.8208473
0
ARC
8
DEFAULT_255_2_778
10
5.7266298
20
88.7339059
40
0.8321818
50
171.5019161
51
180.3381329
0
ARC
8
DEFAULT_255_2_778
10
5.5722632
20
88.6029459
40
0.6779169
50
178.9393444
51
196.7458564
0
ARC
8
DEFAULT_255_2_778
10
5.3016698
20
88.5268839
40
0.3969164
50
197.4862455
51
212.7272696
0
ARC
8
DEFAULT_255_2_778
10
5.1664024
20
88.4308333
40
0.2313205
50
210.8266702
51
271.5259706
0
ARC
8
DEFAULT_255_2_778
10
5.1855729
20
88.4813172
40
0.2820227
50
267.3558672
51
300.8985392
0
ARC
8
DEFAULT_255_2_778
10
5.2272013
20
88.3959021
40
0.1875296
50
303.3869136
51
312.5696495
0
ARC
8
DEFAULT_255_2_778
10
5.1700967
20
88.4381968
40
0.2576592
50
315.5603791
51
346.6826411
0
ARC
8
DEFAULT_255_2_778
10
4.8365386
20
88.5428515
40
0.6068698
50
344.3209987
51
352.2481202
0
LINE
8
DEFAULT_255_2_778
10
5.4373625
20
88.4614948
11
5.5799625
21
88.4614948
0
LINE
8
DEFAULT_255_2_778
10
4.7515625
20
88.6207948
11
4.7515625
21
88.7334948
0
LINE
8
DEFAULT_255_2_778
10
5.5802625
20
88.8845948
11
5.4376625
21
88.8845948
0
LINE
8
DEFAULT_255_2_778
10
4.8944625
20
88.7289948
11
4.8944625
21
88.6154948
0
LINE
8
DEFAULT_255_2_778
10
5.4378625
20
88.4609948
11
5.4373625
21
88.4614948
0
ARC
8
DEFAULT_255_2_778
10
5.7848675
20
88.6244718
40
0.8169764
50
342.1352665
51
0.9063419
0
ARC
8
DEFAULT_255_2_778
10
5.9903045
20
88.5681326
40
0.6042348
50
337.4992597
51
341.2439484
0
ARC
8
DEFAULT_255_2_778
10
6.1474682
20
88.4898199
40
0.4292389
50
305.6662935
51
339.1286733
0
ARC
8
DEFAULT_255_2_778
10
6.1781498
20
88.4640353
40
0.3905268
50
268.7956665
51
304.214769
0
ARC
8
DEFAULT_255_2_778
10
6.1634974
20
88.4598012
40
0.3862602
50
235.4684017
51
270.9559546
0
ARC
8
DEFAULT_255_2_778
10
6.2003653
20
88.5001379
40
0.440453
50
201.9504145
51
234.4918175
0
ARC
8
DEFAULT_255_2_778
10
6.4795952
20
88.6176427
40
0.7433791
50
180.1651534
51
202.305681
0
ARC
8
DEFAULT_255_2_778
10
6.7618704
20
88.6370088
40
1.0258767
50
180.5537141
51
181.2013698
0
ARC
8
DEFAULT_255_2_778
10
6.5192383
20
88.7248375
40
0.7833102
50
159.9284254
51
180.9760097
0
ARC
8
DEFAULT_255_2_778
10
6.3535717
20
88.7748669
40
0.6106155
50
157.3521004
51
159.0027375
0
ARC
8
DEFAULT_255_2_778
10
6.2006601
20
88.8520527
40
0.4399467
50
125.9073576
51
158.9610411
0
ARC
8
DEFAULT_255_2_778
10
6.1625183
20
88.8917174
40
0.385526
50
89.0899268
51
124.7731697
0
ARC
8
DEFAULT_255_2_778
10
6.1759259
20
88.8850583
40
0.3922042
50
55.7356159
51
91.0641827
0
ARC
8
DEFAULT_255_2_778
10
6.1465014
20
88.8594622
40
0.4300385
50
20.7890196
51
54.4155663
0
ARC
8
DEFAULT_255_2_778
10
5.8399806
20
88.7335195
40
0.761356
50
0.7344222
51
21.4625838
0
ARC
8
DEFAULT_255_2_778
10
5.5336956
20
88.7116836
40
1.0680459
50
359.9898688
51
1.6951605
0
ARC
8
DEFAULT_255_2_778
10
5.694998
20
88.7253553
40
0.7655419
50
359.0823412
51
14.1192106
0
ARC
8
DEFAULT_255_2_778
10
6.059035
20
88.8156731
40
0.3904721
50
14.2973334
51
33.8183297
0
ARC
8
DEFAULT_255_2_778
10
6.1769739
20
88.8976965
40
0.2468493
50
33.2368233
51
92.0040205
0
ARC
8
DEFAULT_255_2_778
10
6.1616192
20
88.9005009
40
0.2439865
50
88.4211465
51
147.1093257
0
ARC
8
DEFAULT_255_2_778
10
6.3369472
20
88.7844675
40
0.4542268
50
146.8287319
51
173.1129404
0
ARC
8
DEFAULT_255_2_778
10
6.7167014
20
88.7185921
40
0.8393751
50
171.7569824
51
179.6516893
0
ARC
8
DEFAULT_255_2_778
10
6.5920949
20
88.6251138
40
0.7148639
50
178.991591
51
195.9756451
0
ARC
8
DEFAULT_255_2_778
10
6.2927119
20
88.5435814
40
0.4046235
50
196.5442278
51
213.5101694
0
ARC
8
DEFAULT_255_2_778
10
6.1638671
20
88.4507192
40
0.2460071
50
212.044111
51
271.4848301
0
ARC
8
DEFAULT_255_2_778
10
6.1798505
20
88.448509
40
0.2439036
50
267.7421891
51
326.5014572
0
ARC
8
DEFAULT_255_2_778
10
6.014177
20
88.5533066
40
0.4399168
50
327.0285796
51
352.3765953
0
ARC
8
DEFAULT_255_2_778
10
5.5896461
20
88.6300738
40
0.8711038
50
351.0761438
51
359.7514416
0
LINE
8
DEFAULT_255_2_778
10
6.6017417
20
88.7114948
11
6.6017417
21
88.6373948
0
LINE
8
DEFAULT_255_2_778
10
5.7360417
20
88.6270948
11
5.7360417
21
88.7114948
0
LINE
8
DEFAULT_255_2_778
10
6.6017417
20
88.7114948
11
6.6017417
21
88.7114948
0
LINE
8
DEFAULT_255_2_778
10
6.4604417
20
88.6262948
11
6.4604417
21
88.7130948
0
LINE
8
DEFAULT_255_2_778
10
5.8773417
20
88.7236948
11
5.8773417
21
88.6376948
0
LINE
8
DEFAULT_255_2_778
10
6.4607417
20
88.6262948
11
6.4604417
21
88.6262948
0
LINE
8
DEFAULT_255_2_778
10
6.8144511
20
89.2610552
11
6.9978511
21
89.2610552
0
LINE
8
DEFAULT_255_2_778
10
6.9978511
20
89.2610552
11
7.3497511
21
88.3053552
0
LINE
8
DEFAULT_255_2_778
10
7.3497511
20
88.3053552
11
7.7015511
21
89.2610552
0
LINE
8
DEFAULT_255_2_778
10
7.7015511
20
89.2610552
11
7.8857511
21
89.2610552
0
LINE
8
DEFAULT_255_2_778
10
7.8857511
20
89.2610552
11
7.8857511
21
88.0897552
0
LINE
8
DEFAULT_255_2_778
10
7.8857511
20
88.0897552
11
7.7439511
21
88.0897552
0
LINE
8
DEFAULT_255_2_778
10
7.7439511
20
88.0897552
11
7.7439511
21
88.5458552
0
LINE
8
DEFAULT_255_2_778
10
7.7439511
20
88.5458552
11
7.7571511
21
89.0382552
0
LINE
8
DEFAULT_255_2_778
10
7.7571511
20
89.0382552
11
7.4036511
21
88.0897552
0
LINE
8
DEFAULT_255_2_778
10
7.4036511
20
88.0897552
11
7.2949511
21
88.0897552
0
LINE
8
DEFAULT_255_2_778
10
7.2949511
20
88.0897552
11
6.9422511
21
89.0358552
0
LINE
8
DEFAULT_255_2_778
10
6.9422511
20
89.0358552
11
6.9562511
21
88.5458552
0
LINE
8
DEFAULT_255_2_778
10
6.9562511
20
88.5458552
11
6.9562511
21
88.0897552
0
LINE
8
DEFAULT_255_2_778
10
6.9562511
20
88.0897552
11
6.8144511
21
88.0897552
0
LINE
8
DEFAULT_255_2_778
10
6.8144511
20
88.0897552
11
6.8144511
21
89.2610552
0
LINE
8
DEFAULT_255_2_778
10
6.8144511
20
89.2610552
11
6.8144511
21
89.2610552
0
ARC
8
DEFAULT_255_2_778
10
5.0245196
20
91.1255241
40
0.5022327
50
328.9889976
51
355.4399627
0
ARC
8
DEFAULT_255_2_778
10
5.1502595
20
91.0596551
40
0.3606254
50
313.6677831
51
327.6658527
0
ARC
8
DEFAULT_255_2_778
10
5.1393543
20
91.0831179
40
0.3852167
50
269.230867
51
312.4313551
0
ARC
8
DEFAULT_255_2_778
10
5.1172508
20
91.2926373
40
0.5949425
50
269.991498
51
271.6309062
0
ARC
8
DEFAULT_255_2_778
10
5.1067402
20
91.0642124
40
0.3666657
50
216.3866469
51
271.6288267
0
ARC
8
DEFAULT_255_2_778
10
5.2612468
20
91.1794485
40
0.5594113
50
186.8625834
51
216.5004044
0
ARC
8
DEFAULT_255_2_778
10
5.6127216
20
91.241313
40
0.915966
50
179.7759504
51
188.0776926
0
ARC
8
DEFAULT_255_2_778
10
5.4226006
20
91.3710402
40
0.7259626
50
158.8485288
51
181.0612252
0
ARC
8
DEFAULT_255_2_778
10
5.2700495
20
91.4195241
40
0.5662797
50
156.5697959
51
157.8540711
0
ARC
8
DEFAULT_255_2_778
10
5.1470341
20
91.4837358
40
0.4279916
50
124.8670283
51
157.9089339
0
ARC
8
DEFAULT_255_2_778
10
5.1224436
20
91.503817
40
0.3975527
50
88.8874652
51
123.6136267
0
ARC
8
DEFAULT_255_2_778
10
5.1471915
20
91.5315006
40
0.3701861
50
45.8452771
51
92.6366046
0
ARC
8
DEFAULT_255_2_778
10
5.0922604
20
91.501008
40
0.4307117
50
7.3606857
51
43.4274936
0
ARC
8
DEFAULT_255_2_778
10
4.8497853
20
91.4469026
40
0.6784968
50
5.2252945
51
9.2690677
0
ARC
8
DEFAULT_255_2_778
10
4.929981
20
91.4607883
40
0.4554083
50
6.0383724
51
25.7122471
0
ARC
8
DEFAULT_255_2_778
10
5.1444559
20
91.5589571
40
0.2196272
50
26.9128243
51
43.9172913
0
ARC
8
DEFAULT_255_2_778
10
5.1439802
20
91.5433692
40
0.2310392
50
46.6210799
51
93.4287092
0
ARC
8
DEFAULT_255_2_778
10
5.1220937
20
91.5272141
40
0.2469126
50
88.1273033
51
146.2211301
0
ARC
8
DEFAULT_255_2_778
10
5.2748212
20
91.4273192
40
0.4294027
50
146.4724241
51
172.8208473
0
ARC
8
DEFAULT_255_2_778
10
5.6718298
20
91.3580059
40
0.8321818
50
171.5019161
51
180.3381329
0
ARC
8
DEFAULT_255_2_778
10
5.5174632
20
91.2270459
40
0.6779169
50
178.9393444
51
196.7458564
0
ARC
8
DEFAULT_255_2_778
10
5.2468698
20
91.1509839
40
0.3969164
50
197.4862455
51
212.7272696
0
ARC
8
DEFAULT_255_2_778
10
5.1116024
20
91.0549333
40
0.2313205
50
210.8266702
51
271.5259706
0
ARC
8
DEFAULT_255_2_778
10
5.1307729
20
91.1054172
40
0.2820227
50
267.3558672
51
300.8985392
0
ARC
8
DEFAULT_255_2_778
10
5.1724013
20
91.0200021
40
0.1875296
50
303.3869136
51
312.5696495
0
ARC
8
DEFAULT_255_2_778
10
5.1152967
20
91.0622968
40
0.2576592
50
315.5603791
51
346.6826411
0
ARC
8
DEFAULT_255_2_778
10
4.7817386
20
91.1669515
40
0.6068698
50
344.3209987
51
352.2481202
0
LINE
8
DEFAULT_255_2_778
10
5.3825625
20
91.0855948
11
5.5251625
21
91.0855948
0
LINE
8
DEFAULT_255_2_778
10
4.6967625
20
91.2448948
11
4.6967625
21
91.3575948
0
LINE
8
DEFAULT_255_2_778
10
5.5254625
20
91.5086948
11
5.3828625
21
91.5086948
0
LINE
8
DEFAULT_255_2_778
10
4.8396625
20
91.3530948
11
4.8396625
21
91.2395948
0
LINE
8
DEFAULT_255_2_778
10
5.3830625
20
91.0850948
11
5.3825625
21
91.0855948
0
LINE
8
DEFAULT_255_2_778
10
6.5459563
20
91.8851552
11
6.5459563
21
90.7138552
0
LINE
8
DEFAULT_255_2_778
10
6.5459563
20
90.7138552
11
6.4033563
21
90.7138552
0
LINE
8
DEFAULT_255_2_778
10
6.4033563
20
90.7138552
11
6.4033563
21
91.2551552
0
LINE
8
DEFAULT_255_2_778
10
6.4033563
20
91.2551552
11
5.8606563
21
91.2551552
0
LINE
8
DEFAULT_255_2_778
10
5.8606563
20
91.2551552
11
5.8606563
21
90.7138552
0
LINE
8
DEFAULT_255_2_778
10
5.8606563
20
90.7138552
11
5.7188563
21
90.7138552
0
LINE
8
DEFAULT_255_2_778
10
5.7188563
20
90.7138552
11
5.7188563
21
91.8851552
0
LINE
8
DEFAULT_255_2_778
10
5.7188563
20
91.8851552
11
5.8606563
21
91.8851552
0
LINE
8
DEFAULT_255_2_778
10
5.8606563
20
91.8851552
11
5.8606563
21
91.3816552
0
LINE
8
DEFAULT_255_2_778
10
5.8606563
20
91.3816552
11
6.4033563
21
91.3816552
0
LINE
8
DEFAULT_255_2_778
10
6.4033563
20
91.3816552
11
6.4033563
21
91.8851552
0
LINE
8
DEFAULT_255_2_778
10
6.4033563
20
91.8851552
11
6.5459563
21
91.8851552
0
LINE
8
DEFAULT_255_2_778
10
6.5459563
20
91.8851552
11
6.5459563
21
91.8851552
0
ARC
8
DEFAULT_255_2_778
10
6.1197449
20
92.1092547
40
1.3167119
50
320.4775549
51
326.8384444
0
ARC
8
DEFAULT_255_2_778
10
6.7896986
20
91.6681819
40
0.5146124
50
327.1468692
51
333.3707966
0
ARC
8
DEFAULT_255_2_778
10
6.9850201
20
91.5704497
40
0.2962045
50
333.3358472
51
359.8791573
0
ARC
8
DEFAULT_255_2_778
10
7.0604919
20
91.5788039
40
0.2209146
50
357.6706216
51
39.8376625
0
ARC
8
DEFAULT_255_2_778
10
7.1008652
20
91.6080381
40
0.1712197
50
40.9808014
51
92.2564307
0
ARC
8
DEFAULT_255_2_778
10
7.0824677
20
91.5782236
40
0.2012392
50
86.6794404
51
136.8610395
0
ARC
8
DEFAULT_255_2_778
10
7.1281188
20
91.5576223
40
0.2491633
50
140.5847859
51
182.0202137
0
ARC
8
DEFAULT_255_2_778
10
7.3147549
20
91.540162
40
0.435731
50
178.8589829
51
180.0048709
0
ARC
8
DEFAULT_255_2_778
10
7.1037191
20
91.55599
40
0.3618431
50
137.2466387
51
182.5129474
0
ARC
8
DEFAULT_255_2_778
10
7.0783669
20
91.5630275
40
0.3386643
50
87.333227
51
135.2088045
0
ARC
8
DEFAULT_255_2_778
10
7.10864
20
91.5653008
40
0.3363375
50
53.5961417
51
92.4736106
0
ARC
8
DEFAULT_255_2_778
10
7.1355134
20
91.6161844
40
0.2795666
50
45.5115714
51
51.8397147
0
ARC
8
DEFAULT_255_2_778
10
7.1138743
20
91.6016068
40
0.3051748
50
357.3552286
51
44.5311545
0
ARC
8
DEFAULT_255_2_778
10
6.992512
20
91.6006015
40
0.4264125
50
332.8539887
51
358.2426767
0
ARC
8
DEFAULT_255_2_778
10
6.5039255
20
91.8335919
40
0.9676094
50
321.8964938
51
333.7775577
0
ARC
8
DEFAULT_255_2_778
10
6.022862
20
92.1889796
40
1.5655555
50
319.6582754
51
322.5260975
0
LINE
8
DEFAULT_255_2_778
10
7.468024
20
90.835325
11
7.468024
21
90.713925
0
LINE
8
DEFAULT_255_2_778
10
7.468024
20
90.713925
11
6.762824
21
90.713925
0
LINE
8
DEFAULT_255_2_778
10
6.762824
20
90.713925
11
6.762824
21
90.820725
0
LINE
8
DEFAULT_255_2_778
10
6.762824
20
90.820725
11
7.135424
21
91.271325
0
LINE
8
DEFAULT_255_2_778
10
6.879024
20
91.540125
11
6.742224
21
91.540125
0
LINE
8
DEFAULT_255_2_778
10
7.216124
20
91.175525
11
6.927724
21
90.835325
0
LINE
8
DEFAULT_255_2_778
10
6.927724
20
90.835325
11
7.468024
21
90.835325
0
LINE
8
DEFAULT_255_2_778
10
7.468024
20
90.835325
11
7.468024
21
90.835325
0
ARC
8
DEFAULT_255_2_778
10
5.0793196
20
79.0635241
40
0.5022327
50
328.9889976
51
355.4399627
0
ARC
8
DEFAULT_255_2_778
10
5.2050595
20
78.9976551
40
0.3606254
50
313.6677831
51
327.6658527
0
ARC
8
DEFAULT_255_2_778
10
5.1941543
20
79.0211179
40
0.3852167
50
269.230867
51
312.4313551
0
ARC
8
DEFAULT_255_2_778
10
5.1720508
20
79.2306373
40
0.5949425
50
269.991498
51
271.6309062
0
ARC
8
DEFAULT_255_2_778
10
5.1615402
20
79.0022124
40
0.3666657
50
216.3866469
51
271.6288267
0
ARC
8
DEFAULT_255_2_778
10
5.3160468
20
79.1174485
40
0.5594113
50
186.8625834
51
216.5004044
0
ARC
8
DEFAULT_255_2_778
10
5.6675216
20
79.179313
40
0.915966
50
179.7759504
51
188.0776926
0
ARC
8
DEFAULT_255_2_778
10
5.4774006
20
79.3090402
40
0.7259626
50
158.8485288
51
181.0612252
0
ARC
8
DEFAULT_255_2_778
10
5.3248495
20
79.3575241
40
0.5662797
50
156.5697959
51
157.8540711
0
ARC
8
DEFAULT_255_2_778
10
5.2018341
20
79.4217358
40
0.4279916
50
124.8670283
51
157.9089339
0
ARC
8
DEFAULT_255_2_778
10
5.1772436
20
79.441817
40
0.3975527
50
88.8874652
51
123.6136267
0
ARC
8
DEFAULT_255_2_778
10
5.2019915
20
79.4695006
40
0.3701861
50
45.8452771
51
92.6366046
0
ARC
8
DEFAULT_255_2_778
10
5.1470604
20
79.439008
40
0.4307117
50
7.3606857
51
43.4274936
0
ARC
8
DEFAULT_255_2_778
10
4.9045853
20
79.3849026
40
0.6784968
50
5.2252945
51
9.2690677
0
ARC
8
DEFAULT_255_2_778
10
4.984781
20
79.3987883
40
0.4554083
50
6.0383724
51
25.7122471
0
ARC
8
DEFAULT_255_2_778
10
5.1992559
20
79.4969571
40
0.2196272
50
26.9128243
51
43.9172913
0
ARC
8
DEFAULT_255_2_778
10
5.1987802
20
79.4813692
40
0.2310392
50
46.6210799
51
93.4287092
0
ARC
8
DEFAULT_255_2_778
10
5.1768937
20
79.4652141
40
0.2469126
50
88.1273033
51
146.2211301
0
ARC
8
DEFAULT_255_2_778
10
5.3296212
20
79.3653192
40
0.4294027
50
146.4724241
51
172.8208473
0
ARC
8
DEFAULT_255_2_778
10
5.7266298
20
79.2960059
40
0.8321818
50
171.5019161
51
180.3381329
0
ARC
8
DEFAULT_255_2_778
10
5.5722632
20
79.1650459
40
0.6779169
50
178.9393444
51
196.7458564
0
ARC
8
DEFAULT_255_2_778
10
5.3016698
20
79.0889839
40
0.3969164
50
197.4862455
51
212.7272696
0
ARC
8
DEFAULT_255_2_778
10
5.1664024
20
78.9929333
40
0.2313205
50
210.8266702
51
271.5259706
0
ARC
8
DEFAULT_255_2_778
10
5.1855729
20
79.0434172
40
0.2820227
50
267.3558672
51
300.8985392
0
ARC
8
DEFAULT_255_2_778
10
5.2272013
20
78.9580021
40
0.1875296
50
303.3869136
51
312.5696495
0
ARC
8
DEFAULT_255_2_778
10
5.1700967
20
79.0002968
40
0.2576592
50
315.5603791
51
346.6826411
0
ARC
8
DEFAULT_255_2_778
10
4.8365386
20
79.1049515
40
0.6068698
50
344.3209987
51
352.2481202
0
LINE
8
DEFAULT_255_2_778
10
5.4373625
20
79.0235948
11
5.5799625
21
79.0235948
0
LINE
8
DEFAULT_255_2_778
10
4.7515625
20
79.1828948
11
4.7515625
21
79.2955948
0
LINE
8
DEFAULT_255_2_778
10
5.5802625
20
79.4466948
11
5.4376625
21
79.4466948
0
LINE
8
DEFAULT_255_2_778
10
4.8944625
20
79.2910948
11
4.8944625
21
79.1775948
0
LINE
8
DEFAULT_255_2_778
10
5.4378625
20
79.0230948
11
5.4373625
21
79.0235948
0
ARC
8
DEFAULT_255_2_778
10
5.7848675
20
79.1865718
40
0.8169764
50
342.1352665
51
0.9063419
0
ARC
8
DEFAULT_255_2_778
10
5.9903045
20
79.1302326
40
0.6042348
50
337.4992597
51
341.2439484
0
ARC
8
DEFAULT_255_2_778
10
6.1474682
20
79.0519199
40
0.4292389
50
305.6662935
51
339.1286733
0
ARC
8
DEFAULT_255_2_778
10
6.1781498
20
79.0261353
40
0.3905268
50
268.7956665
51
304.214769
0
ARC
8
DEFAULT_255_2_778
10
6.1634974
20
79.0219012
40
0.3862602
50
235.4684017
51
270.9559546
0
ARC
8
DEFAULT_255_2_778
10
6.2003653
20
79.0622379
40
0.440453
50
201.9504145
51
234.4918175
0
ARC
8
DEFAULT_255_2_778
10
6.4795952
20
79.1797427
40
0.7433791
50
180.1651534
51
202.305681
0
ARC
8
DEFAULT_255_2_778
10
6.7618704
20
79.1991088
40
1.0258767
50
180.5537141
51
181.2013698
0
ARC
8
DEFAULT_255_2_778
10
6.5192383
20
79.2869375
40
0.7833102
50
159.9284254
51
180.9760097
0
ARC
8
DEFAULT_255_2_778
10
6.3535717
20
79.3369669
40
0.6106155
50
157.3521004
51
159.0027375
0
ARC
8
DEFAULT_255_2_778
10
6.2006601
20
79.4141527
40
0.4399467
50
125.9073576
51
158.9610411
0
ARC
8
DEFAULT_255_2_778
10
6.1625183
20
79.4538174
40
0.385526
50
89.0899268
51
124.7731697
0
ARC
8
DEFAULT_255_2_778
10
6.1759259
20
79.4471583
40
0.3922042
50
55.7356159
51
91.0641827
0
ARC
8
DEFAULT_255_2_778
10
6.1465014
20
79.4215622
40
0.4300385
50
20.7890196
51
54.4155663
0
ARC
8
DEFAULT_255_2_778
10
5.8399806
20
79.2956195
40
0.761356
50
0.7344222
51
21.4625838
0
ARC
8
DEFAULT_255_2_778
10
5.5336956
20
79.2737836
40
1.0680459
50
359.9898688
51
1.6951605
0
ARC
8
DEFAULT_255_2_778
10
5.694998
20
79.2874553
40
0.7655419
50
359.0823412
51
14.1192106
0
ARC
8
DEFAULT_255_2_778
10
6.059035
20
79.3777731
40
0.3904721
50
14.2973334
51
33.8183297
0
ARC
8
DEFAULT_255_2_778
10
6.1769739
20
79.4597965
40
0.2468493
50
33.2368233
51
92.0040205
0
ARC
8
DEFAULT_255_2_778
10
6.1616192
20
79.4626009
40
0.2439865
50
88.4211465
51
147.1093257
0
ARC
8
DEFAULT_255_2_778
10
6.3369472
20
79.3465675
40
0.4542268
50
146.8287319
51
173.1129404
0
ARC
8
DEFAULT_255_2_778
10
6.7167014
20
79.2806921
40
0.8393751
50
171.7569824
51
179.6516893
0
ARC
8
DEFAULT_255_2_778
10
6.5920949
20
79.1872138
40
0.7148639
50
178.991591
51
195.9756451
0
ARC
8
DEFAULT_255_2_778
10
6.2927119
20
79.1056814
40
0.4046235
50
196.5442278
51
213.5101694
0
ARC
8
DEFAULT_255_2_778
10
6.1638671
20
79.0128192
40
0.2460071
50
212.044111
51
271.4848301
0
ARC
8
DEFAULT_255_2_778
10
6.1798505
20
79.010609
40
0.2439036
50
267.7421891
51
326.5014572
0
ARC
8
DEFAULT_255_2_778
10
6.014177
20
79.1154066
40
0.4399168
50
327.0285796
51
352.3765953
0
ARC
8
DEFAULT_255_2_778
10
5.5896461
20
79.1921738
40
0.8711038
50
351.0761438
51
359.7514416
0
LINE
8
DEFAULT_255_2_778
10
6.6017417
20
79.2735948
11
6.6017417
21
79.1994948
0
LINE
8
DEFAULT_255_2_778
10
5.7360417
20
79.1891948
11
5.7360417
21
79.2735948
0
LINE
8
DEFAULT_255_2_778
10
6.6017417
20
79.2735948
11
6.6017417
21
79.2735948
0
LINE
8
DEFAULT_255_2_778
10
6.4604417
20
79.1883948
11
6.4604417
21
79.2751948
0
LINE
8
DEFAULT_255_2_778
10
5.8773417
20
79.2857948
11
5.8773417
21
79.1997948
0
LINE
8
DEFAULT_255_2_778
10
6.4607417
20
79.1883948
11
6.4604417
21
79.1883948
0
LINE
8
DEFAULT_255_2_778
10
6.8144511
20
79.8231552
11
6.9978511
21
79.8231552
0
LINE
8
DEFAULT_255_2_778
10
6.9978511
20
79.8231552
11
7.3497511
21
78.8674552
0
LINE
8
DEFAULT_255_2_778
10
7.3497511
20
78.8674552
11
7.7015511
21
79.8231552
0
LINE
8
DEFAULT_255_2_778
10
7.7015511
20
79.8231552
11
7.8857511
21
79.8231552
0
LINE
8
DEFAULT_255_2_778
10
7.8857511
20
79.8231552
11
7.8857511
21
78.6518552
0
LINE
8
DEFAULT_255_2_778
10
7.8857511
20
78.6518552
11
7.7439511
21
78.6518552
0
LINE
8
DEFAULT_255_2_778
10
7.7439511
20
78.6518552
11
7.7439511
21
79.1079552
0
LINE
8
DEFAULT_255_2_778
10
7.7439511
20
79.1079552
11
7.7571511
21
79.6003552
0
LINE
8
DEFAULT_255_2_778
10
7.7571511
20
79.6003552
11
7.4036511
21
78.6518552
0
LINE
8
DEFAULT_255_2_778
10
7.4036511
20
78.6518552
11
7.2949511
21
78.6518552
0
LINE
8
DEFAULT_255_2_778
10
7.2949511
20
78.6518552
11
6.9422511
21
79.5979552
0
LINE
8
DEFAULT_255_2_778
10
6.9422511
20
79.5979552
11
6.9562511
21
79.1079552
0
LINE
8
DEFAULT_255_2_778
10
6.9562511
20
79.1079552
11
6.9562511
21
78.6518552
0
LINE
8
DEFAULT_255_2_778
10
6.9562511
20
78.6518552
11
6.8144511
21
78.6518552
0
LINE
8
DEFAULT_255_2_778
10
6.8144511
20
78.6518552
11
6.8144511
21
79.8231552
0
LINE
8
DEFAULT_255_2_778
10
6.8144511
20
79.8231552
11
6.8144511
21
79.8231552
0
ARC
8
DEFAULT_255_2_778
10
5.0245196
20
81.6873241
40
0.5022327
50
328.9889976
51
355.4399627
0
ARC
8
DEFAULT_255_2_778
10
5.1502595
20
81.6214551
40
0.3606254
50
313.6677831
51
327.6658527
0
ARC
8
DEFAULT_255_2_778
10
5.1393543
20
81.6449179
40
0.3852167
50
269.230867
51
312.4313551
0
ARC
8
DEFAULT_255_2_778
10
5.1172508
20
81.8544373
40
0.5949425
50
269.991498
51
271.6309062
0
ARC
8
DEFAULT_255_2_778
10
5.1067402
20
81.6260124
40
0.3666657
50
216.3866469
51
271.6288267
0
ARC
8
DEFAULT_255_2_778
10
5.2612468
20
81.7412485
40
0.5594113
50
186.8625834
51
216.5004044
0
ARC
8
DEFAULT_255_2_778
10
5.6127216
20
81.803113
40
0.915966
50
179.7759504
51
188.0776926
0
ARC
8
DEFAULT_255_2_778
10
5.4226006
20
81.9328402
40
0.7259626
50
158.8485288
51
181.0612252
0
ARC
8
DEFAULT_255_2_778
10
5.2700495
20
81.9813241
40
0.5662797
50
156.5697959
51
157.8540711
0
ARC
8
DEFAULT_255_2_778
10
5.1470341
20
82.0455358
40
0.4279916
50
124.8670283
51
157.9089339
0
ARC
8
DEFAULT_255_2_778
10
5.1224436
20
82.065617
40
0.3975527
50
88.8874652
51
123.6136267
0
ARC
8
DEFAULT_255_2_778
10
5.1471915
20
82.0933006
40
0.3701861
50
45.8452771
51
92.6366046
0
ARC
8
DEFAULT_255_2_778
10
5.0922604
20
82.062808
40
0.4307117
50
7.3606857
51
43.4274936
0
ARC
8
DEFAULT_255_2_778
10
4.8497853
20
82.0087026
40
0.6784968
50
5.2252945
51
9.2690677
0
ARC
8
DEFAULT_255_2_778
10
4.929981
20
82.0225883
40
0.4554083
50
6.0383724
51
25.7122471
0
ARC
8
DEFAULT_255_2_778
10
5.1444559
20
82.1207571
40
0.2196272
50
26.9128243
51
43.9172913
0
ARC
8
DEFAULT_255_2_778
10
5.1439802
20
82.1051692
40
0.2310392
50
46.6210799
51
93.4287092
0
ARC
8
DEFAULT_255_2_778
10
5.1220937
20
82.0890141
40
0.2469126
50
88.1273033
51
146.2211301
0
ARC
8
DEFAULT_255_2_778
10
5.2748212
20
81.9891192
40
0.4294027
50
146.4724241
51
172.8208473
0
ARC
8
DEFAULT_255_2_778
10
5.6718298
20
81.9198059
40
0.8321818
50
171.5019161
51
180.3381329
0
ARC
8
DEFAULT_255_2_778
10
5.5174632
20
81.7888459
40
0.6779169
50
178.9393444
51
196.7458564
0
ARC
8
DEFAULT_255_2_778
10
5.2468698
20
81.7127839
40
0.3969164
50
197.4862455
51
212.7272696
0
ARC
8
DEFAULT_255_2_778
10
5.1116024
20
81.6167333
40
0.2313205
50
210.8266702
51
271.5259706
0
ARC
8
DEFAULT_255_2_778
10
5.1307729
20
81.6672172
40
0.2820227
50
267.3558672
51
300.8985392
0
ARC
8
DEFAULT_255_2_778
10
5.1724013
20
81.5818021
40
0.1875296
50
303.3869136
51
312.5696495
0
ARC
8
DEFAULT_255_2_778
10
5.1152967
20
81.6240968
40
0.2576592
50
315.5603791
51
346.6826411
0
ARC
8
DEFAULT_255_2_778
10
4.7817386
20
81.7287515
40
0.6068698
50
344.3209987
51
352.2481202
0
LINE
8
DEFAULT_255_2_778
10
5.3825625
20
81.6473948
11
5.5251625
21
81.6473948
0
LINE
8
DEFAULT_255_2_778
10
4.6967625
20
81.8066948
11
4.6967625
21
81.9193948
0
LINE
8
DEFAULT_255_2_778
10
5.5254625
20
82.0704948
11
5.3828625
21
82.0704948
0
LINE
8
DEFAULT_255_2_778
10
4.8396625
20
81.9148948
11
4.8396625
21
81.8013948
0
LINE
8
DEFAULT_255_2_778
10
5.3830625
20
81.6468948
11
5.3825625
21
81.6473948
0
LINE
8
DEFAULT_255_2_778
10
6.5459563
20
82.4469552
11
6.5459563
21
81.2756552
0
LINE
8
DEFAULT_255_2_778
10
6.5459563
20
81.2756552
11
6.4033563
21
81.2756552
0
LINE
8
DEFAULT_255_2_778
10
6.4033563
20
81.2756552
11
6.4033563
21
81.8169552
0
LINE
8
DEFAULT_255_2_778
10
6.4033563
20
81.8169552
11
5.8606563
21
81.8169552
0
LINE
8
DEFAULT_255_2_778
10
5.8606563
20
81.8169552
11
5.8606563
21
81.2756552
0
LINE
8
DEFAULT_255_2_778
10
5.8606563
20
81.2756552
11
5.7188563
21
81.2756552
0
LINE
8
DEFAULT_255_2_778
10
5.7188563
20
81.2756552
11
5.7188563
21
82.4469552
0
LINE
8
DEFAULT_255_2_778
10
5.7188563
20
82.4469552
11
5.8606563
21
82.4469552
0
LINE
8
DEFAULT_255_2_778
10
5.8606563
20
82.4469552
11
5.8606563
21
81.9434552
0
LINE
8
DEFAULT_255_2_778
10
5.8606563
20
81.9434552
11
6.4033563
21
81.9434552
0
LINE
8
DEFAULT_255_2_778
10
6.4033563
20
81.9434552
11
6.4033563
21
82.4469552
0
LINE
8
DEFAULT_255_2_778
10
6.4033563
20
82.4469552
11
6.5459563
21
82.4469552
0
LINE
8
DEFAULT_255_2_778
10
6.5459563
20
82.4469552
11
6.5459563
21
82.4469552
0
ARC
8
DEFAULT_255_2_778
10
7.0723164
20
82.1481345
40
0.2146248
50
267.8380446
51
312.2488673
0
ARC
8
DEFAULT_255_2_778
10
7.0789884
20
82.1252289
40
0.1934665
50
315.3486795
51
2.824549
0
ARC
8
DEFAULT_255_2_778
10
7.0252549
20
82.1472827
40
0.2472821
50
357.097807
51
29.6198864
0
ARC
8
DEFAULT_255_2_778
10
7.1025278
20
82.1726875
40
0.1683231
50
35.1108423
51
94.0367117
0
ARC
8
DEFAULT_255_2_778
10
7.0838511
20
82.0057495
40
0.3349131
50
88.8318927
51
90.0053576
0
ARC
8
DEFAULT_255_2_778
10
7.0750919
20
82.1538361
40
0.1870301
50
87.3252809
51
135.226526
0
ARC
8
DEFAULT_255_2_778
10
7.0906289
20
82.1491044
40
0.2015351
50
137.3830743
51
182.7137443
0
ARC
8
DEFAULT_255_2_778
10
7.0635694
20
82.1484111
40
0.3110755
50
134.37461
51
181.6300188
0
ARC
8
DEFAULT_255_2_778
10
7.0724681
20
82.139089
40
0.3239621
50
88.0450148
51
134.346522
0
ARC
8
DEFAULT_255_2_778
10
7.097676
20
82.1245395
40
0.338619
50
55.4248987
51
92.3959945
0
ARC
8
DEFAULT_255_2_778
10
7.1283346
20
82.1844617
40
0.2720228
50
44.5406109
51
53.579208
0
ARC
8
DEFAULT_255_2_778
10
7.0894089
20
82.1578244
40
0.3185596
50
0.4325273
51
43.0445165
0
ARC
8
DEFAULT_255_2_778
10
6.8788719
20
82.1318551
40
0.5298479
50
359.9683617
51
3.0697403
0
ARC
8
DEFAULT_255_2_778
10
7.1368486
20
82.1342522
40
0.2718845
50
326.3668137
51
359.4331729
0
ARC
8
DEFAULT_255_2_778
10
7.1271363
20
82.1319329
40
0.2787822
50
293.7510906
51
327.8694368
0
ARC
8
DEFAULT_255_2_778
10
7.1584753
20
81.624001
40
0.2654061
50
34.797541
51
72.2428266
0
ARC
8
DEFAULT_255_2_778
10
7.1259836
20
81.6119551
40
0.2990869
50
358.1812092
51
33.1401338
0
ARC
8
DEFAULT_255_2_778
10
7.0874326
20
81.586658
40
0.337857
50
318.4316018
51
2.6812016
0
ARC
8
DEFAULT_255_2_778
10
7.1150914
20
81.5723296
40
0.3077511
50
314.3235011
51
317.0105695
0
ARC
8
DEFAULT_255_2_778
10
7.0978234
20
81.5962179
40
0.3369342
50
267.6690549
51
313.585905
0
ARC
8
DEFAULT_255_2_778
10
7.069667
20
81.6045054
40
0.3452456
50
227.7465193
51
272.3992391
0
ARC
8
DEFAULT_255_2_778
10
7.0508179
20
81.5719284
40
0.308561
50
177.6347751
51
226.2694898
0
ARC
8
DEFAULT_255_2_778
10
7.0793649
20
81.5750666
40
0.199476
50
177.2427048
51
223.8948561
0
ARC
8
DEFAULT_255_2_778
10
7.0746054
20
81.5821894
40
0.2011616
50
226.2973982
51
272.7679629
0
ARC
8
DEFAULT_255_2_778
10
7.097439
20
81.5781941
40
0.1973681
50
266.1886919
51
314.5584849
0
ARC
8
DEFAULT_255_2_778
10
7.0652228
20
81.5812676
40
0.2231336
50
319.9068884
51
2.1138789
0
ARC
8
DEFAULT_255_2_778
10
6.8789072
20
81.5992098
40
0.4094127
50
358.640751
51
0.0073738
0
ARC
8
DEFAULT_255_2_778
10
7.0824585
20
81.612711
40
0.2063002
50
356.2622917
51
44.0553741
0
ARC
8
DEFAULT_255_2_778
10
7.0803005
20
81.582177
40
0.2299933
50
49.1549212
51
90.6677302
0
ARC
8
DEFAULT_255_2_778
10
7.0581222
20
81.3918273
40
0.4207794
50
87.3440923
51
89.1696896
0
LINE
8
DEFAULT_255_2_778
10
6.9616198
20
81.8122625
11
6.9616198
21
81.9336625
0
LINE
8
DEFAULT_255_2_778
10
6.9616198
20
81.9336625
11
7.0642198
21
81.9336625
0
LINE
8
DEFAULT_255_2_778
10
6.8893198
20
82.1395625
11
6.7526198
21
82.1395625
0
LINE
8
DEFAULT_255_2_778
10
6.7425198
20
81.5846625
11
6.8801198
21
81.5846625
0
LINE
8
DEFAULT_255_2_778
10
7.0642198
20
81.8125625
11
6.9616198
21
81.8125625
0
LINE
8
DEFAULT_255_2_778
10
6.9616198
20
81.8125625
11
6.9616198
21
81.8122625
0
ARC
8
DEFAULT_255_2_778
10
5.0793196
20
69.6252241
40
0.5022327
50
328.9889976
51
355.4399627
0
ARC
8
DEFAULT_255_2_778
10
5.2050595
20
69.5593551
40
0.3606254
50
313.6677831
51
327.6658527
0
ARC
8
DEFAULT_255_2_778
10
5.1941543
20
69.5828179
40
0.3852167
50
269.230867
51
312.4313551
0
ARC
8
DEFAULT_255_2_778
10
5.1720508
20
69.7923373
40
0.5949425
50
269.991498
51
271.6309062
0
ARC
8
DEFAULT_255_2_778
10
5.1615402
20
69.5639124
40
0.3666657
50
216.3866469
51
271.6288267
0
ARC
8
DEFAULT_255_2_778
10
5.3160468
20
69.6791485
40
0.5594113
50
186.8625834
51
216.5004044
0
ARC
8
DEFAULT_255_2_778
10
5.6675216
20
69.741013
40
0.915966
50
179.7759504
51
188.0776926
0
ARC
8
DEFAULT_255_2_778
10
5.4774006
20
69.8707402
40
0.7259626
50
158.8485288
51
181.0612252
0
ARC
8
DEFAULT_255_2_778
10
5.3248495
20
69.9192241
40
0.5662797
50
156.5697959
51
157.8540711
0
ARC
8
DEFAULT_255_2_778
10
5.2018341
20
69.9834358
40
0.4279916
50
124.8670283
51
157.9089339
0
ARC
8
DEFAULT_255_2_778
10
5.1772436
20
70.003517
40
0.3975527
50
88.8874652
51
123.6136267
0
ARC
8
DEFAULT_255_2_778
10
5.2019915
20
70.0312006
40
0.3701861
50
45.8452771
51
92.6366046
0
ARC
8
DEFAULT_255_2_778
10
5.1470604
20
70.000708
40
0.4307117
50
7.3606857
51
43.4274936
0
ARC
8
DEFAULT_255_2_778
10
4.9045853
20
69.9466026
40
0.6784968
50
5.2252945
51
9.2690677
0
ARC
8
DEFAULT_255_2_778
10
4.984781
20
69.9604883
40
0.4554083
50
6.0383724
51
25.7122471
0
ARC
8
DEFAULT_255_2_778
10
5.1992559
20
70.0586571
40
0.2196272
50
26.9128243
51
43.9172913
0
ARC
8
DEFAULT_255_2_778
10
5.1987802
20
70.0430692
40
0.2310392
50
46.6210799
51
93.4287092
0
ARC
8
DEFAULT_255_2_778
10
5.1768937
20
70.0269141
40
0.2469126
50
88.1273033
51
146.2211301
0
ARC
8
DEFAULT_255_2_778
10
5.3296212
20
69.9270192
40
0.4294027
50
146.4724241
51
172.8208473
0
ARC
8
DEFAULT_255_2_778
10
5.7266298
20
69.8577059
40
0.8321818
50
171.5019161
51
180.3381329
0
ARC
8
DEFAULT_255_2_778
10
5.5722632
20
69.7267459
40
0.6779169
50
178.9393444
51
196.7458564
0
ARC
8
DEFAULT_255_2_778
10
5.3016698
20
69.6506839
40
0.3969164
50
197.4862455
51
212.7272696
0
ARC
8
DEFAULT_255_2_778
10
5.1664024
20
69.5546333
40
0.2313205
50
210.8266702
51
271.5259706
0
ARC
8
DEFAULT_255_2_778
10
5.1855729
20
69.6051172
40
0.2820227
50
267.3558672
51
300.8985392
0
ARC
8
DEFAULT_255_2_778
10
5.2272013
20
69.5197021
40
0.1875296
50
303.3869136
51
312.5696495
0
ARC
8
DEFAULT_255_2_778
10
5.1700967
20
69.5619968
40
0.2576592
50
315.5603791
51
346.6826411
0
ARC
8
DEFAULT_255_2_778
10
4.8365386
20
69.6666515
40
0.6068698
50
344.3209987
51
352.2481202
0
LINE
8
DEFAULT_255_2_778
10
5.4373625
20
69.5852948
11
5.5799625
21
69.5852948
0
LINE
8
DEFAULT_255_2_778
10
4.7515625
20
69.7445948
11
4.7515625
21
69.8572948
0
LINE
8
DEFAULT_255_2_778
10
5.5802625
20
70.0083948
11
5.4376625
21
70.0083948
0
LINE
8
DEFAULT_255_2_778
10
4.8944625
20
69.8527948
11
4.8944625
21
69.7392948
0
LINE
8
DEFAULT_255_2_778
10
5.4378625
20
69.5847948
11
5.4373625
21
69.5852948
0
ARC
8
DEFAULT_255_2_778
10
5.7848675
20
69.7482718
40
0.8169764
50
342.1352665
51
0.9063419
0
ARC
8
DEFAULT_255_2_778
10
5.9903045
20
69.6919326
40
0.6042348
50
337.4992597
51
341.2439484
0
ARC
8
DEFAULT_255_2_778
10
6.1474682
20
69.6136199
40
0.4292389
50
305.6662935
51
339.1286733
0
ARC
8
DEFAULT_255_2_778
10
6.1781498
20
69.5878353
40
0.3905268
50
268.7956665
51
304.214769
0
ARC
8
DEFAULT_255_2_778
10
6.1634974
20
69.5836012
40
0.3862602
50
235.4684017
51
270.9559546
0
ARC
8
DEFAULT_255_2_778
10
6.2003653
20
69.6239379
40
0.440453
50
201.9504145
51
234.4918175
0
ARC
8
DEFAULT_255_2_778
10
6.4795952
20
69.7414427
40
0.7433791
50
180.1651534
51
202.305681
0
ARC
8
DEFAULT_255_2_778
10
6.7618704
20
69.7608088
40
1.0258767
50
180.5537141
51
181.2013698
0
ARC
8
DEFAULT_255_2_778
10
6.5192383
20
69.8486375
40
0.7833102
50
159.9284254
51
180.9760097
0
ARC
8
DEFAULT_255_2_778
10
6.3535717
20
69.8986669
40
0.6106155
50
157.3521004
51
159.0027375
0
ARC
8
DEFAULT_255_2_778
10
6.2006601
20
69.9758527
40
0.4399467
50
125.9073576
51
158.9610411
0
ARC
8
DEFAULT_255_2_778
10
6.1625183
20
70.0155174
40
0.385526
50
89.0899268
51
124.7731697
0
ARC
8
DEFAULT_255_2_778
10
6.1759259
20
70.0088583
40
0.3922042
50
55.7356159
51
91.0641827
0
ARC
8
DEFAULT_255_2_778
10
6.1465014
20
69.9832622
40
0.4300385
50
20.7890196
51
54.4155663
0
ARC
8
DEFAULT_255_2_778
10
5.8399806
20
69.8573195
40
0.761356
50
0.7344222
51
21.4625838
0
ARC
8
DEFAULT_255_2_778
10
5.5336956
20
69.8354836
40
1.0680459
50
359.9898688
51
1.6951605
0
ARC
8
DEFAULT_255_2_778
10
5.694998
20
69.8491553
40
0.7655419
50
359.0823412
51
14.1192106
0
ARC
8
DEFAULT_255_2_778
10
6.059035
20
69.9394731
40
0.3904721
50
14.2973334
51
33.8183297
0
ARC
8
DEFAULT_255_2_778
10
6.1769739
20
70.0214965
40
0.2468493
50
33.2368233
51
92.0040205
0
ARC
8
DEFAULT_255_2_778
10
6.1616192
20
70.0243009
40
0.2439865
50
88.4211465
51
147.1093257
0
ARC
8
DEFAULT_255_2_778
10
6.3369472
20
69.9082675
40
0.4542268
50
146.8287319
51
173.1129404
0
ARC
8
DEFAULT_255_2_778
10
6.7167014
20
69.8423921
40
0.8393751
50
171.7569824
51
179.6516893
0
ARC
8
DEFAULT_255_2_778
10
6.5920949
20
69.7489138
40
0.7148639
50
178.991591
51
195.9756451
0
ARC
8
DEFAULT_255_2_778
10
6.2927119
20
69.6673814
40
0.4046235
50
196.5442278
51
213.5101694
0
ARC
8
DEFAULT_255_2_778
10
6.1638671
20
69.5745192
40
0.2460071
50
212.044111
51
271.4848301
0
ARC
8
DEFAULT_255_2_778
10
6.1798505
20
69.572309
40
0.2439036
50
267.7421891
51
326.5014572
0
ARC
8
DEFAULT_255_2_778
10
6.014177
20
69.6771066
40
0.4399168
50
327.0285796
51
352.3765953
0
ARC
8
DEFAULT_255_2_778
10
5.5896461
20
69.7538738
40
0.8711038
50
351.0761438
51
359.7514416
0
LINE
8
DEFAULT_255_2_778
10
6.6017417
20
69.8352948
11
6.6017417
21
69.7611948
0
LINE
8
DEFAULT_255_2_778
10
5.7360417
20
69.7508948
11
5.7360417
21
69.8352948
0
LINE
8
DEFAULT_255_2_778
10
6.6017417
20
69.8352948
11
6.6017417
21
69.8352948
0
LINE
8
DEFAULT_255_2_778
10
6.4604417
20
69.7500948
11
6.4604417
21
69.8368948
0
LINE
8
DEFAULT_255_2_778
10
5.8773417
20
69.8474948
11
5.8773417
21
69.7614948
0
LINE
8
DEFAULT_255_2_778
10
6.4607417
20
69.7500948
11
6.4604417
21
69.7500948
0
LINE
8
DEFAULT_255_2_778
10
6.8144511
20
70.3848552
11
6.9978511
21
70.3848552
0
LINE
8
DEFAULT_255_2_778
10
6.9978511
20
70.3848552
11
7.3497511
21
69.4291552
0
LINE
8
DEFAULT_255_2_778
10
7.3497511
20
69.4291552
11
7.7015511
21
70.3848552
0
LINE
8
DEFAULT_255_2_778
10
7.7015511
20
70.3848552
11
7.8857511
21
70.3848552
0
LINE
8
DEFAULT_255_2_778
10
7.8857511
20
70.3848552
11
7.8857511
21
69.2135552
0
LINE
8
DEFAULT_255_2_778
10
7.8857511
20
69.2135552
11
7.7439511
21
69.2135552
0
LINE
8
DEFAULT_255_2_778
10
7.7439511
20
69.2135552
11
7.7439511
21
69.6696552
0
LINE
8
DEFAULT_255_2_778
10
7.7439511
20
69.6696552
11
7.7571511
21
70.1620552
0
LINE
8
DEFAULT_255_2_778
10
7.7571511
20
70.1620552
11
7.4036511
21
69.2135552
0
LINE
8
DEFAULT_255_2_778
10
7.4036511
20
69.2135552
11
7.2949511
21
69.2135552
0
LINE
8
DEFAULT_255_2_778
10
7.2949511
20
69.2135552
11
6.9422511
21
70.1596552
0
LINE
8
DEFAULT_255_2_778
10
6.9422511
20
70.1596552
11
6.9562511
21
69.6696552
0
LINE
8
DEFAULT_255_2_778
10
6.9562511
20
69.6696552
11
6.9562511
21
69.2135552
0
LINE
8
DEFAULT_255_2_778
10
6.9562511
20
69.2135552
11
6.8144511
21
69.2135552
0
LINE
8
DEFAULT_255_2_778
10
6.8144511
20
69.2135552
11
6.8144511
21
70.3848552
0
LINE
8
DEFAULT_255_2_778
10
6.8144511
20
70.3848552
11
6.8144511
21
70.3848552
0
ARC
8
DEFAULT_255_2_778
10
5.0245196
20
72.2491241
40
0.5022327
50
328.9889976
51
355.4399627
0
ARC
8
DEFAULT_255_2_778
10
5.1502595
20
72.1832551
40
0.3606254
50
313.6677831
51
327.6658527
0
ARC
8
DEFAULT_255_2_778
10
5.1393543
20
72.2067179
40
0.3852167
50
269.230867
51
312.4313551
0
ARC
8
DEFAULT_255_2_778
10
5.1172508
20
72.4162373
40
0.5949425
50
269.991498
51
271.6309062
0
ARC
8
DEFAULT_255_2_778
10
5.1067402
20
72.1878124
40
0.3666657
50
216.3866469
51
271.6288267
0
ARC
8
DEFAULT_255_2_778
10
5.2612468
20
72.3030485
40
0.5594113
50
186.8625834
51
216.5004044
0
ARC
8
DEFAULT_255_2_778
10
5.6127216
20
72.364913
40
0.915966
50
179.7759504
51
188.0776926
0
ARC
8
DEFAULT_255_2_778
10
5.4226006
20
72.4946402
40
0.7259626
50
158.8485288
51
181.0612252
0
ARC
8
DEFAULT_255_2_778
10
5.2700495
20
72.5431241
40
0.5662797
50
156.5697959
51
157.8540711
0
ARC
8
DEFAULT_255_2_778
10
5.1470341
20
72.6073358
40
0.4279916
50
124.8670283
51
157.9089339
0
ARC
8
DEFAULT_255_2_778
10
5.1224436
20
72.627417
40
0.3975527
50
88.8874652
51
123.6136267
0
ARC
8
DEFAULT_255_2_778
10
5.1471915
20
72.6551006
40
0.3701861
50
45.8452771
51
92.6366046
0
ARC
8
DEFAULT_255_2_778
10
5.0922604
20
72.624608
40
0.4307117
50
7.3606857
51
43.4274936
0
ARC
8
DEFAULT_255_2_778
10
4.8497853
20
72.5705026
40
0.6784968
50
5.2252945
51
9.2690677
0
ARC
8
DEFAULT_255_2_778
10
4.929981
20
72.5843883
40
0.4554083
50
6.0383724
51
25.7122471
0
ARC
8
DEFAULT_255_2_778
10
5.1444559
20
72.6825571
40
0.2196272
50
26.9128243
51
43.9172913
0
ARC
8
DEFAULT_255_2_778
10
5.1439802
20
72.6669692
40
0.2310392
50
46.6210799
51
93.4287092
0
ARC
8
DEFAULT_255_2_778
10
5.1220937
20
72.6508141
40
0.2469126
50
88.1273033
51
146.2211301
0
ARC
8
DEFAULT_255_2_778
10
5.2748212
20
72.5509192
40
0.4294027
50
146.4724241
51
172.8208473
0
ARC
8
DEFAULT_255_2_778
10
5.6718298
20
72.4816059
40
0.8321818
50
171.5019161
51
180.3381329
0
ARC
8
DEFAULT_255_2_778
10
5.5174632
20
72.3506459
40
0.6779169
50
178.9393444
51
196.7458564
0
ARC
8
DEFAULT_255_2_778
10
5.2468698
20
72.2745839
40
0.3969164
50
197.4862455
51
212.7272696
0
ARC
8
DEFAULT_255_2_778
10
5.1116024
20
72.1785333
40
0.2313205
50
210.8266702
51
271.5259706
0
ARC
8
DEFAULT_255_2_778
10
5.1307729
20
72.2290172
40
0.2820227
50
267.3558672
51
300.8985392
0
ARC
8
DEFAULT_255_2_778
10
5.1724013
20
72.1436021
40
0.1875296
50
303.3869136
51
312.5696495
0
ARC
8
DEFAULT_255_2_778
10
5.1152967
20
72.1858968
40
0.2576592
50
315.5603791
51
346.6826411
0
ARC
8
DEFAULT_255_2_778
10
4.7817386
20
72.2905515
40
0.6068698
50
344.3209987
51
352.2481202
0
LINE
8
DEFAULT_255_2_778
10
5.3825625
20
72.2091948
11
5.5251625
21
72.2091948
0
LINE
8
DEFAULT_255_2_778
10
4.6967625
20
72.3684948
11
4.6967625
21
72.4811948
0
LINE
8
DEFAULT_255_2_778
10
5.5254625
20
72.6322948
11
5.3828625
21
72.6322948
0
LINE
8
DEFAULT_255_2_778
10
4.8396625
20
72.4766948
11
4.8396625
21
72.3631948
0
LINE
8
DEFAULT_255_2_778
10
5.3830625
20
72.2086948
11
5.3825625
21
72.2091948
0
LINE
8
DEFAULT_255_2_778
10
6.5459563
20
73.0087552
11
6.5459563
21
71.8374552
0
LINE
8
DEFAULT_255_2_778
10
6.5459563
20
71.8374552
11
6.4033563
21
71.8374552
0
LINE
8
DEFAULT_255_2_778
10
6.4033563
20
71.8374552
11
6.4033563
21
72.3787552
0
LINE
8
DEFAULT_255_2_778
10
6.4033563
20
72.3787552
11
5.8606563
21
72.3787552
0
LINE
8
DEFAULT_255_2_778
10
5.8606563
20
72.3787552
11
5.8606563
21
71.8374552
0
LINE
8
DEFAULT_255_2_778
10
5.8606563
20
71.8374552
11
5.7188563
21
71.8374552
0
LINE
8
DEFAULT_255_2_778
10
5.7188563
20
71.8374552
11
5.7188563
21
73.0087552
0
LINE
8
DEFAULT_255_2_778
10
5.7188563
20
73.0087552
11
5.8606563
21
73.0087552
0
LINE
8
DEFAULT_255_2_778
10
5.8606563
20
73.0087552
11
5.8606563
21
72.5052552
0
LINE
8
DEFAULT_255_2_778
10
5.8606563
20
72.5052552
11
6.4033563
21
72.5052552
0
LINE
8
DEFAULT_255_2_778
10
6.4033563
20
72.5052552
11
6.4033563
21
73.0087552
0
LINE
8
DEFAULT_255_2_778
10
6.4033563
20
73.0087552
11
6.5459563
21
73.0087552
0
LINE
8
DEFAULT_255_2_778
10
6.5459563
20
73.0087552
11
6.5459563
21
73.0087552
0
LINE
8
DEFAULT_255_2_778
10
7.3399917
20
73.0087552
11
7.3399917
21
72.2308552
0
LINE
8
DEFAULT_255_2_778
10
7.3399917
20
72.2308552
11
7.4891917
21
72.2308552
0
LINE
8
DEFAULT_255_2_778
10
7.4891917
20
72.2308552
11
7.4891917
21
72.1094552
0
LINE
8
DEFAULT_255_2_778
10
7.4891917
20
72.1094552
11
7.3399917
21
72.1094552
0
LINE
8
DEFAULT_255_2_778
10
7.3399917
20
72.1094552
11
7.3399917
21
71.8374552
0
LINE
8
DEFAULT_255_2_778
10
7.3399917
20
71.8374552
11
7.2023917
21
71.8374552
0
LINE
8
DEFAULT_255_2_778
10
7.2023917
20
71.8374552
11
7.2023917
21
72.1094552
0
LINE
8
DEFAULT_255_2_778
10
7.2023917
20
72.1094552
11
6.7123917
21
72.1094552
0
LINE
8
DEFAULT_255_2_778
10
6.7123917
20
72.1094552
11
6.7123917
21
72.1970552
0
LINE
8
DEFAULT_255_2_778
10
6.7123917
20
72.1970552
11
7.1944917
21
73.0087552
0
LINE
8
DEFAULT_255_2_778
10
7.1944917
20
73.0087552
11
7.3399917
21
73.0087552
0
LINE
8
DEFAULT_255_2_778
10
7.3399917
20
73.0087552
11
7.3399917
21
73.0087552
0
LINE
8
DEFAULT_255_2_778
10
7.1862917
20
72.7730552
11
6.8676917
21
72.2308552
0
LINE
8
DEFAULT_255_2_778
10
6.8676917
20
72.2308552
11
7.2026917
21
72.2308552
0
LINE
8
DEFAULT_255_2_778
10
7.2026917
20
72.2308552
11
7.2026917
21
72.8052552
0
LINE
8
DEFAULT_255_2_778
10
7.2026917
20
72.8052552
11
7.1864917
21
72.7730552
0
LINE
8
DEFAULT_255_2_778
10
7.1864917
20
72.7730552
11
7.1862917
21
72.7730552
0
ARC
8
DEFAULT_255_2_778
10
5.0793196
20
60.1870241
40
0.5022327
50
328.9889976
51
355.4399627
0
ARC
8
DEFAULT_255_2_778
10
5.2050595
20
60.1211551
40
0.3606254
50
313.6677831
51
327.6658527
0
ARC
8
DEFAULT_255_2_778
10
5.1941543
20
60.1446179
40
0.3852167
50
269.230867
51
312.4313551
0
ARC
8
DEFAULT_255_2_778
10
5.1720508
20
60.3541373
40
0.5949425
50
269.991498
51
271.6309062
0
ARC
8
DEFAULT_255_2_778
10
5.1615402
20
60.1257124
40
0.3666657
50
216.3866469
51
271.6288267
0
ARC
8
DEFAULT_255_2_778
10
5.3160468
20
60.2409485
40
0.5594113
50
186.8625834
51
216.5004044
0
ARC
8
DEFAULT_255_2_778
10
5.6675216
20
60.302813
40
0.915966
50
179.7759504
51
188.0776926
0
ARC
8
DEFAULT_255_2_778
10
5.4774006
20
60.4325402
40
0.7259626
50
158.8485288
51
181.0612252
0
ARC
8
DEFAULT_255_2_778
10
5.3248495
20
60.4810241
40
0.5662797
50
156.5697959
51
157.8540711
0
ARC
8
DEFAULT_255_2_778
10
5.2018341
20
60.5452358
40
0.4279916
50
124.8670283
51
157.9089339
0
ARC
8
DEFAULT_255_2_778
10
5.1772436
20
60.565317
40
0.3975527
50
88.8874652
51
123.6136267
0
ARC
8
DEFAULT_255_2_778
10
5.2019915
20
60.5930006
40
0.3701861
50
45.8452771
51
92.6366046
0
ARC
8
DEFAULT_255_2_778
10
5.1470604
20
60.562508
40
0.4307117
50
7.3606857
51
43.4274936
0
ARC
8
DEFAULT_255_2_778
10
4.9045853
20
60.5084026
40
0.6784968
50
5.2252945
51
9.2690677
0
ARC
8
DEFAULT_255_2_778
10
4.984781
20
60.5222883
40
0.4554083
50
6.0383724
51
25.7122471
0
ARC
8
DEFAULT_255_2_778
10
5.1992559
20
60.6204571
40
0.2196272
50
26.9128243
51
43.9172913
0
ARC
8
DEFAULT_255_2_778
10
5.1987802
20
60.6048692
40
0.2310392
50
46.6210799
51
93.4287092
0
ARC
8
DEFAULT_255_2_778
10
5.1768937
20
60.5887141
40
0.2469126
50
88.1273033
51
146.2211301
0
ARC
8
DEFAULT_255_2_778
10
5.3296212
20
60.4888192
40
0.4294027
50
146.4724241
51
172.8208473
0
ARC
8
DEFAULT_255_2_778
10
5.7266298
20
60.4195059
40
0.8321818
50
171.5019161
51
180.3381329
0
ARC
8
DEFAULT_255_2_778
10
5.5722632
20
60.2885459
40
0.6779169
50
178.9393444
51
196.7458564
0
ARC
8
DEFAULT_255_2_778
10
5.3016698
20
60.2124839
40
0.3969164
50
197.4862455
51
212.7272696
0
ARC
8
DEFAULT_255_2_778
10
5.1664024
20
60.1164333
40
0.2313205
50
210.8266702
51
271.5259706
0
ARC
8
DEFAULT_255_2_778
10
5.1855729
20
60.1669172
40
0.2820227
50
267.3558672
51
300.8985392
0
ARC
8
DEFAULT_255_2_778
10
5.2272013
20
60.0815021
40
0.1875296
50
303.3869136
51
312.5696495
0
ARC
8
DEFAULT_255_2_778
10
5.1700967
20
60.1237968
40
0.2576592
50
315.5603791
51
346.6826411
0
ARC
8
DEFAULT_255_2_778
10
4.8365386
20
60.2284515
40
0.6068698
50
344.3209987
51
352.2481202
0
LINE
8
DEFAULT_255_2_778
10
5.4373625
20
60.1470948
11
5.5799625
21
60.1470948
0
LINE
8
DEFAULT_255_2_778
10
4.7515625
20
60.3063948
11
4.7515625
21
60.4190948
0
LINE
8
DEFAULT_255_2_778
10
5.5802625
20
60.5701948
11
5.4376625
21
60.5701948
0
LINE
8
DEFAULT_255_2_778
10
4.8944625
20
60.4145948
11
4.8944625
21
60.3010948
0
LINE
8
DEFAULT_255_2_778
10
5.4378625
20
60.1465948
11
5.4373625
21
60.1470948
0
ARC
8
DEFAULT_255_2_778
10
5.7848675
20
60.3100718
40
0.8169764
50
342.1352665
51
0.9063419
0
ARC
8
DEFAULT_255_2_778
10
5.9903045
20
60.2537326
40
0.6042348
50
337.4992597
51
341.2439484
0
ARC
8
DEFAULT_255_2_778
10
6.1474682
20
60.1754199
40
0.4292389
50
305.6662935
51
339.1286733
0
ARC
8
DEFAULT_255_2_778
10
6.1781498
20
60.1496353
40
0.3905268
50
268.7956665
51
304.214769
0
ARC
8
DEFAULT_255_2_778
10
6.1634974
20
60.1454012
40
0.3862602
50
235.4684017
51
270.9559546
0
ARC
8
DEFAULT_255_2_778
10
6.2003653
20
60.1857379
40
0.440453
50
201.9504145
51
234.4918175
0
ARC
8
DEFAULT_255_2_778
10
6.4795952
20
60.3032427
40
0.7433791
50
180.1651534
51
202.305681
0
ARC
8
DEFAULT_255_2_778
10
6.7618704
20
60.3226088
40
1.0258767
50
180.5537141
51
181.2013698
0
ARC
8
DEFAULT_255_2_778
10
6.5192383
20
60.4104375
40
0.7833102
50
159.9284254
51
180.9760097
0
ARC
8
DEFAULT_255_2_778
10
6.3535717
20
60.4604669
40
0.6106155
50
157.3521004
51
159.0027375
0
ARC
8
DEFAULT_255_2_778
10
6.2006601
20
60.5376527
40
0.4399467
50
125.9073576
51
158.9610411
0
ARC
8
DEFAULT_255_2_778
10
6.1625183
20
60.5773174
40
0.385526
50
89.0899268
51
124.7731697
0
ARC
8
DEFAULT_255_2_778
10
6.1759259
20
60.5706583
40
0.3922042
50
55.7356159
51
91.0641827
0
ARC
8
DEFAULT_255_2_778
10
6.1465014
20
60.5450622
40
0.4300385
50
20.7890196
51
54.4155663
0
ARC
8
DEFAULT_255_2_778
10
5.8399806
20
60.4191195
40
0.761356
50
0.7344222
51
21.4625838
0
ARC
8
DEFAULT_255_2_778
10
5.5336956
20
60.3972836
40
1.0680459
50
359.9898688
51
1.6951605
0
ARC
8
DEFAULT_255_2_778
10
5.694998
20
60.4109553
40
0.7655419
50
359.0823412
51
14.1192106
0
ARC
8
DEFAULT_255_2_778
10
6.059035
20
60.5012731
40
0.3904721
50
14.2973334
51
33.8183297
0
ARC
8
DEFAULT_255_2_778
10
6.1769739
20
60.5832965
40
0.2468493
50
33.2368233
51
92.0040205
0
ARC
8
DEFAULT_255_2_778
10
6.1616192
20
60.5861009
40
0.2439865
50
88.4211465
51
147.1093257
0
ARC
8
DEFAULT_255_2_778
10
6.3369472
20
60.4700675
40
0.4542268
50
146.8287319
51
173.1129404
0
ARC
8
DEFAULT_255_2_778
10
6.7167014
20
60.4041921
40
0.8393751
50
171.7569824
51
179.6516893
0
ARC
8
DEFAULT_255_2_778
10
6.5920949
20
60.3107138
40
0.7148639
50
178.991591
51
195.9756451
0
ARC
8
DEFAULT_255_2_778
10
6.2927119
20
60.2291814
40
0.4046235
50
196.5442278
51
213.5101694
0
ARC
8
DEFAULT_255_2_778
10
6.1638671
20
60.1363192
40
0.2460071
50
212.044111
51
271.4848301
0
ARC
8
DEFAULT_255_2_778
10
6.1798505
20
60.134109
40
0.2439036
50
267.7421891
51
326.5014572
0
ARC
8
DEFAULT_255_2_778
10
6.014177
20
60.2389066
40
0.4399168
50
327.0285796
51
352.3765953
0
ARC
8
DEFAULT_255_2_778
10
5.5896461
20
60.3156738
40
0.8711038
50
351.0761438
51
359.7514416
0
LINE
8
DEFAULT_255_2_778
10
6.6017417
20
60.3970948
11
6.6017417
21
60.3229948
0
LINE
8
DEFAULT_255_2_778
10
5.7360417
20
60.3126948
11
5.7360417
21
60.3970948
0
LINE
8
DEFAULT_255_2_778
10
6.6017417
20
60.3970948
11
6.6017417
21
60.3970948
0
LINE
8
DEFAULT_255_2_778
10
6.4604417
20
60.3118948
11
6.4604417
21
60.3986948
0
LINE
8
DEFAULT_255_2_778
10
5.8773417
20
60.4092948
11
5.8773417
21
60.3232948
0
LINE
8
DEFAULT_255_2_778
10
6.4607417
20
60.3118948
11
6.4604417
21
60.3118948
0
LINE
8
DEFAULT_255_2_778
10
6.8144511
20
60.9466552
11
6.9978511
21
60.9466552
0
LINE
8
DEFAULT_255_2_778
10
6.9978511
20
60.9466552
11
7.3497511
21
59.9909552
0
LINE
8
DEFAULT_255_2_778
10
7.3497511
20
59.9909552
11
7.7015511
21
60.9466552
0
LINE
8
DEFAULT_255_2_778
10
7.7015511
20
60.9466552
11
7.8857511
21
60.9466552
0
LINE
8
DEFAULT_255_2_778
10
7.8857511
20
60.9466552
11
7.8857511
21
59.7753552
0
LINE
8
DEFAULT_255_2_778
10
7.8857511
20
59.7753552
11
7.7439511
21
59.7753552
0
LINE
8
DEFAULT_255_2_778
10
7.7439511
20
59.7753552
11
7.7439511
21
60.2314552
0
LINE
8
DEFAULT_255_2_778
10
7.7439511
20
60.2314552
11
7.7571511
21
60.7238552
0
LINE
8
DEFAULT_255_2_778
10
7.7571511
20
60.7238552
11
7.4036511
21
59.7753552
0
LINE
8
DEFAULT_255_2_778
10
7.4036511
20
59.7753552
11
7.2949511
21
59.7753552
0
LINE
8
DEFAULT_255_2_778
10
7.2949511
20
59.7753552
11
6.9422511
21
60.7214552
0
LINE
8
DEFAULT_255_2_778
10
6.9422511
20
60.7214552
11
6.9562511
21
60.2314552
0
LINE
8
DEFAULT_255_2_778
10
6.9562511
20
60.2314552
11
6.9562511
21
59.7753552
0
LINE
8
DEFAULT_255_2_778
10
6.9562511
20
59.7753552
11
6.8144511
21
59.7753552
0
LINE
8
DEFAULT_255_2_778
10
6.8144511
20
59.7753552
11
6.8144511
21
60.9466552
0
LINE
8
DEFAULT_255_2_778
10
6.8144511
20
60.9466552
11
6.8144511
21
60.9466552
0
ARC
8
DEFAULT_255_2_778
10
5.0245196
20
62.8109241
40
0.5022327
50
328.9889976
51
355.4399627
0
ARC
8
DEFAULT_255_2_778
10
5.1502595
20
62.7450551
40
0.3606254
50
313.6677831
51
327.6658527
0
ARC
8
DEFAULT_255_2_778
10
5.1393543
20
62.7685179
40
0.3852167
50
269.230867
51
312.4313551
0
ARC
8
DEFAULT_255_2_778
10
5.1172508
20
62.9780373
40
0.5949425
50
269.991498
51
271.6309062
0
ARC
8
DEFAULT_255_2_778
10
5.1067402
20
62.7496124
40
0.3666657
50
216.3866469
51
271.6288267
0
ARC
8
DEFAULT_255_2_778
10
5.2612468
20
62.8648485
40
0.5594113
50
186.8625834
51
216.5004044
0
ARC
8
DEFAULT_255_2_778
10
5.6127216
20
62.926713
40
0.915966
50
179.7759504
51
188.0776926
0
ARC
8
DEFAULT_255_2_778
10
5.4226006
20
63.0564402
40
0.7259626
50
158.8485288
51
181.0612252
0
ARC
8
DEFAULT_255_2_778
10
5.2700495
20
63.1049241
40
0.5662797
50
156.5697959
51
157.8540711
0
ARC
8
DEFAULT_255_2_778
10
5.1470341
20
63.1691358
40
0.4279916
50
124.8670283
51
157.9089339
0
ARC
8
DEFAULT_255_2_778
10
5.1224436
20
63.189217
40
0.3975527
50
88.8874652
51
123.6136267
0
ARC
8
DEFAULT_255_2_778
10
5.1471915
20
63.2169006
40
0.3701861
50
45.8452771
51
92.6366046
0
ARC
8
DEFAULT_255_2_778
10
5.0922604
20
63.186408
40
0.4307117
50
7.3606857
51
43.4274936
0
ARC
8
DEFAULT_255_2_778
10
4.8497853
20
63.1323026
40
0.6784968
50
5.2252945
51
9.2690677
0
ARC
8
DEFAULT_255_2_778
10
4.929981
20
63.1461883
40
0.4554083
50
6.0383724
51
25.7122471
0
ARC
8
DEFAULT_255_2_778
10
5.1444559
20
63.2443571
40
0.2196272
50
26.9128243
51
43.9172913
0
ARC
8
DEFAULT_255_2_778
10
5.1439802
20
63.2287692
40
0.2310392
50
46.6210799
51
93.4287092
0
ARC
8
DEFAULT_255_2_778
10
5.1220937
20
63.2126141
40
0.2469126
50
88.1273033
51
146.2211301
0
ARC
8
DEFAULT_255_2_778
10
5.2748212
20
63.1127192
40
0.4294027
50
146.4724241
51
172.8208473
0
ARC
8
DEFAULT_255_2_778
10
5.6718298
20
63.0434059
40
0.8321818
50
171.5019161
51
180.3381329
0
ARC
8
DEFAULT_255_2_778
10
5.5174632
20
62.9124459
40
0.6779169
50
178.9393444
51
196.7458564
0
ARC
8
DEFAULT_255_2_778
10
5.2468698
20
62.8363839
40
0.3969164
50
197.4862455
51
212.7272696
0
ARC
8
DEFAULT_255_2_778
10
5.1116024
20
62.7403333
40
0.2313205
50
210.8266702
51
271.5259706
0
ARC
8
DEFAULT_255_2_778
10
5.1307729
20
62.7908172
40
0.2820227
50
267.3558672
51
300.8985392
0
ARC
8
DEFAULT_255_2_778
10
5.1724013
20
62.7054021
40
0.1875296
50
303.3869136
51
312.5696495
0
ARC
8
DEFAULT_255_2_778
10
5.1152967
20
62.7476968
40
0.2576592
50
315.5603791
51
346.6826411
0
ARC
8
DEFAULT_255_2_778
10
4.7817386
20
62.8523515
40
0.6068698
50
344.3209987
51
352.2481202
0
LINE
8
DEFAULT_255_2_778
10
5.3825625
20
62.7709948
11
5.5251625
21
62.7709948
0
LINE
8
DEFAULT_255_2_778
10
4.6967625
20
62.9302948
11
4.6967625
21
63.0429948
0
LINE
8
DEFAULT_255_2_778
10
5.5254625
20
63.1940948
11
5.3828625
21
63.1940948
0
LINE
8
DEFAULT_255_2_778
10
4.8396625
20
63.0384948
11
4.8396625
21
62.9249948
0
LINE
8
DEFAULT_255_2_778
10
5.3830625
20
62.7704948
11
5.3825625
21
62.7709948
0
LINE
8
DEFAULT_255_2_778
10
6.5459563
20
63.5705552
11
6.5459563
21
62.3992552
0
LINE
8
DEFAULT_255_2_778
10
6.5459563
20
62.3992552
11
6.4033563
21
62.3992552
0
LINE
8
DEFAULT_255_2_778
10
6.4033563
20
62.3992552
11
6.4033563
21
62.9405552
0
LINE
8
DEFAULT_255_2_778
10
6.4033563
20
62.9405552
11
5.8606563
21
62.9405552
0
LINE
8
DEFAULT_255_2_778
10
5.8606563
20
62.9405552
11
5.8606563
21
62.3992552
0
LINE
8
DEFAULT_255_2_778
10
5.8606563
20
62.3992552
11
5.7188563
21
62.3992552
0
LINE
8
DEFAULT_255_2_778
10
5.7188563
20
62.3992552
11
5.7188563
21
63.5705552
0
LINE
8
DEFAULT_255_2_778
10
5.7188563
20
63.5705552
11
5.8606563
21
63.5705552
0
LINE
8
DEFAULT_255_2_778
10
5.8606563
20
63.5705552
11
5.8606563
21
63.0670552
0
LINE
8
DEFAULT_255_2_778
10
5.8606563
20
63.0670552
11
6.4033563
21
63.0670552
0
LINE
8
DEFAULT_255_2_778
10
6.4033563
20
63.0670552
11
6.4033563
21
63.5705552
0
LINE
8
DEFAULT_255_2_778
10
6.4033563
20
63.5705552
11
6.5459563
21
63.5705552
0
LINE
8
DEFAULT_255_2_778
10
6.5459563
20
63.5705552
11
6.5459563
21
63.5705552
0
ARC
8
DEFAULT_255_2_778
10
7.1380315
20
62.8393298
40
0.3251342
50
89.1133972
51
122.4737969
0
ARC
8
DEFAULT_255_2_778
10
7.1543521
20
62.8785244
40
0.2861234
50
38.9838417
51
92.2613141
0
ARC
8
DEFAULT_255_2_778
10
7.0576505
20
62.8115982
40
0.4034914
50
3.3081621
51
37.7324724
0
ARC
8
DEFAULT_255_2_778
10
6.7907809
20
62.7736476
40
0.6724824
50
359.9043551
51
5.2244491
0
ARC
8
DEFAULT_255_2_778
10
6.9726731
20
62.7595717
40
0.4907604
50
336.5119056
51
1.512456
0
ARC
8
DEFAULT_255_2_778
10
7.1223339
20
62.7027299
40
0.3309306
50
319.3900229
51
335.210425
0
ARC
8
DEFAULT_255_2_778
10
7.1397269
20
62.6961705
40
0.3135213
50
266.8433566
51
318.2310129
0
ARC
8
DEFAULT_255_2_778
10
7.109575
20
62.706607
40
0.3237386
50
227.2118047
51
272.2814601
0
ARC
8
DEFAULT_255_2_778
10
7.1375411
20
62.7162791
40
0.350112
50
183.4130938
51
224.9277343
0
ARC
8
DEFAULT_255_2_778
10
7.3329259
20
62.7516455
40
0.5477675
50
184.6514411
51
185.8898799
0
ARC
8
DEFAULT_255_2_778
10
7.1661551
20
62.7248166
40
0.2504113
50
184.0283932
51
220.498115
0
ARC
8
DEFAULT_255_2_778
10
7.1005157
20
62.6796528
40
0.1713672
50
223.2688962
51
226.3653442
0
ARC
8
DEFAULT_255_2_778
10
7.1137383
20
62.6984159
40
0.1941009
50
227.3624599
51
272.6647786
0
ARC
8
DEFAULT_255_2_778
10
7.1299495
20
62.6828403
40
0.1784601
50
267.6919467
51
322.993824
0
ARC
8
DEFAULT_255_2_778
10
7.0318602
20
62.744346
40
0.2939792
50
324.9282449
51
359.2726356
0
ARC
8
DEFAULT_255_2_778
10
6.7981561
20
62.770526
40
0.5285067
50
356.7554851
51
0.0432488
0
ARC
8
DEFAULT_255_2_778
10
7.0393812
20
62.7850793
40
0.2876297
50
357.179322
51
37.2220038
0
ARC
8
DEFAULT_255_2_778
10
7.0379685
20
62.7702083
40
0.297953
50
39.3352915
51
39.473918
0
ARC
8
DEFAULT_255_2_778
10
7.1184145
20
62.8384999
40
0.1924471
50
39.0054347
51
92.0404306
0
ARC
8
DEFAULT_255_2_778
10
7.0992952
20
62.8182911
40
0.2128876
50
86.6965826
51
127.0383232
0
LINE
8
DEFAULT_255_2_778
10
6.9348625
20
62.955925
11
6.8253625
21
62.986625
0
LINE
8
DEFAULT_255_2_778
10
6.8253625
20
62.986625
11
6.8800625
21
63.570525
0
LINE
8
DEFAULT_255_2_778
10
6.8800625
20
63.570525
11
7.4314625
21
63.570525
0
LINE
8
DEFAULT_255_2_778
10
7.4314625
20
63.570525
11
7.4314625
21
63.432925
0
LINE
8
DEFAULT_255_2_778
10
7.4314625
20
63.432925
11
6.9959625
21
63.432925
0
LINE
8
DEFAULT_255_2_778
10
6.9959625
20
63.432925
11
6.9634625
21
63.113625
0
LINE
8
DEFAULT_255_2_778
10
6.7869625
20
62.707225
11
6.9163625
21
62.707225
0
LINE
8
DEFAULT_255_2_778
10
6.9710625
20
62.988225
11
6.9348625
21
62.955925
0
LINE
8
DEFAULT_255_2_778
10
6.9348625
20
62.955925
11
6.9348625
21
62.955925
0
ARC
8
DEFAULT_255_2_778
10
5.0793196
20
50.7488241
40
0.5022327
50
328.9889976
51
355.4399627
0
ARC
8
DEFAULT_255_2_778
10
5.2050595
20
50.6829551
40
0.3606254
50
313.6677831
51
327.6658527
0
ARC
8
DEFAULT_255_2_778
10
5.1941543
20
50.7064179
40
0.3852167
50
269.230867
51
312.4313551
0
ARC
8
DEFAULT_255_2_778
10
5.1720508
20
50.9159373
40
0.5949425
50
269.991498
51
271.6309062
0
ARC
8
DEFAULT_255_2_778
10
5.1615402
20
50.6875124
40
0.3666657
50
216.3866469
51
271.6288267
0
ARC
8
DEFAULT_255_2_778
10
5.3160468
20
50.8027485
40
0.5594113
50
186.8625834
51
216.5004044
0
ARC
8
DEFAULT_255_2_778
10
5.6675216
20
50.864613
40
0.915966
50
179.7759504
51
188.0776926
0
ARC
8
DEFAULT_255_2_778
10
5.4774006
20
50.9943402
40
0.7259626
50
158.8485288
51
181.0612252
0
ARC
8
DEFAULT_255_2_778
10
5.3248495
20
51.0428241
40
0.5662797
50
156.5697959
51
157.8540711
0
ARC
8
DEFAULT_255_2_778
10
5.2018341
20
51.1070358
40
0.4279916
50
124.8670283
51
157.9089339
0
ARC
8
DEFAULT_255_2_778
10
5.1772436
20
51.127117
40
0.3975527
50
88.8874652
51
123.6136267
0
ARC
8
DEFAULT_255_2_778
10
5.2019915
20
51.1548006
40
0.3701861
50
45.8452771
51
92.6366046
0
ARC
8
DEFAULT_255_2_778
10
5.1470604
20
51.124308
40
0.4307117
50
7.3606857
51
43.4274936
0
ARC
8
DEFAULT_255_2_778
10
4.9045853
20
51.0702026
40
0.6784968
50
5.2252945
51
9.2690677
0
ARC
8
DEFAULT_255_2_778
10
4.984781
20
51.0840883
40
0.4554083
50
6.0383724
51
25.7122471
0
ARC
8
DEFAULT_255_2_778
10
5.1992559
20
51.1822571
40
0.2196272
50
26.9128243
51
43.9172913
0
ARC
8
DEFAULT_255_2_778
10
5.1987802
20
51.1666692
40
0.2310392
50
46.6210799
51
93.4287092
0
ARC
8
DEFAULT_255_2_778
10
5.1768937
20
51.1505141
40
0.2469126
50
88.1273033
51
146.2211301
0
ARC
8
DEFAULT_255_2_778
10
5.3296212
20
51.0506192
40
0.4294027
50
146.4724241
51
172.8208473
0
ARC
8
DEFAULT_255_2_778
10
5.7266298
20
50.9813059
40
0.8321818
50
171.5019161
51
180.3381329
0
ARC
8
DEFAULT_255_2_778
10
5.5722632
20
50.8503459
40
0.6779169
50
178.9393444
51
196.7458564
0
ARC
8
DEFAULT_255_2_778
10
5.3016698
20
50.7742839
40
0.3969164
50
197.4862455
51
212.7272696
0
ARC
8
DEFAULT_255_2_778
10
5.1664024
20
50.6782333
40
0.2313205
50
210.8266702
51
271.5259706
0
ARC
8
DEFAULT_255_2_778
10
5.1855729
20
50.7287172
40
0.2820227
50
267.3558672
51
300.8985392
0
ARC
8
DEFAULT_255_2_778
10
5.2272013
20
50.6433021
40
0.1875296
50
303.3869136
51
312.5696495
0
ARC
8
DEFAULT_255_2_778
10
5.1700967
20
50.6855968
40
0.2576592
50
315.5603791
51
346.6826411
0
ARC
8
DEFAULT_255_2_778
10
4.8365386
20
50.7902515
40
0.6068698
50
344.3209987
51
352.2481202
0
LINE
8
DEFAULT_255_2_778
10
5.4373625
20
50.7088948
11
5.5799625
21
50.7088948
0
LINE
8
DEFAULT_255_2_778
10
4.7515625
20
50.8681948
11
4.7515625
21
50.9808948
0
LINE
8
DEFAULT_255_2_778
10
5.5802625
20
51.1319948
11
5.4376625
21
51.1319948
0
LINE
8
DEFAULT_255_2_778
10
4.8944625
20
50.9763948
11
4.8944625
21
50.8628948
0
LINE
8
DEFAULT_255_2_778
10
5.4378625
20
50.7083948
11
5.4373625
21
50.7088948
0
ARC
8
DEFAULT_255_2_778
10
5.7848675
20
50.8718718
40
0.8169764
50
342.1352665
51
0.9063419
0
ARC
8
DEFAULT_255_2_778
10
5.9903045
20
50.8155326
40
0.6042348
50
337.4992597
51
341.2439484
0
ARC
8
DEFAULT_255_2_778
10
6.1474682
20
50.7372199
40
0.4292389
50
305.6662935
51
339.1286733
0
ARC
8
DEFAULT_255_2_778
10
6.1781498
20
50.7114353
40
0.3905268
50
268.7956665
51
304.214769
0
ARC
8
DEFAULT_255_2_778
10
6.1634974
20
50.7072012
40
0.3862602
50
235.4684017
51
270.9559546
0
ARC
8
DEFAULT_255_2_778
10
6.2003653
20
50.7475379
40
0.440453
50
201.9504145
51
234.4918175
0
ARC
8
DEFAULT_255_2_778
10
6.4795952
20
50.8650427
40
0.7433791
50
180.1651534
51
202.305681
0
ARC
8
DEFAULT_255_2_778
10
6.7618704
20
50.8844088
40
1.0258767
50
180.5537141
51
181.2013698
0
ARC
8
DEFAULT_255_2_778
10
6.5192383
20
50.9722375
40
0.7833102
50
159.9284254
51
180.9760097
0
ARC
8
DEFAULT_255_2_778
10
6.3535717
20
51.0222669
40
0.6106155
50
157.3521004
51
159.0027375
0
ARC
8
DEFAULT_255_2_778
10
6.2006601
20
51.0994527
40
0.4399467
50
125.9073576
51
158.9610411
0
ARC
8
DEFAULT_255_2_778
10
6.1625183
20
51.1391174
40
0.385526
50
89.0899268
51
124.7731697
0
ARC
8
DEFAULT_255_2_778
10
6.1759259
20
51.1324583
40
0.3922042
50
55.7356159
51
91.0641827
0
ARC
8
DEFAULT_255_2_778
10
6.1465014
20
51.1068622
40
0.4300385
50
20.7890196
51
54.4155663
0
ARC
8
DEFAULT_255_2_778
10
5.8399806
20
50.9809195
40
0.761356
50
0.7344222
51
21.4625838
0
ARC
8
DEFAULT_255_2_778
10
5.5336956
20
50.9590836
40
1.0680459
50
359.9898688
51
1.6951605
0
ARC
8
DEFAULT_255_2_778
10
5.694998
20
50.9727553
40
0.7655419
50
359.0823412
51
14.1192106
0
ARC
8
DEFAULT_255_2_778
10
6.059035
20
51.0630731
40
0.3904721
50
14.2973334
51
33.8183297
0
ARC
8
DEFAULT_255_2_778
10
6.1769739
20
51.1450965
40
0.2468493
50
33.2368233
51
92.0040205
0
ARC
8
DEFAULT_255_2_778
10
6.1616192
20
51.1479009
40
0.2439865
50
88.4211465
51
147.1093257
0
ARC
8
DEFAULT_255_2_778
10
6.3369472
20
51.0318675
40
0.4542268
50
146.8287319
51
173.1129404
0
ARC
8
DEFAULT_255_2_778
10
6.7167014
20
50.9659921
40
0.8393751
50
171.7569824
51
179.6516893
0
ARC
8
DEFAULT_255_2_778
10
6.5920949
20
50.8725138
40
0.7148639
50
178.991591
51
195.9756451
0
ARC
8
DEFAULT_255_2_778
10
6.2927119
20
50.7909814
40
0.4046235
50
196.5442278
51
213.5101694
0
ARC
8
DEFAULT_255_2_778
10
6.1638671
20
50.6981192
40
0.2460071
50
212.044111
51
271.4848301
0
ARC
8
DEFAULT_255_2_778
10
6.1798505
20
50.695909
40
0.2439036
50
267.7421891
51
326.5014572
0
ARC
8
DEFAULT_255_2_778
10
6.014177
20
50.8007066
40
0.4399168
50
327.0285796
51
352.3765953
0
ARC
8
DEFAULT_255_2_778
10
5.5896461
20
50.8774738
40
0.8711038
50
351.0761438
51
359.7514416
0
LINE
8
DEFAULT_255_2_778
10
6.6017417
20
50.9588948
11
6.6017417
21
50.8847948
0
LINE
8
DEFAULT_255_2_778
10
5.7360417
20
50.8744948
11
5.7360417
21
50.9588948
0
LINE
8
DEFAULT_255_2_778
10
6.6017417
20
50.9588948
11
6.6017417
21
50.9588948
0
LINE
8
DEFAULT_255_2_778
10
6.4604417
20
50.8736948
11
6.4604417
21
50.9604948
0
LINE
8
DEFAULT_255_2_778
10
5.8773417
20
50.9710948
11
5.8773417
21
50.8850948
0
LINE
8
DEFAULT_255_2_778
10
6.4607417
20
50.8736948
11
6.4604417
21
50.8736948
0
LINE
8
DEFAULT_255_2_778
10
6.8144511
20
51.5084552
11
6.9978511
21
51.5084552
0
LINE
8
DEFAULT_255_2_778
10
6.9978511
20
51.5084552
11
7.3497511
21
50.5527552
0
LINE
8
DEFAULT_255_2_778
10
7.3497511
20
50.5527552
11
7.7015511
21
51.5084552
0
LINE
8
DEFAULT_255_2_778
10
7.7015511
20
51.5084552
11
7.8857511
21
51.5084552
0
LINE
8
DEFAULT_255_2_778
10
7.8857511
20
51.5084552
11
7.8857511
21
50.3371552
0
LINE
8
DEFAULT_255_2_778
10
7.8857511
20
50.3371552
11
7.7439511
21
50.3371552
0
LINE
8
DEFAULT_255_2_778
10
7.7439511
20
50.3371552
11
7.7439511
21
50.7932552
0
LINE
8
DEFAULT_255_2_778
10
7.7439511
20
50.7932552
11
7.7571511
21
51.2856552
0
LINE
8
DEFAULT_255_2_778
10
7.7571511
20
51.2856552
11
7.4036511
21
50.3371552
0
LINE
8
DEFAULT_255_2_778
10
7.4036511
20
50.3371552
11
7.2949511
21
50.3371552
0
LINE
8
DEFAULT_255_2_778
10
7.2949511
20
50.3371552
11
6.9422511
21
51.2832552
0
LINE
8
DEFAULT_255_2_778
10
6.9422511
20
51.2832552
11
6.9562511
21
50.7932552
0
LINE
8
DEFAULT_255_2_778
10
6.9562511
20
50.7932552
11
6.9562511
21
50.3371552
0
LINE
8
DEFAULT_255_2_778
10
6.9562511
20
50.3371552
11
6.8144511
21
50.3371552
0
LINE
8
DEFAULT_255_2_778
10
6.8144511
20
50.3371552
11
6.8144511
21
51.5084552
0
LINE
8
DEFAULT_255_2_778
10
6.8144511
20
51.5084552
11
6.8144511
21
51.5084552
0
ARC
8
DEFAULT_255_2_778
10
5.0245196
20
53.3727241
40
0.5022327
50
328.9889976
51
355.4399627
0
ARC
8
DEFAULT_255_2_778
10
5.1502595
20
53.3068551
40
0.3606254
50
313.6677831
51
327.6658527
0
ARC
8
DEFAULT_255_2_778
10
5.1393543
20
53.3303179
40
0.3852167
50
269.230867
51
312.4313551
0
ARC
8
DEFAULT_255_2_778
10
5.1172508
20
53.5398373
40
0.5949425
50
269.991498
51
271.6309062
0
ARC
8
DEFAULT_255_2_778
10
5.1067402
20
53.3114124
40
0.3666657
50
216.3866469
51
271.6288267
0
ARC
8
DEFAULT_255_2_778
10
5.2612468
20
53.4266485
40
0.5594113
50
186.8625834
51
216.5004044
0
ARC
8
DEFAULT_255_2_778
10
5.6127216
20
53.488513
40
0.915966
50
179.7759504
51
188.0776926
0
ARC
8
DEFAULT_255_2_778
10
5.4226006
20
53.6182402
40
0.7259626
50
158.8485288
51
181.0612252
0
ARC
8
DEFAULT_255_2_778
10
5.2700495
20
53.6667241
40
0.5662797
50
156.5697959
51
157.8540711
0
ARC
8
DEFAULT_255_2_778
10
5.1470341
20
53.7309358
40
0.4279916
50
124.8670283
51
157.9089339
0
ARC
8
DEFAULT_255_2_778
10
5.1224436
20
53.751017
40
0.3975527
50
88.8874652
51
123.6136267
0
ARC
8
DEFAULT_255_2_778
10
5.1471915
20
53.7787006
40
0.3701861
50
45.8452771
51
92.6366046
0
ARC
8
DEFAULT_255_2_778
10
5.0922604
20
53.748208
40
0.4307117
50
7.3606857
51
43.4274936
0
ARC
8
DEFAULT_255_2_778
10
4.8497853
20
53.6941026
40
0.6784968
50
5.2252945
51
9.2690677
0
ARC
8
DEFAULT_255_2_778
10
4.929981
20
53.7079883
40
0.4554083
50
6.0383724
51
25.7122471
0
ARC
8
DEFAULT_255_2_778
10
5.1444559
20
53.8061571
40
0.2196272
50
26.9128243
51
43.9172913
0
ARC
8
DEFAULT_255_2_778
10
5.1439802
20
53.7905692
40
0.2310392
50
46.6210799
51
93.4287092
0
ARC
8
DEFAULT_255_2_778
10
5.1220937
20
53.7744141
40
0.2469126
50
88.1273033
51
146.2211301
0
ARC
8
DEFAULT_255_2_778
10
5.2748212
20
53.6745192
40
0.4294027
50
146.4724241
51
172.8208473
0
ARC
8
DEFAULT_255_2_778
10
5.6718298
20
53.6052059
40
0.8321818
50
171.5019161
51
180.3381329
0
ARC
8
DEFAULT_255_2_778
10
5.5174632
20
53.4742459
40
0.6779169
50
178.9393444
51
196.7458564
0
ARC
8
DEFAULT_255_2_778
10
5.2468698
20
53.3981839
40
0.3969164
50
197.4862455
51
212.7272696
0
ARC
8
DEFAULT_255_2_778
10
5.1116024
20
53.3021333
40
0.2313205
50
210.8266702
51
271.5259706
0
ARC
8
DEFAULT_255_2_778
10
5.1307729
20
53.3526172
40
0.2820227
50
267.3558672
51
300.8985392
0
ARC
8
DEFAULT_255_2_778
10
5.1724013
20
53.2672021
40
0.1875296
50
303.3869136
51
312.5696495
0
ARC
8
DEFAULT_255_2_778
10
5.1152967
20
53.3094968
40
0.2576592
50
315.5603791
51
346.6826411
0
ARC
8
DEFAULT_255_2_778
10
4.7817386
20
53.4141515
40
0.6068698
50
344.3209987
51
352.2481202
0
LINE
8
DEFAULT_255_2_778
10
5.3825625
20
53.3327948
11
5.5251625
21
53.3327948
0
LINE
8
DEFAULT_255_2_778
10
4.6967625
20
53.4920948
11
4.6967625
21
53.6047948
0
LINE
8
DEFAULT_255_2_778
10
5.5254625
20
53.7558948
11
5.3828625
21
53.7558948
0
LINE
8
DEFAULT_255_2_778
10
4.8396625
20
53.6002948
11
4.8396625
21
53.4867948
0
LINE
8
DEFAULT_255_2_778
10
5.3830625
20
53.3322948
11
5.3825625
21
53.3327948
0
LINE
8
DEFAULT_255_2_778
10
6.5459563
20
54.1323552
11
6.5459563
21
52.9610552
0
LINE
8
DEFAULT_255_2_778
10
6.5459563
20
52.9610552
11
6.4033563
21
52.9610552
0
LINE
8
DEFAULT_255_2_778
10
6.4033563
20
52.9610552
11
6.4033563
21
53.5023552
0
LINE
8
DEFAULT_255_2_778
10
6.4033563
20
53.5023552
11
5.8606563
21
53.5023552
0
LINE
8
DEFAULT_255_2_778
10
5.8606563
20
53.5023552
11
5.8606563
21
52.9610552
0
LINE
8
DEFAULT_255_2_778
10
5.8606563
20
52.9610552
11
5.7188563
21
52.9610552
0
LINE
8
DEFAULT_255_2_778
10
5.7188563
20
52.9610552
11
5.7188563
21
54.1323552
0
LINE
8
DEFAULT_255_2_778
10
5.7188563
20
54.1323552
11
5.8606563
21
54.1323552
0
LINE
8
DEFAULT_255_2_778
10
5.8606563
20
54.1323552
11
5.8606563
21
53.6288552
0
LINE
8
DEFAULT_255_2_778
10
5.8606563
20
53.6288552
11
6.4033563
21
53.6288552
0
LINE
8
DEFAULT_255_2_778
10
6.4033563
20
53.6288552
11
6.4033563
21
54.1323552
0
LINE
8
DEFAULT_255_2_778
10
6.4033563
20
54.1323552
11
6.5459563
21
54.1323552
0
LINE
8
DEFAULT_255_2_778
10
6.5459563
20
54.1323552
11
6.5459563
21
54.1323552
0
ARC
8
DEFAULT_255_2_778
10
7.2654063
20
53.6624734
40
0.3445237
50
88.5689515
51
135.4915176
0
ARC
8
DEFAULT_255_2_778
10
7.3246977
20
53.6294414
40
0.4103583
50
138.0065972
51
171.7662108
0
ARC
8
DEFAULT_255_2_778
10
7.5902728
20
53.5688082
40
0.6822332
50
169.9204135
51
175.4280544
0
ARC
8
DEFAULT_255_2_778
10
7.1303907
20
53.4484372
40
0.281101
50
87.5901267
51
141.561724
0
ARC
8
DEFAULT_255_2_778
10
7.1507845
20
53.4593774
40
0.2700483
50
36.9450331
51
91.8194481
0
ARC
8
DEFAULT_255_2_778
10
7.0268341
20
53.3699452
40
0.4228749
50
0.9983495
51
36.5351968
0
ARC
8
DEFAULT_255_2_778
10
6.7933739
20
53.3435979
40
0.6571366
50
359.9731126
51
2.9409231
0
ARC
8
DEFAULT_255_2_778
10
6.9587399
20
53.3300127
40
0.4919497
50
335.0471818
51
1.5465066
0
ARC
8
DEFAULT_255_2_778
10
7.0896753
20
53.2782284
40
0.3514878
50
320.2746288
51
333.6961193
0
ARC
8
DEFAULT_255_2_778
10
7.1288628
20
53.2449208
40
0.3000615
50
267.7553544
51
320.3839276
0
ARC
8
DEFAULT_255_2_778
10
7.1122762
20
53.2434793
40
0.2984289
50
214.5600715
51
270.9281767
0
ARC
8
DEFAULT_255_2_778
10
7.2803531
20
53.3685716
40
0.5078646
50
183.3309725
51
215.4256895
0
ARC
8
DEFAULT_255_2_778
10
7.5560956
20
53.4057625
40
0.7855859
50
179.9250906
51
184.870529
0
ARC
8
DEFAULT_255_2_778
10
7.978059
20
53.476614
40
1.2076146
50
168.5081468
51
180.5989841
0
ARC
8
DEFAULT_255_2_778
10
7.410291
20
53.5982003
40
0.6270341
50
145.9755413
51
169.0594458
0
ARC
8
DEFAULT_255_2_778
10
7.2781418
20
53.6758034
40
0.4741843
50
143.4502928
51
144.8123142
0
ARC
8
DEFAULT_255_2_778
10
7.2443412
20
53.6962876
40
0.4348476
50
92.1322231
51
142.9663133
0
ARC
8
DEFAULT_255_2_778
10
7.2850908
20
53.4383749
40
0.6947954
50
90.872536
51
94.6998262
0
ARC
8
DEFAULT_255_2_778
10
7.1200331
20
53.3981142
40
0.207176
50
90.1445411
51
128.8374041
0
ARC
8
DEFAULT_255_2_778
10
7.1318845
20
53.3717269
40
0.2352758
50
127.055388
51
162.0106459
0
ARC
8
DEFAULT_255_2_778
10
7.3633224
20
53.3767325
40
0.4553935
50
178.3821626
51
203.0369948
0
ARC
8
DEFAULT_255_2_778
10
7.214746
20
53.322341
40
0.2974909
50
204.5948642
51
213.9295418
0
ARC
8
DEFAULT_255_2_778
10
7.1205376
20
53.2437825
40
0.1759263
50
209.8233224
51
268.8837632
0
ARC
8
DEFAULT_255_2_778
10
7.1224688
20
53.2368893
40
0.1690847
50
268.1839714
51
325.8573141
0
ARC
8
DEFAULT_255_2_778
10
6.9958428
20
53.3179806
40
0.3194231
50
326.5667408
51
1.2159022
0
ARC
8
DEFAULT_255_2_778
10
6.7877643
20
53.3358308
40
0.5275461
50
358.7973997
51
0.006387
0
ARC
8
DEFAULT_255_2_778
10
6.9774319
20
53.34912
40
0.3381375
50
357.7575989
51
29.6799872
0
ARC
8
DEFAULT_255_2_778
10
7.0666172
20
53.3900036
40
0.2405643
50
31.738406
51
35.8487572
0
ARC
8
DEFAULT_255_2_778
10
7.1224199
20
53.4379572
40
0.1673631
50
33.7295731
51
91.0988201
0
LINE
8
DEFAULT_255_2_778
10
7.2748104
20
54.1330896
11
7.2991104
21
54.1330896
0
LINE
8
DEFAULT_255_2_778
10
7.2991104
20
54.1330896
11
7.2991104
21
54.0068896
0
LINE
8
DEFAULT_255_2_778
10
7.2991104
20
54.0068896
11
7.2740104
21
54.0068896
0
LINE
8
DEFAULT_255_2_778
10
6.7705104
20
53.4067896
11
6.7705104
21
53.4639896
0
LINE
8
DEFAULT_255_2_778
10
7.2745104
20
54.1330896
11
7.2748104
21
54.1330896
0
LINE
8
DEFAULT_255_2_778
10
6.9081104
20
53.4443896
11
6.9081104
21
53.3895896
0
LINE
8
DEFAULT_255_2_778
10
7.1192104
20
53.6052896
11
7.1195104
21
53.6052896
0
ARC
8
DEFAULT_255_2_778
10
5.0793196
20
41.3106241
40
0.5022327
50
328.9889976
51
355.4399627
0
ARC
8
DEFAULT_255_2_778
10
5.2050595
20
41.2447551
40
0.3606254
50
313.6677831
51
327.6658527
0
ARC
8
DEFAULT_255_2_778
10
5.1941543
20
41.2682179
40
0.3852167
50
269.230867
51
312.4313551
0
ARC
8
DEFAULT_255_2_778
10
5.1720508
20
41.4777373
40
0.5949425
50
269.991498
51
271.6309062
0
ARC
8
DEFAULT_255_2_778
10
5.1615402
20
41.2493124
40
0.3666657
50
216.3866469
51
271.6288267
0
ARC
8
DEFAULT_255_2_778
10
5.3160468
20
41.3645485
40
0.5594113
50
186.8625834
51
216.5004044
0
ARC
8
DEFAULT_255_2_778
10
5.6675216
20
41.426413
40
0.915966
50
179.7759504
51
188.0776926
0
ARC
8
DEFAULT_255_2_778
10
5.4774006
20
41.5561402
40
0.7259626
50
158.8485288
51
181.0612252
0
ARC
8
DEFAULT_255_2_778
10
5.3248495
20
41.6046241
40
0.5662797
50
156.5697959
51
157.8540711
0
ARC
8
DEFAULT_255_2_778
10
5.2018341
20
41.6688358
40
0.4279916
50
124.8670283
51
157.9089339
0
ARC
8
DEFAULT_255_2_778
10
5.1772436
20
41.688917
40
0.3975527
50
88.8874652
51
123.6136267
0
ARC
8
DEFAULT_255_2_778
10
5.2019915
20
41.7166006
40
0.3701861
50
45.8452771
51
92.6366046
0
ARC
8
DEFAULT_255_2_778
10
5.1470604
20
41.686108
40
0.4307117
50
7.3606857
51
43.4274936
0
ARC
8
DEFAULT_255_2_778
10
4.9045853
20
41.6320026
40
0.6784968
50
5.2252945
51
9.2690677
0
ARC
8
DEFAULT_255_2_778
10
4.984781
20
41.6458883
40
0.4554083
50
6.0383724
51
25.7122471
0
ARC
8
DEFAULT_255_2_778
10
5.1992559
20
41.7440571
40
0.2196272
50
26.9128243
51
43.9172913
0
ARC
8
DEFAULT_255_2_778
10
5.1987802
20
41.7284692
40
0.2310392
50
46.6210799
51
93.4287092
0
ARC
8
DEFAULT_255_2_778
10
5.1768937
20
41.7123141
40
0.2469126
50
88.1273033
51
146.2211301
0
ARC
8
DEFAULT_255_2_778
10
5.3296212
20
41.6124192
40
0.4294027
50
146.4724241
51
172.8208473
0
ARC
8
DEFAULT_255_2_778
10
5.7266298
20
41.5431059
40
0.8321818
50
171.5019161
51
180.3381329
0
ARC
8
DEFAULT_255_2_778
10
5.5722632
20
41.4121459
40
0.6779169
50
178.9393444
51
196.7458564
0
ARC
8
DEFAULT_255_2_778
10
5.3016698
20
41.3360839
40
0.3969164
50
197.4862455
51
212.7272696
0
ARC
8
DEFAULT_255_2_778
10
5.1664024
20
41.2400333
40
0.2313205
50
210.8266702
51
271.5259706
0
ARC
8
DEFAULT_255_2_778
10
5.1855729
20
41.2905172
40
0.2820227
50
267.3558672
51
300.8985392
0
ARC
8
DEFAULT_255_2_778
10
5.2272013
20
41.2051021
40
0.1875296
50
303.3869136
51
312.5696495
0
ARC
8
DEFAULT_255_2_778
10
5.1700967
20
41.2473968
40
0.2576592
50
315.5603791
51
346.6826411
0
ARC
8
DEFAULT_255_2_778
10
4.8365386
20
41.3520515
40
0.6068698
50
344.3209987
51
352.2481202
0
LINE
8
DEFAULT_255_2_778
10
5.4373625
20
41.2706948
11
5.5799625
21
41.2706948
0
LINE
8
DEFAULT_255_2_778
10
4.7515625
20
41.4299948
11
4.7515625
21
41.5426948
0
LINE
8
DEFAULT_255_2_778
10
5.5802625
20
41.6937948
11
5.4376625
21
41.6937948
0
LINE
8
DEFAULT_255_2_778
10
4.8944625
20
41.5381948
11
4.8944625
21
41.4246948
0
LINE
8
DEFAULT_255_2_778
10
5.4378625
20
41.2701948
11
5.4373625
21
41.2706948
0
ARC
8
DEFAULT_255_2_778
10
5.7848675
20
41.4336718
40
0.8169764
50
342.1352665
51
0.9063419
0
ARC
8
DEFAULT_255_2_778
10
5.9903045
20
41.3773326
40
0.6042348
50
337.4992597
51
341.2439484
0
ARC
8
DEFAULT_255_2_778
10
6.1474682
20
41.2990199
40
0.4292389
50
305.6662935
51
339.1286733
0
ARC
8
DEFAULT_255_2_778
10
6.1781498
20
41.2732353
40
0.3905268
50
268.7956665
51
304.214769
0
ARC
8
DEFAULT_255_2_778
10
6.1634974
20
41.2690012
40
0.3862602
50
235.4684017
51
270.9559546
0
ARC
8
DEFAULT_255_2_778
10
6.2003653
20
41.3093379
40
0.440453
50
201.9504145
51
234.4918175
0
ARC
8
DEFAULT_255_2_778
10
6.4795952
20
41.4268427
40
0.7433791
50
180.1651534
51
202.305681
0
ARC
8
DEFAULT_255_2_778
10
6.7618704
20
41.4462088
40
1.0258767
50
180.5537141
51
181.2013698
0
ARC
8
DEFAULT_255_2_778
10
6.5192383
20
41.5340375
40
0.7833102
50
159.9284254
51
180.9760097
0
ARC
8
DEFAULT_255_2_778
10
6.3535717
20
41.5840669
40
0.6106155
50
157.3521004
51
159.0027375
0
ARC
8
DEFAULT_255_2_778
10
6.2006601
20
41.6612527
40
0.4399467
50
125.9073576
51
158.9610411
0
ARC
8
DEFAULT_255_2_778
10
6.1625183
20
41.7009174
40
0.385526
50
89.0899268
51
124.7731697
0
ARC
8
DEFAULT_255_2_778
10
6.1759259
20
41.6942583
40
0.3922042
50
55.7356159
51
91.0641827
0
ARC
8
DEFAULT_255_2_778
10
6.1465014
20
41.6686622
40
0.4300385
50
20.7890196
51
54.4155663
0
ARC
8
DEFAULT_255_2_778
10
5.8399806
20
41.5427195
40
0.761356
50
0.7344222
51
21.4625838
0
ARC
8
DEFAULT_255_2_778
10
5.5336956
20
41.5208836
40
1.0680459
50
359.9898688
51
1.6951605
0
ARC
8
DEFAULT_255_2_778
10
5.694998
20
41.5345553
40
0.7655419
50
359.0823412
51
14.1192106
0
ARC
8
DEFAULT_255_2_778
10
6.059035
20
41.6248731
40
0.3904721
50
14.2973334
51
33.8183297
0
ARC
8
DEFAULT_255_2_778
10
6.1769739
20
41.7068965
40
0.2468493
50
33.2368233
51
92.0040205
0
ARC
8
DEFAULT_255_2_778
10
6.1616192
20
41.7097009
40
0.2439865
50
88.4211465
51
147.1093257
0
ARC
8
DEFAULT_255_2_778
10
6.3369472
20
41.5936675
40
0.4542268
50
146.8287319
51
173.1129404
0
ARC
8
DEFAULT_255_2_778
10
6.7167014
20
41.5277921
40
0.8393751
50
171.7569824
51
179.6516893
0
ARC
8
DEFAULT_255_2_778
10
6.5920949
20
41.4343138
40
0.7148639
50
178.991591
51
195.9756451
0
ARC
8
DEFAULT_255_2_778
10
6.2927119
20
41.3527814
40
0.4046235
50
196.5442278
51
213.5101694
0
ARC
8
DEFAULT_255_2_778
10
6.1638671
20
41.2599192
40
0.2460071
50
212.044111
51
271.4848301
0
ARC
8
DEFAULT_255_2_778
10
6.1798505
20
41.257709
40
0.2439036
50
267.7421891
51
326.5014572
0
ARC
8
DEFAULT_255_2_778
10
6.014177
20
41.3625066
40
0.4399168
50
327.0285796
51
352.3765953
0
ARC
8
DEFAULT_255_2_778
10
5.5896461
20
41.4392738
40
0.8711038
50
351.0761438
51
359.7514416
0
LINE
8
DEFAULT_255_2_778
10
6.6017417
20
41.5206948
11
6.6017417
21
41.4465948
0
LINE
8
DEFAULT_255_2_778
10
5.7360417
20
41.4362948
11
5.7360417
21
41.5206948
0
LINE
8
DEFAULT_255_2_778
10
6.6017417
20
41.5206948
11
6.6017417
21
41.5206948
0
LINE
8
DEFAULT_255_2_778
10
6.4604417
20
41.4354948
11
6.4604417
21
41.5222948
0
LINE
8
DEFAULT_255_2_778
10
5.8773417
20
41.5328948
11
5.8773417
21
41.4468948
0
LINE
8
DEFAULT_255_2_778
10
6.4607417
20
41.4354948
11
6.4604417
21
41.4354948
0
LINE
8
DEFAULT_255_2_778
10
6.8144511
20
42.0702552
11
6.9978511
21
42.0702552
0
LINE
8
DEFAULT_255_2_778
10
6.9978511
20
42.0702552
11
7.3497511
21
41.1145552
0
LINE
8
DEFAULT_255_2_778
10
7.3497511
20
41.1145552
11
7.7015511
21
42.0702552
0
LINE
8
DEFAULT_255_2_778
10
7.7015511
20
42.0702552
11
7.8857511
21
42.0702552
0
LINE
8
DEFAULT_255_2_778
10
7.8857511
20
42.0702552
11
7.8857511
21
40.8989552
0
LINE
8
DEFAULT_255_2_778
10
7.8857511
20
40.8989552
11
7.7439511
21
40.8989552
0
LINE
8
DEFAULT_255_2_778
10
7.7439511
20
40.8989552
11
7.7439511
21
41.3550552
0
LINE
8
DEFAULT_255_2_778
10
7.7439511
20
41.3550552
11
7.7571511
21
41.8474552
0
LINE
8
DEFAULT_255_2_778
10
7.7571511
20
41.8474552
11
7.4036511
21
40.8989552
0
LINE
8
DEFAULT_255_2_778
10
7.4036511
20
40.8989552
11
7.2949511
21
40.8989552
0
LINE
8
DEFAULT_255_2_778
10
7.2949511
20
40.8989552
11
6.9422511
21
41.8450552
0
LINE
8
DEFAULT_255_2_778
10
6.9422511
20
41.8450552
11
6.9562511
21
41.3550552
0
LINE
8
DEFAULT_255_2_778
10
6.9562511
20
41.3550552
11
6.9562511
21
40.8989552
0
LINE
8
DEFAULT_255_2_778
10
6.9562511
20
40.8989552
11
6.8144511
21
40.8989552
0
LINE
8
DEFAULT_255_2_778
10
6.8144511
20
40.8989552
11
6.8144511
21
42.0702552
0
LINE
8
DEFAULT_255_2_778
10
6.8144511
20
42.0702552
11
6.8144511
21
42.0702552
0
ARC
8
DEFAULT_255_2_778
10
5.0245196
20
43.9347241
40
0.5022327
50
328.9889976
51
355.4399627
0
ARC
8
DEFAULT_255_2_778
10
5.1502595
20
43.8688551
40
0.3606254
50
313.6677831
51
327.6658527
0
ARC
8
DEFAULT_255_2_778
10
5.1393543
20
43.8923179
40
0.3852167
50
269.230867
51
312.4313551
0
ARC
8
DEFAULT_255_2_778
10
5.1172508
20
44.1018373
40
0.5949425
50
269.991498
51
271.6309062
0
ARC
8
DEFAULT_255_2_778
10
5.1067402
20
43.8734124
40
0.3666657
50
216.3866469
51
271.6288267
0
ARC
8
DEFAULT_255_2_778
10
5.2612468
20
43.9886485
40
0.5594113
50
186.8625834
51
216.5004044
0
ARC
8
DEFAULT_255_2_778
10
5.6127216
20
44.050513
40
0.915966
50
179.7759504
51
188.0776926
0
ARC
8
DEFAULT_255_2_778
10
5.4226006
20
44.1802402
40
0.7259626
50
158.8485288
51
181.0612252
0
ARC
8
DEFAULT_255_2_778
10
5.2700495
20
44.2287241
40
0.5662797
50
156.5697959
51
157.8540711
0
ARC
8
DEFAULT_255_2_778
10
5.1470341
20
44.2929358
40
0.4279916
50
124.8670283
51
157.9089339
0
ARC
8
DEFAULT_255_2_778
10
5.1224436
20
44.313017
40
0.3975527
50
88.8874652
51
123.6136267
0
ARC
8
DEFAULT_255_2_778
10
5.1471915
20
44.3407006
40
0.3701861
50
45.8452771
51
92.6366046
0
ARC
8
DEFAULT_255_2_778
10
5.0922604
20
44.310208
40
0.4307117
50
7.3606857
51
43.4274936
0
ARC
8
DEFAULT_255_2_778
10
4.8497853
20
44.2561026
40
0.6784968
50
5.2252945
51
9.2690677
0
ARC
8
DEFAULT_255_2_778
10
4.929981
20
44.2699883
40
0.4554083
50
6.0383724
51
25.7122471
0
ARC
8
DEFAULT_255_2_778
10
5.1444559
20
44.3681571
40
0.2196272
50
26.9128243
51
43.9172913
0
ARC
8
DEFAULT_255_2_778
10
5.1439802
20
44.3525692
40
0.2310392
50
46.6210799
51
93.4287092
0
ARC
8
DEFAULT_255_2_778
10
5.1220937
20
44.3364141
40
0.2469126
50
88.1273033
51
146.2211301
0
ARC
8
DEFAULT_255_2_778
10
5.2748212
20
44.2365192
40
0.4294027
50
146.4724241
51
172.8208473
0
ARC
8
DEFAULT_255_2_778
10
5.6718298
20
44.1672059
40
0.8321818
50
171.5019161
51
180.3381329
0
ARC
8
DEFAULT_255_2_778
10
5.5174632
20
44.0362459
40
0.6779169
50
178.9393444
51
196.7458564
0
ARC
8
DEFAULT_255_2_778
10
5.2468698
20
43.9601839
40
0.3969164
50
197.4862455
51
212.7272696
0
ARC
8
DEFAULT_255_2_778
10
5.1116024
20
43.8641333
40
0.2313205
50
210.8266702
51
271.5259706
0
ARC
8
DEFAULT_255_2_778
10
5.1307729
20
43.9146172
40
0.2820227
50
267.3558672
51
300.8985392
0
ARC
8
DEFAULT_255_2_778
10
5.1724013
20
43.8292021
40
0.1875296
50
303.3869136
51
312.5696495
0
ARC
8
DEFAULT_255_2_778
10
5.1152967
20
43.8714968
40
0.2576592
50
315.5603791
51
346.6826411
0
ARC
8
DEFAULT_255_2_778
10
4.7817386
20
43.9761515
40
0.6068698
50
344.3209987
51
352.2481202
0
LINE
8
DEFAULT_255_2_778
10
5.3825625
20
43.8947948
11
5.5251625
21
43.8947948
0
LINE
8
DEFAULT_255_2_778
10
4.6967625
20
44.0540948
11
4.6967625
21
44.1667948
0
LINE
8
DEFAULT_255_2_778
10
5.5254625
20
44.3178948
11
5.3828625
21
44.3178948
0
LINE
8
DEFAULT_255_2_778
10
4.8396625
20
44.1622948
11
4.8396625
21
44.0487948
0
LINE
8
DEFAULT_255_2_778
10
5.3830625
20
43.8942948
11
5.3825625
21
43.8947948
0
LINE
8
DEFAULT_255_2_778
10
6.5459563
20
44.6943552
11
6.5459563
21
43.5230552
0
LINE
8
DEFAULT_255_2_778
10
6.5459563
20
43.5230552
11
6.4033563
21
43.5230552
0
LINE
8
DEFAULT_255_2_778
10
6.4033563
20
43.5230552
11
6.4033563
21
44.0643552
0
LINE
8
DEFAULT_255_2_778
10
6.4033563
20
44.0643552
11
5.8606563
21
44.0643552
0
LINE
8
DEFAULT_255_2_778
10
5.8606563
20
44.0643552
11
5.8606563
21
43.5230552
0
LINE
8
DEFAULT_255_2_778
10
5.8606563
20
43.5230552
11
5.7188563
21
43.5230552
0
LINE
8
DEFAULT_255_2_778
10
5.7188563
20
43.5230552
11
5.7188563
21
44.6943552
0
LINE
8
DEFAULT_255_2_778
10
5.7188563
20
44.6943552
11
5.8606563
21
44.6943552
0
LINE
8
DEFAULT_255_2_778
10
5.8606563
20
44.6943552
11
5.8606563
21
44.1908552
0
LINE
8
DEFAULT_255_2_778
10
5.8606563
20
44.1908552
11
6.4033563
21
44.1908552
0
LINE
8
DEFAULT_255_2_778
10
6.4033563
20
44.1908552
11
6.4033563
21
44.6943552
0
LINE
8
DEFAULT_255_2_778
10
6.4033563
20
44.6943552
11
6.5459563
21
44.6943552
0
LINE
8
DEFAULT_255_2_778
10
6.5459563
20
44.6943552
11
6.5459563
21
44.6943552
0
LINE
8
DEFAULT_255_2_778
10
7.4573979
20
44.6943552
11
7.4573979
21
44.6107552
0
LINE
8
DEFAULT_255_2_778
10
7.4573979
20
44.6107552
11
7.0115979
21
43.5230552
0
LINE
8
DEFAULT_255_2_778
10
7.0115979
20
43.5230552
11
6.8681979
21
43.5230552
0
LINE
8
DEFAULT_255_2_778
10
6.8681979
20
43.5230552
11
7.3123979
21
44.5721552
0
LINE
8
DEFAULT_255_2_778
10
7.3123979
20
44.5721552
11
6.7297979
21
44.5721552
0
LINE
8
DEFAULT_255_2_778
10
6.7297979
20
44.5721552
11
6.7297979
21
44.6943552
0
LINE
8
DEFAULT_255_2_778
10
6.7297979
20
44.6943552
11
7.4570979
21
44.6943552
0
LINE
8
DEFAULT_255_2_778
10
7.4570979
20
44.6943552
11
7.4573979
21
44.6943552
0
ARC
8
DEFAULT_255_2_778
10
5.0793196
20
31.8724241
40
0.5022327
50
328.9889976
51
355.4399627
0
ARC
8
DEFAULT_255_2_778
10
5.2050595
20
31.8065551
40
0.3606254
50
313.6677831
51
327.6658527
0
ARC
8
DEFAULT_255_2_778
10
5.1941543
20
31.8300179
40
0.3852167
50
269.230867
51
312.4313551
0
ARC
8
DEFAULT_255_2_778
10
5.1720508
20
32.0395373
40
0.5949425
50
269.991498
51
271.6309062
0
ARC
8
DEFAULT_255_2_778
10
5.1615402
20
31.8111124
40
0.3666657
50
216.3866469
51
271.6288267
0
ARC
8
DEFAULT_255_2_778
10
5.3160468
20
31.9263485
40
0.5594113
50
186.8625834
51
216.5004044
0
ARC
8
DEFAULT_255_2_778
10
5.6675216
20
31.988213
40
0.915966
50
179.7759504
51
188.0776926
0
ARC
8
DEFAULT_255_2_778
10
5.4774006
20
32.1179402
40
0.7259626
50
158.8485288
51
181.0612252
0
ARC
8
DEFAULT_255_2_778
10
5.3248495
20
32.1664241
40
0.5662797
50
156.5697959
51
157.8540711
0
ARC
8
DEFAULT_255_2_778
10
5.2018341
20
32.2306358
40
0.4279916
50
124.8670283
51
157.9089339
0
ARC
8
DEFAULT_255_2_778
10
5.1772436
20
32.250717
40
0.3975527
50
88.8874652
51
123.6136267
0
ARC
8
DEFAULT_255_2_778
10
5.2019915
20
32.2784006
40
0.3701861
50
45.8452771
51
92.6366046
0
ARC
8
DEFAULT_255_2_778
10
5.1470604
20
32.247908
40
0.4307117
50
7.3606857
51
43.4274936
0
ARC
8
DEFAULT_255_2_778
10
4.9045853
20
32.1938026
40
0.6784968
50
5.2252945
51
9.2690677
0
ARC
8
DEFAULT_255_2_778
10
4.984781
20
32.2076883
40
0.4554083
50
6.0383724
51
25.7122471
0
ARC
8
DEFAULT_255_2_778
10
5.1992559
20
32.3058571
40
0.2196272
50
26.9128243
51
43.9172913
0
ARC
8
DEFAULT_255_2_778
10
5.1987802
20
32.2902692
40
0.2310392
50
46.6210799
51
93.4287092
0
ARC
8
DEFAULT_255_2_778
10
5.1768937
20
32.2741141
40
0.2469126
50
88.1273033
51
146.2211301
0
ARC
8
DEFAULT_255_2_778
10
5.3296212
20
32.1742192
40
0.4294027
50
146.4724241
51
172.8208473
0
ARC
8
DEFAULT_255_2_778
10
5.7266298
20
32.1049059
40
0.8321818
50
171.5019161
51
180.3381329
0
ARC
8
DEFAULT_255_2_778
10
5.5722632
20
31.9739459
40
0.6779169
50
178.9393444
51
196.7458564
0
ARC
8
DEFAULT_255_2_778
10
5.3016698
20
31.8978839
40
0.3969164
50
197.4862455
51
212.7272696
0
ARC
8
DEFAULT_255_2_778
10
5.1664024
20
31.8018333
40
0.2313205
50
210.8266702
51
271.5259706
0
ARC
8
DEFAULT_255_2_778
10
5.1855729
20
31.8523172
40
0.2820227
50
267.3558672
51
300.8985392
0
ARC
8
DEFAULT_255_2_778
10
5.2272013
20
31.7669021
40
0.1875296
50
303.3869136
51
312.5696495
0
ARC
8
DEFAULT_255_2_778
10
5.1700967
20
31.8091968
40
0.2576592
50
315.5603791
51
346.6826411
0
ARC
8
DEFAULT_255_2_778
10
4.8365386
20
31.9138515
40
0.6068698
50
344.3209987
51
352.2481202
0
LINE
8
DEFAULT_255_2_778
10
5.4373625
20
31.8324948
11
5.5799625
21
31.8324948
0
LINE
8
DEFAULT_255_2_778
10
4.7515625
20
31.9917948
11
4.7515625
21
32.1044948
0
LINE
8
DEFAULT_255_2_778
10
5.5802625
20
32.2555948
11
5.4376625
21
32.2555948
0
LINE
8
DEFAULT_255_2_778
10
4.8944625
20
32.0999948
11
4.8944625
21
31.9864948
0
LINE
8
DEFAULT_255_2_778
10
5.4378625
20
31.8319948
11
5.4373625
21
31.8324948
0
ARC
8
DEFAULT_255_2_778
10
5.7848675
20
31.9954718
40
0.8169764
50
342.1352665
51
0.9063419
0
ARC
8
DEFAULT_255_2_778
10
5.9903045
20
31.9391326
40
0.6042348
50
337.4992597
51
341.2439484
0
ARC
8
DEFAULT_255_2_778
10
6.1474682
20
31.8608199
40
0.4292389
50
305.6662935
51
339.1286733
0
ARC
8
DEFAULT_255_2_778
10
6.1781498
20
31.8350353
40
0.3905268
50
268.7956665
51
304.214769
0
ARC
8
DEFAULT_255_2_778
10
6.1634974
20
31.8308012
40
0.3862602
50
235.4684017
51
270.9559546
0
ARC
8
DEFAULT_255_2_778
10
6.2003653
20
31.8711379
40
0.440453
50
201.9504145
51
234.4918175
0
ARC
8
DEFAULT_255_2_778
10
6.4795952
20
31.9886427
40
0.7433791
50
180.1651534
51
202.305681
0
ARC
8
DEFAULT_255_2_778
10
6.7618704
20
32.0080088
40
1.0258767
50
180.5537141
51
181.2013698
0
ARC
8
DEFAULT_255_2_778
10
6.5192383
20
32.0958375
40
0.7833102
50
159.9284254
51
180.9760097
0
ARC
8
DEFAULT_255_2_778
10
6.3535717
20
32.1458669
40
0.6106155
50
157.3521004
51
159.0027375
0
ARC
8
DEFAULT_255_2_778
10
6.2006601
20
32.2230527
40
0.4399467
50
125.9073576
51
158.9610411
0
ARC
8
DEFAULT_255_2_778
10
6.1625183
20
32.2627174
40
0.385526
50
89.0899268
51
124.7731697
0
ARC
8
DEFAULT_255_2_778
10
6.1759259
20
32.2560583
40
0.3922042
50
55.7356159
51
91.0641827
0
ARC
8
DEFAULT_255_2_778
10
6.1465014
20
32.2304622
40
0.4300385
50
20.7890196
51
54.4155663
0
ARC
8
DEFAULT_255_2_778
10
5.8399806
20
32.1045195
40
0.761356
50
0.7344222
51
21.4625838
0
ARC
8
DEFAULT_255_2_778
10
5.5336956
20
32.0826836
40
1.0680459
50
359.9898688
51
1.6951605
0
ARC
8
DEFAULT_255_2_778
10
5.694998
20
32.0963553
40
0.7655419
50
359.0823412
51
14.1192106
0
ARC
8
DEFAULT_255_2_778
10
6.059035
20
32.1866731
40
0.3904721
50
14.2973334
51
33.8183297
0
ARC
8
DEFAULT_255_2_778
10
6.1769739
20
32.2686965
40
0.2468493
50
33.2368233
51
92.0040205
0
ARC
8
DEFAULT_255_2_778
10
6.1616192
20
32.2715009
40
0.2439865
50
88.4211465
51
147.1093257
0
ARC
8
DEFAULT_255_2_778
10
6.3369472
20
32.1554675
40
0.4542268
50
146.8287319
51
173.1129404
0
ARC
8
DEFAULT_255_2_778
10
6.7167014
20
32.0895921
40
0.8393751
50
171.7569824
51
179.6516893
0
ARC
8
DEFAULT_255_2_778
10
6.5920949
20
31.9961138
40
0.7148639
50
178.991591
51
195.9756451
0
ARC
8
DEFAULT_255_2_778
10
6.2927119
20
31.9145814
40
0.4046235
50
196.5442278
51
213.5101694
0
ARC
8
DEFAULT_255_2_778
10
6.1638671
20
31.8217192
40
0.2460071
50
212.044111
51
271.4848301
0
ARC
8
DEFAULT_255_2_778
10
6.1798505
20
31.819509
40
0.2439036
50
267.7421891
51
326.5014572
0
ARC
8
DEFAULT_255_2_778
10
6.014177
20
31.9243066
40
0.4399168
50
327.0285796
51
352.3765953
0
ARC
8
DEFAULT_255_2_778
10
5.5896461
20
32.0010738
40
0.8711038
50
351.0761438
51
359.7514416
0
LINE
8
DEFAULT_255_2_778
10
6.6017417
20
32.0824948
11
6.6017417
21
32.0083948
0
LINE
8
DEFAULT_255_2_778
10
5.7360417
20
31.9980948
11
5.7360417
21
32.0824948
0
LINE
8
DEFAULT_255_2_778
10
6.6017417
20
32.0824948
11
6.6017417
21
32.0824948
0
LINE
8
DEFAULT_255_2_778
10
6.4604417
20
31.9972948
11
6.4604417
21
32.0840948
0
LINE
8
DEFAULT_255_2_778
10
5.8773417
20
32.0946948
11
5.8773417
21
32.0086948
0
LINE
8
DEFAULT_255_2_778
10
6.4607417
20
31.9972948
11
6.4604417
21
31.9972948
0
LINE
8
DEFAULT_255_2_778
10
6.8144511
20
32.6320552
11
6.9978511
21
32.6320552
0
LINE
8
DEFAULT_255_2_778
10
6.9978511
20
32.6320552
11
7.3497511
21
31.6763552
0
LINE
8
DEFAULT_255_2_778
10
7.3497511
20
31.6763552
11
7.7015511
21
32.6320552
0
LINE
8
DEFAULT_255_2_778
10
7.7015511
20
32.6320552
11
7.8857511
21
32.6320552
0
LINE
8
DEFAULT_255_2_778
10
7.8857511
20
32.6320552
11
7.8857511
21
31.4607552
0
LINE
8
DEFAULT_255_2_778
10
7.8857511
20
31.4607552
11
7.7439511
21
31.4607552
0
LINE
8
DEFAULT_255_2_778
10
7.7439511
20
31.4607552
11
7.7439511
21
31.9168552
0
LINE
8
DEFAULT_255_2_778
10
7.7439511
20
31.9168552
11
7.7571511
21
32.4092552
0
LINE
8
DEFAULT_255_2_778
10
7.7571511
20
32.4092552
11
7.4036511
21
31.4607552
0
LINE
8
DEFAULT_255_2_778
10
7.4036511
20
31.4607552
11
7.2949511
21
31.4607552
0
LINE
8
DEFAULT_255_2_778
10
7.2949511
20
31.4607552
11
6.9422511
21
32.4068552
0
LINE
8
DEFAULT_255_2_778
10
6.9422511
20
32.4068552
11
6.9562511
21
31.9168552
0
LINE
8
DEFAULT_255_2_778
10
6.9562511
20
31.9168552
11
6.9562511
21
31.4607552
0
LINE
8
DEFAULT_255_2_778
10
6.9562511
20
31.4607552
11
6.8144511
21
31.4607552
0
LINE
8
DEFAULT_255_2_778
10
6.8144511
20
31.4607552
11
6.8144511
21
32.6320552
0
LINE
8
DEFAULT_255_2_778
10
6.8144511
20
32.6320552
11
6.8144511
21
32.6320552
0
ARC
8
DEFAULT_255_2_778
10
5.0245196
20
34.4965241
40
0.5022327
50
328.9889976
51
355.4399627
0
ARC
8
DEFAULT_255_2_778
10
5.1502595
20
34.4306551
40
0.3606254
50
313.6677831
51
327.6658527
0
ARC
8
DEFAULT_255_2_778
10
5.1393543
20
34.4541179
40
0.3852167
50
269.230867
51
312.4313551
0
ARC
8
DEFAULT_255_2_778
10
5.1172508
20
34.6636373
40
0.5949425
50
269.991498
51
271.6309062
0
ARC
8
DEFAULT_255_2_778
10
5.1067402
20
34.4352124
40
0.3666657
50
216.3866469
51
271.6288267
0
ARC
8
DEFAULT_255_2_778
10
5.2612468
20
34.5504485
40
0.5594113
50
186.8625834
51
216.5004044
0
ARC
8
DEFAULT_255_2_778
10
5.6127216
20
34.612313
40
0.915966
50
179.7759504
51
188.0776926
0
ARC
8
DEFAULT_255_2_778
10
5.4226006
20
34.7420402
40
0.7259626
50
158.8485288
51
181.0612252
0
ARC
8
DEFAULT_255_2_778
10
5.2700495
20
34.7905241
40
0.5662797
50
156.5697959
51
157.8540711
0
ARC
8
DEFAULT_255_2_778
10
5.1470341
20
34.8547358
40
0.4279916
50
124.8670283
51
157.9089339
0
ARC
8
DEFAULT_255_2_778
10
5.1224436
20
34.874817
40
0.3975527
50
88.8874652
51
123.6136267
0
ARC
8
DEFAULT_255_2_778
10
5.1471915
20
34.9025006
40
0.3701861
50
45.8452771
51
92.6366046
0
ARC
8
DEFAULT_255_2_778
10
5.0922604
20
34.872008
40
0.4307117
50
7.3606857
51
43.4274936
0
ARC
8
DEFAULT_255_2_778
10
4.8497853
20
34.8179026
40
0.6784968
50
5.2252945
51
9.2690677
0
ARC
8
DEFAULT_255_2_778
10
4.929981
20
34.8317883
40
0.4554083
50
6.0383724
51
25.7122471
0
ARC
8
DEFAULT_255_2_778
10
5.1444559
20
34.9299571
40
0.2196272
50
26.9128243
51
43.9172913
0
ARC
8
DEFAULT_255_2_778
10
5.1439802
20
34.9143692
40
0.2310392
50
46.6210799
51
93.4287092
0
ARC
8
DEFAULT_255_2_778
10
5.1220937
20
34.8982141
40
0.2469126
50
88.1273033
51
146.2211301
0
ARC
8
DEFAULT_255_2_778
10
5.2748212
20
34.7983192
40
0.4294027
50
146.4724241
51
172.8208473
0
ARC
8
DEFAULT_255_2_778
10
5.6718298
20
34.7290059
40
0.8321818
50
171.5019161
51
180.3381329
0
ARC
8
DEFAULT_255_2_778
10
5.5174632
20
34.5980459
40
0.6779169
50
178.9393444
51
196.7458564
0
ARC
8
DEFAULT_255_2_778
10
5.2468698
20
34.5219839
40
0.3969164
50
197.4862455
51
212.7272696
0
ARC
8
DEFAULT_255_2_778
10
5.1116024
20
34.4259333
40
0.2313205
50
210.8266702
51
271.5259706
0
ARC
8
DEFAULT_255_2_778
10
5.1307729
20
34.4764172
40
0.2820227
50
267.3558672
51
300.8985392
0
ARC
8
DEFAULT_255_2_778
10
5.1724013
20
34.3910021
40
0.1875296
50
303.3869136
51
312.5696495
0
ARC
8
DEFAULT_255_2_778
10
5.1152967
20
34.4332968
40
0.2576592
50
315.5603791
51
346.6826411
0
ARC
8
DEFAULT_255_2_778
10
4.7817386
20
34.5379515
40
0.6068698
50
344.3209987
51
352.2481202
0
LINE
8
DEFAULT_255_2_778
10
5.3825625
20
34.4565948
11
5.5251625
21
34.4565948
0
LINE
8
DEFAULT_255_2_778
10
4.6967625
20
34.6158948
11
4.6967625
21
34.7285948
0
LINE
8
DEFAULT_255_2_778
10
5.5254625
20
34.8796948
11
5.3828625
21
34.8796948
0
LINE
8
DEFAULT_255_2_778
10
4.8396625
20
34.7240948
11
4.8396625
21
34.6105948
0
LINE
8
DEFAULT_255_2_778
10
5.3830625
20
34.4560948
11
5.3825625
21
34.4565948
0
LINE
8
DEFAULT_255_2_778
10
6.5459563
20
35.2561552
11
6.5459563
21
34.0848552
0
LINE
8
DEFAULT_255_2_778
10
6.5459563
20
34.0848552
11
6.4033563
21
34.0848552
0
LINE
8
DEFAULT_255_2_778
10
6.4033563
20
34.0848552
11
6.4033563
21
34.6261552
0
LINE
8
DEFAULT_255_2_778
10
6.4033563
20
34.6261552
11
5.8606563
21
34.6261552
0
LINE
8
DEFAULT_255_2_778
10
5.8606563
20
34.6261552
11
5.8606563
21
34.0848552
0
LINE
8
DEFAULT_255_2_778
10
5.8606563
20
34.0848552
11
5.7188563
21
34.0848552
0
LINE
8
DEFAULT_255_2_778
10
5.7188563
20
34.0848552
11
5.7188563
21
35.2561552
0
LINE
8
DEFAULT_255_2_778
10
5.7188563
20
35.2561552
11
5.8606563
21
35.2561552
0
LINE
8
DEFAULT_255_2_778
10
5.8606563
20
35.2561552
11
5.8606563
21
34.7526552
0
LINE
8
DEFAULT_255_2_778
10
5.8606563
20
34.7526552
11
6.4033563
21
34.7526552
0
LINE
8
DEFAULT_255_2_778
10
6.4033563
20
34.7526552
11
6.4033563
21
35.2561552
0
LINE
8
DEFAULT_255_2_778
10
6.4033563
20
35.2561552
11
6.5459563
21
35.2561552
0
LINE
8
DEFAULT_255_2_778
10
6.5459563
20
35.2561552
11
6.5459563
21
35.2561552
0
ARC
8
DEFAULT_255_2_778
10
7.1259932
20
34.94571
40
0.2894418
50
328.5041188
51
0.9670101
0
ARC
8
DEFAULT_255_2_778
10
7.1190801
20
34.9519961
40
0.2986257
50
297.6999818
51
328.16866
0
ARC
8
DEFAULT_255_2_778
10
7.1283058
20
34.4025486
40
0.3131204
50
32.8710647
51
65.5524645
0
ARC
8
DEFAULT_255_2_778
10
7.13275
20
34.4055164
40
0.307777
50
359.1582306
51
32.8560719
0
ARC
8
DEFAULT_255_2_778
10
7.1217564
20
34.3856376
40
0.3191071
50
314.7199892
51
2.758444
0
ARC
8
DEFAULT_255_2_778
10
7.1138997
20
34.4118355
40
0.3434909
50
267.4126537
51
312.5758267
0
ARC
8
DEFAULT_255_2_778
10
7.0826939
20
34.4135433
40
0.3452057
50
229.1902797
51
272.6066959
0
ARC
8
DEFAULT_255_2_778
10
7.0659431
20
34.3823561
40
0.3107487
50
225.9011955
51
227.769687
0
ARC
8
DEFAULT_255_2_778
10
7.0771335
20
34.3859866
40
0.3211906
50
177.3217872
51
224.9182791
0
ARC
8
DEFAULT_255_2_778
10
7.0742645
20
34.4050974
40
0.3179972
50
148.2366858
51
180.7392168
0
ARC
8
DEFAULT_255_2_778
10
7.0612006
20
34.4124548
40
0.3030175
50
114.406022
51
148.1191813
0
ARC
8
DEFAULT_255_2_778
10
7.0709777
20
34.9442553
40
0.289284
50
210.992653
51
242.1852883
0
ARC
8
DEFAULT_255_2_778
10
7.0754943
20
34.9455856
40
0.2938432
50
179.023221
51
210.7615255
0
ARC
8
DEFAULT_255_2_778
10
7.098154
20
34.9666636
40
0.3168679
50
136.3643041
51
182.9067919
0
LINE
8
DEFAULT_255_2_778
10
6.8688233
20
35.1853248
11
6.8689938
21
35.1854948
0
ARC
8
DEFAULT_255_2_778
10
7.0851713
20
34.9607818
40
0.311815
50
87.4776867
51
133.8909189
0
ARC
8
DEFAULT_255_2_778
10
7.112121
20
34.9599692
40
0.3126056
50
46.1733507
51
92.4250766
0
ARC
8
DEFAULT_255_2_778
10
7.1010378
20
34.9668893
40
0.3155473
50
357.145125
51
43.8507306
0
ARC
8
DEFAULT_255_2_778
10
6.998385
20
34.9507394
40
0.4178087
50
359.9801705
51
0.0594726
0
ARC
8
DEFAULT_255_2_778
10
7.0777783
20
34.4135379
40
0.2261086
50
357.6317818
51
41.8163637
0
ARC
8
DEFAULT_255_2_778
10
7.1037859
20
34.4316198
40
0.1947079
50
42.9535634
51
92.1168688
0
ARC
8
DEFAULT_255_2_778
10
7.0885875
20
34.4353322
40
0.1910304
50
87.5979866
51
137.2128312
0
ARC
8
DEFAULT_255_2_778
10
7.1216579
20
34.4148812
40
0.2293133
50
139.0759262
51
182.6710583
0
ARC
8
DEFAULT_255_2_778
10
7.1111047
20
34.3918663
40
0.2188584
50
176.7707813
51
221.3434414
0
ARC
8
DEFAULT_255_2_778
10
7.0863806
20
34.3882014
40
0.198341
50
225.2695771
51
273.3277234
0
ARC
8
DEFAULT_255_2_778
10
7.1087434
20
34.3884801
40
0.198582
50
266.8680613
51
314.809252
0
ARC
8
DEFAULT_255_2_778
10
7.0868268
20
34.3921032
40
0.2169876
50
318.242769
51
3.1151019
0
ARC
8
DEFAULT_255_2_778
10
7.0916771
20
34.981778
40
0.168439
50
87.8168132
51
137.3979552
0
ARC
8
DEFAULT_255_2_778
10
7.1266138
20
34.9596912
40
0.2092361
50
139.4223312
51
183.1496998
0
ARC
8
DEFAULT_255_2_778
10
7.1262796
20
34.9385891
40
0.2088069
50
177.3633083
51
220.2425101
0
ARC
8
DEFAULT_255_2_778
10
7.0910707
20
34.9159274
40
0.16738
50
222.107651
51
272.4047736
0
ARC
8
DEFAULT_255_2_778
10
7.1051633
20
34.9160424
40
0.1674969
50
267.581014
51
317.8754402
0
ARC
8
DEFAULT_255_2_778
10
7.0700079
20
34.9385891
40
0.2088069
50
319.7574899
51
2.6366917
0
ARC
8
DEFAULT_255_2_778
10
7.0710912
20
34.9570426
40
0.2076911
50
357.5584229
51
41.1444073
0
ARC
8
DEFAULT_255_2_778
10
7.1023907
20
34.9833105
40
0.1668396
50
41.4234672
51
91.4758218
0
LINE
8
DEFAULT_255_2_778
10
7.4161938
20
34.9505948
11
7.4153938
21
34.9505948
0
LINE
8
DEFAULT_255_2_778
10
7.3034938
20
34.4038948
11
7.3036938
21
34.4041948
0
LINE
8
DEFAULT_255_2_778
10
7.0980938
20
35.1500948
11
7.0980938
21
35.1500948
0
LINE
8
DEFAULT_255_2_778
10
10.4482605
20
19.5772
11
3.6341605
21
19.5772
0
LINE
8
DEFAULT_255_2_778
10
17.2623605
20
14.8581
11
10.4482605
21
14.8581
0
LINE
8
DEFAULT_255_2_778
10
17.2625887
20
24.2963623
11
10.4482887
21
24.2963623
0
LINE
8
DEFAULT_255_2_778
10
10.4482887
20
24.2963623
11
10.4482887
21
10.1390623
0
LINE
8
DEFAULT_255_2_778
10
10.4482887
20
10.1390623
11
3.6341887
21
10.1390623
0
ARC
8
DEFAULT_255_2_778
10
4.7035294
20
27.2519097
40
0.9977241
50
320.3966667
51
327.7442352
0
ARC
8
DEFAULT_255_2_778
10
5.2220981
20
26.9193912
40
0.3817448
50
328.4110058
51
333.4386363
0
ARC
8
DEFAULT_255_2_778
10
5.3512125
20
26.8549441
40
0.2374398
50
333.4171103
51
359.9149537
0
ARC
8
DEFAULT_255_2_778
10
5.4113861
20
26.8616537
40
0.1774066
50
357.7186198
51
39.664882
0
ARC
8
DEFAULT_255_2_778
10
5.4445952
20
26.8853522
40
0.1367479
50
40.9028189
51
92.2811824
0
ARC
8
DEFAULT_255_2_778
10
5.4299007
20
26.861013
40
0.1612443
50
86.7108573
51
136.75155
0
ARC
8
DEFAULT_255_2_778
10
5.4697715
20
26.8432159
40
0.2029878
50
140.8067439
51
183.4525446
0
ARC
8
DEFAULT_255_2_778
10
5.4474185
20
26.8437114
40
0.2900455
50
137.3314061
51
182.5134673
0
ARC
8
DEFAULT_255_2_778
10
5.4262231
20
26.8503965
40
0.2700953
50
87.2987837
51
135.3263813
0
ARC
8
DEFAULT_255_2_778
10
5.4528951
20
26.8618825
40
0.2586852
50
47.2013419
51
93.0897137
0
ARC
8
DEFAULT_255_2_778
10
5.4542598
20
26.8803884
40
0.2444534
50
357.3512975
51
44.4880437
0
ARC
8
DEFAULT_255_2_778
10
5.3417974
20
26.8823711
40
0.3569018
50
330.6354334
51
357.8676661
0
ARC
8
DEFAULT_255_2_778
10
4.8679511
20
27.1288469
40
0.8909031
50
319.5505389
51
331.7641668
0
ARC
8
DEFAULT_255_2_778
10
4.4945802
20
27.4229793
40
1.3659806
50
319.7117979
51
320.3225979
0
LINE
8
DEFAULT_255_2_778
10
5.7381521
20
26.2668917
11
5.7381521
21
26.1697917
0
LINE
8
DEFAULT_255_2_778
10
5.7381521
20
26.1697917
11
5.1740521
21
26.1697917
0
LINE
8
DEFAULT_255_2_778
10
5.1740521
20
26.1697917
11
5.1740521
21
26.2554917
0
LINE
8
DEFAULT_255_2_778
10
5.1740521
20
26.2554917
11
5.4722521
21
26.6158917
0
LINE
8
DEFAULT_255_2_778
10
5.2671521
20
26.8309917
11
5.1576521
21
26.8309917
0
LINE
8
DEFAULT_255_2_778
10
5.5365521
20
26.5396917
11
5.3058521
21
26.2673917
0
LINE
8
DEFAULT_255_2_778
10
5.3058521
20
26.2673917
11
5.7381521
21
26.2673917
0
LINE
8
DEFAULT_255_2_778
10
5.7381521
20
26.2673917
11
5.7381521
21
26.2668917
0
LINE
8
DEFAULT_255_2_778
10
6.3160146
20
27.1067448
11
6.3160146
21
26.4844448
0
LINE
8
DEFAULT_255_2_778
10
6.3160146
20
26.4844448
11
6.4356146
21
26.4844448
0
LINE
8
DEFAULT_255_2_778
10
6.4356146
20
26.4844448
11
6.4356146
21
26.3873448
0
LINE
8
DEFAULT_255_2_778
10
6.4356146
20
26.3873448
11
6.3160146
21
26.3873448
0
LINE
8
DEFAULT_255_2_778
10
6.3160146
20
26.3873448
11
6.3160146
21
26.1698448
0
LINE
8
DEFAULT_255_2_778
10
6.3160146
20
26.1698448
11
6.2059146
21
26.1698448
0
LINE
8
DEFAULT_255_2_778
10
6.2059146
20
26.1698448
11
6.2059146
21
26.3873448
0
LINE
8
DEFAULT_255_2_778
10
6.2059146
20
26.3873448
11
5.8138146
21
26.3873448
0
LINE
8
DEFAULT_255_2_778
10
5.8138146
20
26.3873448
11
5.8138146
21
26.4574448
0
LINE
8
DEFAULT_255_2_778
10
5.8138146
20
26.4574448
11
6.1993146
21
27.1067448
0
LINE
8
DEFAULT_255_2_778
10
6.1993146
20
27.1067448
11
6.3157146
21
27.1067448
0
LINE
8
DEFAULT_255_2_778
10
6.3157146
20
27.1067448
11
6.3160146
21
27.1067448
0
LINE
8
DEFAULT_255_2_778
10
6.1929146
20
26.9181448
11
5.9382146
21
26.4844448
0
LINE
8
DEFAULT_255_2_778
10
5.9382146
20
26.4844448
11
6.2062146
21
26.4844448
0
LINE
8
DEFAULT_255_2_778
10
6.2062146
20
26.4844448
11
6.2062146
21
26.9440448
0
LINE
8
DEFAULT_255_2_778
10
6.2062146
20
26.9440448
11
6.1932146
21
26.9183448
0
LINE
8
DEFAULT_255_2_778
10
6.1932146
20
26.9183448
11
6.1929146
21
26.9181448
0
LINE
8
DEFAULT_255_2_778
10
6.6027417
20
27.1067771
11
6.8475417
21
26.3339771
0
LINE
8
DEFAULT_255_2_778
10
6.8475417
20
26.3339771
11
7.0935417
21
27.1067771
0
LINE
8
DEFAULT_255_2_778
10
7.0935417
20
27.1067771
11
7.2176417
21
27.1067771
0
LINE
8
DEFAULT_255_2_778
10
7.2176417
20
27.1067771
11
6.8983417
21
26.1695771
0
LINE
8
DEFAULT_255_2_778
10
6.8983417
20
26.1695771
11
6.7977417
21
26.1695771
0
LINE
8
DEFAULT_255_2_778
10
6.7977417
20
26.1695771
11
6.4789417
21
27.1067771
0
LINE
8
DEFAULT_255_2_778
10
6.4789417
20
27.1067771
11
6.6025417
21
27.1067771
0
LINE
8
DEFAULT_255_2_778
10
6.6025417
20
27.1067771
11
6.6027417
21
27.1067771
0
ARC
8
DEFAULT_255_2_778
10
7.5833347
20
26.7401447
40
0.3667001
50
58.4907617
51
91.1015021
0
ARC
8
DEFAULT_255_2_778
10
7.5851105
20
26.7534497
40
0.3544706
50
24.2570289
51
57.6114633
0
ARC
8
DEFAULT_255_2_778
10
7.4205411
20
26.6782438
40
0.5354081
50
359.1153202
51
24.3593314
0
ARC
8
DEFAULT_255_2_778
10
7.417589
20
26.5983945
40
0.5384254
50
335.822809
51
1.2539236
0
ARC
8
DEFAULT_255_2_778
10
7.5901256
20
26.5215178
40
0.3495379
50
301.871161
51
335.7358101
0
ARC
8
DEFAULT_255_2_778
10
7.5753906
20
26.5595322
40
0.3896747
50
269.4257889
51
300.7597191
0
ARC
8
DEFAULT_255_2_778
10
7.5791167
20
26.5201596
40
0.2498174
50
267.0328814
51
319.999112
0
ARC
8
DEFAULT_255_2_778
10
7.4995393
20
26.5667817
40
0.3410947
50
322.5932472
51
355.8469589
0
ARC
8
DEFAULT_255_2_778
10
7.2120244
20
26.610793
40
0.6314636
50
353.7528998
51
0.1618764
0
ARC
8
DEFAULT_255_2_778
10
7.365933
20
26.6798191
40
0.4777171
50
358.49558
51
20.8294228
0
ARC
8
DEFAULT_255_2_778
10
7.5508594
20
26.7433476
40
0.282359
50
22.1243415
51
37.5614594
0
ARC
8
DEFAULT_255_2_778
10
7.5890756
20
26.7688376
40
0.2365463
50
38.310191
51
92.3962673
0
LINE
8
DEFAULT_255_2_778
10
7.5714854
20
26.1695771
11
7.3330854
21
26.1695771
0
LINE
8
DEFAULT_255_2_778
10
7.3330854
20
26.1695771
11
7.3330854
21
27.1067771
0
LINE
8
DEFAULT_255_2_778
10
7.3330854
20
27.1067771
11
7.5762854
21
27.1067771
0
LINE
8
DEFAULT_255_2_778
10
7.9558854
20
26.6699771
11
7.9558854
21
26.6101771
0
LINE
8
DEFAULT_255_2_778
10
7.5714854
20
26.1698771
11
7.5714854
21
26.1695771
0
LINE
8
DEFAULT_255_2_778
10
7.5791854
20
27.0048771
11
7.4465854
21
27.0048771
0
LINE
8
DEFAULT_255_2_778
10
7.4465854
20
27.0048771
11
7.4465854
21
26.2706771
0
LINE
8
DEFAULT_255_2_778
10
7.4465854
20
26.2706771
11
7.5661854
21
26.2706771
0
LINE
8
DEFAULT_255_2_778
10
7.8434854
20
26.6125771
11
7.8434854
21
26.6672771
0
LINE
8
DEFAULT_255_2_778
10
7.5791854
20
27.0051771
11
7.5791854
21
27.0048771
0
ARC
8
DEFAULT_255_2_778
10
8.3796323
20
26.4938104
40
0.3817876
50
324.1571476
51
355.972609
0
ARC
8
DEFAULT_255_2_778
10
8.4640553
20
26.4435799
40
0.2840727
50
313.5220199
51
322.3987157
0
ARC
8
DEFAULT_255_2_778
10
8.4490933
20
26.4705858
40
0.3140537
50
267.2411358
51
312.1083188
0
ARC
8
DEFAULT_255_2_778
10
8.4255188
20
26.4499968
40
0.2932227
50
216.423499
51
271.6529779
0
ARC
8
DEFAULT_255_2_778
10
8.5590918
20
26.5476204
40
0.4586668
50
184.5716369
51
216.3290686
0
ARC
8
DEFAULT_255_2_778
10
8.8558048
20
26.5927196
40
0.7583298
50
179.865771
51
186.18163
0
ARC
8
DEFAULT_255_2_778
10
8.6708593
20
26.6964643
40
0.573503
50
157.6662444
51
181.1757818
0
ARC
8
DEFAULT_255_2_778
10
8.4554662
20
26.7874032
40
0.339718
50
124.7604497
51
158.0486779
0
ARC
8
DEFAULT_255_2_778
10
8.4376246
20
26.8028284
40
0.3169274
50
88.8876468
51
123.7004481
0
ARC
8
DEFAULT_255_2_778
10
8.4576451
20
26.8244035
40
0.2956181
50
45.8169317
51
92.6888363
0
ARC
8
DEFAULT_255_2_778
10
8.4058944
20
26.7947948
40
0.3533031
50
4.7499853
51
43.1441061
0
ARC
8
DEFAULT_255_2_778
10
8.1979853
20
26.7542343
40
0.5643341
50
5.2218963
51
7.1065799
0
ARC
8
DEFAULT_255_2_778
10
8.3070999
20
26.7729137
40
0.3404495
50
5.5087621
51
28.7693801
0
ARC
8
DEFAULT_255_2_778
10
8.4621041
20
26.851214
40
0.1670002
50
30.8166798
51
44.2744002
0
ARC
8
DEFAULT_255_2_778
10
8.4545374
20
26.8334594
40
0.1849617
50
46.5766509
51
93.3971858
0
ARC
8
DEFAULT_255_2_778
10
8.4371423
20
26.8205195
40
0.1976814
50
88.1346223
51
146.1974453
0
ARC
8
DEFAULT_255_2_778
10
8.5709171
20
26.7349954
40
0.3564385
50
146.7369396
51
174.9295537
0
ARC
8
DEFAULT_255_2_778
10
8.903113
20
26.6842731
40
0.6921409
50
173.1772985
51
180.2215984
0
ARC
8
DEFAULT_255_2_778
10
8.726663
20
26.5781807
40
0.5158402
50
178.5986298
51
199.6525052
0
ARC
8
DEFAULT_255_2_778
10
8.5283901
20
26.5147776
40
0.3078723
50
200.9501709
51
212.7567392
0
ARC
8
DEFAULT_255_2_778
10
8.4282643
20
26.4427207
40
0.1847925
50
210.7649306
51
271.5544169
0
ARC
8
DEFAULT_255_2_778
10
8.446453
20
26.4682631
40
0.2106794
50
266.4143729
51
307.4170199
0
ARC
8
DEFAULT_255_2_778
10
8.4785336
20
26.4130533
40
0.1475581
50
310.5508063
51
312.6343246
0
ARC
8
DEFAULT_255_2_778
10
8.4211633
20
26.4556948
40
0.2181941
50
316.1355459
51
348.8169838
0
ARC
8
DEFAULT_255_2_778
10
8.1368807
20
26.5384471
40
0.513789
50
345.9111541
51
352.0061534
0
LINE
8
DEFAULT_255_2_778
10
8.6464771
20
26.4669961
11
8.7604771
21
26.4669961
0
LINE
8
DEFAULT_255_2_778
10
8.0974771
20
26.5944961
11
8.0974771
21
26.6846961
0
LINE
8
DEFAULT_255_2_778
10
8.7599771
20
26.8055961
11
8.6459771
21
26.8055961
0
LINE
8
DEFAULT_255_2_778
10
8.2109771
20
26.6815961
11
8.2109771
21
26.5907961
0
LINE
8
DEFAULT_255_2_778
10
8.6456771
20
26.4669961
11
8.6464771
21
26.4669961
0
ARC
8
DEFAULT_255_2_778
10
8.8360619
20
26.557715
40
0.8910876
50
348.9563519
51
0.7511043
0
ARC
8
DEFAULT_255_2_778
10
9.3364888
20
26.4567612
40
0.3806031
50
328.6057873
51
349.4417153
0
ARC
8
DEFAULT_255_2_778
10
9.4718988
20
26.3831389
40
0.2267956
50
265.9986235
51
326.6616606
0
ARC
8
DEFAULT_255_2_778
10
9.4407194
20
26.3842932
40
0.2279148
50
214.1361804
51
273.8626616
0
ARC
8
DEFAULT_255_2_778
10
9.5985477
20
26.4705558
40
0.4073194
50
187.975207
51
211.7206391
0
ARC
8
DEFAULT_255_2_778
10
10.0784782
20
26.5576936
40
0.8949151
50
180.2687391
51
189.2370443
0
ARC
8
DEFAULT_255_2_778
10
10.0421168
20
26.7246865
40
0.8586304
50
168.4032468
51
180.8134844
0
ARC
8
DEFAULT_255_2_778
10
9.5623151
20
26.8253416
40
0.3683954
50
148.2134555
51
168.7375423
0
ARC
8
DEFAULT_255_2_778
10
9.4386248
20
26.8919715
40
0.2283179
50
85.8688084
51
146.0753663
0
ARC
8
DEFAULT_255_2_778
10
9.4718213
20
26.8906651
40
0.2296426
50
35.1565385
51
94.1824274
0
ARC
8
DEFAULT_255_2_778
10
9.3316461
20
26.8174382
40
0.3869741
50
8.2885542
51
32.0686119
0
ARC
8
DEFAULT_255_2_778
10
8.8220673
20
26.7233588
40
0.9050057
50
0.0340166
51
9.5318419
0
ARC
8
DEFAULT_255_2_778
10
8.9120228
20
26.7441625
40
0.7055482
50
359.044439
51
11.0862415
0
ARC
8
DEFAULT_255_2_778
10
9.348551
20
26.8295087
40
0.2607552
50
11.1268679
51
28.1918734
0
ARC
8
DEFAULT_255_2_778
10
9.4622266
20
26.8900363
40
0.1319705
50
28.3464558
51
93.2377951
0
ARC
8
DEFAULT_255_2_778
10
9.4472872
20
26.8916675
40
0.1303438
50
86.7076775
51
151.9323001
0
ARC
8
DEFAULT_255_2_778
10
9.6315372
20
26.8027512
40
0.3348621
50
153.3411736
51
175.1979124
0
ARC
8
DEFAULT_255_2_778
10
10.1126963
20
26.7378284
40
0.8201307
50
173.4919775
51
179.7577374
0
ARC
8
DEFAULT_255_2_778
10
9.9848122
20
26.5388671
40
0.692342
50
179.0127497
51
191.6982254
0
ARC
8
DEFAULT_255_2_778
10
9.5739389
20
26.4549987
40
0.2730005
50
191.9460964
51
208.0800369
0
ARC
8
DEFAULT_255_2_778
10
9.4509286
20
26.3858704
40
0.1319669
50
206.7384139
51
272.1471564
0
ARC
8
DEFAULT_255_2_778
10
9.4618512
20
26.3836512
40
0.1297928
50
267.3599967
51
331.7391961
0
ARC
8
DEFAULT_255_2_778
10
9.2888341
20
26.4713429
40
0.3237412
50
332.567873
51
354.7712891
0
ARC
8
DEFAULT_255_2_778
10
8.7943514
20
26.5414957
40
0.8229331
50
353.0445041
51
359.693684
0
LINE
8
DEFAULT_255_2_778
10
9.7270729
20
26.7238961
11
9.7270729
21
26.5693961
0
LINE
8
DEFAULT_255_2_778
10
9.1835729
20
26.5534961
11
9.1835729
21
26.7124961
0
LINE
8
DEFAULT_255_2_778
10
9.7270729
20
26.7238961
11
9.7270729
21
26.7238961
0
LINE
8
DEFAULT_255_2_778
10
9.6174729
20
26.5373961
11
9.6174729
21
26.7323961
0
LINE
8
DEFAULT_255_2_778
10
9.2925729
20
26.7412961
11
9.2925729
21
26.5507961
0
LINE
8
DEFAULT_255_2_778
10
9.6172729
20
26.5370961
11
9.6174729
21
26.5373961
0
ARC
8
DEFAULT_255_2_778
10
9.9595735
20
26.2350117
40
0.0789189
50
141.7442702
51
181.9864813
0
ARC
8
DEFAULT_255_2_778
10
9.9438079
20
26.2428249
40
0.0618075
50
85.9231276
51
138.3807866
0
ARC
8
DEFAULT_255_2_778
10
9.9524695
20
26.2416099
40
0.0630108
50
42.1269766
51
93.8833336
0
ARC
8
DEFAULT_255_2_778
10
9.9395758
20
26.2348864
40
0.0771704
50
358.0615362
51
39.406919
0
ARC
8
DEFAULT_255_2_778
10
9.9447274
20
26.2298782
40
0.0720146
50
319.1512782
51
1.9081177
0
ARC
8
DEFAULT_255_2_778
10
9.9526277
20
26.2268358
40
0.0641127
50
266.0417991
51
316.5892695
0
ARC
8
DEFAULT_255_2_778
10
9.9436497
20
26.2255812
40
0.0628702
50
222.9101035
51
274.1523899
0
ARC
8
DEFAULT_255_2_778
10
9.9542397
20
26.2297479
40
0.0735811
50
178.0309994
51
219.6702614
0
LINE
8
DEFAULT_255_2_778
10
9.8807021
20
26.232276
11
9.8807021
21
26.232276
0
LINE
8
DEFAULT_255_2_778
10
10.5453354
20
27.111226
11
10.5453354
21
26.169526
0
LINE
8
DEFAULT_255_2_778
10
10.5453354
20
26.169526
11
10.4353354
21
26.169526
0
LINE
8
DEFAULT_255_2_778
10
10.4353354
20
26.169526
11
10.4353354
21
26.963026
0
LINE
8
DEFAULT_255_2_778
10
10.4353354
20
26.963026
11
10.2146354
21
26.874926
0
LINE
8
DEFAULT_255_2_778
10
10.2146354
20
26.874926
11
10.2146354
21
26.983126
0
LINE
8
DEFAULT_255_2_778
10
10.2146354
20
26.983126
11
10.5281354
21
27.111226
0
LINE
8
DEFAULT_255_2_778
10
10.5281354
20
27.111226
11
10.5453354
21
27.111226
0
LINE
8
DEFAULT_255_2_778
10
10.5453354
20
27.111226
11
10.5453354
21
27.111226
0
LINE
8
DEFAULT_255_2_778
10
11.4521167
20
26.1695771
11
11.3698167
21
26.4140771
0
LINE
8
DEFAULT_255_2_778
10
11.3698167
20
26.4140771
11
11.0092167
21
26.4140771
0
LINE
8
DEFAULT_255_2_778
10
11.0092167
20
26.4140771
11
10.9282167
21
26.1695771
0
LINE
8
DEFAULT_255_2_778
10
10.9282167
20
26.1695771
11
10.8110167
21
26.1695771
0
LINE
8
DEFAULT_255_2_778
10
10.8110167
20
26.1695771
11
11.1399167
21
27.1067771
0
LINE
8
DEFAULT_255_2_778
10
11.1399167
20
27.1067771
11
11.2394167
21
27.1067771
0
LINE
8
DEFAULT_255_2_778
10
11.2394167
20
27.1067771
11
11.5688167
21
26.1695771
0
LINE
8
DEFAULT_255_2_778
10
11.5688167
20
26.1695771
11
11.4523167
21
26.1695771
0
LINE
8
DEFAULT_255_2_778
10
11.4523167
20
26.1695771
11
11.4521167
21
26.1695771
0
LINE
8
DEFAULT_255_2_778
10
11.1896167
20
26.9540771
11
11.0436167
21
26.5156771
0
LINE
8
DEFAULT_255_2_778
10
11.0436167
20
26.5156771
11
11.3362167
21
26.5156771
0
LINE
8
DEFAULT_255_2_778
10
11.3362167
20
26.5156771
11
11.1896167
21
26.9540771
0
LINE
8
DEFAULT_255_2_778
10
11.1896167
20
26.9540771
11
11.1896167
21
26.9540771
0
LINE
8
DEFAULT_255_2_778
10
13.4044021
20
17.6148552
11
13.7105021
21
16.6485552
0
LINE
8
DEFAULT_255_2_778
10
13.7105021
20
16.6485552
11
14.0180021
21
17.6148552
0
LINE
8
DEFAULT_255_2_778
10
14.0180021
20
17.6148552
11
14.1733021
21
17.6148552
0
LINE
8
DEFAULT_255_2_778
10
14.1733021
20
17.6148552
11
13.7740021
21
16.4435552
0
LINE
8
DEFAULT_255_2_778
10
13.7740021
20
16.4435552
11
13.6484021
21
16.4435552
0
LINE
8
DEFAULT_255_2_778
10
13.6484021
20
16.4435552
11
13.2499021
21
17.6148552
0
LINE
8
DEFAULT_255_2_778
10
13.2499021
20
17.6148552
11
13.4044021
21
17.6148552
0
LINE
8
DEFAULT_255_2_778
10
13.4044021
20
17.6148552
11
13.4044021
21
17.6148552
0
ARC
8
DEFAULT_255_2_778
10
12.0022449
20
20.4627547
40
1.3167119
50
320.4775549
51
326.8384444
0
ARC
8
DEFAULT_255_2_778
10
12.6721986
20
20.0216819
40
0.5146124
50
327.1468692
51
333.3707966
0
ARC
8
DEFAULT_255_2_778
10
12.8675201
20
19.9239497
40
0.2962045
50
333.3358472
51
359.8791573
0
ARC
8
DEFAULT_255_2_778
10
12.9429919
20
19.9323039
40
0.2209146
50
357.6706216
51
39.8376625
0
ARC
8
DEFAULT_255_2_778
10
12.9833652
20
19.9615381
40
0.1712197
50
40.9808014
51
92.2564307
0
ARC
8
DEFAULT_255_2_778
10
12.9649677
20
19.9317236
40
0.2012392
50
86.6794404
51
136.8610395
0
ARC
8
DEFAULT_255_2_778
10
13.0106188
20
19.9111223
40
0.2491633
50
140.5847859
51
182.0202137
0
ARC
8
DEFAULT_255_2_778
10
13.1972549
20
19.893662
40
0.435731
50
178.8589829
51
180.0048709
0
ARC
8
DEFAULT_255_2_778
10
12.9858655
20
19.9095257
40
0.3614914
50
137.2243803
51
182.5210469
0
ARC
8
DEFAULT_255_2_778
10
12.9608902
20
19.9167066
40
0.3384842
50
87.3357618
51
135.2451205
0
ARC
8
DEFAULT_255_2_778
10
12.99114
20
19.9188008
40
0.3363375
50
53.5961417
51
92.4736106
0
ARC
8
DEFAULT_255_2_778
10
13.0180134
20
19.9696844
40
0.2795666
50
45.5115714
51
51.8397147
0
ARC
8
DEFAULT_255_2_778
10
12.9961647
20
19.9550266
40
0.3053804
50
357.372073
51
44.5143101
0
ARC
8
DEFAULT_255_2_778
10
12.875012
20
19.9541015
40
0.4264125
50
332.8539887
51
358.2426767
0
ARC
8
DEFAULT_255_2_778
10
12.3864255
20
20.1870919
40
0.9676094
50
321.8964938
51
333.7775577
0
ARC
8
DEFAULT_255_2_778
10
11.905362
20
20.5424796
40
1.5655555
50
319.6582754
51
322.5260975
0
LINE
8
DEFAULT_255_2_778
10
13.350524
20
19.188825
11
13.350524
21
19.067425
0
LINE
8
DEFAULT_255_2_778
10
13.350524
20
19.067425
11
12.645324
21
19.067425
0
LINE
8
DEFAULT_255_2_778
10
12.645324
20
19.067425
11
12.645324
21
19.174225
0
LINE
8
DEFAULT_255_2_778
10
12.645324
20
19.174225
11
13.017924
21
19.624825
0
LINE
8
DEFAULT_255_2_778
10
12.761524
20
19.893625
11
12.624724
21
19.893625
0
LINE
8
DEFAULT_255_2_778
10
13.098624
20
19.529025
11
12.810224
21
19.188825
0
LINE
8
DEFAULT_255_2_778
10
12.810224
20
19.188825
11
13.350524
21
19.188825
0
LINE
8
DEFAULT_255_2_778
10
13.350524
20
19.188825
11
13.350524
21
19.188825
0
LINE
8
DEFAULT_255_2_778
10
14.0724917
20
20.2386552
11
14.0724917
21
19.4607552
0
LINE
8
DEFAULT_255_2_778
10
14.0724917
20
19.4607552
11
14.2216917
21
19.4607552
0
LINE
8
DEFAULT_255_2_778
10
14.2216917
20
19.4607552
11
14.2216917
21
19.3393552
0
LINE
8
DEFAULT_255_2_778
10
14.2216917
20
19.3393552
11
14.0724917
21
19.3393552
0
LINE
8
DEFAULT_255_2_778
10
14.0724917
20
19.3393552
11
14.0724917
21
19.0673552
0
LINE
8
DEFAULT_255_2_778
10
14.0724917
20
19.0673552
11
13.9348917
21
19.0673552
0
LINE
8
DEFAULT_255_2_778
10
13.9348917
20
19.0673552
11
13.9348917
21
19.3393552
0
LINE
8
DEFAULT_255_2_778
10
13.9348917
20
19.3393552
11
13.4448917
21
19.3393552
0
LINE
8
DEFAULT_255_2_778
10
13.4448917
20
19.3393552
11
13.4448917
21
19.4269552
0
LINE
8
DEFAULT_255_2_778
10
13.4448917
20
19.4269552
11
13.9269917
21
20.2386552
0
LINE
8
DEFAULT_255_2_778
10
13.9269917
20
20.2386552
11
14.0724917
21
20.2386552
0
LINE
8
DEFAULT_255_2_778
10
14.0724917
20
20.2386552
11
14.0724917
21
20.2386552
0
LINE
8
DEFAULT_255_2_778
10
13.9187917
20
20.0029552
11
13.6001917
21
19.4607552
0
LINE
8
DEFAULT_255_2_778
10
13.6001917
20
19.4607552
11
13.9351917
21
19.4607552
0
LINE
8
DEFAULT_255_2_778
10
13.9351917
20
19.4607552
11
13.9351917
21
20.0351552
0
LINE
8
DEFAULT_255_2_778
10
13.9351917
20
20.0351552
11
13.9189917
21
20.0029552
0
LINE
8
DEFAULT_255_2_778
10
13.9189917
20
20.0029552
11
13.9187917
21
20.0029552
0
LINE
8
DEFAULT_255_2_778
10
6.1067021
20
13.7555552
11
6.4128021
21
12.7892552
0
LINE
8
DEFAULT_255_2_778
10
6.4128021
20
12.7892552
11
6.7203021
21
13.7555552
0
LINE
8
DEFAULT_255_2_778
10
6.7203021
20
13.7555552
11
6.8756021
21
13.7555552
0
LINE
8
DEFAULT_255_2_778
10
6.8756021
20
13.7555552
11
6.4763021
21
12.5842552
0
LINE
8
DEFAULT_255_2_778
10
6.4763021
20
12.5842552
11
6.3507021
21
12.5842552
0
LINE
8
DEFAULT_255_2_778
10
6.3507021
20
12.5842552
11
5.9522021
21
13.7555552
0
LINE
8
DEFAULT_255_2_778
10
5.9522021
20
13.7555552
11
6.1067021
21
13.7555552
0
LINE
8
DEFAULT_255_2_778
10
6.1067021
20
13.7555552
11
6.1067021
21
13.7555552
0
ARC
8
DEFAULT_255_2_778
10
5.8932998
20
15.6957369
40
1.1591386
50
350.2041399
51
0.5993748
0
ARC
8
DEFAULT_255_2_778
10
6.5312643
20
15.5794061
40
0.5107197
50
330.5256382
51
350.8876506
0
ARC
8
DEFAULT_255_2_778
10
6.6923718
20
15.498436
40
0.33074
50
327.1981579
51
329.0045026
0
ARC
8
DEFAULT_255_2_778
10
6.7335799
20
15.4750049
40
0.2834213
50
266.0335506
51
326.6667011
0
ARC
8
DEFAULT_255_2_778
10
6.6947554
20
15.4767382
40
0.2851242
50
214.1786524
51
273.8651129
0
ARC
8
DEFAULT_255_2_778
10
6.8723371
20
15.5756157
40
0.4879134
50
189.8404857
51
212.0690608
0
ARC
8
DEFAULT_255_2_778
10
7.4402777
20
15.6896926
40
1.0671047
50
180.1036331
51
190.663847
0
ARC
8
DEFAULT_255_2_778
10
7.5042542
20
15.8984583
40
1.1311428
50
170.0832982
51
180.6076364
0
ARC
8
DEFAULT_255_2_778
10
6.8792708
20
16.0141787
40
0.4956092
50
149.7778037
51
170.8184747
0
ARC
8
DEFAULT_255_2_778
10
6.7249258
20
16.0937876
40
0.3222943
50
146.8215767
51
148.1950791
0
ARC
8
DEFAULT_255_2_778
10
6.6907644
20
16.1125263
40
0.2834634
50
86.7407626
51
146.2129656
0
ARC
8
DEFAULT_255_2_778
10
6.7123635
20
15.9137245
40
0.4818381
50
89.9986342
51
90.6520232
0
ARC
8
DEFAULT_255_2_778
10
6.7267199
20
16.0832665
40
0.3126253
50
53.2103247
51
92.629959
0
ARC
8
DEFAULT_255_2_778
10
6.7464522
20
16.1259256
40
0.266823
50
33.801149
51
51.1172274
0
ARC
8
DEFAULT_255_2_778
10
6.5784846
20
16.0267453
40
0.4617065
50
10.2066653
51
32.4327022
0
ARC
8
DEFAULT_255_2_778
10
5.9780667
20
15.9038873
40
1.0744912
50
359.9318554
51
10.980959
0
ARC
8
DEFAULT_255_2_778
10
5.6492981
20
15.8881608
40
1.4033334
50
0.5145114
51
0.5899198
0
ARC
8
DEFAULT_255_2_778
10
5.9767716
20
15.9232798
40
0.938879
50
359.2727182
51
9.5543008
0
ARC
8
DEFAULT_255_2_778
10
6.5578215
20
16.0245077
40
0.3491033
50
8.9996
51
27.7142563
0
ARC
8
DEFAULT_255_2_778
10
6.7218867
20
16.1091233
40
0.1645144
50
28.1991202
51
93.3145203
0
ARC
8
DEFAULT_255_2_778
10
6.7028543
20
16.1113684
40
0.1622736
50
86.6364884
51
152.0754604
0
ARC
8
DEFAULT_255_2_778
10
6.9082477
20
16.0084942
40
0.3919646
50
152.8489513
51
173.5402309
0
ARC
8
DEFAULT_255_2_778
10
7.4749488
20
15.9225937
40
0.9649738
50
172.2577297
51
179.9899809
0
ARC
8
DEFAULT_255_2_778
10
7.4295624
20
15.6725476
40
0.9196672
50
179.2452118
51
190.0913584
0
ARC
8
DEFAULT_255_2_778
10
6.8817595
20
15.5728506
40
0.3628767
50
189.7488051
51
207.7014039
0
ARC
8
DEFAULT_255_2_778
10
6.7077331
20
15.4785035
40
0.1649591
50
206.7862389
51
272.1685525
0
ARC
8
DEFAULT_255_2_778
10
6.7215648
20
15.4757797
40
0.1622948
50
267.3195678
51
331.7099572
0
ARC
8
DEFAULT_255_2_778
10
6.5325203
20
15.5746235
40
0.375614
50
332.099986
51
352.5385837
0
ARC
8
DEFAULT_255_2_778
10
5.9473096
20
15.6709232
40
0.968571
50
351.3855935
51
359.8071092
0
LINE
8
DEFAULT_255_2_778
10
7.052375
20
15.9010625
11
7.052375
21
15.7078625
0
LINE
8
DEFAULT_255_2_778
10
6.373175
20
15.6877625
11
6.373175
21
15.8864625
0
LINE
8
DEFAULT_255_2_778
10
7.052575
20
15.9007625
11
7.052375
21
15.9010625
0
LINE
8
DEFAULT_255_2_778
10
6.915575
20
15.6676625
11
6.915575
21
15.9113625
0
LINE
8
DEFAULT_255_2_778
10
6.509975
20
15.9227625
11
6.509975
21
15.6846625
0
LINE
8
DEFAULT_255_2_778
10
6.915875
20
15.6676625
11
6.915575
21
15.6676625
0
ENDSEC
0
EOF