0
SECTION
2
HEADER
9
$MEASUREMENT
70
1
0
ENDSEC
0
SECTION
2
TABLES
0
TABLE
2
LTYPE
0
LTYPE
72
65
70
64
2
CONTINUOUS
3
______
73
0
40
0
0
ENDTAB
0
TABLE
2
LAYER
0
LAYER
2
DEFAULT_255_2_778
70
0
62
255
6
CONTINUOUS
0
ENDTAB
0
ENDSEC
0
SECTION
2
ENTITIES
0
LINE
8
DEFAULT_255_2_778
10
2.7879845
20
98.7399308
11
2.7879845
21
96.1999308
0
LINE
8
DEFAULT_255_2_778
10
8.0906845
20
74.7038308
11
8.0906845
21
64.2038308
0
LINE
8
DEFAULT_255_2_778
10
1.4906845
20
64.2038308
11
1.4906845
21
74.7038308
0
LINE
8
DEFAULT_255_2_778
10
8.5908043
20
64.2037946
11
8.5908043
21
74.7037946
0
LINE
8
DEFAULT_255_2_778
10
8.5908043
20
74.7037946
11
0.1908043
21
74.7037946
0
LINE
8
DEFAULT_255_2_778
10
0.1908043
20
74.7037946
11
0.1908043
21
64.2037946
0
LINE
8
DEFAULT_255_2_778
10
0.1908043
20
64.2037946
11
8.5908043
21
64.2037946
0
LINE
8
DEFAULT_255_2_778
10
0.6908439
20
64.2037946
11
0.6908439
21
74.7037946
0
LINE
8
DEFAULT_255_2_778
10
8.5907439
20
74.4047946
11
8.8045439
21
74.4018946
0
LINE
8
DEFAULT_255_2_778
10
8.5907439
20
64.5027946
11
8.8045439
21
64.5056946
0
LINE
8
DEFAULT_255_2_778
10
7.7906439
20
74.7037946
11
7.7906439
21
64.2037946
0
ARC
8
DEFAULT_255_2_778
10
5.5891432
20
72.9569884
40
1.4732309
50
151.0645421
51
180.1219755
0
ARC
8
DEFAULT_255_2_778
10
5.5871624
20
72.9575582
40
1.4712218
50
98.3607945
51
151.0466413
0
ARC
8
DEFAULT_255_2_778
10
5.5903785
20
72.9297605
40
1.4991918
50
89.9794701
51
98.3279234
0
ARC
8
DEFAULT_255_2_778
10
5.5940732
20
72.9556073
40
1.4733482
50
61.2372792
51
90.1227893
0
ARC
8
DEFAULT_255_2_778
10
5.5945892
20
72.9577277
40
1.4712411
50
8.3799806
51
61.2151602
0
ARC
8
DEFAULT_255_2_778
10
5.5664089
20
72.9543917
40
1.4996068
50
359.9793797
51
8.3491625
0
ARC
8
DEFAULT_255_2_778
10
5.5928873
20
72.9507071
40
1.4731317
50
331.2351199
51
0.1223177
0
ARC
8
DEFAULT_255_2_778
10
5.5947891
20
72.9503117
40
1.4712743
50
278.3798745
51
331.2129776
0
ARC
8
DEFAULT_255_2_778
10
5.5914554
20
72.9784587
40
1.4996068
50
269.9793796
51
278.3491624
0
ARC
8
DEFAULT_255_2_778
10
5.5877509
20
72.9520984
40
1.4732497
50
241.2365534
51
270.1230817
0
ARC
8
DEFAULT_255_2_778
10
5.5872485
20
72.9499754
40
1.4711469
50
188.3795031
51
241.2139195
0
ARC
8
DEFAULT_255_2_778
10
5.6153807
20
72.953312
40
1.4994653
50
179.979364
51
188.3489829
0
ARC
8
DEFAULT_255_2_778
10
5.5885462
20
72.9568981
40
1.3726339
50
149.5795853
51
180.1271474
0
ARC
8
DEFAULT_255_2_778
10
5.5874128
20
72.957363
40
1.3714211
50
97.6731063
51
149.5723553
0
ARC
8
DEFAULT_255_2_778
10
5.5904889
20
72.930256
40
1.3986961
50
89.982517
51
97.6497246
0
ARC
8
DEFAULT_255_2_778
10
5.5939638
20
72.956353
40
1.3726024
50
59.5789141
51
90.1272366
0
ARC
8
DEFAULT_255_2_778
10
5.5943647
20
72.9574235
40
1.3714763
50
7.6708711
51
59.5707111
0
ARC
8
DEFAULT_255_2_778
10
5.5669929
20
72.9542797
40
1.3990229
50
359.9824837
51
7.6488366
0
ARC
8
DEFAULT_255_2_778
10
5.5936417
20
72.9508144
40
1.3723773
50
329.5330355
51
0.1268187
0
ARC
8
DEFAULT_255_2_778
10
5.5944863
20
72.9505344
40
1.3715074
50
277.6650677
51
329.5252307
0
ARC
8
DEFAULT_255_2_778
10
5.5913437
20
72.9778666
40
1.3990148
50
269.9824708
51
277.6433154
0
ARC
8
DEFAULT_255_2_778
10
5.5878801
20
72.9512574
40
1.3724087
50
239.5337058
51
270.1267298
0
ARC
8
DEFAULT_255_2_778
10
5.5875358
20
72.9503497
40
1.3714518
50
187.6672932
51
239.5268783
0
ARC
8
DEFAULT_255_2_778
10
5.6146003
20
72.9534249
40
1.3986849
50
179.982504
51
187.6442198
0
ARC
8
DEFAULT_255_2_778
10
5.5918916
20
72.9523309
40
1.198346
50
280.5263976
51
326.7090321
0
ARC
8
DEFAULT_255_2_778
10
5.593785
20
72.9528169
40
1.197031
50
326.639841
51
0.0495461
0
ARC
8
DEFAULT_255_2_778
10
5.5923523
20
72.9545855
40
1.1984636
50
359.9649369
51
44.9315843
0
ARC
8
DEFAULT_255_2_778
10
5.5919164
20
72.9561787
40
1.1976479
50
44.8628939
51
79.4685999
0
ARC
8
DEFAULT_255_2_778
10
5.5895976
20
72.9556655
40
1.198131
50
100.5213934
51
146.4090107
0
ARC
8
DEFAULT_255_2_778
10
5.588151
20
72.9549261
40
1.1973359
50
146.3412408
51
180.0513976
0
ARC
8
DEFAULT_255_2_778
10
5.5891926
20
72.9531261
40
1.1983771
50
179.9652924
51
225.2164999
0
ARC
8
DEFAULT_255_2_778
10
5.5896348
20
72.9515925
40
1.1976009
50
225.1498003
51
259.4720859
0
LINE
8
DEFAULT_255_2_778
10
4.1159157
20
72.953852
11
4.1159157
21
72.953852
0
LINE
8
DEFAULT_255_2_778
10
4.2159157
20
72.953852
11
4.2159157
21
72.953852
0
LINE
8
DEFAULT_255_2_778
10
6.9657157
20
72.953852
11
7.0657157
21
72.953852
0
LINE
8
DEFAULT_255_2_778
10
4.1156157
20
72.953852
11
4.2156157
21
72.953852
0
LINE
8
DEFAULT_255_2_778
10
5.3705157
20
74.311252
11
5.3705157
21
71.596552
0
LINE
8
DEFAULT_255_2_778
10
5.8105157
20
71.596552
11
5.8105157
21
74.311252
0
ARC
8
DEFAULT_255_2_778
10
5.5891432
20
69.4567884
40
1.4732309
50
151.0645421
51
180.1219755
0
ARC
8
DEFAULT_255_2_778
10
5.5871624
20
69.4573582
40
1.4712218
50
98.3607945
51
151.0466413
0
ARC
8
DEFAULT_255_2_778
10
5.5903785
20
69.4295605
40
1.4991918
50
89.9794701
51
98.3279234
0
ARC
8
DEFAULT_255_2_778
10
5.5940732
20
69.4554073
40
1.4733482
50
61.2372792
51
90.1227893
0
ARC
8
DEFAULT_255_2_778
10
5.5945892
20
69.4575277
40
1.4712411
50
8.3799806
51
61.2151602
0
ARC
8
DEFAULT_255_2_778
10
5.5664089
20
69.4541917
40
1.4996068
50
359.9793797
51
8.3491625
0
ARC
8
DEFAULT_255_2_778
10
5.5928873
20
69.4505071
40
1.4731317
50
331.2351199
51
0.1223177
0
ARC
8
DEFAULT_255_2_778
10
5.5947891
20
69.4501117
40
1.4712743
50
278.3798745
51
331.2129776
0
ARC
8
DEFAULT_255_2_778
10
5.5914554
20
69.4782587
40
1.4996068
50
269.9793796
51
278.3491624
0
ARC
8
DEFAULT_255_2_778
10
5.5877509
20
69.4518984
40
1.4732497
50
241.2365534
51
270.1230817
0
ARC
8
DEFAULT_255_2_778
10
5.5872485
20
69.4497754
40
1.4711469
50
188.3795031
51
241.2139195
0
ARC
8
DEFAULT_255_2_778
10
5.6153807
20
69.453112
40
1.4994653
50
179.979364
51
188.3489829
0
ARC
8
DEFAULT_255_2_778
10
5.5885462
20
69.4566981
40
1.3726339
50
149.5795853
51
180.1271474
0
ARC
8
DEFAULT_255_2_778
10
5.5874128
20
69.457163
40
1.3714211
50
97.6731063
51
149.5723553
0
ARC
8
DEFAULT_255_2_778
10
5.5904889
20
69.430056
40
1.3986961
50
89.982517
51
97.6497246
0
ARC
8
DEFAULT_255_2_778
10
5.5939638
20
69.456153
40
1.3726024
50
59.5789141
51
90.1272366
0
ARC
8
DEFAULT_255_2_778
10
5.5943647
20
69.4572235
40
1.3714763
50
7.6708711
51
59.5707111
0
ARC
8
DEFAULT_255_2_778
10
5.5669929
20
69.4540797
40
1.3990229
50
359.9824837
51
7.6488366
0
ARC
8
DEFAULT_255_2_778
10
5.5936417
20
69.4506144
40
1.3723773
50
329.5330355
51
0.1268187
0
ARC
8
DEFAULT_255_2_778
10
5.5944863
20
69.4503344
40
1.3715074
50
277.6650677
51
329.5252307
0
ARC
8
DEFAULT_255_2_778
10
5.5913437
20
69.4776666
40
1.3990148
50
269.9824708
51
277.6433154
0
ARC
8
DEFAULT_255_2_778
10
5.5878801
20
69.4510574
40
1.3724087
50
239.5337058
51
270.1267298
0
ARC
8
DEFAULT_255_2_778
10
5.5875358
20
69.4501497
40
1.3714518
50
187.6672932
51
239.5268783
0
ARC
8
DEFAULT_255_2_778
10
5.6146003
20
69.4532249
40
1.3986849
50
179.982504
51
187.6442198
0
ARC
8
DEFAULT_255_2_778
10
5.5918916
20
69.4521309
40
1.198346
50
280.5263976
51
326.7090321
0
ARC
8
DEFAULT_255_2_778
10
5.593785
20
69.4526169
40
1.197031
50
326.639841
51
0.0495461
0
ARC
8
DEFAULT_255_2_778
10
5.5923523
20
69.4543855
40
1.1984636
50
359.9649369
51
44.9315843
0
ARC
8
DEFAULT_255_2_778
10
5.5919164
20
69.4559787
40
1.1976479
50
44.8628939
51
79.4685999
0
ARC
8
DEFAULT_255_2_778
10
5.5895976
20
69.4554655
40
1.198131
50
100.5213934
51
146.4090107
0
ARC
8
DEFAULT_255_2_778
10
5.588151
20
69.4547261
40
1.1973359
50
146.3412408
51
180.0513976
0
ARC
8
DEFAULT_255_2_778
10
5.5891926
20
69.4529261
40
1.1983771
50
179.9652924
51
225.2164999
0
ARC
8
DEFAULT_255_2_778
10
5.5896348
20
69.4513925
40
1.1976009
50
225.1498003
51
259.4720859
0
LINE
8
DEFAULT_255_2_778
10
4.1159157
20
69.453652
11
4.1159157
21
69.453652
0
LINE
8
DEFAULT_255_2_778
10
4.2159157
20
69.453652
11
4.2159157
21
69.453652
0
LINE
8
DEFAULT_255_2_778
10
6.9657157
20
69.453652
11
7.0657157
21
69.453652
0
LINE
8
DEFAULT_255_2_778
10
4.1156157
20
69.453652
11
4.2156157
21
69.453652
0
LINE
8
DEFAULT_255_2_778
10
5.3705157
20
70.811052
11
5.3705157
21
68.096352
0
LINE
8
DEFAULT_255_2_778
10
5.8105157
20
68.096352
11
5.8105157
21
70.811052
0
ARC
8
DEFAULT_255_2_778
10
5.5891432
20
65.9568884
40
1.4732309
50
151.0645421
51
180.1219755
0
ARC
8
DEFAULT_255_2_778
10
5.5871624
20
65.9574582
40
1.4712218
50
98.3607945
51
151.0466413
0
ARC
8
DEFAULT_255_2_778
10
5.5903785
20
65.9296605
40
1.4991918
50
89.9794701
51
98.3279234
0
ARC
8
DEFAULT_255_2_778
10
5.5940732
20
65.9555073
40
1.4733482
50
61.2372792
51
90.1227893
0
ARC
8
DEFAULT_255_2_778
10
5.5945892
20
65.9576277
40
1.4712411
50
8.3799806
51
61.2151602
0
ARC
8
DEFAULT_255_2_778
10
5.5664089
20
65.9542917
40
1.4996068
50
359.9793797
51
8.3491625
0
ARC
8
DEFAULT_255_2_778
10
5.5928873
20
65.9506071
40
1.4731317
50
331.2351199
51
0.1223177
0
ARC
8
DEFAULT_255_2_778
10
5.5947891
20
65.9502117
40
1.4712743
50
278.3798745
51
331.2129776
0
ARC
8
DEFAULT_255_2_778
10
5.5914554
20
65.9783587
40
1.4996068
50
269.9793796
51
278.3491624
0
ARC
8
DEFAULT_255_2_778
10
5.5877509
20
65.9519984
40
1.4732497
50
241.2365534
51
270.1230817
0
ARC
8
DEFAULT_255_2_778
10
5.5872485
20
65.9498754
40
1.4711469
50
188.3795031
51
241.2139195
0
ARC
8
DEFAULT_255_2_778
10
5.6153807
20
65.953212
40
1.4994653
50
179.979364
51
188.3489829
0
ARC
8
DEFAULT_255_2_778
10
5.5885462
20
65.9567981
40
1.3726339
50
149.5795853
51
180.1271474
0
ARC
8
DEFAULT_255_2_778
10
5.5874128
20
65.957263
40
1.3714211
50
97.6731063
51
149.5723553
0
ARC
8
DEFAULT_255_2_778
10
5.5904889
20
65.930156
40
1.3986961
50
89.982517
51
97.6497246
0
ARC
8
DEFAULT_255_2_778
10
5.5939638
20
65.956253
40
1.3726024
50
59.5789141
51
90.1272366
0
ARC
8
DEFAULT_255_2_778
10
5.5943647
20
65.9573235
40
1.3714763
50
7.6708711
51
59.5707111
0
ARC
8
DEFAULT_255_2_778
10
5.5669929
20
65.9541797
40
1.3990229
50
359.9824837
51
7.6488366
0
ARC
8
DEFAULT_255_2_778
10
5.5936417
20
65.9507144
40
1.3723773
50
329.5330355
51
0.1268187
0
ARC
8
DEFAULT_255_2_778
10
5.5944863
20
65.9504344
40
1.3715074
50
277.6650677
51
329.5252307
0
ARC
8
DEFAULT_255_2_778
10
5.5913437
20
65.9777666
40
1.3990148
50
269.9824708
51
277.6433154
0
ARC
8
DEFAULT_255_2_778
10
5.5878801
20
65.9511574
40
1.3724087
50
239.5337058
51
270.1267298
0
ARC
8
DEFAULT_255_2_778
10
5.5875358
20
65.9502497
40
1.3714518
50
187.6672932
51
239.5268783
0
ARC
8
DEFAULT_255_2_778
10
5.6146003
20
65.9533249
40
1.3986849
50
179.982504
51
187.6442198
0
ARC
8
DEFAULT_255_2_778
10
5.5918916
20
65.9522309
40
1.198346
50
280.5263976
51
326.7090321
0
ARC
8
DEFAULT_255_2_778
10
5.593785
20
65.9527169
40
1.197031
50
326.639841
51
0.0495461
0
ARC
8
DEFAULT_255_2_778
10
5.5923523
20
65.9544855
40
1.1984636
50
359.9649369
51
44.9315843
0
ARC
8
DEFAULT_255_2_778
10
5.5919164
20
65.9560787
40
1.1976479
50
44.8628939
51
79.4685999
0
ARC
8
DEFAULT_255_2_778
10
5.5895976
20
65.9555655
40
1.198131
50
100.5213934
51
146.4090107
0
ARC
8
DEFAULT_255_2_778
10
5.588151
20
65.9548261
40
1.1973359
50
146.3412408
51
180.0513976
0
ARC
8
DEFAULT_255_2_778
10
5.5891926
20
65.9530261
40
1.1983771
50
179.9652924
51
225.2164999
0
ARC
8
DEFAULT_255_2_778
10
5.5896348
20
65.9514925
40
1.1976009
50
225.1498003
51
259.4720859
0
LINE
8
DEFAULT_255_2_778
10
4.1159157
20
65.953752
11
4.1159157
21
65.953752
0
LINE
8
DEFAULT_255_2_778
10
4.2159157
20
65.953752
11
4.2159157
21
65.953752
0
LINE
8
DEFAULT_255_2_778
10
6.9657157
20
65.953752
11
7.0657157
21
65.953752
0
LINE
8
DEFAULT_255_2_778
10
4.1156157
20
65.953752
11
4.2156157
21
65.953752
0
LINE
8
DEFAULT_255_2_778
10
5.3705157
20
67.311152
11
5.3705157
21
64.596452
0
LINE
8
DEFAULT_255_2_778
10
5.8105157
20
64.596452
11
5.8105157
21
67.311152
0
ARC
8
DEFAULT_255_2_778
10
15.1475868
20
22.1018333
40
1.5702344
50
151.4912312
51
180.0871171
0
ARC
8
DEFAULT_255_2_778
10
15.1554244
20
22.0983358
40
1.5787909
50
98.1799116
51
151.5154501
0
ARC
8
DEFAULT_255_2_778
10
15.1542931
20
22.0863016
40
1.5905442
50
89.9833895
51
98.0778958
0
ARC
8
DEFAULT_255_2_778
10
15.157154
20
22.1063958
40
1.5704518
50
61.4932439
51
90.0875518
0
ARC
8
DEFAULT_255_2_778
10
15.1537781
20
22.0987781
40
1.5787571
50
8.179998
51
61.5175247
0
ARC
8
DEFAULT_255_2_778
10
15.1417501
20
22.0999083
40
1.5905043
50
359.9833381
51
8.0780486
0
ARC
8
DEFAULT_255_2_778
10
15.1618384
20
22.0970433
40
1.5704176
50
331.4926845
51
0.0876543
0
ARC
8
DEFAULT_255_2_778
10
15.1541589
20
22.1004775
40
1.5788052
50
278.1779717
51
331.516177
0
ARC
8
DEFAULT_255_2_778
10
15.1552178
20
22.1127738
40
1.5908282
50
269.9833027
51
278.077225
0
ARC
8
DEFAULT_255_2_778
10
15.1523639
20
22.0921443
40
1.5702003
50
241.4906718
51
270.0872196
0
ARC
8
DEFAULT_255_2_778
10
15.1559484
20
22.1000704
40
1.5788763
50
188.3024575
51
241.513657
0
ARC
8
DEFAULT_255_2_778
10
15.1679675
20
22.0989712
40
1.5906133
50
179.982904
51
188.2007595
0
ARC
8
DEFAULT_255_2_778
10
15.1517964
20
22.1023771
40
1.3244454
50
148.7895376
51
180.1268079
0
ARC
8
DEFAULT_255_2_778
10
15.1515184
20
22.1026038
40
1.3240901
50
97.0992705
51
148.7916956
0
ARC
8
DEFAULT_255_2_778
10
15.1543951
20
22.0760114
40
1.3508343
50
89.9847672
51
97.0809514
0
ARC
8
DEFAULT_255_2_778
10
15.1577403
20
22.1019314
40
1.3249178
50
58.8010559
51
90.1291308
0
ARC
8
DEFAULT_255_2_778
10
15.158317
20
22.1029298
40
1.323765
50
7.5692247
51
58.800021
0
ARC
8
DEFAULT_255_2_778
10
15.1315887
20
22.0998524
40
1.3506658
50
359.9827519
51
7.5492812
0
ARC
8
DEFAULT_255_2_778
10
15.1571638
20
22.0963814
40
1.325094
50
328.8461227
51
0.1325004
0
ARC
8
DEFAULT_255_2_778
10
15.1585145
20
22.0957631
40
1.323618
50
277.5646637
51
328.8387805
0
ARC
8
DEFAULT_255_2_778
10
15.1551655
20
22.1235487
40
1.3516028
50
269.9825641
51
277.5503352
0
ARC
8
DEFAULT_255_2_778
10
15.151742
20
22.0965493
40
1.324607
50
238.7911281
51
270.1302929
0
ARC
8
DEFAULT_255_2_778
10
15.1515007
20
22.0959523
40
1.3239714
50
187.5658978
51
238.7866712
0
ARC
8
DEFAULT_255_2_778
10
15.1780881
20
22.0990395
40
1.3507339
50
179.982765
51
187.5472175
0
LINE
8
DEFAULT_255_2_778
10
16.4819542
20
22.0994458
11
16.7319542
21
22.0994458
0
LINE
8
DEFAULT_255_2_778
10
13.5773542
20
22.0994458
11
13.8273542
21
22.0994458
0
LINE
8
DEFAULT_255_2_778
10
13.5773542
20
22.0994458
11
13.5773542
21
22.0994458
0
LINE
8
DEFAULT_255_2_778
10
13.8273542
20
22.0994458
11
13.8273542
21
22.0994458
0
ARC
8
DEFAULT_255_2_778
10
85.0237358
20
22.1027431
40
1.875018
50
155.780203
51
180.1027934
0
ARC
8
DEFAULT_255_2_778
10
85.0181236
20
22.1033971
40
1.8696322
50
99.8094087
51
155.7279265
0
ARC
8
DEFAULT_255_2_778
10
85.0216292
20
22.072753
40
1.9004263
50
89.973117
51
99.7561501
0
ARC
8
DEFAULT_255_2_778
10
85.0258859
20
22.0988612
40
1.8743209
50
65.4270851
51
90.102866
0
ARC
8
DEFAULT_255_2_778
10
85.0262762
20
22.1035096
40
1.8699318
50
10.0269957
51
65.3787313
0
ARC
8
DEFAULT_255_2_778
10
84.997023
20
22.1003002
40
1.899298
50
359.9722132
51
9.9686839
0
ARC
8
DEFAULT_255_2_778
10
85.022125
20
22.0960225
40
1.8741989
50
335.4250986
51
0.1026157
0
ARC
8
DEFAULT_255_2_778
10
85.0265543
20
22.0957319
40
1.8700507
50
280.028567
51
335.3767553
0
ARC
8
DEFAULT_255_2_778
10
85.0234389
20
22.1246151
40
1.8990361
50
269.9723026
51
279.9693752
0
ARC
8
DEFAULT_255_2_778
10
85.0191985
20
22.1002283
40
1.8746521
50
245.7766608
51
270.1015448
0
ARC
8
DEFAULT_255_2_778
10
85.0187787
20
22.0952484
40
1.8699391
50
189.8152822
51
245.7257847
0
ARC
8
DEFAULT_255_2_778
10
85.0485005
20
22.0984926
40
1.8997797
50
179.9732627
51
189.7588817
0
ARC
8
DEFAULT_255_2_778
10
84.9990886
20
22.102327
40
1.3050711
50
148.4465471
51
180.1294209
0
ARC
8
DEFAULT_255_2_778
10
84.9985216
20
22.1027554
40
1.3043638
50
97.0532302
51
148.4495484
0
ARC
8
DEFAULT_255_2_778
10
85.0014707
20
22.0760516
40
1.3312276
50
89.9849261
51
97.0380677
0
ARC
8
DEFAULT_255_2_778
10
85.0047724
20
22.1022471
40
1.3050354
50
58.4457644
51
90.1295828
0
ARC
8
DEFAULT_255_2_778
10
85.0051305
20
22.1027437
40
1.3044246
50
7.0509463
51
58.4477535
0
ARC
8
DEFAULT_255_2_778
10
84.9781619
20
22.0997302
40
1.3315592
50
359.9848918
51
7.0371883
0
ARC
8
DEFAULT_255_2_778
10
85.0048908
20
22.0964427
40
1.3048334
50
328.4432631
51
0.1289396
0
ARC
8
DEFAULT_255_2_778
10
85.0051814
20
22.0962069
40
1.3044623
50
277.0509248
51
328.4454084
0
ARC
8
DEFAULT_255_2_778
10
85.0021704
20
22.123191
40
1.3316119
50
269.9849624
51
277.0369787
0
ARC
8
DEFAULT_255_2_778
10
84.9988881
20
22.096445
40
1.3048692
50
238.4440458
51
270.1287777
0
ARC
8
DEFAULT_255_2_778
10
84.998582
20
22.096084
40
1.3044015
50
187.0532086
51
238.4472033
0
ARC
8
DEFAULT_255_2_778
10
85.0253012
20
22.0990305
40
1.3312803
50
179.9849966
51
187.0378581
0
LINE
8
DEFAULT_255_2_778
10
83.1487209
20
22.0993791
11
83.1487209
21
22.0993791
0
LINE
8
DEFAULT_255_2_778
10
83.6940209
20
22.0993791
11
83.6940209
21
22.0993791
0
ARC
8
DEFAULT_255_2_778
10
85.0237358
20
96.8726431
40
1.875018
50
155.780203
51
180.1027934
0
ARC
8
DEFAULT_255_2_778
10
85.0181236
20
96.8732971
40
1.8696322
50
99.8094087
51
155.7279265
0
ARC
8
DEFAULT_255_2_778
10
85.0216292
20
96.842653
40
1.9004263
50
89.973117
51
99.7561501
0
ARC
8
DEFAULT_255_2_778
10
85.0258859
20
96.8687612
40
1.8743209
50
65.4270851
51
90.102866
0
ARC
8
DEFAULT_255_2_778
10
85.0262762
20
96.8734096
40
1.8699318
50
10.0269957
51
65.3787313
0
ARC
8
DEFAULT_255_2_778
10
84.997023
20
96.8702002
40
1.899298
50
359.9722132
51
9.9686839
0
ARC
8
DEFAULT_255_2_778
10
85.022125
20
96.8659225
40
1.8741989
50
335.4250986
51
0.1026157
0
ARC
8
DEFAULT_255_2_778
10
85.0265543
20
96.8656319
40
1.8700507
50
280.028567
51
335.3767553
0
ARC
8
DEFAULT_255_2_778
10
85.0234389
20
96.8945151
40
1.8990361
50
269.9723026
51
279.9693752
0
ARC
8
DEFAULT_255_2_778
10
85.0191985
20
96.8701283
40
1.8746521
50
245.7766608
51
270.1015448
0
ARC
8
DEFAULT_255_2_778
10
85.0187787
20
96.8651484
40
1.8699391
50
189.8152822
51
245.7257847
0
ARC
8
DEFAULT_255_2_778
10
85.0485005
20
96.8683926
40
1.8997797
50
179.9732627
51
189.7588817
0
ARC
8
DEFAULT_255_2_778
10
84.9990886
20
96.872227
40
1.3050711
50
148.4465471
51
180.1294209
0
ARC
8
DEFAULT_255_2_778
10
84.9985216
20
96.8726554
40
1.3043638
50
97.0532302
51
148.4495484
0
ARC
8
DEFAULT_255_2_778
10
85.0014707
20
96.8459516
40
1.3312276
50
89.9849261
51
97.0380677
0
ARC
8
DEFAULT_255_2_778
10
85.0047724
20
96.8721471
40
1.3050354
50
58.4457644
51
90.1295828
0
ARC
8
DEFAULT_255_2_778
10
85.0051305
20
96.8726437
40
1.3044246
50
7.0509463
51
58.4477535
0
ARC
8
DEFAULT_255_2_778
10
84.9781619
20
96.8696302
40
1.3315592
50
359.9848918
51
7.0371883
0
ARC
8
DEFAULT_255_2_778
10
85.0048908
20
96.8663427
40
1.3048334
50
328.4432631
51
0.1289396
0
ARC
8
DEFAULT_255_2_778
10
85.0051814
20
96.8661069
40
1.3044623
50
277.0509248
51
328.4454084
0
ARC
8
DEFAULT_255_2_778
10
85.0021704
20
96.893091
40
1.3316119
50
269.9849624
51
277.0369787
0
ARC
8
DEFAULT_255_2_778
10
84.9988881
20
96.866345
40
1.3048692
50
238.4440458
51
270.1287777
0
ARC
8
DEFAULT_255_2_778
10
84.998582
20
96.865984
40
1.3044015
50
187.0532086
51
238.4472033
0
ARC
8
DEFAULT_255_2_778
10
85.0253012
20
96.8689305
40
1.3312803
50
179.9849966
51
187.0378581
0
LINE
8
DEFAULT_255_2_778
10
83.1487209
20
96.8692791
11
83.1487209
21
96.8692791
0
LINE
8
DEFAULT_255_2_778
10
83.6940209
20
96.8692791
11
83.6940209
21
96.8692791
0
ARC
8
DEFAULT_255_2_778
10
15.1477151
20
96.8717043
40
1.5703408
50
151.4937466
51
180.0874662
0
ARC
8
DEFAULT_255_2_778
10
15.1553816
20
96.8682716
40
1.5787162
50
98.3025212
51
151.5170599
0
ARC
8
DEFAULT_255_2_778
10
15.1543005
20
96.8561386
40
1.5905684
50
89.9828666
51
98.2008745
0
ARC
8
DEFAULT_255_2_778
10
15.1571859
20
96.8763876
40
1.5703212
50
61.4920349
51
90.0879241
0
ARC
8
DEFAULT_255_2_778
10
15.1537386
20
96.8687133
40
1.5787103
50
8.1775309
51
61.515028
0
ARC
8
DEFAULT_255_2_778
10
15.1414715
20
96.8697709
40
1.5907047
50
359.9832918
51
8.0769749
0
ARC
8
DEFAULT_255_2_778
10
15.1616198
20
96.8668975
40
1.5705582
50
331.4957591
51
0.0879008
0
ARC
8
DEFAULT_255_2_778
10
15.1542001
20
96.8701801
40
1.5786451
50
278.1780211
51
331.519575
0
ARC
8
DEFAULT_255_2_778
10
15.1552408
20
96.88259
40
1.5907831
50
269.9832656
51
278.0773403
0
ARC
8
DEFAULT_255_2_778
10
15.1523636
20
96.8620923
40
1.5702871
50
241.4914755
51
270.0880267
0
ARC
8
DEFAULT_255_2_778
10
15.1558976
20
96.869855
40
1.5787954
50
188.3000736
51
241.5132355
0
ARC
8
DEFAULT_255_2_778
10
15.1681839
20
96.8688311
40
1.5908078
50
179.9828584
51
188.199702
0
ARC
8
DEFAULT_255_2_778
10
15.1519055
20
96.8722522
40
1.3245327
50
148.7925276
51
180.1273998
0
ARC
8
DEFAULT_255_2_778
10
15.1514731
20
96.8725342
40
1.3240167
50
97.5738651
51
148.793268
0
ARC
8
DEFAULT_255_2_778
10
15.1543748
20
96.8465668
40
1.3501403
50
89.98297
51
97.5506879
0
ARC
8
DEFAULT_255_2_778
10
15.1577735
20
96.8719308
40
1.3247796
50
58.7993879
51
90.1296323
0
ARC
8
DEFAULT_255_2_778
10
15.1582644
20
96.8728571
40
1.3237329
50
7.5665245
51
58.796792
0
ARC
8
DEFAULT_255_2_778
10
15.1312805
20
96.8697151
40
1.3508956
50
359.9826942
51
7.5479283
0
ARC
8
DEFAULT_255_2_778
10
15.1570512
20
96.866246
40
1.3251284
50
328.8468602
51
0.1323522
0
ARC
8
DEFAULT_255_2_778
10
15.1584691
20
96.8655602
40
1.3235603
50
277.5669431
51
328.8405128
0
ARC
8
DEFAULT_255_2_778
10
15.1551867
20
96.8930763
40
1.3512692
50
269.9825919
51
277.5512732
0
ARC
8
DEFAULT_255_2_778
10
15.1517234
20
96.8666789
40
1.3248754
50
238.8056102
51
270.1320193
0
ARC
8
DEFAULT_255_2_778
10
15.1512264
20
96.8655487
40
1.323651
50
187.5595985
51
238.7986746
0
ARC
8
DEFAULT_255_2_778
10
15.1789825
20
96.8688965
40
1.3516064
50
179.9825955
51
187.5454889
0
ARC
8
DEFAULT_255_2_778
10
5.701735
20
13.7182519
40
0.509006
50
94.1751879
51
140.4288231
0
ARC
8
DEFAULT_255_2_778
10
5.70013
20
13.7187283
40
0.5074655
50
140.3548489
51
180.0017271
0
ARC
8
DEFAULT_255_2_778
10
5.7003239
20
13.7187173
40
0.5076595
50
180.0004844
51
185.7284761
0
ARC
8
DEFAULT_255_2_778
10
5.7007271
20
13.7187438
40
0.5080633
50
185.7269146
51
186.7409571
0
ARC
8
DEFAULT_255_2_778
10
5.7254535
20
13.6880032
40
0.6747022
50
89.0214508
51
89.9995646
0
ARC
8
DEFAULT_255_2_778
10
5.7256701
20
13.6887477
40
0.6739578
50
90.0179772
51
136.0721753
0
ARC
8
DEFAULT_255_2_778
10
5.7262099
20
13.6888802
40
0.6742548
50
136.1121072
51
179.9844849
0
ARC
8
DEFAULT_255_2_778
10
5.7248783
20
13.689062
40
0.6729231
50
179.9999292
51
183.1566241
0
ARC
8
DEFAULT_255_2_778
10
9.0545137
20
12.9979614
40
0.2497376
50
179.9436594
51
258.8865458
0
ARC
8
DEFAULT_255_2_778
10
5.6997851
20
42.8066768
40
0.5071152
50
173.2585108
51
174.1375511
0
ARC
8
DEFAULT_255_2_778
10
5.7002289
20
42.8066016
40
0.5075645
50
174.1342158
51
179.9994546
0
ARC
8
DEFAULT_255_2_778
10
5.7003567
20
42.8066673
40
0.5076922
50
180.0068785
51
219.6359211
0
ARC
8
DEFAULT_255_2_778
10
5.7016778
20
42.8072275
40
0.509067
50
219.5896209
51
265.8317703
0
ARC
8
DEFAULT_255_2_778
10
5.7266178
20
42.8368183
40
0.6746455
50
176.874086
51
179.9994472
0
ARC
8
DEFAULT_255_2_778
10
5.7269028
20
42.8369881
40
0.6749304
50
180.0138643
51
223.8626742
0
ARC
8
DEFAULT_255_2_778
10
5.7257859
20
42.8368308
40
0.6740165
50
223.9188256
51
270.0004267
0
ARC
8
DEFAULT_255_2_778
10
5.7257862
20
42.8375057
40
0.6746913
50
270.0004016
51
270.9503122
0
ARC
8
DEFAULT_255_2_778
10
9.0468822
20
29.6775794
40
0.3022703
50
232.6312253
51
271.458563
0
ARC
8
DEFAULT_255_2_778
10
8.9522854
20
29.5555736
40
0.1478961
50
181.9631997
51
233.0689268
0
ARC
8
DEFAULT_255_2_778
10
8.9747644
20
26.9352584
40
0.170875
50
109.3114746
51
175.2504269
0
ARC
8
DEFAULT_255_2_778
10
9.051772
20
26.7933669
40
0.3312521
50
89.5149702
51
113.7700024
0
ARC
8
DEFAULT_255_2_778
10
76.9863371
20
45.1966657
40
0.5005587
50
250.0292558
51
269.9930226
0
ARC
8
DEFAULT_255_2_778
10
75.2288322
20
44.7724844
40
0.4991965
50
69.2520809
51
87.1810216
0
ARC
8
DEFAULT_255_2_778
10
75.2288043
20
44.7721083
40
0.4995736
50
87.179938
51
90.0010466
0
ARC
8
DEFAULT_255_2_778
10
75.2287359
20
44.7713357
40
0.5003462
50
89.9932173
51
129.7528147
0
ARC
8
DEFAULT_255_2_778
10
75.2288621
20
44.7715079
40
0.5002945
50
129.7765345
51
179.9885553
0
ARC
8
DEFAULT_255_2_778
10
75.2281258
20
44.7716165
40
0.4995582
50
180.0009984
51
187.0621816
0
ARC
8
DEFAULT_255_2_778
10
75.2297649
20
44.7718063
40
0.5012081
50
187.0606746
51
190.2630718
0
ARC
8
DEFAULT_255_2_778
10
75.2284191
20
44.7714707
40
0.499824
50
190.2527036
51
250.7796706
0
ARC
8
DEFAULT_255_2_778
10
76.9868481
20
45.1966708
40
1.5007638
50
250.0007936
51
269.9896183
0
ARC
8
DEFAULT_255_2_778
10
81.9866792
20
44.196004
40
0.5000969
50
269.9996485
51
0.0003515
0
ARC
8
DEFAULT_255_2_778
10
81.9866792
20
44.1960101
40
0.5000969
50
359.9996485
51
90.0003515
0
ARC
8
DEFAULT_255_2_778
10
76.9863302
20
42.6972944
40
1.5010873
50
250.0141383
51
269.997938
0
ARC
8
DEFAULT_255_2_778
10
81.9864005
20
41.6962826
40
0.5000756
50
269.9972082
51
359.9913419
0
ARC
8
DEFAULT_255_2_778
10
81.9863792
20
41.6962101
40
0.5000969
50
359.9996485
51
90.0003515
0
ARC
8
DEFAULT_255_2_778
10
76.9863382
20
42.696872
40
0.500565
50
250.0293883
51
269.9928993
0
ARC
8
DEFAULT_255_2_778
10
75.2336983
20
42.2677026
40
0.5021711
50
69.9726488
51
81.5492693
0
ARC
8
DEFAULT_255_2_778
10
75.2347342
20
42.2735547
40
0.4962304
50
81.5682828
51
89.9995444
0
ARC
8
DEFAULT_255_2_778
10
75.2348774
20
42.2695574
40
0.5002276
50
90.0159552
51
159.9802898
0
ARC
8
DEFAULT_255_2_778
10
75.2370956
20
42.2687438
40
0.5025903
50
159.9797076
51
171.4877514
0
ARC
8
DEFAULT_255_2_778
10
75.2310408
20
42.2698216
40
0.4964426
50
171.5073418
51
179.999257
0
ARC
8
DEFAULT_255_2_778
10
75.2349529
20
42.2699974
40
0.5003547
50
180.0193893
51
249.9701014
0
ARC
8
DEFAULT_255_2_778
10
76.9862085
20
40.1947803
40
0.4982732
50
249.9494706
51
270.0077779
0
ARC
8
DEFAULT_255_2_778
10
75.2337076
20
39.7677445
40
0.5023164
50
69.9798279
51
81.5467567
0
ARC
8
DEFAULT_255_2_778
10
75.2347472
20
39.7736085
40
0.4963632
50
81.5659483
51
89.999825
0
ARC
8
DEFAULT_255_2_778
10
75.2348524
20
39.7697343
40
0.5002375
50
90.0118714
51
160.0022616
0
ARC
8
DEFAULT_255_2_778
10
75.2365871
20
39.7687099
40
0.5022181
50
159.9601242
51
171.5302571
0
ARC
8
DEFAULT_255_2_778
10
75.2306765
20
39.7697595
40
0.4962172
50
171.5496077
51
179.9995808
0
ARC
8
DEFAULT_255_2_778
10
75.2345853
20
39.7698877
40
0.500126
50
180.0142703
51
250.0053655
0
ARC
8
DEFAULT_255_2_778
10
76.9862004
20
40.1951998
40
1.4987928
50
249.987513
51
270.0028955
0
ARC
8
DEFAULT_255_2_778
10
81.9864005
20
39.1964826
40
0.5000756
50
269.9972098
51
359.9913379
0
ARC
8
DEFAULT_255_2_778
10
81.9863792
20
39.1964101
40
0.5000969
50
359.9996485
51
90.0003515
0
ARC
8
DEFAULT_255_2_778
10
76.9862085
20
73.7745338
40
0.4982732
50
89.9922206
51
110.0505299
0
ARC
8
DEFAULT_255_2_778
10
81.9864007
20
74.7728825
40
0.5000755
50
269.9971846
51
359.9913517
0
ARC
8
DEFAULT_255_2_778
10
81.9863792
20
74.7728101
40
0.5000969
50
359.9996485
51
90.0003515
0
ARC
8
DEFAULT_255_2_778
10
76.9861997
20
73.7741145
40
1.4987926
50
89.9970797
51
110.0124664
0
ARC
8
DEFAULT_255_2_778
10
75.228421
20
74.1972087
40
0.5001451
50
109.2441439
51
169.7382708
0
ARC
8
DEFAULT_255_2_778
10
75.2295461
20
74.1969926
40
0.5012906
50
169.736872
51
172.9341407
0
ARC
8
DEFAULT_255_2_778
10
75.2277927
20
74.1971991
40
0.4995251
50
172.9329152
51
179.9991301
0
ARC
8
DEFAULT_255_2_778
10
75.2282375
20
74.1972541
40
0.4999699
50
180.0054271
51
230.2409015
0
ARC
8
DEFAULT_255_2_778
10
75.2283874
20
74.197345
40
0.5001357
50
230.2343579
51
270.0073246
0
ARC
8
DEFAULT_255_2_778
10
75.228447
20
74.1973792
40
0.50017
50
270.0004961
51
272.8978662
0
ARC
8
DEFAULT_255_2_778
10
75.228428
20
74.1971536
40
0.4999457
50
272.9013488
51
290.7404161
0
ARC
8
DEFAULT_255_2_778
10
76.9863371
20
76.2722484
40
0.5005586
50
90.0069759
51
109.9707447
0
ARC
8
DEFAULT_255_2_778
10
81.9863792
20
77.272904
40
0.5000969
50
269.9996485
51
0.0003515
0
ARC
8
DEFAULT_255_2_778
10
81.9863792
20
77.2729101
40
0.5000969
50
359.9996485
51
90.0003515
0
ARC
8
DEFAULT_255_2_778
10
76.987046
20
76.2694221
40
1.5035851
50
90.0293368
51
109.9802706
0
ARC
8
DEFAULT_255_2_778
10
75.2284139
20
76.6971915
40
0.5001589
50
109.2427305
51
169.7249219
0
ARC
8
DEFAULT_255_2_778
10
75.2294649
20
76.6971078
40
0.501208
50
169.7369282
51
172.9393254
0
ARC
8
DEFAULT_255_2_778
10
75.2278258
20
76.6972975
40
0.4995582
50
172.9378184
51
179.9990016
0
ARC
8
DEFAULT_255_2_778
10
75.2285621
20
76.6974062
40
0.5002945
50
180.0114447
51
230.2234655
0
ARC
8
DEFAULT_255_2_778
10
75.2285284
20
76.6978342
40
0.500602
50
230.2577707
51
270.0021021
0
ARC
8
DEFAULT_255_2_778
10
75.2285427
20
76.6973744
40
0.5001422
50
270.0004657
51
272.8870531
0
ARC
8
DEFAULT_255_2_778
10
75.2285498
20
76.6968606
40
0.4996287
50
272.8892029
51
290.7392525
0
ARC
8
DEFAULT_255_2_778
10
76.9866302
20
78.7722455
40
0.5006616
50
90.0405215
51
110.002159
0
ARC
8
DEFAULT_255_2_778
10
81.9864006
20
79.7729826
40
0.5000756
50
269.9971984
51
359.9913379
0
ARC
8
DEFAULT_255_2_778
10
81.9863792
20
79.7729101
40
0.5000969
50
359.9996485
51
90.0003515
0
ARC
8
DEFAULT_255_2_778
10
76.9862005
20
78.7742116
40
1.4987955
50
89.9971093
51
110.0124564
0
ARC
8
DEFAULT_255_2_778
10
75.2346257
20
79.199396
40
0.5002623
50
109.9938761
51
179.9874134
0
ARC
8
DEFAULT_255_2_778
10
75.2308188
20
79.1995095
40
0.4964554
50
180.0004219
51
188.449616
0
ARC
8
DEFAULT_255_2_778
10
75.2367242
20
79.2005587
40
0.5024507
50
188.4690062
51
200.0004103
0
ARC
8
DEFAULT_255_2_778
10
75.2346078
20
79.1999391
40
0.5002501
50
200.0166353
51
269.980138
0
ARC
8
DEFAULT_255_2_778
10
75.2344314
20
79.1958482
40
0.4961591
50
270.0003366
51
278.477728
0
ARC
8
DEFAULT_255_2_778
10
75.2333682
20
79.2018481
40
0.5022502
50
278.4967864
51
290.0398565
0
LINE
8
DEFAULT_255_2_778
10
83.0796761
20
55.394207
11
83.0800521
21
55.3942069
0
ARC
8
DEFAULT_255_2_778
10
83.0799502
20
55.8336568
40
0.4394499
50
270.0132835
51
315.0715545
0
ARC
8
DEFAULT_255_2_778
10
83.0780397
20
55.8355464
40
0.4421371
50
315.0730296
51
359.9041811
0
ARC
8
DEFAULT_255_2_778
10
83.0796999
20
63.1346308
40
0.4404762
50
359.9969069
51
90.0030931
0
ARC
8
DEFAULT_255_2_778
10
80.0510753
20
64.6349447
40
1.0598377
50
225.001472
51
269.9946375
0
ARC
8
DEFAULT_255_2_778
10
80.0511184
20
64.6347665
40
1.0597422
50
179.9978097
51
224.9930115
0
ARC
8
DEFAULT_255_2_778
10
80.046787
20
72.3363366
40
1.0554121
50
140.5067335
51
180.0884633
0
ARC
8
DEFAULT_255_2_778
10
80.0499465
20
72.3368662
40
1.0575162
50
93.2725857
51
140.6377487
0
ARC
8
DEFAULT_255_2_778
10
80.05091
20
72.3182537
40
1.0761533
50
89.9964814
51
93.2672303
0
ARC
8
DEFAULT_255_2_778
10
83.0796359
20
73.8349472
40
0.4405402
50
270.0052369
51
359.9947723
0
ARC
8
DEFAULT_255_2_778
10
83.3434571
20
80.966789
40
0.1767192
50
359.90857
51
0.0304758
0
ARC
8
DEFAULT_255_2_778
10
83.0807264
20
80.9667811
40
0.4394499
50
0.0132835
51
45.0715545
0
ARC
8
DEFAULT_255_2_778
10
83.0790059
20
80.9652789
40
0.4417286
50
45.0511724
51
89.9130686
0
LINE
8
DEFAULT_255_2_778
10
74.1414761
20
81.407007
11
74.1411001
21
81.4070072
0
ARC
8
DEFAULT_255_2_778
10
74.141202
20
80.9675573
40
0.4394499
50
90.0132835
51
135.0715545
0
ARC
8
DEFAULT_255_2_778
10
74.1423918
20
80.9662497
40
0.4412157
50
135.0604568
51
179.9665907
0
ARC
8
DEFAULT_255_2_778
10
74.1416931
20
38.003375
40
0.440517
50
179.9958388
51
224.9771
0
ARC
8
DEFAULT_255_2_778
10
74.1419411
20
38.0041405
40
0.4412335
50
225.0246575
51
269.9396283
0
LINE
8
DEFAULT_255_2_778
10
83.0796761
20
37.562907
11
83.0800521
21
37.5629069
0
ARC
8
DEFAULT_255_2_778
10
83.0799502
20
38.0023568
40
0.4394499
50
270.0132835
51
315.0715545
0
ARC
8
DEFAULT_255_2_778
10
83.0782723
20
38.0041501
40
0.4419044
50
315.0605815
51
359.9036605
0
ARC
8
DEFAULT_255_2_778
10
83.0798705
20
45.1350015
40
0.4403056
50
0.0007217
51
90.0252982
0
ARC
8
DEFAULT_255_2_778
10
80.049373
20
46.6305686
40
1.0552628
50
230.4175679
51
270.0870441
0
ARC
8
DEFAULT_255_2_778
10
80.0489371
20
46.633875
40
1.0575361
50
183.2666607
51
230.549914
0
ARC
8
DEFAULT_255_2_778
10
80.0677934
20
46.6348489
40
1.0764173
50
179.9969042
51
183.2612186
0
ARC
8
DEFAULT_255_2_778
10
80.0511181
20
54.3348477
40
1.0597419
50
135.0069814
51
180.0021996
0
ARC
8
DEFAULT_255_2_778
10
80.051075
20
54.3346699
40
1.0598371
50
90.0053431
51
134.9985368
0
ARC
8
DEFAULT_255_2_778
10
80.0507438
20
54.3345393
40
0.4170676
50
90.0092924
51
179.9907008
0
LINE
8
DEFAULT_255_2_778
10
83.0793761
20
54.751607
11
83.0797535
21
54.751607
0
ARC
8
DEFAULT_255_2_778
10
83.079846
20
55.8332479
40
1.0816409
50
269.9950991
51
315.0295636
0
ARC
8
DEFAULT_255_2_778
10
83.0795237
20
55.8346391
40
1.0828525
50
314.9895371
51
359.9930091
0
ARC
8
DEFAULT_255_2_778
10
83.0840116
20
63.1357356
40
1.0783657
50
359.9134708
51
38.8913563
0
ARC
8
DEFAULT_255_2_778
10
83.0804237
20
63.1359666
40
1.081016
50
38.7624295
51
86.6603924
0
ARC
8
DEFAULT_255_2_778
10
83.0794443
20
63.1168546
40
1.1001525
50
86.6674564
51
90.0035502
0
ARC
8
DEFAULT_255_2_778
10
80.050695
20
64.6339874
40
0.4169804
50
224.9671163
51
269.9974117
0
ARC
8
DEFAULT_255_2_778
10
80.0506052
20
64.6342875
40
0.4171291
50
179.9973204
51
225.004993
0
ARC
8
DEFAULT_255_2_778
10
80.0504796
20
72.3342035
40
0.4170035
50
90.000481
51
179.999519
0
LINE
8
DEFAULT_255_2_778
10
83.0791761
20
72.751207
11
83.0795533
21
72.751207
0
ARC
8
DEFAULT_255_2_778
10
83.0795018
20
73.8331959
40
1.0819889
50
270.0027307
51
315.0219233
0
ARC
8
DEFAULT_255_2_778
10
83.0780563
20
73.8346229
40
1.08402
50
315.0225711
51
359.9727342
0
ARC
8
DEFAULT_255_2_778
10
83.0838218
20
80.9672671
40
1.0782554
50
359.9171022
51
38.9007632
0
ARC
8
DEFAULT_255_2_778
10
83.0799776
20
80.9674737
40
1.0811203
50
38.7643022
51
86.6759366
0
ARC
8
DEFAULT_255_2_778
10
83.0792422
20
80.9497536
40
1.0988534
50
86.691229
51
90.003444
0
LINE
8
DEFAULT_255_2_778
10
74.1409761
20
82.048607
11
74.1405989
21
82.0486071
0
ARC
8
DEFAULT_255_2_778
10
74.1405782
20
80.9667927
40
1.0818144
50
89.9989023
51
135.0257555
0
ARC
8
DEFAULT_255_2_778
10
74.1420946
20
80.9651917
40
1.0840186
50
135.0225417
51
179.9727645
0
ARC
8
DEFAULT_255_2_778
10
74.1363304
20
38.001047
40
1.0782554
50
179.9171022
51
218.9007632
0
ARC
8
DEFAULT_255_2_778
10
74.1401747
20
38.0008403
40
1.0811203
50
218.7643022
51
266.6759366
0
ARC
8
DEFAULT_255_2_778
10
74.1409101
20
38.0185604
40
1.0988534
50
266.691229
51
270.003444
0
ARC
8
DEFAULT_255_2_778
10
83.0807362
20
37.9979613
40
1.0782554
50
269.9171022
51
308.9007632
0
ARC
8
DEFAULT_255_2_778
10
83.0809428
20
38.0018056
40
1.0811203
50
308.7643022
51
356.6759366
0
ARC
8
DEFAULT_255_2_778
10
83.0632227
20
38.002541
40
1.0988534
50
356.691229
51
0.003444
0
ARC
8
DEFAULT_255_2_778
10
83.0835065
20
45.1358542
40
1.0785708
50
359.9125007
51
38.8760561
0
ARC
8
DEFAULT_255_2_778
10
83.0801838
20
45.1363108
40
1.0808736
50
38.7466631
51
86.683826
0
ARC
8
DEFAULT_255_2_778
10
83.0792433
20
45.1173749
40
1.0998321
50
86.6919764
51
90.0035015
0
ARC
8
DEFAULT_255_2_778
10
80.0504571
20
46.634337
40
0.41713
50
224.9950486
51
270.0026167
0
ARC
8
DEFAULT_255_2_778
10
80.0504033
20
46.6345283
40
0.4172273
50
180.0166504
51
225.0188458
0
ARC
8
DEFAULT_255_2_778
10
84.8171069
20
46.5784069
40
2.1711929
50
91.3388612
51
102.405377
0
ARC
8
DEFAULT_255_2_778
10
84.3900002
20
48.815899
40
0.1234241
50
179.9962723
51
251.4211467
0
ARC
8
DEFAULT_255_2_778
10
84.8175433
20
51.3988762
40
2.17907
50
257.6284308
51
268.6545023
0
ARC
8
DEFAULT_255_2_778
10
84.8501634
20
51.8351238
40
2.7394984
50
257.7001965
51
268.2473422
0
ARC
8
DEFAULT_255_2_778
10
84.3897795
20
49.1535737
40
0.1232035
50
108.5050871
51
180.0310195
0
ARC
8
DEFAULT_255_2_778
10
84.8501979
20
46.1364445
40
2.737337
50
91.7484829
51
102.3039802
0
ARC
8
DEFAULT_255_2_778
10
84.8166541
20
48.0803249
40
2.169158
50
91.3202257
51
102.3968382
0
ARC
8
DEFAULT_255_2_778
10
84.3899489
20
50.3156464
40
0.123073
50
179.9252328
51
251.5387347
0
ARC
8
DEFAULT_255_2_778
10
84.8496752
20
53.3243014
40
2.7287569
50
257.6679566
51
268.2569967
0
ARC
8
DEFAULT_255_2_778
10
84.3909183
20
50.6529544
40
0.1243445
50
108.8828745
51
179.6532157
0
ARC
8
DEFAULT_255_2_778
10
84.8175409
20
52.899056
40
2.1790497
50
257.6283795
51
268.6545539
0
ARC
8
DEFAULT_255_2_778
10
84.8473814
20
47.6616632
40
2.7125536
50
91.7112848
51
102.3637603
0
ARC
8
DEFAULT_255_2_778
10
84.8166541
20
49.5810249
40
2.169158
50
91.3202257
51
102.3968382
0
ARC
8
DEFAULT_255_2_778
10
84.3899802
20
51.8163689
40
0.1231042
50
180.0287964
51
251.5282064
0
ARC
8
DEFAULT_255_2_778
10
84.8491278
20
54.8246872
40
2.7286262
50
257.6791233
51
268.2684139
0
ARC
8
DEFAULT_255_2_778
10
84.3909497
20
52.1534325
40
0.1243754
50
108.8932804
51
179.6892842
0
ARC
8
DEFAULT_255_2_778
10
84.8165831
20
54.391593
40
2.1710666
50
257.6080445
51
268.6748889
0
ARC
8
DEFAULT_255_2_778
10
84.8501633
20
49.1351902
40
2.7394984
50
91.7526557
51
102.2998014
0
ARC
8
DEFAULT_255_2_778
10
81.1745827
20
53.2155578
40
0.5238095
50
180.1915071
51
264.7964499
0
ARC
8
DEFAULT_255_2_778
10
81.2793995
20
47.6600295
40
0.6361823
50
103.8531109
51
171.158931
0
ARC
8
DEFAULT_255_2_778
10
81.1725533
20
53.2143298
40
0.5217772
50
89.9974951
51
180.0025049
0
ARC
8
DEFAULT_255_2_778
10
81.1726172
20
47.7581481
40
0.521841
50
180.004511
51
269.9954945
0
ARC
8
DEFAULT_255_2_778
10
84.8175433
20
64.5722377
40
2.1790702
50
91.345498
51
102.3715685
0
ARC
8
DEFAULT_255_2_778
10
84.3897169
20
66.8174951
40
0.1231408
50
180.040999
51
251.5158738
0
ARC
8
DEFAULT_255_2_778
10
84.8165831
20
69.392393
40
2.1710666
50
257.6080445
51
268.6748889
0
ARC
8
DEFAULT_255_2_778
10
84.8507162
20
69.8366646
40
2.7396561
50
257.6890814
51
268.2358753
0
ARC
8
DEFAULT_255_2_778
10
84.3900002
20
67.1552151
40
0.1234241
50
108.5788533
51
180.0037277
0
ARC
8
DEFAULT_255_2_778
10
84.8491275
20
64.1468297
40
2.7286233
50
91.7315817
51
102.3208835
0
ARC
8
DEFAULT_255_2_778
10
84.8176126
20
66.0743558
40
2.1771471
50
91.3406121
51
102.376452
0
ARC
8
DEFAULT_255_2_778
10
84.3909888
20
68.3183944
40
0.1241141
50
180.2711533
51
251.192679
0
ARC
8
DEFAULT_255_2_778
10
84.8480613
20
71.3175344
40
2.7199452
50
257.6621765
51
268.285361
0
ARC
8
DEFAULT_255_2_778
10
84.3909183
20
68.6549544
40
0.1243445
50
108.8828745
51
179.6532157
0
ARC
8
DEFAULT_255_2_778
10
84.8165831
20
70.893093
40
2.1710666
50
257.6080445
51
268.6748889
0
ARC
8
DEFAULT_255_2_778
10
84.8484409
20
65.6550812
40
2.7211636
50
91.7281869
51
102.3468603
0
ARC
8
DEFAULT_255_2_778
10
84.8507162
20
72.8375646
40
2.7396561
50
257.6890814
51
268.2358753
0
ARC
8
DEFAULT_255_2_778
10
84.8490912
20
67.1455892
40
2.7307709
50
91.7357544
51
102.3167048
0
ARC
8
DEFAULT_255_2_778
10
81.1723321
20
71.2155511
40
0.5217559
50
90.006143
51
180.0048385
0
ARC
8
DEFAULT_255_2_778
10
85.6162579
20
35.465825
40
0.0500182
50
270.0208523
51
359.9793671
0
ARC
8
DEFAULT_255_2_778
10
71.6046731
20
35.4661043
40
0.0502977
50
180.3386803
51
269.7756574
0
ARC
8
DEFAULT_255_2_778
10
71.6047378
20
83.5021447
40
0.050363
50
90.2977279
51
179.5877951
0
ARC
8
DEFAULT_255_2_778
10
85.6162648
20
83.5022956
40
0.0502119
50
0.2412901
51
89.7588491
0
ARC
8
DEFAULT_255_2_778
10
81.1726172
20
65.7561481
40
0.521841
50
180.004511
51
269.9954945
0
LINE
8
DEFAULT_255_2_778
10
16.4819761
20
96.869307
11
16.7319761
21
96.869307
0
LINE
8
DEFAULT_255_2_778
10
13.5773761
20
96.869307
11
13.8273761
21
96.869307
0
LINE
8
DEFAULT_255_2_778
10
13.5773761
20
96.869307
11
13.5773761
21
96.869307
0
LINE
8
DEFAULT_255_2_778
10
13.8273761
20
96.869307
11
13.8273761
21
96.869307
0
LINE
8
DEFAULT_255_2_778
10
82.8084761
20
105.482007
11
82.8084761
21
102.783507
0
LINE
8
DEFAULT_255_2_778
10
73.7975761
20
105.492807
11
73.7975761
21
102.771307
0
LINE
8
DEFAULT_255_2_778
10
84.2408761
20
105.478507
11
84.2408761
21
102.785107
0
LINE
8
DEFAULT_255_2_778
10
84.2408761
20
102.785107
11
71.8763761
21
102.768707
0
LINE
8
DEFAULT_255_2_778
10
71.8763761
20
102.768707
11
71.8763761
21
105.495207
0
LINE
8
DEFAULT_255_2_778
10
71.8763761
20
105.495207
11
84.2408761
21
105.480407
0
LINE
8
DEFAULT_255_2_778
10
5.1961761
20
13.659107
11
5.2122761
21
13.341607
0
LINE
8
DEFAULT_255_2_778
10
5.0529761
20
13.652007
11
5.0818761
21
13.086307
0
LINE
8
DEFAULT_255_2_778
10
9.0365761
20
14.363707
11
8.8047761
21
14.363707
0
LINE
8
DEFAULT_255_2_778
10
8.8047761
20
14.363707
11
8.8047761
21
12.998207
0
LINE
8
DEFAULT_255_2_778
10
6.1877761
20
11.983007
11
6.2001761
21
12.650307
0
LINE
8
DEFAULT_255_2_778
10
5.0169761
20
11.971907
11
6.1798761
21
11.971907
0
LINE
8
DEFAULT_255_2_778
10
6.1798761
20
11.971907
11
6.1877761
21
11.983307
0
LINE
8
DEFAULT_255_2_778
10
6.1877761
20
11.983307
11
6.2001761
21
12.650507
0
LINE
8
DEFAULT_255_2_778
10
6.2001761
20
12.650507
11
6.5237761
21
13.283407
0
LINE
8
DEFAULT_255_2_778
10
6.5237761
20
13.283407
11
8.8047761
21
13.687207
0
LINE
8
DEFAULT_255_2_778
10
6.1798761
20
11.972107
11
5.7250761
21
11.322607
0
LINE
8
DEFAULT_255_2_778
10
5.7250761
20
11.322607
11
5.0167761
21
11.322607
0
LINE
8
DEFAULT_255_2_778
10
5.0167761
20
11.322607
11
5.0167761
21
12.959307
0
LINE
8
DEFAULT_255_2_778
10
5.0167761
20
12.959307
11
5.7342761
21
14.362907
0
LINE
8
DEFAULT_255_2_778
10
5.7342761
20
14.362907
11
8.8044761
21
14.934107
0
LINE
8
DEFAULT_255_2_778
10
8.8044761
20
14.934107
11
8.8044761
21
15.967607
0
LINE
8
DEFAULT_255_2_778
10
8.8044761
20
15.967607
11
8.8044761
21
16.093607
0
LINE
8
DEFAULT_255_2_778
10
8.8044761
20
16.093607
11
8.8005761
21
16.093607
0
LINE
8
DEFAULT_255_2_778
10
8.8005761
20
16.093607
11
8.8005761
21
40.429907
0
LINE
8
DEFAULT_255_2_778
10
8.8005761
20
40.429907
11
8.8044761
21
40.429907
0
LINE
8
DEFAULT_255_2_778
10
8.8044761
20
40.429907
11
8.8044761
21
41.591407
0
LINE
8
DEFAULT_255_2_778
10
8.8044761
20
41.591407
11
5.7342761
21
42.162707
0
LINE
8
DEFAULT_255_2_778
10
5.7342761
20
42.162707
11
5.0167761
21
43.566307
0
LINE
8
DEFAULT_255_2_778
10
5.0167761
20
43.566307
11
5.0167761
21
45.203007
0
LINE
8
DEFAULT_255_2_778
10
5.0167761
20
45.203007
11
5.7247761
21
45.203007
0
LINE
8
DEFAULT_255_2_778
10
5.7247761
20
45.203007
11
6.2107761
21
44.509007
0
LINE
8
DEFAULT_255_2_778
10
5.2122761
20
43.183707
11
5.1961761
21
42.866207
0
LINE
8
DEFAULT_255_2_778
10
5.0818761
20
43.439307
11
5.0529761
21
42.873607
0
LINE
8
DEFAULT_255_2_778
10
5.0164761
20
44.509307
11
6.2105761
21
44.509307
0
LINE
8
DEFAULT_255_2_778
10
6.2105761
20
44.509307
11
6.2105761
21
43.854207
0
LINE
8
DEFAULT_255_2_778
10
6.2105761
20
43.854207
11
6.5232761
21
43.242407
0
LINE
8
DEFAULT_255_2_778
10
6.5232761
20
43.242407
11
8.8042761
21
42.838707
0
LINE
8
DEFAULT_255_2_778
10
8.8042761
20
42.838707
11
8.8042761
21
45.960007
0
LINE
8
DEFAULT_255_2_778
10
8.8042761
20
15.296107
11
9.0542761
21
15.296107
0
LINE
8
DEFAULT_255_2_778
10
9.0542761
20
15.296107
11
9.0391761
21
14.491807
0
LINE
8
DEFAULT_255_2_778
10
9.0391761
20
14.491807
11
10.9280761
21
14.491807
0
LINE
8
DEFAULT_255_2_778
10
10.9280761
20
14.491807
11
13.1769761
21
14.511307
0
LINE
8
DEFAULT_255_2_778
10
13.1769761
20
14.511307
11
13.1769761
21
29.375407
0
LINE
8
DEFAULT_255_2_778
10
13.1769761
20
29.375407
11
9.0545761
21
29.375407
0
LINE
8
DEFAULT_255_2_778
10
9.0545761
20
29.375407
11
9.0545761
21
29.546607
0
LINE
8
DEFAULT_255_2_778
10
9.0545761
20
26.719507
11
9.0545761
21
15.296107
0
LINE
8
DEFAULT_255_2_778
10
9.0545761
20
15.296107
11
13.0476761
21
14.510007
0
LINE
8
DEFAULT_255_2_778
10
8.8044761
20
29.550507
11
8.8044761
21
29.550507
0
LINE
8
DEFAULT_255_2_778
10
8.8044761
20
29.550507
11
8.8044761
21
29.781807
0
LINE
8
DEFAULT_255_2_778
10
8.8044761
20
29.781807
11
8.8044761
21
42.035207
0
LINE
8
DEFAULT_255_2_778
10
8.8044761
20
42.035207
11
9.0545761
21
42.035207
0
LINE
8
DEFAULT_255_2_778
10
9.0545761
20
42.035207
11
10.9285761
21
42.035207
0
LINE
8
DEFAULT_255_2_778
10
10.9285761
20
42.035207
11
13.1775761
21
42.015607
0
LINE
8
DEFAULT_255_2_778
10
13.1775761
20
42.015607
11
13.3045761
21
42.014507
0
LINE
8
DEFAULT_255_2_778
10
9.0394761
20
14.490407
11
8.8044761
21
14.490407
0
LINE
8
DEFAULT_255_2_778
10
8.8044761
20
14.490407
11
8.8044761
21
15.294807
0
LINE
8
DEFAULT_255_2_778
10
8.8044761
20
15.294807
11
8.8044761
21
26.718207
0
LINE
8
DEFAULT_255_2_778
10
8.8044761
20
26.718207
11
8.8044761
21
26.949407
0
LINE
8
DEFAULT_255_2_778
10
8.8044761
20
26.949407
11
8.8044761
21
26.949407
0
LINE
8
DEFAULT_255_2_778
10
8.8005761
20
20.312107
11
8.0416761
21
20.312107
0
LINE
8
DEFAULT_255_2_778
10
8.0416761
20
20.312107
11
8.0416761
21
36.211907
0
LINE
8
DEFAULT_255_2_778
10
8.0416761
20
36.211907
11
8.8005761
21
36.211907
0
LINE
8
DEFAULT_255_2_778
10
76.8153761
20
44.726207
11
75.4056761
21
45.239307
0
LINE
8
DEFAULT_255_2_778
10
75.0638761
20
44.299507
11
76.4735761
21
43.786407
0
LINE
8
DEFAULT_255_2_778
10
76.9865761
20
43.695907
11
81.9866761
21
43.695907
0
LINE
8
DEFAULT_255_2_778
10
81.9866761
20
44.696107
11
76.9862761
21
44.696107
0
LINE
8
DEFAULT_255_2_778
10
76.9862761
20
41.196207
11
81.9863761
21
41.196207
0
LINE
8
DEFAULT_255_2_778
10
81.9863761
20
42.196307
11
76.9862761
21
42.196307
0
LINE
8
DEFAULT_255_2_778
10
76.8153761
20
42.226407
11
75.4056761
21
42.739507
0
LINE
8
DEFAULT_255_2_778
10
75.0635761
20
41.799907
11
76.4732761
21
41.286907
0
LINE
8
DEFAULT_255_2_778
10
76.8153761
20
39.726707
11
75.4056761
21
40.239707
0
LINE
8
DEFAULT_255_2_778
10
75.0635761
20
39.299907
11
76.4732761
21
38.786907
0
LINE
8
DEFAULT_255_2_778
10
76.9862761
20
38.696407
11
81.9863761
21
38.696407
0
LINE
8
DEFAULT_255_2_778
10
81.9863761
20
39.696507
11
76.9862761
21
39.696507
0
LINE
8
DEFAULT_255_2_778
10
75.4056761
20
73.729607
11
76.8153761
21
74.242607
0
LINE
8
DEFAULT_255_2_778
10
76.9862761
20
74.272807
11
81.9863761
21
74.272807
0
LINE
8
DEFAULT_255_2_778
10
81.9863761
20
75.272907
11
76.9862761
21
75.272907
0
LINE
8
DEFAULT_255_2_778
10
76.4732761
20
75.182407
11
75.0635761
21
74.669407
0
LINE
8
DEFAULT_255_2_778
10
75.4054761
20
73.729607
11
75.4056761
21
73.729607
0
LINE
8
DEFAULT_255_2_778
10
75.4056761
20
76.229607
11
76.8153761
21
76.742707
0
LINE
8
DEFAULT_255_2_778
10
76.9862761
20
76.772807
11
81.9863761
21
76.772807
0
LINE
8
DEFAULT_255_2_778
10
81.9863761
20
77.773007
11
76.9862761
21
77.773007
0
LINE
8
DEFAULT_255_2_778
10
76.4732761
20
77.682507
11
75.0635761
21
77.169407
0
LINE
8
DEFAULT_255_2_778
10
75.4054761
20
76.229607
11
75.4056761
21
76.229607
0
LINE
8
DEFAULT_255_2_778
10
75.4056761
20
78.729707
11
76.8153761
21
79.242707
0
LINE
8
DEFAULT_255_2_778
10
76.9862761
20
79.272907
11
81.9863761
21
79.272907
0
LINE
8
DEFAULT_255_2_778
10
81.9863761
20
80.273007
11
76.9862761
21
80.273007
0
LINE
8
DEFAULT_255_2_778
10
76.4732761
20
80.182507
11
75.0635761
21
79.669507
0
LINE
8
DEFAULT_255_2_778
10
75.4054761
20
78.730007
11
75.4056761
21
78.729707
0
LINE
8
DEFAULT_255_2_778
10
83.5201761
20
55.834807
11
83.5201761
21
63.134607
0
LINE
8
DEFAULT_255_2_778
10
83.0796761
20
63.575107
11
80.0509761
21
63.575107
0
LINE
8
DEFAULT_255_2_778
10
78.9913761
20
64.634807
11
78.9913761
21
72.334707
0
LINE
8
DEFAULT_255_2_778
10
80.0509761
20
73.394407
11
83.0796761
21
73.394407
0
LINE
8
DEFAULT_255_2_778
10
83.5201761
20
73.834907
11
83.5201761
21
80.966507
0
LINE
8
DEFAULT_255_2_778
10
83.0796761
20
81.407007
11
74.1414761
21
81.407007
0
LINE
8
DEFAULT_255_2_778
10
73.7011761
20
80.966507
11
73.7011761
21
38.003407
0
LINE
8
DEFAULT_255_2_778
10
74.1414761
20
37.562907
11
83.0796761
21
37.562907
0
LINE
8
DEFAULT_255_2_778
10
83.5201761
20
38.003407
11
83.5201761
21
45.135007
0
LINE
8
DEFAULT_255_2_778
10
83.0796761
20
45.575307
11
80.0509761
21
45.575307
0
LINE
8
DEFAULT_255_2_778
10
78.9913761
20
46.634907
11
78.9913761
21
54.334807
0
LINE
8
DEFAULT_255_2_778
10
80.0509761
20
55.394507
11
83.0796761
21
55.394207
0
LINE
8
DEFAULT_255_2_778
10
79.6336761
20
46.634707
11
79.6336761
21
54.334607
0
LINE
8
DEFAULT_255_2_778
10
80.0506761
20
54.751607
11
83.0793761
21
54.751607
0
LINE
8
DEFAULT_255_2_778
10
84.1623761
20
55.834507
11
84.1623761
21
63.134107
0
LINE
8
DEFAULT_255_2_778
10
83.0793761
20
64.217007
11
80.0506761
21
64.217007
0
LINE
8
DEFAULT_255_2_778
10
79.6334761
20
64.634307
11
79.6334761
21
72.334207
0
LINE
8
DEFAULT_255_2_778
10
80.0504761
20
72.751207
11
83.0791761
21
72.751207
0
LINE
8
DEFAULT_255_2_778
10
84.1620761
20
73.834107
11
84.1620761
21
80.965707
0
LINE
8
DEFAULT_255_2_778
10
83.0791761
20
82.048607
11
74.1409761
21
82.048607
0
LINE
8
DEFAULT_255_2_778
10
73.0580761
20
80.965707
11
73.0580761
21
38.002607
0
LINE
8
DEFAULT_255_2_778
10
74.1409761
20
36.919707
11
83.0791761
21
36.919707
0
LINE
8
DEFAULT_255_2_778
10
84.1620761
20
38.002607
11
84.1620761
21
45.134207
0
LINE
8
DEFAULT_255_2_778
10
83.0791761
20
46.217207
11
80.0504761
21
46.217207
0
LINE
8
DEFAULT_255_2_778
10
79.6331761
20
46.634407
11
79.6336761
21
46.634707
0
LINE
8
DEFAULT_255_2_778
10
84.7663761
20
49.096907
11
84.7663761
21
48.872807
0
LINE
8
DEFAULT_255_2_778
10
84.7663761
20
48.872807
11
85.1859761
21
48.872807
0
LINE
8
DEFAULT_255_2_778
10
85.0021761
20
49.220207
11
84.7666761
21
49.220207
0
LINE
8
DEFAULT_255_2_778
10
84.7666761
20
49.220207
11
84.7666761
21
49.096607
0
LINE
8
DEFAULT_255_2_778
10
84.7666761
20
49.096607
11
85.1862761
21
49.096607
0
LINE
8
DEFAULT_255_2_778
10
85.0021761
20
48.749007
11
84.7666761
21
48.749007
0
LINE
8
DEFAULT_255_2_778
10
84.7666761
20
48.749007
11
84.7666761
21
48.872507
0
LINE
8
DEFAULT_255_2_778
10
84.3509761
20
49.270207
11
84.2668761
21
49.158007
0
LINE
8
DEFAULT_255_2_778
10
84.2668761
20
49.158007
11
84.2668761
21
48.810907
0
LINE
8
DEFAULT_255_2_778
10
84.2668761
20
48.810907
11
84.3509761
21
48.698707
0
LINE
8
DEFAULT_255_2_778
10
84.3509761
20
48.698707
11
84.3925761
21
48.695507
0
LINE
8
DEFAULT_255_2_778
10
84.3925761
20
48.695507
11
85.0023761
21
48.749007
0
LINE
8
DEFAULT_255_2_778
10
85.0023761
20
48.749007
11
85.1865761
21
48.872507
0
LINE
8
DEFAULT_255_2_778
10
85.1865761
20
48.872507
11
85.1865761
21
49.096607
0
LINE
8
DEFAULT_255_2_778
10
85.1865761
20
49.096607
11
85.0023761
21
49.220207
0
LINE
8
DEFAULT_255_2_778
10
85.0023761
20
49.220207
11
84.3925761
21
49.273607
0
LINE
8
DEFAULT_255_2_778
10
84.3925761
20
49.273607
11
84.3509761
21
49.270207
0
LINE
8
DEFAULT_255_2_778
10
84.7666761
20
50.596807
11
84.7666761
21
50.372707
0
LINE
8
DEFAULT_255_2_778
10
84.7666761
20
50.372707
11
85.1862761
21
50.372707
0
LINE
8
DEFAULT_255_2_778
10
85.0018761
20
50.720607
11
84.7663761
21
50.720607
0
LINE
8
DEFAULT_255_2_778
10
84.7663761
20
50.720607
11
84.7663761
21
50.597107
0
LINE
8
DEFAULT_255_2_778
10
84.7663761
20
50.597107
11
85.1859761
21
50.597107
0
LINE
8
DEFAULT_255_2_778
10
85.0018761
20
50.249407
11
84.7663761
21
50.249407
0
LINE
8
DEFAULT_255_2_778
10
84.7663761
20
50.249407
11
84.7663761
21
50.373007
0
LINE
8
DEFAULT_255_2_778
10
84.2665761
20
50.658707
11
84.3506761
21
50.770907
0
LINE
8
DEFAULT_255_2_778
10
84.3506761
20
50.770907
11
84.3922761
21
50.774107
0
LINE
8
DEFAULT_255_2_778
10
84.3922761
20
50.774107
11
85.0021761
21
50.720607
0
LINE
8
DEFAULT_255_2_778
10
85.0021761
20
50.720607
11
85.1862761
21
50.597107
0
LINE
8
DEFAULT_255_2_778
10
85.1862761
20
50.597107
11
85.1862761
21
50.373007
0
LINE
8
DEFAULT_255_2_778
10
85.1862761
20
50.373007
11
85.0021761
21
50.249407
0
LINE
8
DEFAULT_255_2_778
10
85.0021761
20
50.249407
11
84.3922761
21
50.196007
0
LINE
8
DEFAULT_255_2_778
10
84.3922761
20
50.196007
11
84.3506761
21
50.199107
0
LINE
8
DEFAULT_255_2_778
10
84.3506761
20
50.199107
11
84.2665761
21
50.311307
0
LINE
8
DEFAULT_255_2_778
10
84.2665761
20
50.311307
11
84.2665761
21
50.658707
0
LINE
8
DEFAULT_255_2_778
10
84.7666761
20
52.097307
11
84.7666761
21
51.873207
0
LINE
8
DEFAULT_255_2_778
10
84.7666761
20
51.873207
11
85.1862761
21
51.873207
0
LINE
8
DEFAULT_255_2_778
10
85.0018761
20
52.221107
11
84.7663761
21
52.221107
0
LINE
8
DEFAULT_255_2_778
10
84.7663761
20
52.221107
11
84.7663761
21
52.097507
0
LINE
8
DEFAULT_255_2_778
10
84.7663761
20
52.097507
11
85.1859761
21
52.097507
0
LINE
8
DEFAULT_255_2_778
10
85.0018761
20
51.749907
11
84.7663761
21
51.749907
0
LINE
8
DEFAULT_255_2_778
10
84.7663761
20
51.749907
11
84.7663761
21
51.873407
0
LINE
8
DEFAULT_255_2_778
10
84.2665761
20
52.159207
11
84.3506761
21
52.271407
0
LINE
8
DEFAULT_255_2_778
10
84.3506761
20
52.271407
11
84.3922761
21
52.274507
0
LINE
8
DEFAULT_255_2_778
10
84.3922761
20
52.274507
11
85.0021761
21
52.221107
0
LINE
8
DEFAULT_255_2_778
10
85.0021761
20
52.221107
11
85.1862761
21
52.097507
0
LINE
8
DEFAULT_255_2_778
10
85.1862761
20
52.097507
11
85.1862761
21
51.873407
0
LINE
8
DEFAULT_255_2_778
10
85.1862761
20
51.873407
11
85.0021761
21
51.749907
0
LINE
8
DEFAULT_255_2_778
10
85.0021761
20
51.749907
11
84.3922761
21
51.696407
0
LINE
8
DEFAULT_255_2_778
10
84.3922761
20
51.696407
11
84.3506761
21
51.699607
0
LINE
8
DEFAULT_255_2_778
10
84.3506761
20
51.699607
11
84.2665761
21
51.811807
0
LINE
8
DEFAULT_255_2_778
10
84.2665761
20
51.811807
11
84.2665761
21
52.159207
0
LINE
8
DEFAULT_255_2_778
10
81.1270761
20
52.693907
11
82.8187761
21
52.546007
0
LINE
8
DEFAULT_255_2_778
10
84.0750761
20
52.436207
11
84.0750761
21
48.535407
0
LINE
8
DEFAULT_255_2_778
10
82.7491761
20
48.419507
11
82.7491761
21
52.552307
0
LINE
8
DEFAULT_255_2_778
10
85.8662761
20
52.279607
11
85.8662761
21
48.692107
0
LINE
8
DEFAULT_255_2_778
10
83.3542761
20
48.472207
11
83.3542761
21
47.235807
0
LINE
8
DEFAULT_255_2_778
10
83.3542761
20
53.735807
11
83.3542761
21
52.499407
0
LINE
8
DEFAULT_255_2_778
10
83.9789761
20
48.527207
11
83.9789761
21
47.236107
0
LINE
8
DEFAULT_255_2_778
10
83.9789761
20
53.736107
11
83.9789761
21
52.444907
0
LINE
8
DEFAULT_255_2_778
10
84.7967761
20
53.645907
11
84.7967761
21
53.736107
0
LINE
8
DEFAULT_255_2_778
10
84.7967761
20
47.236107
11
84.7967761
21
47.326307
0
LINE
8
DEFAULT_255_2_778
10
85.3540761
20
52.324507
11
85.3540761
21
52.575407
0
LINE
8
DEFAULT_255_2_778
10
85.3540761
20
52.575407
11
84.7967761
21
52.624007
0
LINE
8
DEFAULT_255_2_778
10
84.7967761
20
52.624007
11
84.7967761
21
53.645607
0
LINE
8
DEFAULT_255_2_778
10
84.7967761
20
53.645607
11
86.0466761
21
53.645607
0
LINE
8
DEFAULT_255_2_778
10
84.2660761
20
52.419507
11
83.5863761
21
52.479107
0
LINE
8
DEFAULT_255_2_778
10
84.2660761
20
48.552407
11
83.5863761
21
48.492807
0
LINE
8
DEFAULT_255_2_778
10
83.5863761
20
48.492807
11
83.5863761
21
52.479107
0
LINE
8
DEFAULT_255_2_778
10
83.5863761
20
52.479107
11
82.8184761
21
52.546307
0
LINE
8
DEFAULT_255_2_778
10
82.8184761
20
52.546307
11
82.8184761
21
48.425607
0
LINE
8
DEFAULT_255_2_778
10
82.8184761
20
48.425607
11
83.5865761
21
48.492807
0
LINE
8
DEFAULT_255_2_778
10
82.8187761
20
48.425607
11
81.1270761
21
48.277707
0
LINE
8
DEFAULT_255_2_778
10
80.6507761
20
53.214307
11
80.6507761
21
47.758107
0
LINE
8
DEFAULT_255_2_778
10
82.2665761
20
48.377707
11
82.2665761
21
47.432407
0
LINE
8
DEFAULT_255_2_778
10
82.2665761
20
47.432407
11
80.7648761
21
47.432407
0
LINE
8
DEFAULT_255_2_778
10
82.2665761
20
53.736407
11
82.2665761
21
52.594907
0
LINE
8
DEFAULT_255_2_778
10
81.6178761
20
48.320907
11
81.7495761
21
48.189107
0
LINE
8
DEFAULT_255_2_778
10
81.7495761
20
48.189107
11
81.7495761
21
47.949107
0
LINE
8
DEFAULT_255_2_778
10
81.7495761
20
47.949107
11
81.5495761
21
47.749107
0
LINE
8
DEFAULT_255_2_778
10
81.5495761
20
53.469107
11
81.7495761
21
53.269107
0
LINE
8
DEFAULT_255_2_778
10
81.7495761
20
53.269107
11
81.7495761
21
53.029107
0
LINE
8
DEFAULT_255_2_778
10
81.7495761
20
53.029107
11
81.5495761
21
52.829107
0
LINE
8
DEFAULT_255_2_778
10
80.8219761
20
52.829107
11
81.5495761
21
52.829107
0
LINE
8
DEFAULT_255_2_778
10
81.5495761
20
52.829107
11
81.5495761
21
53.469107
0
LINE
8
DEFAULT_255_2_778
10
81.5495761
20
53.469107
11
80.7169761
21
53.469107
0
LINE
8
DEFAULT_255_2_778
10
80.6687761
20
47.749107
11
81.5495761
21
47.749107
0
LINE
8
DEFAULT_255_2_778
10
81.5495761
20
47.749107
11
81.5495761
21
48.315007
0
LINE
8
DEFAULT_255_2_778
10
85.5323761
20
52.309207
11
85.5323761
21
48.663507
0
LINE
8
DEFAULT_255_2_778
10
85.5323761
20
48.663507
11
86.3662761
21
48.736507
0
LINE
8
DEFAULT_255_2_778
10
86.3662761
20
48.736507
11
86.3662761
21
52.236407
0
LINE
8
DEFAULT_255_2_778
10
86.3662761
20
52.236407
11
84.2662761
21
52.420007
0
LINE
8
DEFAULT_255_2_778
10
84.2662761
20
52.420007
11
84.2662761
21
48.552607
0
LINE
8
DEFAULT_255_2_778
10
84.2662761
20
48.552607
11
85.5323761
21
48.663507
0
LINE
8
DEFAULT_255_2_778
10
84.7663761
20
67.098307
11
84.7663761
21
66.874207
0
LINE
8
DEFAULT_255_2_778
10
84.7663761
20
66.874207
11
85.1859761
21
66.874207
0
LINE
8
DEFAULT_255_2_778
10
85.0021761
20
67.221907
11
84.7666761
21
67.221907
0
LINE
8
DEFAULT_255_2_778
10
84.7666761
20
67.221907
11
84.7666761
21
67.098307
0
LINE
8
DEFAULT_255_2_778
10
84.7666761
20
67.098307
11
85.1862761
21
67.098307
0
LINE
8
DEFAULT_255_2_778
10
85.0021761
20
66.750707
11
84.7666761
21
66.750707
0
LINE
8
DEFAULT_255_2_778
10
84.7666761
20
66.750707
11
84.7666761
21
66.874207
0
LINE
8
DEFAULT_255_2_778
10
84.3509761
20
67.272207
11
84.2668761
21
67.160007
0
LINE
8
DEFAULT_255_2_778
10
84.2668761
20
67.160007
11
84.2668761
21
66.812907
0
LINE
8
DEFAULT_255_2_778
10
84.2668761
20
66.812907
11
84.3509761
21
66.700707
0
LINE
8
DEFAULT_255_2_778
10
84.3509761
20
66.700707
11
84.3925761
21
66.697507
0
LINE
8
DEFAULT_255_2_778
10
84.3925761
20
66.697507
11
85.0023761
21
66.750907
0
LINE
8
DEFAULT_255_2_778
10
85.0023761
20
66.750907
11
85.1865761
21
66.874507
0
LINE
8
DEFAULT_255_2_778
10
85.1865761
20
66.874507
11
85.1865761
21
67.098607
0
LINE
8
DEFAULT_255_2_778
10
85.1865761
20
67.098607
11
85.0023761
21
67.222207
0
LINE
8
DEFAULT_255_2_778
10
85.0023761
20
67.222207
11
84.3925761
21
67.275607
0
LINE
8
DEFAULT_255_2_778
10
84.3925761
20
67.275607
11
84.3509761
21
67.272207
0
LINE
8
DEFAULT_255_2_778
10
84.7666761
20
68.598807
11
84.7666761
21
68.374707
0
LINE
8
DEFAULT_255_2_778
10
84.7666761
20
68.374707
11
85.1862761
21
68.374707
0
LINE
8
DEFAULT_255_2_778
10
85.0018761
20
68.722607
11
84.7663761
21
68.722607
0
LINE
8
DEFAULT_255_2_778
10
84.7663761
20
68.722607
11
84.7663761
21
68.599107
0
LINE
8
DEFAULT_255_2_778
10
84.7663761
20
68.599107
11
85.1859761
21
68.599107
0
LINE
8
DEFAULT_255_2_778
10
85.0018761
20
68.251407
11
84.7663761
21
68.251407
0
LINE
8
DEFAULT_255_2_778
10
84.7663761
20
68.251407
11
84.7663761
21
68.375007
0
LINE
8
DEFAULT_255_2_778
10
84.2665761
20
68.660707
11
84.3506761
21
68.772907
0
LINE
8
DEFAULT_255_2_778
10
84.3506761
20
68.772907
11
84.3922761
21
68.776107
0
LINE
8
DEFAULT_255_2_778
10
84.3922761
20
68.776107
11
85.0021761
21
68.722607
0
LINE
8
DEFAULT_255_2_778
10
85.0021761
20
68.722607
11
85.1862761
21
68.599107
0
LINE
8
DEFAULT_255_2_778
10
85.1862761
20
68.599107
11
85.1862761
21
68.375007
0
LINE
8
DEFAULT_255_2_778
10
85.1862761
20
68.375007
11
85.0021761
21
68.251407
0
LINE
8
DEFAULT_255_2_778
10
85.0021761
20
68.251407
11
84.3922761
21
68.197907
0
LINE
8
DEFAULT_255_2_778
10
84.3922761
20
68.197907
11
84.3506761
21
68.201107
0
LINE
8
DEFAULT_255_2_778
10
84.3506761
20
68.201107
11
84.2665761
21
68.313307
0
LINE
8
DEFAULT_255_2_778
10
84.2665761
20
68.313307
11
84.2665761
21
68.660707
0
LINE
8
DEFAULT_255_2_778
10
84.7663761
20
70.099207
11
84.7663761
21
69.875107
0
LINE
8
DEFAULT_255_2_778
10
84.7663761
20
69.875107
11
85.1859761
21
69.875107
0
LINE
8
DEFAULT_255_2_778
10
85.0018761
20
70.222807
11
84.7663761
21
70.222807
0
LINE
8
DEFAULT_255_2_778
10
84.7663761
20
70.222807
11
84.7663761
21
70.099207
0
LINE
8
DEFAULT_255_2_778
10
84.7663761
20
70.099207
11
85.1859761
21
70.099207
0
LINE
8
DEFAULT_255_2_778
10
85.0018761
20
69.751607
11
84.7663761
21
69.751607
0
LINE
8
DEFAULT_255_2_778
10
84.7663761
20
69.751607
11
84.7663761
21
69.875107
0
LINE
8
DEFAULT_255_2_778
10
84.2665761
20
70.160907
11
84.3506761
21
70.273107
0
LINE
8
DEFAULT_255_2_778
10
84.3506761
20
70.273107
11
84.3922761
21
70.276207
0
LINE
8
DEFAULT_255_2_778
10
84.3922761
20
70.276207
11
85.0021761
21
70.222807
0
LINE
8
DEFAULT_255_2_778
10
85.0021761
20
70.222807
11
85.1862761
21
70.099207
0
LINE
8
DEFAULT_255_2_778
10
85.1862761
20
70.099207
11
85.1862761
21
69.875107
0
LINE
8
DEFAULT_255_2_778
10
85.1862761
20
69.875107
11
85.0021761
21
69.751607
0
LINE
8
DEFAULT_255_2_778
10
85.0021761
20
69.751607
11
84.3922761
21
69.698107
0
LINE
8
DEFAULT_255_2_778
10
84.3922761
20
69.698107
11
84.3506761
21
69.701307
0
LINE
8
DEFAULT_255_2_778
10
84.3506761
20
69.701307
11
84.2665761
21
69.813507
0
LINE
8
DEFAULT_255_2_778
10
84.2665761
20
69.813507
11
84.2665761
21
70.160907
0
LINE
8
DEFAULT_255_2_778
10
84.0752761
20
66.536907
11
84.0752761
21
70.437607
0
LINE
8
DEFAULT_255_2_778
10
80.6507761
20
65.759007
11
80.6507761
21
71.215307
0
LINE
8
DEFAULT_255_2_778
10
83.9792761
20
66.528407
11
83.9792761
21
65.237307
0
LINE
8
DEFAULT_255_2_778
10
83.9792761
20
71.737307
11
83.9792761
21
70.446107
0
LINE
8
DEFAULT_255_2_778
10
84.7970761
20
71.647107
11
84.7970761
21
71.737507
0
LINE
8
DEFAULT_255_2_778
10
85.3542761
20
70.326007
11
85.3542761
21
70.576807
0
LINE
8
DEFAULT_255_2_778
10
85.3542761
20
70.576807
11
84.7970761
21
70.625507
0
LINE
8
DEFAULT_255_2_778
10
84.7970761
20
70.625507
11
84.7970761
21
71.646807
0
LINE
8
DEFAULT_255_2_778
10
84.7970761
20
71.646807
11
86.0469761
21
71.646807
0
LINE
8
DEFAULT_255_2_778
10
84.7970761
20
65.237307
11
84.7970761
21
66.349007
0
LINE
8
DEFAULT_255_2_778
10
84.7970761
20
66.349007
11
85.3542761
21
66.397707
0
LINE
8
DEFAULT_255_2_778
10
85.3542761
20
66.397707
11
85.3542761
21
66.648507
0
LINE
8
DEFAULT_255_2_778
10
83.5865761
20
66.493807
11
84.2662761
21
66.553307
0
LINE
8
DEFAULT_255_2_778
10
84.2662761
20
70.420707
11
83.5865761
21
70.480207
0
LINE
8
DEFAULT_255_2_778
10
83.5865761
20
70.480207
11
83.5865761
21
66.494007
0
LINE
8
DEFAULT_255_2_778
10
83.5865761
20
66.494007
11
82.8184761
21
66.426807
0
LINE
8
DEFAULT_255_2_778
10
82.8184761
20
66.426807
11
82.8184761
21
70.547407
0
LINE
8
DEFAULT_255_2_778
10
82.8184761
20
70.547407
11
83.5863761
21
70.480207
0
LINE
8
DEFAULT_255_2_778
10
82.8184761
20
70.547407
11
81.1267761
21
70.695307
0
LINE
8
DEFAULT_255_2_778
10
81.1267761
20
70.695307
11
80.9579761
21
70.726307
0
LINE
8
DEFAULT_255_2_778
10
80.9579761
20
70.726307
11
80.8108761
21
70.826107
0
LINE
8
DEFAULT_255_2_778
10
80.8108761
20
70.826107
11
80.7036761
21
70.965007
0
LINE
8
DEFAULT_255_2_778
10
80.7036761
20
70.965007
11
80.6557761
21
71.103107
0
LINE
8
DEFAULT_255_2_778
10
80.6557761
20
71.103107
11
80.6518761
21
71.188307
0
LINE
8
DEFAULT_255_2_778
10
80.6518761
20
71.188307
11
80.6505761
21
71.215507
0
LINE
8
DEFAULT_255_2_778
10
85.5320761
20
66.664407
11
84.2660761
21
66.553607
0
LINE
8
DEFAULT_255_2_778
10
84.2660761
20
66.553607
11
84.2660761
21
70.421007
0
LINE
8
DEFAULT_255_2_778
10
84.2660761
20
70.421007
11
85.5320761
21
70.310107
0
LINE
8
DEFAULT_255_2_778
10
85.8659761
20
70.280707
11
85.8659761
21
66.693307
0
LINE
8
DEFAULT_255_2_778
10
85.8659761
20
66.693307
11
85.5320761
21
66.663907
0
LINE
8
DEFAULT_255_2_778
10
85.5320761
20
66.663907
11
85.5320761
21
70.309607
0
LINE
8
DEFAULT_255_2_778
10
85.5320761
20
70.309607
11
86.3660761
21
70.236607
0
LINE
8
DEFAULT_255_2_778
10
86.3660761
20
70.236607
11
86.3660761
21
66.736707
0
LINE
8
DEFAULT_255_2_778
10
86.3660761
20
66.736707
11
85.8659761
21
66.693007
0
LINE
8
DEFAULT_255_2_778
10
82.2663761
20
66.378107
11
82.2663761
21
65.236707
0
LINE
8
DEFAULT_255_2_778
10
80.7833761
20
71.562707
11
82.2663761
21
71.562707
0
LINE
8
DEFAULT_255_2_778
10
82.2663761
20
71.562707
11
82.2663761
21
70.595307
0
LINE
8
DEFAULT_255_2_778
10
81.5492761
20
66.169707
11
81.7493761
21
65.969607
0
LINE
8
DEFAULT_255_2_778
10
81.7493761
20
65.969607
11
81.7493761
21
65.729607
0
LINE
8
DEFAULT_255_2_778
10
81.7493761
20
65.729607
11
81.5492761
21
65.529607
0
LINE
8
DEFAULT_255_2_778
10
81.5492761
20
71.249707
11
81.7493761
21
71.049607
0
LINE
8
DEFAULT_255_2_778
10
81.7493761
20
71.049607
11
81.7493761
21
70.809607
0
LINE
8
DEFAULT_255_2_778
10
81.7493761
20
70.809607
11
81.5940761
21
70.654307
0
LINE
8
DEFAULT_255_2_778
10
80.7034761
20
65.529607
11
81.5492761
21
65.529607
0
LINE
8
DEFAULT_255_2_778
10
81.5492761
20
65.529607
11
81.5492761
21
66.169707
0
LINE
8
DEFAULT_255_2_778
10
81.5492761
20
66.169707
11
80.8600761
21
66.169707
0
LINE
8
DEFAULT_255_2_778
10
81.5492761
20
70.658307
11
81.5492761
21
71.249707
0
LINE
8
DEFAULT_255_2_778
10
81.5492761
20
71.249707
11
80.6515761
21
71.249707
0
LINE
8
DEFAULT_255_2_778
10
86.0466761
20
71.646507
11
86.0466761
21
84.005207
0
LINE
8
DEFAULT_255_2_778
10
86.0466761
20
84.005207
11
74.2145761
21
84.005207
0
LINE
8
DEFAULT_255_2_778
10
86.0466761
20
53.646707
11
86.0466761
21
65.327507
0
LINE
8
DEFAULT_255_2_778
10
86.0466761
20
65.327507
11
84.7967761
21
65.327507
0
LINE
8
DEFAULT_255_2_778
10
71.5541761
20
35.468707
11
71.3541761
21
35.468707
0
LINE
8
DEFAULT_255_2_778
10
71.3541761
20
35.468707
11
71.3541761
21
83.502507
0
LINE
8
DEFAULT_255_2_778
10
71.3541761
20
83.502507
11
71.3541761
21
84.002607
0
LINE
8
DEFAULT_255_2_778
10
81.1722761
20
47.234207
11
85.6662761
21
47.234207
0
LINE
8
DEFAULT_255_2_778
10
85.6662761
20
47.234207
11
85.6662761
21
35.465807
0
LINE
8
DEFAULT_255_2_778
10
85.6162761
20
35.415807
11
71.6044761
21
35.415807
0
LINE
8
DEFAULT_255_2_778
10
71.5543761
20
35.465807
11
71.5543761
21
83.502507
0
LINE
8
DEFAULT_255_2_778
10
71.6044761
20
83.552507
11
85.6164761
21
83.552507
0
LINE
8
DEFAULT_255_2_778
10
85.6664761
20
83.502507
11
85.6664761
21
71.734107
0
LINE
8
DEFAULT_255_2_778
10
85.6664761
20
71.734107
11
81.1725761
21
71.734107
0
LINE
8
DEFAULT_255_2_778
10
82.8187761
20
66.423907
11
81.1021761
21
66.272607
0
LINE
8
DEFAULT_255_2_778
10
81.1021761
20
66.272607
11
81.0214761
21
66.262007
0
LINE
8
DEFAULT_255_2_778
10
81.0214761
20
66.262007
11
80.8891761
21
66.205607
0
LINE
8
DEFAULT_255_2_778
10
80.8891761
20
66.205607
11
80.7576761
21
66.088207
0
LINE
8
DEFAULT_255_2_778
10
80.7576761
20
66.088207
11
80.6679761
21
65.932107
0
LINE
8
DEFAULT_255_2_778
10
80.6679761
20
65.932107
11
80.6507761
21
65.756107
0
LINE
8
DEFAULT_255_2_778
10
81.1725761
20
65.234307
11
85.6664761
21
65.234307
0
LINE
8
DEFAULT_255_2_778
10
85.6664761
20
65.234307
11
85.8664761
21
65.234307
0
LINE
8
DEFAULT_255_2_778
10
85.8664761
20
65.234307
11
85.8664761
21
53.734207
0
LINE
8
DEFAULT_255_2_778
10
85.8664761
20
53.734207
11
81.1727761
21
53.734207
0
ARC
8
DEFAULT_255_2_778
10
73.3478022
20
28.4196966
40
0.7500959
50
0.0017412
51
83.7395998
0
ARC
8
DEFAULT_255_2_778
10
73.3473689
20
28.0839623
40
0.7503293
50
276.2686841
51
359.9814532
0
ARC
8
DEFAULT_255_2_778
10
9.0478049
20
29.7890695
40
0.2433501
50
181.9663659
51
269.944409
0
ARC
8
DEFAULT_255_2_778
10
9.0475577
20
29.793612
40
0.2478925
50
270.0025758
51
271.6274832
0
ARC
8
DEFAULT_255_2_778
10
9.0477458
20
26.7060163
40
0.2476979
50
88.4147798
51
90.0009186
0
ARC
8
DEFAULT_255_2_778
10
9.0478615
20
26.7103054
40
0.243409
50
90.0281567
51
178.0190389
0
ARC
8
DEFAULT_255_2_778
10
73.3547277
20
28.4200246
40
0.5000704
50
359.999412
51
83.7466257
0
ARC
8
DEFAULT_255_2_778
10
73.3541738
20
28.0843621
40
0.5000243
50
276.2601692
51
359.9836508
0
ARC
8
DEFAULT_255_2_778
10
8.9748979
20
89.6097719
40
0.1708864
50
109.3233867
51
175.2510886
0
ARC
8
DEFAULT_255_2_778
10
9.0518088
20
89.4681598
40
0.3309715
50
89.517129
51
113.7801781
0
ARC
8
DEFAULT_255_2_778
10
9.0477458
20
89.1728163
40
0.2476979
50
88.4147798
51
90.0009186
0
ARC
8
DEFAULT_255_2_778
10
9.0478615
20
89.1771054
40
0.243409
50
90.0281567
51
178.0190389
0
ARC
8
DEFAULT_255_2_778
10
73.3475877
20
90.8837728
40
0.7501103
50
0.0035619
51
83.7462966
0
ARC
8
DEFAULT_255_2_778
10
73.3471561
20
90.5479731
40
0.750242
50
276.2703963
51
359.9882627
0
ARC
8
DEFAULT_255_2_778
10
9.0478049
20
91.8769695
40
0.2433501
50
181.9663659
51
269.944409
0
ARC
8
DEFAULT_255_2_778
10
9.0475577
20
91.881512
40
0.2478925
50
270.0025758
51
271.6274832
0
ARC
8
DEFAULT_255_2_778
10
9.0477521
20
92.2591662
40
0.2472416
50
269.9990817
51
271.5866974
0
ARC
8
DEFAULT_255_2_778
10
9.0479502
20
92.2554216
40
0.2434971
50
181.9774609
51
269.9524473
0
ARC
8
DEFAULT_255_2_778
10
73.3543305
20
90.5481015
40
0.5001676
50
276.2633543
51
0.0020559
0
LINE
8
DEFAULT_255_2_778
10
73.8541981
20
90.8838194
11
73.8541981
21
90.8840187
0
ARC
8
DEFAULT_255_2_778
10
73.354272
20
90.8840648
40
0.4999262
50
359.994721
51
83.7499139
0
ARC
8
DEFAULT_255_2_778
10
9.3193054
20
88.7761589
40
1.6404969
50
108.285421
51
154.2672728
0
ARC
8
DEFAULT_255_2_778
10
9.3356597
20
81.0819952
40
1.6666486
50
206.2973834
51
251.0453011
0
ARC
8
DEFAULT_255_2_778
10
52.931549
20
9.9903356
40
0.5010329
50
267.3974204
51
269.9992469
0
ARC
8
DEFAULT_255_2_778
10
52.9315502
20
9.9893185
40
0.5000158
50
269.9991015
51
313.6993278
0
ARC
8
DEFAULT_255_2_778
10
52.9314418
20
9.9894092
40
0.5001563
50
313.701124
51
359.9897149
0
ARC
8
DEFAULT_255_2_778
10
52.9056312
20
14.1572235
40
5.001198
50
2.7906927
51
21.1673156
0
ARC
8
DEFAULT_255_2_778
10
56.785561
20
20.4199161
40
0.8787682
50
188.7487969
51
201.1519286
0
ARC
8
DEFAULT_255_2_778
10
56.7759058
20
20.4180847
40
0.8689467
50
187.7960794
51
188.7262743
0
ARC
8
DEFAULT_255_2_778
10
56.775891
20
20.4181015
40
0.8689343
50
179.9994754
51
187.7973158
0
ARC
8
DEFAULT_255_2_778
10
56.7834461
20
20.4178493
40
0.8764895
50
114.6448779
51
179.9829901
0
ARC
8
DEFAULT_255_2_778
10
56.7880661
20
20.4055207
40
0.889622
50
111.2386075
51
114.5842212
0
ARC
8
DEFAULT_255_2_778
10
56.7829729
20
20.4147695
40
0.8791575
50
98.7695207
51
111.1475714
0
ARC
8
DEFAULT_255_2_778
10
56.7815575
20
20.4215105
40
0.8722794
50
97.8199665
51
98.7451438
0
ARC
8
DEFAULT_255_2_778
10
56.7811336
20
20.4245764
40
0.8691844
50
89.9994884
51
97.8197809
0
ARC
8
DEFAULT_255_2_778
10
56.7809512
20
20.4174474
40
0.8763136
50
24.6374981
51
89.9875706
0
ARC
8
DEFAULT_255_2_778
10
56.7687338
20
20.4129298
40
0.8893025
50
21.2273658
51
24.57392
0
ARC
8
DEFAULT_255_2_778
10
60.15705
20
9.6739893
40
0.5000519
50
179.9965464
51
267.4839531
0
ARC
8
DEFAULT_255_2_778
10
51.2060603
20
10.0650034
40
0.4999622
50
179.9981602
51
267.4937918
0
ARC
8
DEFAULT_255_2_778
10
55.681601
20
9.8696382
40
0.5001029
50
180.0136029
51
267.478355
0
ARC
8
DEFAULT_255_2_778
10
57.4069503
20
9.7943009
40
0.5002502
50
267.5193127
51
269.9996416
0
ARC
8
DEFAULT_255_2_778
10
57.4068938
20
9.7942865
40
0.5002358
50
270.0061027
51
313.7475666
0
ARC
8
DEFAULT_255_2_778
10
57.4069422
20
9.7940836
40
0.5000559
50
313.7596406
51
0.0041085
0
ARC
8
DEFAULT_255_2_778
10
47.8334575
20
20.420448
40
0.8721111
50
21.1362133
51
58.24385
0
ARC
8
DEFAULT_255_2_778
10
47.8294617
20
20.4156648
40
0.8782818
50
58.1864297
51
89.9476857
0
ARC
8
DEFAULT_255_2_778
10
47.8302536
20
20.4250153
40
0.8689309
50
89.9993352
51
97.8167528
0
ARC
8
DEFAULT_255_2_778
10
47.8316935
20
20.4167529
40
0.8773125
50
97.8365264
51
110.3096521
0
ARC
8
DEFAULT_255_2_778
10
47.8372434
20
20.4003974
40
0.8945777
50
110.2794238
51
111.1137469
0
ARC
8
DEFAULT_255_2_778
10
47.8294981
20
20.4216245
40
0.8719856
50
111.1414152
51
148.2457668
0
ARC
8
DEFAULT_255_2_778
10
47.8343011
20
20.4176045
40
0.8781857
50
148.1876625
51
179.9475736
0
ARC
8
DEFAULT_255_2_778
10
47.8249552
20
20.4183983
40
0.8688395
50
179.9993546
51
187.8257933
0
ARC
8
DEFAULT_255_2_778
10
47.8332346
20
20.4198474
40
0.877239
50
187.8459275
51
200.3206603
0
ARC
8
DEFAULT_255_2_778
10
47.8465266
20
20.4242366
40
0.8912282
50
200.2885216
51
201.1260412
0
ARC
8
DEFAULT_255_2_778
10
43.9587493
20
14.1584504
40
4.9971164
50
7.2966756
51
21.1740408
0
ARC
8
DEFAULT_255_2_778
10
48.4320955
20
14.1569998
40
4.9992607
50
5.0437807
51
21.1786632
0
ARC
8
DEFAULT_255_2_778
10
52.309861
20
20.4199161
40
0.8787682
50
188.7487969
51
201.1519286
0
ARC
8
DEFAULT_255_2_778
10
52.3002058
20
20.4180847
40
0.8689467
50
187.7960794
51
188.7262743
0
ARC
8
DEFAULT_255_2_778
10
52.300191
20
20.4181015
40
0.8689343
50
179.9994754
51
187.7973158
0
ARC
8
DEFAULT_255_2_778
10
52.3077461
20
20.4178493
40
0.8764895
50
114.6448779
51
179.9829901
0
ARC
8
DEFAULT_255_2_778
10
52.3123661
20
20.4055207
40
0.889622
50
111.2386075
51
114.5842212
0
ARC
8
DEFAULT_255_2_778
10
52.3071933
20
20.4147944
40
0.8791054
50
98.7842829
51
111.1433221
0
ARC
8
DEFAULT_255_2_778
10
52.3053791
20
20.4242076
40
0.8695257
50
97.8342376
51
98.7608618
0
ARC
8
DEFAULT_255_2_778
10
52.3053415
20
20.4246849
40
0.8690479
50
89.9994989
51
97.8360761
0
ARC
8
DEFAULT_255_2_778
10
52.3051216
20
20.4173874
40
0.8763454
50
24.6205489
51
89.9851208
0
ARC
8
DEFAULT_255_2_778
10
52.2928765
20
20.412821
40
0.8893802
50
21.2122121
51
24.5593369
0
ARC
8
DEFAULT_255_2_778
10
49.2825116
20
12.3050515
40
2.589914
50
180.0361049
51
194.0792463
0
ARC
8
DEFAULT_255_2_778
10
57.112817
20
11.7421267
40
2.3840821
50
359.9952095
51
0.0526969
0
ARC
8
DEFAULT_255_2_778
10
56.9953868
20
11.7416409
40
2.5015125
50
345.6728081
51
0.0065629
0
ARC
8
DEFAULT_255_2_778
10
43.3559639
20
20.4183866
40
0.8747777
50
21.1713249
51
81.1797429
0
ARC
8
DEFAULT_255_2_778
10
43.3556035
20
20.4160652
40
0.877127
50
81.1797363
51
82.4780259
0
ARC
8
DEFAULT_255_2_778
10
43.3558595
20
20.4183641
40
0.8748144
50
82.4749319
51
89.9983031
0
ARC
8
DEFAULT_255_2_778
10
43.3560147
20
20.417618
40
0.8755605
50
90.0084664
51
141.1435565
0
ARC
8
DEFAULT_255_2_778
10
43.3547307
20
20.4186774
40
0.8738959
50
141.1448282
51
180.0166097
0
ARC
8
DEFAULT_255_2_778
10
43.3555628
20
20.4184199
40
0.8747279
50
179.9997299
51
182.6949121
0
ARC
8
DEFAULT_255_2_778
10
43.3554983
20
20.4184433
40
0.8746646
50
182.6966388
51
201.1946362
0
ARC
8
DEFAULT_255_2_778
10
39.480271
20
14.1563754
40
5.0007271
50
0.0016499
51
21.1736816
0
ARC
8
DEFAULT_255_2_778
10
34.4149628
20
20.4180342
40
0.874632
50
21.1646483
51
81.1781943
0
ARC
8
DEFAULT_255_2_778
10
34.4143917
20
20.4138786
40
0.8788262
50
81.1829459
51
82.4284181
0
ARC
8
DEFAULT_255_2_778
10
34.4148218
20
20.4173669
40
0.8753116
50
82.4262427
51
89.9982962
0
ARC
8
DEFAULT_255_2_778
10
34.4149296
20
20.4170871
40
0.8755914
50
90.0053478
51
141.1425886
0
ARC
8
DEFAULT_255_2_778
10
34.4136159
20
20.4182534
40
0.8738366
50
141.1480958
51
180.0209257
0
ARC
8
DEFAULT_255_2_778
10
34.4153057
20
20.4179344
40
0.8755265
50
180.0000075
51
182.6933972
0
ARC
8
DEFAULT_255_2_778
10
34.4151841
20
20.417969
40
0.8754066
50
182.6960388
51
201.177612
0
ARC
8
DEFAULT_255_2_778
10
30.5401009
20
14.1559491
40
4.9997973
50
0.0008065
51
21.1756752
0
ARC
8
DEFAULT_255_2_778
10
29.9397639
20
20.4175866
40
0.8747777
50
21.1713249
51
81.1797429
0
ARC
8
DEFAULT_255_2_778
10
29.9392884
20
20.4142904
40
0.8781079
50
81.1820654
51
82.3797315
0
ARC
8
DEFAULT_255_2_778
10
29.939623
20
20.4170915
40
0.875287
50
82.377128
51
89.9980234
0
ARC
8
DEFAULT_255_2_778
10
29.9398092
20
20.4166207
40
0.8757578
50
90.0102043
51
141.1373807
0
ARC
8
DEFAULT_255_2_778
10
29.9387428
20
20.4179198
40
0.8741123
50
141.159827
51
180.015257
0
ARC
8
DEFAULT_255_2_778
10
29.9393804
20
20.417682
40
0.8747499
50
179.9996699
51
182.6634905
0
ARC
8
DEFAULT_255_2_778
10
29.9388905
20
20.4176767
40
0.8742601
50
182.664632
51
201.200227
0
ARC
8
DEFAULT_255_2_778
10
26.0619468
20
14.1551784
40
5.0028513
50
0.0061965
51
21.1691348
0
ARC
8
DEFAULT_255_2_778
10
66.3585475
20
9.4013198
40
0.5001506
50
313.7484099
51
359.9885085
0
ARC
8
DEFAULT_255_2_778
10
66.358562
20
9.4012168
40
0.5000661
50
269.9999357
51
313.7553748
0
ARC
8
DEFAULT_255_2_778
10
66.3585653
20
9.4020996
40
0.5009489
50
267.5210503
51
269.9995521
0
ARC
8
DEFAULT_255_2_778
10
64.6336682
20
9.4780927
40
0.5015723
50
180.1682889
51
267.443763
0
ARC
8
DEFAULT_255_2_778
10
46.7312407
20
10.25947
40
0.5013442
50
180.1429235
51
267.4571811
0
ARC
8
DEFAULT_255_2_778
10
48.4563503
20
10.1833009
40
0.5002502
50
267.5193127
51
269.9996416
0
ARC
8
DEFAULT_255_2_778
10
48.4562938
20
10.1832865
40
0.5002358
50
270.0061027
51
313.7475666
0
ARC
8
DEFAULT_255_2_778
10
48.4565662
20
10.182988
40
0.4998319
50
313.7486783
51
0.003609
0
ARC
8
DEFAULT_255_2_778
10
42.2653411
20
10.4544703
40
0.5013446
50
180.1429516
51
267.457141
0
ARC
8
DEFAULT_255_2_778
10
43.9806503
20
10.3785009
40
0.5002502
50
267.5193127
51
269.9996416
0
ARC
8
DEFAULT_255_2_778
10
43.9805938
20
10.3784865
40
0.5002358
50
270.0061027
51
313.7475666
0
ARC
8
DEFAULT_255_2_778
10
43.9806422
20
10.3782836
40
0.5000559
50
313.7596406
51
0.0041085
0
ARC
8
DEFAULT_255_2_778
10
33.3136341
20
10.8452684
40
0.5013379
50
180.1541646
51
267.4693432
0
ARC
8
DEFAULT_255_2_778
10
35.0387653
20
10.7694996
40
0.5009489
50
267.5210503
51
269.9995521
0
ARC
8
DEFAULT_255_2_778
10
35.038762
20
10.7686168
40
0.5000661
50
269.9999357
51
313.7553748
0
ARC
8
DEFAULT_255_2_778
10
35.0385762
20
10.768793
40
0.5003219
50
313.7567803
51
359.968674
0
ARC
8
DEFAULT_255_2_778
10
24.3626914
20
11.2346246
40
0.5001933
50
180.0120408
51
267.4684467
0
ARC
8
DEFAULT_255_2_778
10
21.6123736
20
11.3546558
40
0.5002245
50
313.7678649
51
359.9958347
0
ARC
8
DEFAULT_255_2_778
10
21.6126718
20
11.3546487
40
0.5000132
50
270.0136924
51
313.7437544
0
ARC
8
DEFAULT_255_2_778
10
21.6127963
20
11.354796
40
0.5001605
50
267.4791852
51
269.9994252
0
ARC
8
DEFAULT_255_2_778
10
26.0879503
20
11.1596009
40
0.5002502
50
267.5193127
51
269.9996416
0
ARC
8
DEFAULT_255_2_778
10
26.0878938
20
11.1595865
40
0.5002358
50
270.0061027
51
313.7475666
0
ARC
8
DEFAULT_255_2_778
10
26.0881666
20
11.1592879
40
0.4998315
50
313.7486415
51
0.0036133
0
ARC
8
DEFAULT_255_2_778
10
28.8379603
20
11.0392033
40
0.4999622
50
179.9981504
51
267.4937873
0
ARC
8
DEFAULT_255_2_778
10
30.5636811
20
10.9633042
40
0.4994688
50
267.4774452
51
269.9995151
0
ARC
8
DEFAULT_255_2_778
10
30.5635681
20
10.9636088
40
0.4997733
50
270.0124659
51
313.7547933
0
ARC
8
DEFAULT_255_2_778
10
30.5631744
20
10.9638555
40
0.5002238
50
313.7678272
51
359.9958757
0
ARC
8
DEFAULT_255_2_778
10
38.8893122
20
20.4165892
40
0.8750114
50
21.1652118
51
81.1654376
0
ARC
8
DEFAULT_255_2_778
10
38.8890884
20
20.4134904
40
0.8781079
50
81.1820654
51
82.3797315
0
ARC
8
DEFAULT_255_2_778
10
38.889423
20
20.4162915
40
0.875287
50
82.377128
51
89.9980234
0
ARC
8
DEFAULT_255_2_778
10
38.8896092
20
20.4158207
40
0.8757578
50
90.0102043
51
141.1373807
0
ARC
8
DEFAULT_255_2_778
10
38.8885428
20
20.4171198
40
0.8741123
50
141.159827
51
180.015257
0
ARC
8
DEFAULT_255_2_778
10
38.8891804
20
20.416882
40
0.8747499
50
179.9996699
51
182.6634905
0
ARC
8
DEFAULT_255_2_778
10
38.8886905
20
20.4168767
40
0.8742601
50
182.664632
51
201.200227
0
ARC
8
DEFAULT_255_2_778
10
35.0117468
20
14.1543784
40
5.0028513
50
0.0061965
51
21.1691348
0
ARC
8
DEFAULT_255_2_778
10
39.5146718
20
10.5731239
40
0.4999263
50
313.7374418
51
359.9880339
0
ARC
8
DEFAULT_255_2_778
10
39.514462
20
10.5731168
40
0.5000661
50
269.9999357
51
313.7553748
0
ARC
8
DEFAULT_255_2_778
10
39.5144653
20
10.5739996
40
0.5009489
50
267.5210503
51
269.9995521
0
ARC
8
DEFAULT_255_2_778
10
37.7890604
20
10.6484034
40
0.4999622
50
179.9981644
51
267.4937815
0
ARC
8
DEFAULT_255_2_778
10
21.5894972
20
14.1555294
40
6.7487009
50
359.9973682
51
21.1735394
0
ARC
8
DEFAULT_255_2_778
10
25.4635517
20
20.4168628
40
0.8747043
50
21.1748535
51
81.1781908
0
ARC
8
DEFAULT_255_2_778
10
25.4630884
20
20.4134904
40
0.8781079
50
81.1820654
51
82.3797315
0
ARC
8
DEFAULT_255_2_778
10
25.463423
20
20.4162915
40
0.875287
50
82.377128
51
89.9980234
0
ARC
8
DEFAULT_255_2_778
10
25.4636092
20
20.4158207
40
0.8757578
50
90.0102043
51
141.1373807
0
ARC
8
DEFAULT_255_2_778
10
25.4620357
20
20.4172603
40
0.8736293
50
141.1461465
51
180.0181853
0
ARC
8
DEFAULT_255_2_778
10
25.4632306
20
20.4169826
40
0.8748241
50
179.9999691
51
182.6698564
0
ARC
8
DEFAULT_255_2_778
10
25.4629843
20
20.4170003
40
0.8745789
50
182.6717679
51
201.2008174
0
ARC
8
DEFAULT_255_2_778
10
21.589904
20
14.1551742
40
4.9985942
50
359.9970798
51
21.17825
0
ARC
8
DEFAULT_255_2_778
10
20.9883637
20
20.4165866
40
0.8747778
50
21.1713217
51
81.179734
0
ARC
8
DEFAULT_255_2_778
10
20.9878884
20
20.4132904
40
0.8781079
50
81.1820654
51
82.3797315
0
ARC
8
DEFAULT_255_2_778
10
20.988223
20
20.4160915
40
0.875287
50
82.377128
51
89.9980234
0
ARC
8
DEFAULT_255_2_778
10
20.9884092
20
20.4156207
40
0.8757578
50
90.0102043
51
141.1373807
0
ARC
8
DEFAULT_255_2_778
10
20.9876042
20
20.4168277
40
0.8743737
50
141.165866
51
180.0125795
0
ARC
8
DEFAULT_255_2_778
10
20.9878516
20
20.4166275
40
0.874621
50
179.9994594
51
182.7009195
0
ARC
8
DEFAULT_255_2_778
10
20.987923
20
20.416661
40
0.8746939
50
182.7028896
51
201.1951299
0
ARC
8
DEFAULT_255_2_778
10
17.113202
20
14.154575
40
5.000196
50
0.0016548
51
21.1748149
0
ARC
8
DEFAULT_255_2_778
10
57.382471
20
14.1547754
40
5.0007271
50
0.0016499
51
21.1736816
0
ARC
8
DEFAULT_255_2_778
10
61.2577515
20
20.4162116
40
0.8744499
50
182.6306543
51
201.1486774
0
ARC
8
DEFAULT_255_2_778
10
61.2587536
20
20.4162493
40
0.8754527
50
180.0001878
51
182.6301046
0
ARC
8
DEFAULT_255_2_778
10
61.2591955
20
20.4163307
40
0.8758945
50
141.1874191
51
180.0055134
0
ARC
8
DEFAULT_255_2_778
10
61.2582738
20
20.4167781
40
0.874896
50
90.0258689
51
141.1724169
0
ARC
8
DEFAULT_255_2_778
10
61.2578408
20
20.418091
40
0.8735831
50
82.1259926
51
89.9975122
0
ARC
8
DEFAULT_255_2_778
10
61.2572022
20
20.4131706
40
0.8785447
50
81.1345929
51
82.1286963
0
ARC
8
DEFAULT_255_2_778
10
61.2585661
20
20.4168563
40
0.8746933
50
21.1755949
51
81.1856613
0
ARC
8
DEFAULT_255_2_778
10
61.8601623
20
14.1551474
40
4.9987358
50
0.0008255
51
21.1779497
0
ARC
8
DEFAULT_255_2_778
10
65.7374769
20
20.4178201
40
0.8787845
50
188.7520559
51
201.1517937
0
ARC
8
DEFAULT_255_2_778
10
65.7273801
20
20.4159288
40
0.8685176
50
187.7996774
51
188.7300951
0
ARC
8
DEFAULT_255_2_778
10
65.7277672
20
20.416001
40
0.8689108
50
179.9995202
51
187.8009277
0
ARC
8
DEFAULT_255_2_778
10
65.7351514
20
20.4157846
40
0.8762948
50
114.6367094
51
179.9853734
0
ARC
8
DEFAULT_255_2_778
10
65.7396877
20
20.4035552
40
0.8893024
50
111.2273658
51
114.57392
0
ARC
8
DEFAULT_255_2_778
10
65.7348696
20
20.4123945
40
0.8793194
50
98.7871558
51
111.1432579
0
ARC
8
DEFAULT_255_2_778
10
65.7330304
20
20.4219997
40
0.8695462
50
97.8374704
51
98.7640797
0
ARC
8
DEFAULT_255_2_778
10
65.7330113
20
20.4223061
40
0.8692402
50
89.999639
51
97.8389773
0
ARC
8
DEFAULT_255_2_778
10
65.732836
20
20.4153175
40
0.8762288
50
24.6216398
51
89.9881779
0
ARC
8
DEFAULT_255_2_778
10
65.7203907
20
20.4106837
40
0.8894736
50
21.2124551
51
24.5589917
0
ARC
8
DEFAULT_255_2_778
10
61.8099942
20
14.1458245
40
6.7986039
50
359.9991146
51
21.1742648
0
ARC
8
DEFAULT_255_2_778
10
69.1086353
20
9.3239816
40
0.5000372
50
180.0071173
51
225.7474489
0
ARC
8
DEFAULT_255_2_778
10
69.1086358
20
9.3240052
40
0.5000545
50
225.7492991
51
269.9966403
0
ARC
8
DEFAULT_255_2_778
10
69.1085982
20
9.3246242
40
0.5006734
50
270.000942
51
271.4878411
0
ARC
8
DEFAULT_255_2_778
10
69.1085982
20
9.3246242
40
0.5006736
50
270.000942
51
271.4878411
0
ARC
8
DEFAULT_255_2_778
10
69.1086358
20
9.3240052
40
0.5000544
50
225.7492991
51
269.9966403
0
ARC
8
DEFAULT_255_2_778
10
69.1086353
20
9.3239816
40
0.5000372
50
180.0071173
51
225.7474489
0
ARC
8
DEFAULT_255_2_778
10
61.8828653
20
9.5973996
40
0.5009489
50
267.5210503
51
269.9995521
0
ARC
8
DEFAULT_255_2_778
10
61.882862
20
9.5965168
40
0.5000661
50
269.9999357
51
313.7553748
0
ARC
8
DEFAULT_255_2_778
10
61.8830705
20
9.5965245
40
0.4999275
50
313.7375023
51
359.987962
0
ARC
8
DEFAULT_255_2_778
10
42.3851742
20
110.2905493
40
0.3757759
50
10.2969906
51
89.9411736
0
ARC
8
DEFAULT_255_2_778
10
42.3856203
20
110.2870829
40
0.379242
50
90.0090968
51
96.589835
0
ARC
8
DEFAULT_255_2_778
10
42.829571
20
110.2034167
40
0.1389224
50
66.7103383
51
89.9235519
0
ARC
8
DEFAULT_255_2_778
10
42.829788
20
110.202265
40
0.140074
50
90.0129413
51
90.3752408
0
ARC
8
DEFAULT_255_2_778
10
42.8296503
20
110.209023
40
0.1333154
50
90.3350847
51
103.3808238
0
ARC
8
DEFAULT_255_2_778
10
42.3886847
20
110.2677229
40
0.5048543
50
90.0102438
51
96.7097028
0
ARC
8
DEFAULT_255_2_778
10
42.3877865
20
110.2724613
40
0.5001165
50
6.6895209
51
89.9074338
0
ARC
8
DEFAULT_255_2_778
10
41.2726322
20
110.3429926
40
0.500216
50
180.0346751
51
246.6281581
0
ARC
8
DEFAULT_255_2_778
10
41.2739592
20
110.3426232
40
0.5015428
50
171.6774428
51
179.9923908
0
ARC
8
DEFAULT_255_2_778
10
41.2725164
20
110.3428902
40
0.5000767
50
96.7316107
51
171.6837844
0
ARC
8
DEFAULT_255_2_778
10
61.8569776
20
104.8120375
40
5.0011205
50
338.8271556
51
359.9975023
0
ARC
8
DEFAULT_255_2_778
10
65.7370729
20
98.5491344
40
0.8791843
50
158.8523893
51
171.2173857
0
ARC
8
DEFAULT_255_2_778
10
65.7289806
20
98.5507478
40
0.8709406
50
171.2409929
51
172.1666343
0
ARC
8
DEFAULT_255_2_778
10
65.7271111
20
98.550998
40
0.8690544
50
172.1661791
51
180.0006298
0
ARC
8
DEFAULT_255_2_778
10
65.7344641
20
98.5512367
40
0.8764075
50
180.0162284
51
245.3585613
0
ARC
8
DEFAULT_255_2_778
10
65.7391588
20
98.563617
40
0.8896182
50
245.416184
51
248.7618024
0
ARC
8
DEFAULT_255_2_778
10
65.7340729
20
98.5543694
40
0.8791575
50
248.8524286
51
261.2304793
0
ARC
8
DEFAULT_255_2_778
10
65.7326575
20
98.5476284
40
0.8722794
50
261.2548562
51
262.1800335
0
ARC
8
DEFAULT_255_2_778
10
65.7322336
20
98.5445625
40
0.8691844
50
262.1802191
51
270.0005116
0
ARC
8
DEFAULT_255_2_778
10
65.7320512
20
98.5516915
40
0.8763136
50
270.0124294
51
335.3625019
0
ARC
8
DEFAULT_255_2_778
10
65.7198338
20
98.5562091
40
0.8893025
50
335.42608
51
338.7726342
0
ARC
8
DEFAULT_255_2_778
10
57.3843347
20
104.8112656
40
4.9980635
50
338.8206117
51
0.0029104
0
ARC
8
DEFAULT_255_2_778
10
61.2547994
20
98.5501728
40
0.8724057
50
158.7884948
51
177.4209665
0
ARC
8
DEFAULT_255_2_778
10
61.2561714
20
98.5500988
40
0.8737796
50
177.4201666
51
180.0001769
0
ARC
8
DEFAULT_255_2_778
10
61.256726
20
98.549994
40
0.8743344
50
179.9933141
51
218.8600029
0
ARC
8
DEFAULT_255_2_778
10
61.2574738
20
98.5499608
40
0.874896
50
218.8275831
51
269.9741311
0
ARC
8
DEFAULT_255_2_778
10
61.2570408
20
98.5486479
40
0.8735831
50
270.0024878
51
277.8740074
0
ARC
8
DEFAULT_255_2_778
10
61.2564022
20
98.5535683
40
0.8785447
50
277.8713037
51
278.8654071
0
ARC
8
DEFAULT_255_2_778
10
61.2576403
20
98.5499814
40
0.8748101
50
278.8214903
51
338.8274584
0
ARC
8
DEFAULT_255_2_778
10
55.681601
20
109.0990007
40
0.500103
50
92.521645
51
179.9863971
0
ARC
8
DEFAULT_255_2_778
10
52.9315113
20
108.9788857
40
0.5001497
50
90.0007346
51
92.6028566
0
ARC
8
DEFAULT_255_2_778
10
52.9313635
20
108.978552
40
0.5004833
50
46.3222621
51
89.9838157
0
ARC
8
DEFAULT_255_2_778
10
52.9314422
20
108.9789298
40
0.5001559
50
0.0102641
51
46.2988954
0
ARC
8
DEFAULT_255_2_778
10
43.3576603
20
98.5483976
40
0.8718884
50
301.7557507
51
338.8646961
0
ARC
8
DEFAULT_255_2_778
10
43.3536561
20
98.5532278
40
0.8781033
50
270.0514319
51
301.8120391
0
ARC
8
DEFAULT_255_2_778
10
43.3544367
20
98.5440947
40
0.8689699
50
262.1714093
51
270.0004982
0
ARC
8
DEFAULT_255_2_778
10
43.3558922
20
98.5524221
40
0.8774179
50
249.6790579
51
262.1513226
0
ARC
8
DEFAULT_255_2_778
10
43.3614735
20
98.5688401
40
0.8947524
50
248.8747841
51
249.7090054
0
ARC
8
DEFAULT_255_2_778
10
43.3534503
20
98.5473947
40
0.8718567
50
211.7486652
51
248.8586782
0
ARC
8
DEFAULT_255_2_778
10
43.3585111
20
98.5515644
40
0.8783548
50
180.0514132
51
211.8062501
0
ARC
8
DEFAULT_255_2_778
10
43.3493412
20
98.550784
40
0.8691845
50
172.1802191
51
180.0005116
0
ARC
8
DEFAULT_255_2_778
10
43.3575794
20
98.549343
40
0.8775422
50
159.6902472
51
172.160191
0
ARC
8
DEFAULT_255_2_778
10
43.3737207
20
98.5438739
40
0.8945783
50
158.8862532
51
159.7205763
0
ARC
8
DEFAULT_255_2_778
10
39.4800097
20
104.811663
40
5.0001885
50
338.8251618
51
359.9983546
0
ARC
8
DEFAULT_255_2_778
10
24.36146
20
107.7336357
40
0.4999619
50
92.5061785
51
180.0018636
0
ARC
8
DEFAULT_255_2_778
10
21.6114422
20
107.6134551
40
0.5000559
50
359.9959133
51
46.2403761
0
ARC
8
DEFAULT_255_2_778
10
21.6113938
20
107.6132524
40
0.5002358
50
46.2524334
51
89.9938973
0
ARC
8
DEFAULT_255_2_778
10
21.6114503
20
107.613238
40
0.5002502
50
90.0003584
51
92.4806873
0
ARC
8
DEFAULT_255_2_778
10
26.0868653
20
107.8080393
40
0.5009489
50
90.0004479
51
92.4789497
0
ARC
8
DEFAULT_255_2_778
10
26.086862
20
107.8089221
40
0.5000661
50
46.2446252
51
90.0000643
0
ARC
8
DEFAULT_255_2_778
10
26.0869018
20
107.8088421
40
0.5000964
50
0.0203137
51
46.2542563
0
ARC
8
DEFAULT_255_2_778
10
46.7295177
20
108.7100849
40
0.5001196
50
92.5234673
51
179.9960392
0
ARC
8
DEFAULT_255_2_778
10
48.4547503
20
108.785338
40
0.5002502
50
90.0003584
51
92.4806873
0
ARC
8
DEFAULT_255_2_778
10
48.4546938
20
108.7853524
40
0.5002358
50
46.2524334
51
89.9938973
0
ARC
8
DEFAULT_255_2_778
10
48.4547998
20
108.7855798
40
0.4999983
50
0.0045385
51
46.2431862
0
ARC
8
DEFAULT_255_2_778
10
43.9793427
20
108.5900553
40
0.5000554
50
359.9958866
51
46.2403974
0
ARC
8
DEFAULT_255_2_778
10
43.9791974
20
108.5896123
40
0.5004759
50
46.2634664
51
89.9926767
0
ARC
8
DEFAULT_255_2_778
10
43.9792653
20
108.589139
40
0.5009492
50
90.0004476
51
92.4789493
0
ARC
8
DEFAULT_255_2_778
10
42.2638884
20
108.5150172
40
0.5001903
50
92.5312162
51
179.9882846
0
ARC
8
DEFAULT_255_2_778
10
38.8914603
20
98.5499976
40
0.8718884
50
301.7557507
51
338.8646961
0
ARC
8
DEFAULT_255_2_778
10
38.8874561
20
98.5548278
40
0.8781033
50
270.0514319
51
301.8120391
0
ARC
8
DEFAULT_255_2_778
10
38.8882367
20
98.5456947
40
0.8689699
50
262.1714093
51
270.0004982
0
ARC
8
DEFAULT_255_2_778
10
38.8896922
20
98.5540221
40
0.8774179
50
249.6790579
51
262.1513226
0
ARC
8
DEFAULT_255_2_778
10
38.8952735
20
98.5704401
40
0.8947524
50
248.8747841
51
249.7090054
0
ARC
8
DEFAULT_255_2_778
10
38.8864282
20
98.5488198
40
0.8713974
50
211.7795797
51
248.9049476
0
ARC
8
DEFAULT_255_2_778
10
38.8909387
20
98.5526793
40
0.8772648
50
180.0542028
51
211.8387116
0
ARC
8
DEFAULT_255_2_778
10
38.8812456
20
98.5518599
40
0.8675714
50
172.1963524
51
180.0006971
0
ARC
8
DEFAULT_255_2_778
10
38.8894272
20
98.550428
40
0.8758718
50
159.6245593
51
172.1762177
0
ARC
8
DEFAULT_255_2_778
10
38.905552
20
98.5449586
40
0.8928921
50
158.8158853
51
159.6558095
0
ARC
8
DEFAULT_255_2_778
10
35.0136704
20
104.813489
40
5.0003278
50
338.825461
51
359.9992033
0
ARC
8
DEFAULT_255_2_778
10
39.5139982
20
108.3955792
40
0.4999999
50
0.0046099
51
46.2431026
0
ARC
8
DEFAULT_255_2_778
10
39.5138938
20
108.3953524
40
0.5002358
50
46.2524334
51
89.9938973
0
ARC
8
DEFAULT_255_2_778
10
39.5139503
20
108.395338
40
0.5002502
50
90.0003584
51
92.4806873
0
ARC
8
DEFAULT_255_2_778
10
37.7886953
20
108.3201064
40
0.5000971
50
92.5210158
51
179.9870465
0
ARC
8
DEFAULT_255_2_778
10
34.4163799
20
98.5505132
40
0.8718757
50
301.7524606
51
338.8632799
0
ARC
8
DEFAULT_255_2_778
10
34.4123004
20
98.5554191
40
0.8781946
50
270.0523858
51
301.8103393
0
ARC
8
DEFAULT_255_2_778
10
34.413096
20
98.5460493
40
0.8688245
50
262.2077323
51
270.0004876
0
ARC
8
DEFAULT_255_2_778
10
34.4145125
20
98.5541405
40
0.8770331
50
249.6775024
51
262.1877121
0
ARC
8
DEFAULT_255_2_778
10
34.4206365
20
98.571998
40
0.8959062
50
248.8715495
51
249.706872
0
ARC
8
DEFAULT_255_2_778
10
34.4121981
20
98.5496144
40
0.8719856
50
211.7542332
51
248.8585848
0
ARC
8
DEFAULT_255_2_778
10
34.4170011
20
98.5536344
40
0.8781857
50
180.0524264
51
211.8123375
0
ARC
8
DEFAULT_255_2_778
10
34.4076552
20
98.5528406
40
0.8688395
50
172.1742067
51
180.0006454
0
ARC
8
DEFAULT_255_2_778
10
34.4159346
20
98.5513915
40
0.877239
50
159.6793397
51
172.1540725
0
ARC
8
DEFAULT_255_2_778
10
34.4292266
20
98.5470023
40
0.8912282
50
158.8739588
51
159.7114784
0
ARC
8
DEFAULT_255_2_778
10
30.536444
20
104.8143862
40
5.0024541
50
338.8300159
51
359.994654
0
ARC
8
DEFAULT_255_2_778
10
35.0384075
20
108.2002737
40
0.5004907
50
0.039581
51
46.2349848
0
ARC
8
DEFAULT_255_2_778
10
35.038762
20
108.2005221
40
0.5000661
50
46.2446252
51
90.0000643
0
ARC
8
DEFAULT_255_2_778
10
35.0387653
20
108.1996393
40
0.5009489
50
90.0004479
51
92.4789497
0
ARC
8
DEFAULT_255_2_778
10
33.3134277
20
108.125171
40
0.5000296
50
92.5136
51
179.994448
0
ARC
8
DEFAULT_255_2_778
10
29.9381165
20
98.5530322
40
0.8755338
50
278.848834
51
338.8001239
0
ARC
8
DEFAULT_255_2_778
10
29.9378733
20
98.5583515
40
0.8808273
50
277.819844
51
278.8112376
0
ARC
8
DEFAULT_255_2_778
10
29.9384495
20
98.5537932
40
0.876233
50
270.0026403
51
277.8230685
0
ARC
8
DEFAULT_255_2_778
10
29.9385363
20
98.5527479
40
0.8751876
50
218.8447598
51
269.9969608
0
ARC
8
DEFAULT_255_2_778
10
29.9376963
20
98.5522421
40
0.874216
50
179.9846736
51
218.8534745
0
ARC
8
DEFAULT_255_2_778
10
29.9381496
20
98.5524787
40
0.8746693
50
177.4214766
51
180.0001775
0
ARC
8
DEFAULT_255_2_778
10
29.9373514
20
98.5525251
40
0.8738699
50
158.8223977
51
177.4221611
0
ARC
8
DEFAULT_255_2_778
10
26.0630766
20
104.8139878
40
5.0003216
50
338.825448
51
359.9992165
0
ARC
8
DEFAULT_255_2_778
10
30.5633421
20
108.005055
40
0.500056
50
359.9959231
51
46.2403726
0
ARC
8
DEFAULT_255_2_778
10
30.5632938
20
108.0048524
40
0.5002358
50
46.2524334
51
89.9938973
0
ARC
8
DEFAULT_255_2_778
10
30.5633503
20
108.004838
40
0.5002502
50
90.0003584
51
92.4806873
0
ARC
8
DEFAULT_255_2_778
10
28.8381177
20
107.9295849
40
0.5001196
50
92.5234673
51
179.9960392
0
ARC
8
DEFAULT_255_2_778
10
57.4069503
20
109.174538
40
0.5002502
50
90.0003584
51
92.4806873
0
ARC
8
DEFAULT_255_2_778
10
57.4068938
20
109.1745524
40
0.5002358
50
46.2524334
51
89.9938973
0
ARC
8
DEFAULT_255_2_778
10
57.4069988
20
109.1747793
40
0.4999993
50
0.0045958
51
46.2431428
0
ARC
8
DEFAULT_255_2_778
10
60.1992351
20
109.2950553
40
0.5422384
50
180.0100487
51
180.1305866
0
ARC
8
DEFAULT_255_2_778
10
60.1570426
20
109.2948553
40
0.5000458
50
92.5152277
51
179.9879838
0
ARC
8
DEFAULT_255_2_778
10
61.8823503
20
109.370038
40
0.5002502
50
90.0003584
51
92.4806873
0
ARC
8
DEFAULT_255_2_778
10
61.8822938
20
109.3700524
40
0.5002358
50
46.2524334
51
89.9938973
0
ARC
8
DEFAULT_255_2_778
10
61.8823988
20
109.3702794
40
0.4999992
50
0.0045843
51
46.2431349
0
ARC
8
DEFAULT_255_2_778
10
43.9514811
20
104.812532
40
5.0045599
50
338.8363348
51
352.6929584
0
ARC
8
DEFAULT_255_2_778
10
47.8348076
20
98.5488934
40
0.8788584
50
158.8412992
51
171.2240877
0
ARC
8
DEFAULT_255_2_778
10
47.828403
20
98.5502571
40
0.8723209
50
171.2484303
51
172.173578
0
ARC
8
DEFAULT_255_2_778
10
47.8249552
20
98.5507406
40
0.8688393
50
172.1742067
51
180.0006454
0
ARC
8
DEFAULT_255_2_778
10
47.8324296
20
98.5509852
40
0.8763139
50
180.0166302
51
245.3655485
0
ARC
8
DEFAULT_255_2_778
10
47.8369979
20
98.563207
40
0.8893281
50
245.4262289
51
248.772566
0
ARC
8
DEFAULT_255_2_778
10
47.8322167
20
98.5536253
40
0.8786658
50
248.8369628
51
261.2421343
0
ARC
8
DEFAULT_255_2_778
10
47.8308379
20
98.5471117
40
0.8720184
50
261.2665109
51
262.1934499
0
ARC
8
DEFAULT_255_2_778
10
47.8303832
20
98.5438342
40
0.8687095
50
262.1937971
51
270.0005215
0
ARC
8
DEFAULT_255_2_778
10
47.8300989
20
98.551473
40
0.8763483
50
270.0191058
51
335.3556613
0
ARC
8
DEFAULT_255_2_778
10
47.8172801
20
98.5563841
40
0.8900478
50
335.4124086
51
338.7653695
0
ARC
8
DEFAULT_255_2_778
10
52.9056281
20
104.8119159
40
5.0012012
50
338.8326914
51
357.2093025
0
ARC
8
DEFAULT_255_2_778
10
56.7859729
20
98.5491344
40
0.8791843
50
158.8523893
51
171.2173857
0
ARC
8
DEFAULT_255_2_778
10
56.7778806
20
98.5507478
40
0.8709406
50
171.2409929
51
172.1666343
0
ARC
8
DEFAULT_255_2_778
10
56.7760111
20
98.550998
40
0.8690544
50
172.1661791
51
180.0006298
0
ARC
8
DEFAULT_255_2_778
10
56.7833641
20
98.5512367
40
0.8764075
50
180.0162284
51
245.3585613
0
ARC
8
DEFAULT_255_2_778
10
56.7880588
20
98.563617
40
0.8896182
50
245.416184
51
248.7618024
0
ARC
8
DEFAULT_255_2_778
10
56.7829729
20
98.5543694
40
0.8791575
50
248.8524286
51
261.2304793
0
ARC
8
DEFAULT_255_2_778
10
56.7815575
20
98.5476284
40
0.8722794
50
261.2548562
51
262.1800335
0
ARC
8
DEFAULT_255_2_778
10
56.7811336
20
98.5445625
40
0.8691844
50
262.1802191
51
270.0005116
0
ARC
8
DEFAULT_255_2_778
10
56.7809512
20
98.5516915
40
0.8763136
50
270.0124294
51
335.3625019
0
ARC
8
DEFAULT_255_2_778
10
56.7687338
20
98.5562091
40
0.8893025
50
335.42608
51
338.7726342
0
ARC
8
DEFAULT_255_2_778
10
21.5871719
20
104.811607
40
6.7508263
50
338.8298295
51
359.9992567
0
ARC
8
DEFAULT_255_2_778
10
25.4633897
20
98.5501532
40
0.8746606
50
278.813104
51
338.8256436
0
ARC
8
DEFAULT_255_2_778
10
25.4627883
20
98.5535493
40
0.8781087
50
277.6202684
51
278.8179345
0
ARC
8
DEFAULT_255_2_778
10
25.4630563
20
98.5511395
40
0.8756846
50
270.0021116
51
277.6237956
0
ARC
8
DEFAULT_255_2_778
10
25.46316
20
98.5508912
40
0.8754362
50
218.8520834
51
269.9953292
0
ARC
8
DEFAULT_255_2_778
10
25.4622054
20
98.5499058
40
0.8740748
50
179.9874476
51
218.8410355
0
ARC
8
DEFAULT_255_2_778
10
25.4622319
20
98.5501039
40
0.8741013
50
177.4017704
51
180.0004343
0
ARC
8
DEFAULT_255_2_778
10
25.4614102
20
98.5501499
40
0.8732783
50
158.7879908
51
177.4023375
0
ARC
8
DEFAULT_255_2_778
10
21.587572
20
104.8119634
40
5.0007262
50
338.8263154
51
359.9983511
0
ARC
8
DEFAULT_255_2_778
10
20.9906229
20
98.5486716
40
0.8718567
50
301.7486652
51
338.8586782
0
ARC
8
DEFAULT_255_2_778
10
20.9864532
20
98.5537324
40
0.8783548
50
270.0514132
51
301.8062501
0
ARC
8
DEFAULT_255_2_778
10
20.9872336
20
98.5445625
40
0.8691845
50
262.1802191
51
270.0005116
0
ARC
8
DEFAULT_255_2_778
10
20.9886746
20
98.5528007
40
0.8775422
50
249.6902472
51
262.160191
0
ARC
8
DEFAULT_255_2_778
10
20.9941437
20
98.5689421
40
0.8945783
50
248.8862532
51
249.7205763
0
ARC
8
DEFAULT_255_2_778
10
20.9856468
20
98.5475881
40
0.8715971
50
211.7825904
51
248.9016526
0
ARC
8
DEFAULT_255_2_778
10
20.9899485
20
98.5512575
40
0.8771869
50
180.0527574
51
211.8383362
0
ARC
8
DEFAULT_255_2_778
10
20.9806252
20
98.5504589
40
0.8678632
50
172.1607975
51
180.0006034
0
ARC
8
DEFAULT_255_2_778
10
20.9890624
20
98.5489842
40
0.8764227
50
159.6259282
51
172.1405201
0
ARC
8
DEFAULT_255_2_778
10
21.0040177
20
98.5439586
40
0.8921922
50
158.819131
51
159.6577499
0
ARC
8
DEFAULT_255_2_778
10
17.1129072
20
104.8121633
40
5.000191
50
338.8251698
51
359.9983518
0
ARC
8
DEFAULT_255_2_778
10
48.4341224
20
104.8121154
40
4.99772
50
338.8184726
51
354.9572345
0
ARC
8
DEFAULT_255_2_778
10
52.3106746
20
98.549326
40
0.8790385
50
158.8411323
51
171.2214535
0
ARC
8
DEFAULT_255_2_778
10
52.3011148
20
98.5511547
40
0.8693116
50
171.2444111
51
172.1727678
0
ARC
8
DEFAULT_255_2_778
10
52.3007733
20
98.5511808
40
0.8689698
50
172.1714093
51
180.0004982
0
ARC
8
DEFAULT_255_2_778
10
52.3079754
20
98.5513952
40
0.876172
50
180.0145115
51
245.3718485
0
ARC
8
DEFAULT_255_2_778
10
52.3126515
20
98.5637841
40
0.889383
50
245.4306059
51
248.7771512
0
ARC
8
DEFAULT_255_2_778
10
52.3077987
20
98.5542983
40
0.8787845
50
248.8482063
51
261.2479441
0
ARC
8
DEFAULT_255_2_778
10
52.3059075
20
98.5442015
40
0.8685176
50
261.2699049
51
262.2003226
0
ARC
8
DEFAULT_255_2_778
10
52.3059797
20
98.5445886
40
0.8689108
50
262.1990723
51
270.0004798
0
ARC
8
DEFAULT_255_2_778
10
52.3057632
20
98.5519727
40
0.8762948
50
270.0146266
51
335.3632906
0
ARC
8
DEFAULT_255_2_778
10
52.2935339
20
98.5565091
40
0.8893024
50
335.42608
51
338.7726342
0
ARC
8
DEFAULT_255_2_778
10
64.6330883
20
109.4908173
40
0.5001902
50
92.5312072
51
179.988297
0
ARC
8
DEFAULT_255_2_778
10
66.3582653
20
109.5654393
40
0.5009489
50
90.0004479
51
92.4789497
0
ARC
8
DEFAULT_255_2_778
10
66.358262
20
109.5663221
40
0.5000661
50
46.2446252
51
90.0000643
0
ARC
8
DEFAULT_255_2_778
10
66.3586409
20
109.5663871
40
0.4997572
50
359.9922384
51
46.2708477
0
ARC
8
DEFAULT_255_2_778
10
51.20636
20
108.9046357
40
0.499962
50
92.5061802
51
180.0018594
0
ARC
8
DEFAULT_255_2_778
10
68.4696845
20
101.8299014
40
0.0202501
50
348.0819199
51
46.2094266
0
ARC
8
DEFAULT_255_2_778
10
61.8074734
20
104.8215855
40
6.8011247
50
338.8297054
51
0.0002863
0
ARC
8
DEFAULT_255_2_778
10
69.1084647
20
109.6428294
40
0.4998666
50
134.2443133
51
180.0011408
0
ARC
8
DEFAULT_255_2_778
10
69.1086358
20
109.6427337
40
0.5000545
50
90.0033597
51
134.2507009
0
ARC
8
DEFAULT_255_2_778
10
69.1085982
20
109.6421147
40
0.5006734
50
88.5121589
51
89.999058
0
ARC
8
DEFAULT_255_2_778
10
69.1096498
20
109.6393013
40
0.5034599
50
88.6401015
51
90.0001573
0
ARC
8
DEFAULT_255_2_778
10
69.1094998
20
109.6407645
40
0.5019967
50
89.9830404
51
134.1724728
0
ARC
8
DEFAULT_255_2_778
10
69.1090913
20
109.6424651
40
0.5004932
50
134.274586
51
179.9937783
0
ARC
8
DEFAULT_255_2_778
10
49.2833116
20
106.6632874
40
2.589914
50
165.9207537
51
179.9638951
0
ARC
8
DEFAULT_255_2_778
10
56.994503
20
107.2263242
40
2.5028961
50
359.99513
51
14.3232077
0
ARC
8
DEFAULT_255_2_778
10
57.1133171
20
107.2259122
40
2.3840822
50
359.9473031
51
0.0047905
0
ARC
8
DEFAULT_255_2_778
10
66.5042452
20
110.372682
40
0.0499031
50
2.5697666
51
89.6655965
0
ARC
8
DEFAULT_255_2_778
10
66.5045435
20
110.3725582
40
0.0500259
50
90.0080758
51
92.9165787
0
ARC
8
DEFAULT_255_2_778
10
50.6195376
20
109.6789005
40
0.0502734
50
92.6672574
51
180.1413772
0
ARC
8
DEFAULT_255_2_778
10
50.6207995
20
109.6787801
40
0.0515351
50
180.0040097
51
182.0690796
0
ARC
8
DEFAULT_255_2_778
10
65.0100748
20
110.2073036
40
0.0499725
50
2.5414465
51
89.7709275
0
ARC
8
DEFAULT_255_2_778
10
65.0102764
20
110.2069248
40
0.0503509
50
90.0021216
51
92.7073744
0
ARC
8
DEFAULT_255_2_778
10
52.1226165
20
109.6442209
40
0.0502521
50
92.6443246
51
180.0581624
0
ARC
8
DEFAULT_255_2_778
10
52.1235236
20
109.6441733
40
0.0511592
50
180.0038498
51
182.0767018
0
ARC
8
DEFAULT_255_2_778
10
87.5680226
20
1.4287961
40
0.2144671
50
186.87613
51
268.3368684
0
ARC
8
DEFAULT_255_2_778
10
87.6050739
20
0.2854208
40
0.2499758
50
179.9773907
51
260.0307342
0
ARC
8
DEFAULT_255_2_778
10
87.6222133
20
1.4434582
40
0.2671817
50
106.6636684
51
178.7215303
0
ARC
8
DEFAULT_255_2_778
10
88.5837414
20
2.1875827
40
0.2314472
50
279.3637034
51
359.9554209
0
ARC
8
DEFAULT_255_2_778
10
88.5806464
20
2.1874009
40
0.2345422
50
0.000416
51
1.5926079
0
ARC
8
DEFAULT_255_2_778
10
83.1845694
20
41.0944789
40
5.7553428
50
356.0150986
51
359.6141115
0
ARC
8
DEFAULT_255_2_778
10
83.1970703
20
41.094328
40
5.7428413
50
359.6147771
51
0.000293
0
ARC
8
DEFAULT_255_2_778
10
83.201596
20
41.0945066
40
5.7383157
50
359.99851
51
5.9979473
0
ARC
8
DEFAULT_255_2_778
10
83.1818517
20
77.8754752
40
5.757988
50
354.0191893
51
0.0015235
0
ARC
8
DEFAULT_255_2_778
10
83.1754573
20
77.8756279
40
5.7643824
50
0.0000034
51
0.3806322
0
ARC
8
DEFAULT_255_2_778
10
83.1646828
20
77.8755075
40
5.7751576
50
0.3811166
51
3.967751
0
ARC
8
DEFAULT_255_2_778
10
74.3533287
20
10.7207493
40
14.6277944
50
355.0242451
51
0.0001278
0
ARC
8
DEFAULT_255_2_778
10
74.6959835
20
10.7210002
40
14.2851396
50
359.9991248
51
0.0516383
0
ARC
8
DEFAULT_255_2_778
10
74.3507189
20
10.7207755
40
14.6304042
50
0.0512997
51
4.9753136
0
ARC
8
DEFAULT_255_2_778
10
88.8213799
20
11.9868511
40
2.5337197
50
338.609988
51
0.062601
0
ARC
8
DEFAULT_255_2_778
10
88.8130249
20
11.9922955
40
2.5434857
50
282.7297556
51
338.5644354
0
ARC
8
DEFAULT_255_2_778
10
88.8156651
20
12.002339
40
2.5527051
50
272.477209
51
282.622278
0
ARC
8
DEFAULT_255_2_778
10
88.8209067
20
106.9822893
40
2.5336929
50
359.9373648
51
21.3902133
0
ARC
8
DEFAULT_255_2_778
10
88.8125173
20
106.9768113
40
2.5435033
50
21.4361869
51
77.2717712
0
ARC
8
DEFAULT_255_2_778
10
88.8150618
20
106.9664925
40
2.5530123
50
77.3784963
51
87.523015
0
ARC
8
DEFAULT_255_2_778
10
74.3307642
20
108.248329
40
14.6494839
50
355.0313178
51
359.9999627
0
ARC
8
DEFAULT_255_2_778
10
74.3306581
20
108.2483054
40
14.64959
50
0.0000551
51
4.968664
0
ARC
8
DEFAULT_255_2_778
10
90.3573296
20
78.3121341
40
0.9969691
50
317.0279018
51
0.0623732
0
ARC
8
DEFAULT_255_2_778
10
90.3554487
20
78.3106733
40
0.9973524
50
272.1850165
51
317.1629644
0
ARC
8
DEFAULT_255_2_778
10
90.3538174
20
78.3289786
40
1.015707
50
271.4995834
51
272.2376001
0
ARC
8
DEFAULT_255_2_778
10
90.3555431
20
40.6586534
40
0.996881
50
45.5280711
51
88.5598095
0
ARC
8
DEFAULT_255_2_778
10
90.35685
20
40.6565977
40
0.9974351
50
0.6952197
51
45.6643688
0
ARC
8
DEFAULT_255_2_778
10
90.3373159
20
40.6554427
40
1.0169823
50
0.0099579
51
0.7469331
0
ARC
8
DEFAULT_255_2_778
10
77.1708332
20
35.3738068
40
14.9264566
50
24.5456169
51
31.2754442
0
ARC
8
DEFAULT_255_2_778
10
89.7145419
20
42.9933398
40
0.2498797
50
31.236256
51
90.0329699
0
ARC
8
DEFAULT_255_2_778
10
91.1545008
20
111.7020025
40
0.2000973
50
0.0334854
51
46.2391534
0
ARC
8
DEFAULT_255_2_778
10
91.1549374
20
111.7027832
40
0.1992317
50
46.1745594
51
90.0777675
0
ARC
8
DEFAULT_255_2_778
10
91.1546713
20
111.700453
40
0.2015617
50
90.0012188
51
92.5230952
0
ARC
8
DEFAULT_255_2_778
10
89.4385481
20
111.6275634
40
0.1995393
50
92.4558077
51
154.0690481
0
ARC
8
DEFAULT_255_2_778
10
9.0544703
20
105.9707545
40
0.2498721
50
101.1388659
51
180.0080396
0
ARC
8
DEFAULT_255_2_778
10
18.096679
20
105.4223948
40
2.534169
50
92.4647406
51
101.116074
0
ARC
8
DEFAULT_255_2_778
10
2.7609974
20
97.4670503
40
1.2731597
50
88.7757975
51
89.9997746
0
ARC
8
DEFAULT_255_2_778
10
2.7608749
20
97.4701214
40
1.2700887
50
89.9942502
51
134.3900449
0
ARC
8
DEFAULT_255_2_778
10
2.7602143
20
97.470276
40
1.2695161
50
134.3736195
51
179.9992972
0
LINE
8
DEFAULT_255_2_778
10
1.4906981
20
97.4702915
11
1.4906981
21
97.4699194
0
LINE
8
DEFAULT_255_2_778
10
1.4906981
20
97.4699194
11
1.4906981
21
97.4695472
0
ARC
8
DEFAULT_255_2_778
10
2.7606713
20
97.4695551
40
1.2699733
50
180.0003569
51
225.6177072
0
ARC
8
DEFAULT_255_2_778
10
2.7604687
20
97.4691687
40
1.2695552
50
225.6120429
51
269.993086
0
ARC
8
DEFAULT_255_2_778
10
2.7603186
20
97.4698043
40
1.270191
50
269.9998585
51
271.2576888
0
LINE
8
DEFAULT_255_2_778
10
71.4795981
20
110.0876194
11
71.3546981
21
109.9558194
0
LINE
8
DEFAULT_255_2_778
10
71.3546981
20
92.1028194
11
71.3546981
21
109.9558194
0
LINE
8
DEFAULT_255_2_778
10
71.3546981
20
109.9558194
11
71.2297981
21
110.0876194
0
LINE
8
DEFAULT_255_2_778
10
74.2150981
20
107.6193194
11
71.4795981
21
107.6193194
0
LINE
8
DEFAULT_255_2_778
10
71.4795981
20
107.6193194
11
71.4795981
21
92.1028194
0
LINE
8
DEFAULT_255_2_778
10
71.4795981
20
92.1028194
11
71.3546981
21
92.1028194
0
LINE
8
DEFAULT_255_2_778
10
71.3546981
20
92.1028194
11
71.3546981
21
91.7644194
0
LINE
8
DEFAULT_255_2_778
10
71.3546981
20
91.7644194
11
71.2263981
21
91.6263194
0
LINE
8
DEFAULT_255_2_778
10
71.2263981
20
91.6263194
11
71.8518981
21
91.5517194
0
LINE
8
DEFAULT_255_2_778
10
74.2153981
20
107.6219194
11
74.2153981
21
107.6193194
0
LINE
8
DEFAULT_255_2_778
10
74.2153981
20
107.6193194
11
74.2153981
21
107.6193194
0
LINE
8
DEFAULT_255_2_778
10
74.2153981
20
107.6193194
11
74.2153981
21
105.4981194
0
LINE
8
DEFAULT_255_2_778
10
74.2153981
20
105.4981194
11
74.2179981
21
105.4981194
0
LINE
8
DEFAULT_255_2_778
10
74.2169981
20
110.1593194
11
71.4795981
21
110.0876194
0
LINE
8
DEFAULT_255_2_778
10
71.4795981
20
110.0876194
11
71.4795981
21
107.6193194
0
LINE
8
DEFAULT_255_2_778
10
71.4795981
20
107.6193194
11
71.3546981
21
107.6193194
0
LINE
8
DEFAULT_255_2_778
10
71.3546981
20
107.6193194
11
68.6080981
21
107.6193194
0
LINE
8
DEFAULT_255_2_778
10
68.4889981
20
92.2472194
11
71.2295981
21
92.2210194
0
LINE
8
DEFAULT_255_2_778
10
71.2295981
20
92.2210194
11
71.2295981
21
110.0876194
0
LINE
8
DEFAULT_255_2_778
10
71.2295981
20
110.0876194
11
69.1210981
21
110.1429194
0
LINE
8
DEFAULT_255_2_778
10
82.8087981
20
13.4879194
11
82.8087981
21
16.1859194
0
LINE
8
DEFAULT_255_2_778
10
73.7978981
20
13.4758194
11
73.7978981
21
16.1991194
0
LINE
8
DEFAULT_255_2_778
10
71.8766981
20
16.2020194
11
84.2412981
21
16.1830194
0
LINE
8
DEFAULT_255_2_778
10
84.2412981
20
16.1830194
11
84.2412981
21
13.4895194
0
LINE
8
DEFAULT_255_2_778
10
84.2412981
20
13.4895194
11
71.8766981
21
13.4731194
0
LINE
8
DEFAULT_255_2_778
10
71.8766981
20
13.4731194
11
71.8766981
21
16.1994194
0
LINE
8
DEFAULT_255_2_778
10
71.4795981
20
29.6386194
11
71.9341981
21
29.3291194
0
LINE
8
DEFAULT_255_2_778
10
71.9341981
20
29.3291194
11
73.4295981
21
29.1653194
0
LINE
8
DEFAULT_255_2_778
10
74.0978981
20
28.4197194
11
73.8544981
21
28.4197194
0
LINE
8
DEFAULT_255_2_778
10
73.8544981
20
28.4197194
11
73.8544981
21
28.0837194
0
LINE
8
DEFAULT_255_2_778
10
73.8544981
20
28.0837194
11
74.0978981
21
28.0837194
0
LINE
8
DEFAULT_255_2_778
10
71.4792981
20
26.8647194
11
71.9338981
21
27.1743194
0
LINE
8
DEFAULT_255_2_778
10
71.9338981
20
27.1743194
11
73.4292981
21
27.3381194
0
LINE
8
DEFAULT_255_2_778
10
74.0976981
20
28.0837194
11
74.0976981
21
28.4197194
0
LINE
8
DEFAULT_255_2_778
10
73.2456981
20
28.9346194
11
13.3045981
21
28.9346194
0
LINE
8
DEFAULT_255_2_778
10
73.2530981
20
27.5696194
11
13.3045981
21
27.5696194
0
LINE
8
DEFAULT_255_2_778
10
13.3045981
20
29.1695194
11
70.7532981
21
29.1695194
0
LINE
8
DEFAULT_255_2_778
10
71.2258981
20
29.5219194
11
71.3541981
21
29.6458194
0
LINE
8
DEFAULT_255_2_778
10
13.3045981
20
26.9565194
11
68.4855981
21
26.9565194
0
LINE
8
DEFAULT_255_2_778
10
68.4855981
20
26.9565194
11
71.2258981
21
26.9827194
0
LINE
8
DEFAULT_255_2_778
10
71.2258981
20
26.9827194
11
71.3541981
21
26.8653194
0
LINE
8
DEFAULT_255_2_778
10
13.3045981
20
29.5484194
11
68.4855981
21
29.5484194
0
LINE
8
DEFAULT_255_2_778
10
68.4855981
20
29.5484194
11
71.2258981
21
29.5222194
0
LINE
8
DEFAULT_255_2_778
10
71.2258981
20
29.5222194
11
71.2258981
21
29.1624194
0
LINE
8
DEFAULT_255_2_778
10
71.2258981
20
29.1624194
11
70.7532981
21
29.1698194
0
LINE
8
DEFAULT_255_2_778
10
70.7532981
20
29.1698194
11
71.1056981
21
29.1637194
0
LINE
8
DEFAULT_255_2_778
10
9.0545981
20
29.3743194
11
9.0545981
21
27.1248194
0
LINE
8
DEFAULT_255_2_778
10
13.2765981
20
29.5458194
11
9.0545981
21
29.5458194
0
LINE
8
DEFAULT_255_2_778
10
9.0545981
20
29.5458194
11
9.0545981
21
29.7807194
0
LINE
8
DEFAULT_255_2_778
10
9.0545981
20
29.7807194
11
8.8045981
21
29.7807194
0
LINE
8
DEFAULT_255_2_778
10
13.1775981
20
27.1248194
11
9.0545981
21
27.1248194
0
LINE
8
DEFAULT_255_2_778
10
9.0545981
20
27.1248194
11
9.0545981
21
26.9536194
0
LINE
8
DEFAULT_255_2_778
10
9.0545981
20
26.9536194
11
13.1775981
21
26.9536194
0
LINE
8
DEFAULT_255_2_778
10
13.1775981
20
26.7187194
11
9.0545981
21
26.7187194
0
LINE
8
DEFAULT_255_2_778
10
9.0545981
20
26.7187194
11
9.0545981
21
26.9536194
0
LINE
8
DEFAULT_255_2_778
10
8.8045981
20
26.7187194
11
9.0545981
21
26.7187194
0
LINE
8
DEFAULT_255_2_778
10
71.8515981
20
29.0878194
11
71.4089981
21
29.3891194
0
LINE
8
DEFAULT_255_2_778
10
71.4089981
20
29.3891194
11
71.3546981
21
29.4979194
0
LINE
8
DEFAULT_255_2_778
10
73.4091981
20
28.9171194
11
71.8518981
21
29.0878194
0
LINE
8
DEFAULT_255_2_778
10
71.8518981
20
29.0878194
11
71.8518981
21
29.0878194
0
LINE
8
DEFAULT_255_2_778
10
71.8518981
20
29.0878194
11
71.3546981
21
29.1587194
0
LINE
8
DEFAULT_255_2_778
10
71.3546981
20
29.1587194
11
71.1041981
21
29.1637194
0
LINE
8
DEFAULT_255_2_778
10
71.3546981
20
26.8589194
11
71.3546981
21
27.2045194
0
LINE
8
DEFAULT_255_2_778
10
71.3546981
20
27.2045194
11
71.2258981
21
27.3431194
0
LINE
8
DEFAULT_255_2_778
10
71.2258981
20
27.3431194
11
71.7753981
21
27.3645194
0
LINE
8
DEFAULT_255_2_778
10
71.3546981
20
29.6389194
11
71.3546981
21
29.3005194
0
LINE
8
DEFAULT_255_2_778
10
71.3546981
20
29.3005194
11
71.2263981
21
29.1624194
0
LINE
8
DEFAULT_255_2_778
10
71.2263981
20
26.9827194
11
71.2263981
21
27.3426194
0
LINE
8
DEFAULT_255_2_778
10
71.2263981
20
27.3426194
11
71.1046981
21
27.3407194
0
LINE
8
DEFAULT_255_2_778
10
71.1046981
20
27.3407194
11
71.1046981
21
27.3352194
0
LINE
8
DEFAULT_255_2_778
10
71.1046981
20
27.3352194
11
13.3045981
21
27.3352194
0
LINE
8
DEFAULT_255_2_778
10
8.8045981
20
26.9499194
11
8.8045981
21
29.5497194
0
LINE
8
DEFAULT_255_2_778
10
71.3544981
20
27.0066194
11
71.4086981
21
27.1153194
0
LINE
8
DEFAULT_255_2_778
10
71.4086981
20
27.1153194
11
71.8512981
21
27.4167194
0
LINE
8
DEFAULT_255_2_778
10
71.8512981
20
27.4167194
11
73.4086981
21
27.5873194
0
LINE
8
DEFAULT_255_2_778
10
8.8045981
20
89.6239194
11
8.8045981
21
89.6239194
0
LINE
8
DEFAULT_255_2_778
10
9.0545981
20
89.7991194
11
38.6116981
21
89.7991194
0
LINE
8
DEFAULT_255_2_778
10
38.6116981
20
89.7991194
11
71.1043981
21
89.7991194
0
LINE
8
DEFAULT_255_2_778
10
71.1043981
20
89.7991194
11
71.1043981
21
89.8046194
0
LINE
8
DEFAULT_255_2_778
10
71.1043981
20
89.8046194
11
71.2260981
21
89.8065194
0
LINE
8
DEFAULT_255_2_778
10
71.2260981
20
89.8065194
11
71.2260981
21
89.4466194
0
LINE
8
DEFAULT_255_2_778
10
71.2260981
20
89.4466194
11
68.4857981
21
89.4204194
0
LINE
8
DEFAULT_255_2_778
10
68.4857981
20
89.4204194
11
9.0545981
21
89.4204194
0
LINE
8
DEFAULT_255_2_778
10
8.8045981
20
89.1855194
11
9.0545981
21
89.1855194
0
LINE
8
DEFAULT_255_2_778
10
9.0545981
20
89.1855194
11
9.0545981
21
91.3987194
0
LINE
8
DEFAULT_255_2_778
10
71.4792981
20
92.1028194
11
71.9338981
21
91.7932194
0
LINE
8
DEFAULT_255_2_778
10
71.9338981
20
91.7932194
11
73.4292981
21
91.6294194
0
LINE
8
DEFAULT_255_2_778
10
74.0976981
20
90.8838194
11
73.8541981
21
90.8838194
0
LINE
8
DEFAULT_255_2_778
10
73.8541981
20
90.8838194
11
73.8541981
21
90.5478194
0
LINE
8
DEFAULT_255_2_778
10
73.8541981
20
90.5478194
11
74.0976981
21
90.5478194
0
LINE
8
DEFAULT_255_2_778
10
71.4790981
20
89.3289194
11
71.9335981
21
89.6385194
0
LINE
8
DEFAULT_255_2_778
10
71.9335981
20
89.6385194
11
73.4290981
21
89.8022194
0
LINE
8
DEFAULT_255_2_778
10
74.0973981
20
90.5478194
11
74.0973981
21
90.8838194
0
LINE
8
DEFAULT_255_2_778
10
73.2453981
20
91.3987194
11
8.8045981
21
91.3987194
0
LINE
8
DEFAULT_255_2_778
10
73.2527981
20
90.0337194
11
8.8045981
21
90.0337194
0
LINE
8
DEFAULT_255_2_778
10
8.8045981
20
90.0337194
11
8.8045981
21
91.8686194
0
LINE
8
DEFAULT_255_2_778
10
9.0545981
20
91.6337194
11
28.3617981
21
91.6337194
0
LINE
8
DEFAULT_255_2_778
10
28.3617981
20
91.6337194
11
71.1543981
21
91.6337194
0
LINE
8
DEFAULT_255_2_778
10
71.1543981
20
91.6337194
11
71.1538981
21
91.6276194
0
LINE
8
DEFAULT_255_2_778
10
71.1538981
20
91.6276194
11
71.2258981
21
91.6260194
0
LINE
8
DEFAULT_255_2_778
10
71.2258981
20
91.6260194
11
71.2258981
21
91.9858194
0
LINE
8
DEFAULT_255_2_778
10
71.2258981
20
91.9858194
11
68.4855981
21
92.0120194
0
LINE
8
DEFAULT_255_2_778
10
68.4855981
20
92.0120194
11
9.0545981
21
92.0120194
0
LINE
8
DEFAULT_255_2_778
10
71.2260981
20
89.4466194
11
71.3544981
21
89.3292194
0
LINE
8
DEFAULT_255_2_778
10
71.3544981
20
89.3292194
11
71.3544981
21
89.6683194
0
LINE
8
DEFAULT_255_2_778
10
71.3544981
20
89.6683194
11
71.2255981
21
89.8070194
0
LINE
8
DEFAULT_255_2_778
10
71.2255981
20
89.8070194
11
71.8515981
21
89.8803194
0
LINE
8
DEFAULT_255_2_778
10
71.8515981
20
89.8803194
11
73.4088981
21
90.0509194
0
LINE
8
DEFAULT_255_2_778
10
71.3544981
20
92.2210194
11
71.2295981
21
92.2210194
0
LINE
8
DEFAULT_255_2_778
10
71.3544981
20
92.1099194
11
71.2260981
21
91.9861194
0
LINE
8
DEFAULT_255_2_778
10
71.3544981
20
89.4702194
11
71.4086981
21
89.5789194
0
LINE
8
DEFAULT_255_2_778
10
71.4086981
20
89.5789194
11
71.8512981
21
89.8803194
0
LINE
8
DEFAULT_255_2_778
10
73.4086981
20
91.3810194
11
71.8512981
21
91.5517194
0
LINE
8
DEFAULT_255_2_778
10
71.8512981
20
91.5517194
11
71.8512981
21
91.5517194
0
LINE
8
DEFAULT_255_2_778
10
71.8512981
20
91.5517194
11
71.4086981
21
91.8530194
0
LINE
8
DEFAULT_255_2_778
10
71.4086981
20
91.8530194
11
71.3544981
21
91.9620194
0
LINE
8
DEFAULT_255_2_778
10
7.8414981
20
89.4884194
11
7.8414981
21
80.3436194
0
LINE
8
DEFAULT_255_2_778
10
53.4315981
20
14.1571194
11
53.4315981
21
14.1571194
0
LINE
8
DEFAULT_255_2_778
10
46.7727981
20
11.6755194
11
59.4169981
21
11.1233194
0
LINE
8
DEFAULT_255_2_778
10
55.6587981
20
9.3697194
11
52.9087981
21
9.4898194
0
LINE
8
DEFAULT_255_2_778
10
53.4304981
20
9.9893194
11
55.1804981
21
9.8692194
0
LINE
8
DEFAULT_255_2_778
10
55.1804981
20
9.8692194
11
55.1804981
21
10.5947194
0
LINE
8
DEFAULT_255_2_778
10
55.1804981
20
10.5947194
11
53.4304981
21
10.6712194
0
LINE
8
DEFAULT_255_2_778
10
53.4304981
20
10.6712194
11
53.4304981
21
9.9893194
0
LINE
8
DEFAULT_255_2_778
10
51.1831981
20
9.5652194
11
48.4330981
21
9.6853194
0
LINE
8
DEFAULT_255_2_778
10
57.5693981
20
15.9631194
11
55.9659981
21
20.1028194
0
LINE
8
DEFAULT_255_2_778
10
57.5976981
20
20.7349194
11
59.2010981
21
16.5952194
0
LINE
8
DEFAULT_255_2_778
10
59.2010981
20
16.5952194
11
59.6251981
21
14.3253194
0
LINE
8
DEFAULT_255_2_778
10
59.6251981
20
14.3253194
11
57.9008981
21
14.4007194
0
LINE
8
DEFAULT_255_2_778
10
59.6569981
20
9.6740194
11
59.6569981
21
10.3994194
0
LINE
8
DEFAULT_255_2_778
10
59.6569981
20
10.3994194
11
57.9069981
21
10.4759194
0
LINE
8
DEFAULT_255_2_778
10
57.9069981
20
10.4759194
11
57.9069981
21
9.7941194
0
LINE
8
DEFAULT_255_2_778
10
51.1841981
20
9.5655194
11
52.9097981
21
9.4901194
0
LINE
8
DEFAULT_255_2_778
10
55.6595981
20
9.3700194
11
57.4325981
21
9.2924194
0
LINE
8
DEFAULT_255_2_778
10
57.4325981
20
9.2924194
11
60.1826981
21
9.1723194
0
LINE
8
DEFAULT_255_2_778
10
57.9069981
20
9.7941194
11
59.6569981
21
9.6750194
0
LINE
8
DEFAULT_255_2_778
10
50.6007981
20
14.7193194
11
50.2501981
21
16.5952194
0
LINE
8
DEFAULT_255_2_778
10
50.2501981
20
16.5952194
11
48.6468981
21
20.7349194
0
LINE
8
DEFAULT_255_2_778
10
47.0151981
20
20.1030194
11
48.6184981
21
15.9634194
0
LINE
8
DEFAULT_255_2_778
10
48.9153981
20
14.7931194
11
50.6007981
21
14.7193194
0
LINE
8
DEFAULT_255_2_778
10
53.0936981
20
15.9631194
11
51.4902981
21
20.1028194
0
LINE
8
DEFAULT_255_2_778
10
53.1219981
20
20.7346194
11
54.7253981
21
16.5949194
0
LINE
8
DEFAULT_255_2_778
10
54.7253981
20
16.5949194
11
55.1126981
21
14.5222194
0
LINE
8
DEFAULT_255_2_778
10
55.1126981
20
14.5222194
11
53.4119981
21
14.5965194
0
LINE
8
DEFAULT_255_2_778
10
57.6624981
20
11.2768194
11
57.6624981
21
11.2842194
0
LINE
8
DEFAULT_255_2_778
10
57.6624981
20
13.7898194
11
57.6624981
21
11.2001194
0
LINE
8
DEFAULT_255_2_778
10
48.5676981
20
11.5972194
11
48.5676981
21
14.1870194
0
LINE
8
DEFAULT_255_2_778
10
46.2306981
20
12.3235194
11
46.6949981
21
12.3031194
0
LINE
8
DEFAULT_255_2_778
10
46.6949981
20
12.3031194
11
46.6949981
21
14.2685194
0
LINE
8
DEFAULT_255_2_778
10
46.6949981
20
14.2685194
11
59.4947981
21
13.7097194
0
LINE
8
DEFAULT_255_2_778
10
59.4947981
20
13.7097194
11
59.4947981
21
11.7443194
0
LINE
8
DEFAULT_255_2_778
10
66.8572981
20
9.4028194
11
66.8572981
21
11.4448194
0
LINE
8
DEFAULT_255_2_778
10
64.1318981
20
9.4782194
11
64.1318981
21
11.5200194
0
LINE
8
DEFAULT_255_2_778
10
46.2298981
20
10.2597194
11
46.2298981
21
12.3018194
0
LINE
8
DEFAULT_255_2_778
10
46.2298981
20
12.3018194
11
46.2306981
21
14.1568194
0
LINE
8
DEFAULT_255_2_778
10
46.2306981
20
14.1568194
11
45.7750981
21
16.5947194
0
LINE
8
DEFAULT_255_2_778
10
45.7750981
20
16.5947194
11
44.1716981
21
20.7343194
0
LINE
8
DEFAULT_255_2_778
10
42.5399981
20
20.1022194
11
44.1433981
21
15.9626194
0
LINE
8
DEFAULT_255_2_778
10
44.4809981
20
14.1565194
11
44.4809981
21
12.4214194
0
LINE
8
DEFAULT_255_2_778
10
41.7649981
20
10.4545194
11
41.7649981
21
12.4965194
0
LINE
8
DEFAULT_255_2_778
10
37.2895981
20
10.6500194
11
37.2895981
21
12.6918194
0
LINE
8
DEFAULT_255_2_778
10
37.2895981
20
12.6918194
11
37.2895981
21
14.1563194
0
LINE
8
DEFAULT_255_2_778
10
37.2895981
20
14.1563194
11
36.8339981
21
16.5941194
0
LINE
8
DEFAULT_255_2_778
10
36.8339981
20
16.5941194
11
35.2305981
21
20.7338194
0
LINE
8
DEFAULT_255_2_778
10
33.5988981
20
20.1017194
11
35.2022981
21
15.9620194
0
LINE
8
DEFAULT_255_2_778
10
35.5398981
20
14.1560194
11
35.5390981
21
12.8114194
0
LINE
8
DEFAULT_255_2_778
10
35.5390981
20
12.8114194
11
32.8136981
21
12.8868194
0
LINE
8
DEFAULT_255_2_778
10
32.8136981
20
12.8868194
11
32.8144981
21
14.1560194
0
LINE
8
DEFAULT_255_2_778
10
32.8144981
20
14.1560194
11
32.3587981
21
16.5939194
0
LINE
8
DEFAULT_255_2_778
10
32.3587981
20
16.5939194
11
30.7554981
21
20.7335194
0
LINE
8
DEFAULT_255_2_778
10
29.1237981
20
20.1015194
11
30.7271981
21
15.9618194
0
LINE
8
DEFAULT_255_2_778
10
31.0647981
20
14.1557194
11
31.0647981
21
13.0064194
0
LINE
8
DEFAULT_255_2_778
10
35.5401981
20
10.7691194
11
35.5401981
21
12.8111194
0
LINE
8
DEFAULT_255_2_778
10
32.8146981
20
10.8445194
11
32.8146981
21
12.8865194
0
LINE
8
DEFAULT_255_2_778
10
26.5882981
20
11.1599194
11
26.5882981
21
13.2019194
0
LINE
8
DEFAULT_255_2_778
10
23.8635981
20
11.2353194
11
23.8635981
21
13.2771194
0
LINE
8
DEFAULT_255_2_778
10
22.1135981
20
11.3551194
11
22.1135981
21
13.3972194
0
LINE
8
DEFAULT_255_2_778
10
69.0861981
20
8.8249194
11
66.3360981
21
8.9019194
0
LINE
8
DEFAULT_255_2_778
10
66.8578981
20
10.8799194
11
68.6085981
21
10.8035194
0
LINE
8
DEFAULT_255_2_778
10
64.6104981
20
8.9770194
11
61.8603981
21
9.0972194
0
LINE
8
DEFAULT_255_2_778
10
62.3821981
20
11.0752194
11
64.1328981
21
10.9987194
0
LINE
8
DEFAULT_255_2_778
10
68.6077981
20
9.2811194
11
66.8586981
21
9.4012194
0
LINE
8
DEFAULT_255_2_778
10
66.3368981
20
8.9016194
11
64.6112981
21
8.9770194
0
LINE
8
DEFAULT_255_2_778
10
64.1320981
20
9.4766194
11
62.3821981
21
9.5967194
0
LINE
8
DEFAULT_255_2_778
10
62.3821981
20
9.5967194
11
62.3821981
21
11.6388194
0
LINE
8
DEFAULT_255_2_778
10
59.4949981
20
11.7176194
11
62.3829981
21
11.6377194
0
LINE
8
DEFAULT_255_2_778
10
46.7082981
20
9.7586194
11
43.9581981
21
9.8787194
0
LINE
8
DEFAULT_255_2_778
10
44.4798981
20
11.8568194
11
46.2306981
21
11.7803194
0
LINE
8
DEFAULT_255_2_778
10
44.4798981
20
12.4203194
11
44.4798981
21
10.3783194
0
LINE
8
DEFAULT_255_2_778
10
44.4798981
20
10.3783194
11
46.2298981
21
10.2582194
0
LINE
8
DEFAULT_255_2_778
10
46.7089981
20
9.7586194
11
48.4346981
21
9.6835194
0
LINE
8
DEFAULT_255_2_778
10
48.9563981
20
10.1830194
11
50.7055981
21
10.0629194
0
LINE
8
DEFAULT_255_2_778
10
50.7055981
20
10.0629194
11
50.7055981
21
10.7884194
0
LINE
8
DEFAULT_255_2_778
10
50.7055981
20
10.7884194
11
48.9555981
21
10.8649194
0
LINE
8
DEFAULT_255_2_778
10
48.9555981
20
10.8649194
11
48.9555981
21
10.1830194
0
LINE
8
DEFAULT_255_2_778
10
42.2423981
20
9.9536194
11
39.4922981
21
10.0737194
0
LINE
8
DEFAULT_255_2_778
10
40.0139981
20
12.0518194
11
41.7647981
21
11.9753194
0
LINE
8
DEFAULT_255_2_778
10
40.0139981
20
10.5733194
11
41.7639981
21
10.4532194
0
LINE
8
DEFAULT_255_2_778
10
42.2430981
20
9.9536194
11
43.9589981
21
9.8787194
0
LINE
8
DEFAULT_255_2_778
10
37.2882981
20
12.6905194
11
40.0137981
21
12.6151194
0
LINE
8
DEFAULT_255_2_778
10
37.7663981
20
10.1489194
11
35.0162981
21
10.2690194
0
LINE
8
DEFAULT_255_2_778
10
35.5380981
20
12.2470194
11
37.2887981
21
12.1706194
0
LINE
8
DEFAULT_255_2_778
10
33.2906981
20
10.3444194
11
30.5405981
21
10.4645194
0
LINE
8
DEFAULT_255_2_778
10
31.0623981
20
12.4426194
11
32.8130981
21
12.3661194
0
LINE
8
DEFAULT_255_2_778
10
31.0623981
20
10.9641194
11
32.8122981
21
10.8439194
0
LINE
8
DEFAULT_255_2_778
10
33.2914981
20
10.3444194
11
35.0170981
21
10.2690194
0
LINE
8
DEFAULT_255_2_778
10
35.5388981
20
10.7685194
11
37.2879981
21
10.6484194
0
LINE
8
DEFAULT_255_2_778
10
28.8152981
20
10.5397194
11
26.0651981
21
10.6598194
0
LINE
8
DEFAULT_255_2_778
10
26.5869981
20
12.6378194
11
28.3376981
21
12.5614194
0
LINE
8
DEFAULT_255_2_778
10
22.1122981
20
12.8331194
11
23.8630981
21
12.7566194
0
LINE
8
DEFAULT_255_2_778
10
23.8624981
20
11.2345194
11
22.1125981
21
11.3546194
0
LINE
8
DEFAULT_255_2_778
10
21.5907981
20
10.8551194
11
26.0662981
21
10.6598194
0
LINE
8
DEFAULT_255_2_778
10
26.5879981
20
11.1593194
11
28.3371981
21
11.0392194
0
LINE
8
DEFAULT_255_2_778
10
28.3371981
20
11.0392194
11
28.3371981
21
13.0813194
0
LINE
8
DEFAULT_255_2_778
10
28.3371981
20
13.0813194
11
31.0625981
21
13.0059194
0
LINE
8
DEFAULT_255_2_778
10
28.8160981
20
10.5397194
11
30.5416981
21
10.4643194
0
LINE
8
DEFAULT_255_2_778
10
31.0633981
20
10.9638194
11
31.0633981
21
13.0059194
0
LINE
8
DEFAULT_255_2_778
10
44.4888981
20
12.4195194
11
41.7642981
21
12.4949194
0
LINE
8
DEFAULT_255_2_778
10
41.7642981
20
12.4949194
11
41.7642981
21
14.1549194
0
LINE
8
DEFAULT_255_2_778
10
41.7642981
20
14.1549194
11
41.3085981
21
16.5928194
0
LINE
8
DEFAULT_255_2_778
10
41.3085981
20
16.5928194
11
39.7052981
21
20.7325194
0
LINE
8
DEFAULT_255_2_778
10
38.0735981
20
20.1007194
11
39.6769981
21
15.9610194
0
LINE
8
DEFAULT_255_2_778
10
40.0145981
20
14.1549194
11
40.0145981
21
12.6151194
0
LINE
8
DEFAULT_255_2_778
10
40.0145981
20
12.6151194
11
40.0145981
21
10.5730194
0
LINE
8
DEFAULT_255_2_778
10
39.4927981
20
10.0735194
11
37.7671981
21
10.1489194
0
LINE
8
DEFAULT_255_2_778
10
28.3381981
20
13.0813194
11
28.3381981
21
14.1552194
0
LINE
8
DEFAULT_255_2_778
10
27.8825981
20
16.5931194
11
26.2791981
21
20.7328194
0
LINE
8
DEFAULT_255_2_778
10
24.6475981
20
20.1007194
11
26.2508981
21
15.9610194
0
LINE
8
DEFAULT_255_2_778
10
26.5884981
20
14.1549194
11
26.5884981
21
13.2011194
0
LINE
8
DEFAULT_255_2_778
10
26.5884981
20
13.2011194
11
23.8630981
21
13.2765194
0
LINE
8
DEFAULT_255_2_778
10
23.8630981
20
13.2765194
11
23.8630981
21
14.1549194
0
LINE
8
DEFAULT_255_2_778
10
23.8630981
20
14.1549194
11
23.4074981
21
16.5928194
0
LINE
8
DEFAULT_255_2_778
10
23.4074981
20
16.5928194
11
21.8040981
21
20.7325194
0
LINE
8
DEFAULT_255_2_778
10
20.1723981
20
20.1004194
11
21.7757981
21
15.9607194
0
LINE
8
DEFAULT_255_2_778
10
22.1133981
20
14.1547194
11
22.1133981
21
13.3964194
0
LINE
8
DEFAULT_255_2_778
10
22.1133981
20
13.3964194
11
21.6132981
21
13.3964194
0
LINE
8
DEFAULT_255_2_778
10
21.6132981
20
13.3964194
11
19.3632981
21
13.4948194
0
LINE
8
DEFAULT_255_2_778
10
19.3632981
20
13.4948194
11
19.3632981
21
10.9524194
0
LINE
8
DEFAULT_255_2_778
10
62.3831981
20
11.6382194
11
62.3831981
21
14.1549194
0
LINE
8
DEFAULT_255_2_778
10
62.0455981
20
15.9610194
11
60.4421981
21
20.1007194
0
LINE
8
DEFAULT_255_2_778
10
62.0741981
20
20.7328194
11
63.6775981
21
16.5931194
0
LINE
8
DEFAULT_255_2_778
10
63.6775981
20
16.5931194
11
64.1331981
21
14.1552194
0
LINE
8
DEFAULT_255_2_778
10
64.1331981
20
14.1552194
11
64.1331981
21
11.5186194
0
LINE
8
DEFAULT_255_2_778
10
64.1331981
20
11.5186194
11
66.8578981
21
11.4432194
0
LINE
8
DEFAULT_255_2_778
10
66.8578981
20
11.4432194
11
66.8588981
21
14.1552194
0
LINE
8
DEFAULT_255_2_778
10
66.5212981
20
15.9610194
11
64.9178981
21
20.1007194
0
LINE
8
DEFAULT_255_2_778
10
66.5495981
20
20.7325194
11
68.1495981
21
16.6015194
0
LINE
8
DEFAULT_255_2_778
10
68.6085981
20
14.1457194
11
68.6085981
21
9.3239194
0
LINE
8
DEFAULT_255_2_778
10
68.6085981
20
9.3239194
11
68.5916981
21
9.3231194
0
LINE
8
DEFAULT_255_2_778
10
68.5916981
20
9.3231194
11
68.2183981
21
9.3078194
0
LINE
8
DEFAULT_255_2_778
10
61.8611981
20
9.0972194
11
60.1358981
21
9.1723194
0
LINE
8
DEFAULT_255_2_778
10
60.1358981
20
9.1723194
11
61.8611981
21
9.0969194
0
LINE
8
DEFAULT_255_2_778
10
42.3420981
20
110.6638194
11
42.1081981
21
110.6363194
0
LINE
8
DEFAULT_255_2_778
10
41.1818981
20
108.9668194
11
41.0741981
21
109.8838194
0
LINE
8
DEFAULT_255_2_778
10
41.9128981
20
110.7202194
11
42.3296981
21
110.7691194
0
LINE
8
DEFAULT_255_2_778
10
42.8844981
20
110.3307194
11
43.0349981
21
109.0478194
0
LINE
8
DEFAULT_255_2_778
10
41.9330981
20
108.9996194
11
41.8695981
21
109.5412194
0
LINE
8
DEFAULT_255_2_778
10
41.8695981
20
109.5412194
11
41.0741981
21
109.8838194
0
LINE
8
DEFAULT_255_2_778
10
41.2138981
20
110.8395194
11
41.5456981
21
110.8784194
0
LINE
8
DEFAULT_255_2_778
10
41.5456981
20
110.8784194
11
42.8881981
21
110.3000194
0
LINE
8
DEFAULT_255_2_778
10
42.8881981
20
110.3000194
11
42.8844981
21
110.3307194
0
LINE
8
DEFAULT_255_2_778
10
66.8567981
20
109.5655194
11
66.8567981
21
107.5235194
0
LINE
8
DEFAULT_255_2_778
10
44.4793981
20
108.5884194
11
44.4793981
21
106.5464194
0
LINE
8
DEFAULT_255_2_778
10
26.5869981
20
107.8071194
11
26.5869981
21
105.7651194
0
LINE
8
DEFAULT_255_2_778
10
23.8622981
20
107.7317194
11
23.8622981
21
105.6897194
0
LINE
8
DEFAULT_255_2_778
10
59.6569981
20
109.2949194
11
59.6569981
21
108.5694194
0
LINE
8
DEFAULT_255_2_778
10
59.6569981
20
108.5694194
11
57.9069981
21
108.4929194
0
LINE
8
DEFAULT_255_2_778
10
57.9069981
20
108.4929194
11
57.9069981
21
109.1748194
0
LINE
8
DEFAULT_255_2_778
10
53.4315981
20
104.8115194
11
53.4315981
21
104.8115194
0
LINE
8
DEFAULT_255_2_778
10
46.7727981
20
107.2930194
11
59.4169981
21
107.8452194
0
LINE
8
DEFAULT_255_2_778
10
69.0853981
20
110.1423194
11
66.3352981
21
110.0651194
0
LINE
8
DEFAULT_255_2_778
10
66.8570981
20
108.0871194
11
68.6077981
21
108.1635194
0
LINE
8
DEFAULT_255_2_778
10
64.1315981
20
107.4483194
11
66.8570981
21
107.5238194
0
LINE
8
DEFAULT_255_2_778
10
66.8570981
20
107.5238194
11
66.8580981
21
104.8118194
0
LINE
8
DEFAULT_255_2_778
10
66.5204981
20
103.0057194
11
64.9170981
21
98.8663194
0
LINE
8
DEFAULT_255_2_778
10
66.5487981
20
98.2342194
11
68.1487981
21
102.3652194
0
LINE
8
DEFAULT_255_2_778
10
64.6096981
20
109.9897194
11
61.8595981
21
109.8696194
0
LINE
8
DEFAULT_255_2_778
10
62.3813981
20
107.8915194
11
64.1320981
21
107.9680194
0
LINE
8
DEFAULT_255_2_778
10
62.3823981
20
107.3282194
11
62.3823981
21
104.8115194
0
LINE
8
DEFAULT_255_2_778
10
62.0447981
20
103.0055194
11
60.4414981
21
98.8658194
0
LINE
8
DEFAULT_255_2_778
10
62.0733981
20
98.2340194
11
63.6767981
21
102.3734194
0
LINE
8
DEFAULT_255_2_778
10
63.6767981
20
102.3734194
11
64.1323981
21
104.8112194
0
LINE
8
DEFAULT_255_2_778
10
64.1323981
20
104.8112194
11
64.1315981
21
107.4481194
0
LINE
8
DEFAULT_255_2_778
10
64.1315981
20
107.4481194
11
64.1315981
21
109.4901194
0
LINE
8
DEFAULT_255_2_778
10
64.1315981
20
109.4901194
11
62.3815981
21
109.3700194
0
LINE
8
DEFAULT_255_2_778
10
62.3815981
20
109.3700194
11
62.3815981
21
107.3280194
0
LINE
8
DEFAULT_255_2_778
10
60.1826981
20
109.7963194
11
57.4325981
21
109.6761194
0
LINE
8
DEFAULT_255_2_778
10
57.4325981
20
109.6761194
11
55.6595981
21
109.5986194
0
LINE
8
DEFAULT_255_2_778
10
55.6587981
20
109.5986194
11
52.9087981
21
109.4785194
0
LINE
8
DEFAULT_255_2_778
10
53.4304981
20
108.9790194
11
55.1804981
21
109.0991194
0
LINE
8
DEFAULT_255_2_778
10
55.1804981
20
109.0991194
11
55.1804981
21
108.3736194
0
LINE
8
DEFAULT_255_2_778
10
55.1804981
20
108.3736194
11
53.4304981
21
108.2971194
0
LINE
8
DEFAULT_255_2_778
10
53.4304981
20
108.2971194
11
53.4304981
21
108.9790194
0
LINE
8
DEFAULT_255_2_778
10
51.1831981
20
109.4031194
11
48.4330981
21
109.2830194
0
LINE
8
DEFAULT_255_2_778
10
46.7074981
20
109.2076194
11
43.9573981
21
109.0874194
0
LINE
8
DEFAULT_255_2_778
10
44.4790981
20
107.1094194
11
46.2298981
21
107.1859194
0
LINE
8
DEFAULT_255_2_778
10
44.4790981
20
108.5882194
11
46.2290981
21
108.7083194
0
LINE
8
DEFAULT_255_2_778
10
46.2290981
20
108.7083194
11
46.2290981
21
106.6662194
0
LINE
8
DEFAULT_255_2_778
10
46.2290981
20
106.6662194
11
46.2298981
21
104.8112194
0
LINE
8
DEFAULT_255_2_778
10
46.2298981
20
104.8112194
11
45.7742981
21
102.3734194
0
LINE
8
DEFAULT_255_2_778
10
45.7742981
20
102.3734194
11
44.1708981
21
98.2340194
0
LINE
8
DEFAULT_255_2_778
10
42.5391981
20
98.8661194
11
44.1425981
21
103.0055194
0
LINE
8
DEFAULT_255_2_778
10
44.4801981
20
104.8115194
11
44.4801981
21
106.5466194
0
LINE
8
DEFAULT_255_2_778
10
41.7634981
20
106.4718194
11
44.4888981
21
106.5472194
0
LINE
8
DEFAULT_255_2_778
10
42.2415981
20
109.0134194
11
39.4914981
21
108.8932194
0
LINE
8
DEFAULT_255_2_778
10
40.0131981
20
106.9152194
11
41.7639981
21
106.9917194
0
LINE
8
DEFAULT_255_2_778
10
40.0131981
20
108.3940194
11
41.7631981
21
108.5141194
0
LINE
8
DEFAULT_255_2_778
10
37.2877981
20
106.2768194
11
40.0131981
21
106.3522194
0
LINE
8
DEFAULT_255_2_778
10
37.7658981
20
108.8184194
11
35.0157981
21
108.6982194
0
LINE
8
DEFAULT_255_2_778
10
35.5374981
20
106.7202194
11
37.2882981
21
106.7967194
0
LINE
8
DEFAULT_255_2_778
10
35.5374981
20
108.1990194
11
37.2874981
21
108.3191194
0
LINE
8
DEFAULT_255_2_778
10
32.8120981
20
106.0818194
11
35.5374981
21
106.1572194
0
LINE
8
DEFAULT_255_2_778
10
33.2901981
20
108.6234194
11
30.5400981
21
108.5032194
0
LINE
8
DEFAULT_255_2_778
10
31.0618981
20
106.5252194
11
32.8125981
21
106.6017194
0
LINE
8
DEFAULT_255_2_778
10
31.0618981
20
108.0040194
11
32.8117981
21
108.1241194
0
LINE
8
DEFAULT_255_2_778
10
28.8144981
20
108.4281194
11
26.0643981
21
108.3080194
0
LINE
8
DEFAULT_255_2_778
10
26.5861981
20
106.3300194
11
28.3368981
21
106.4064194
0
LINE
8
DEFAULT_255_2_778
10
22.1114981
20
106.1347194
11
23.8622981
21
106.2112194
0
LINE
8
DEFAULT_255_2_778
10
22.1114981
20
105.5714194
11
22.1114981
21
107.6134194
0
LINE
8
DEFAULT_255_2_778
10
22.1114981
20
107.6134194
11
23.8614981
21
107.7336194
0
LINE
8
DEFAULT_255_2_778
10
21.5897981
20
108.1130194
11
26.0651981
21
108.3085194
0
LINE
8
DEFAULT_255_2_778
10
26.5869981
20
107.8090194
11
28.3360981
21
107.9291194
0
LINE
8
DEFAULT_255_2_778
10
28.3360981
20
107.9291194
11
28.3360981
21
105.8870194
0
LINE
8
DEFAULT_255_2_778
10
28.3360981
20
105.8870194
11
31.0615981
21
105.9624194
0
LINE
8
DEFAULT_255_2_778
10
46.7074981
20
109.2097194
11
48.4330981
21
109.2851194
0
LINE
8
DEFAULT_255_2_778
10
48.9547981
20
108.7856194
11
50.7039981
21
108.9057194
0
LINE
8
DEFAULT_255_2_778
10
50.7039981
20
108.9057194
11
50.7039981
21
108.1802194
0
LINE
8
DEFAULT_255_2_778
10
50.7039981
20
108.1802194
11
48.9539981
21
108.1037194
0
LINE
8
DEFAULT_255_2_778
10
48.9539981
20
108.1037194
11
48.9539981
21
108.7856194
0
LINE
8
DEFAULT_255_2_778
10
43.9575981
20
109.0896194
11
42.2417981
21
109.0147194
0
LINE
8
DEFAULT_255_2_778
10
41.7636981
20
108.5151194
11
41.7636981
21
106.4731194
0
LINE
8
DEFAULT_255_2_778
10
41.7636981
20
106.4731194
11
41.7636981
21
104.8131194
0
LINE
8
DEFAULT_255_2_778
10
41.7636981
20
104.8131194
11
41.3080981
21
102.3752194
0
LINE
8
DEFAULT_255_2_778
10
41.3080981
20
102.3752194
11
39.7046981
21
98.2356194
0
LINE
8
DEFAULT_255_2_778
10
38.0729981
20
98.8676194
11
39.6763981
21
103.0073194
0
LINE
8
DEFAULT_255_2_778
10
40.0139981
20
104.8134194
11
40.0139981
21
106.3535194
0
LINE
8
DEFAULT_255_2_778
10
40.0139981
20
106.3535194
11
40.0139981
21
108.3956194
0
LINE
8
DEFAULT_255_2_778
10
39.4922981
20
108.8951194
11
37.7666981
21
108.8197194
0
LINE
8
DEFAULT_255_2_778
10
37.2885981
20
108.3202194
11
37.2885981
21
104.8136194
0
LINE
8
DEFAULT_255_2_778
10
37.2885981
20
104.8136194
11
36.8328981
21
102.3758194
0
LINE
8
DEFAULT_255_2_778
10
36.8328981
20
102.3758194
11
35.2295981
21
98.2361194
0
LINE
8
DEFAULT_255_2_778
10
33.5978981
20
98.8682194
11
35.2012981
21
103.0078194
0
LINE
8
DEFAULT_255_2_778
10
35.5388981
20
104.8139194
11
35.5388981
21
106.1585194
0
LINE
8
DEFAULT_255_2_778
10
35.5388981
20
106.1585194
11
35.5388981
21
108.2006194
0
LINE
8
DEFAULT_255_2_778
10
35.0170981
20
108.7001194
11
33.2914981
21
108.6247194
0
LINE
8
DEFAULT_255_2_778
10
32.8133981
20
108.1252194
11
32.8133981
21
106.0831194
0
LINE
8
DEFAULT_255_2_778
10
32.8133981
20
106.0831194
11
32.8133981
21
104.8139194
0
LINE
8
DEFAULT_255_2_778
10
32.8133981
20
104.8139194
11
32.3577981
21
102.3760194
0
LINE
8
DEFAULT_255_2_778
10
32.3577981
20
102.3760194
11
30.7543981
21
98.2364194
0
LINE
8
DEFAULT_255_2_778
10
29.1224981
20
98.8682194
11
30.7257981
21
103.0078194
0
LINE
8
DEFAULT_255_2_778
10
31.0633981
20
104.8139194
11
31.0633981
21
105.9630194
0
LINE
8
DEFAULT_255_2_778
10
31.0633981
20
105.9630194
11
31.0633981
21
108.0050194
0
LINE
8
DEFAULT_255_2_778
10
30.5416981
20
108.5046194
11
28.8160981
21
108.4292194
0
LINE
8
DEFAULT_255_2_778
10
57.9069981
20
109.1748194
11
59.6569981
21
109.2938194
0
LINE
8
DEFAULT_255_2_778
10
60.1350981
20
109.7944194
11
61.8606981
21
109.8698194
0
LINE
8
DEFAULT_255_2_778
10
50.6007981
20
104.2495194
11
48.9153981
21
104.1760194
0
LINE
8
DEFAULT_255_2_778
10
48.6184981
20
103.0057194
11
47.0151981
21
98.8661194
0
LINE
8
DEFAULT_255_2_778
10
48.6468981
20
98.2340194
11
50.2501981
21
102.3736194
0
LINE
8
DEFAULT_255_2_778
10
50.2501981
20
102.3736194
11
50.6007981
21
104.2495194
0
LINE
8
DEFAULT_255_2_778
10
57.5693981
20
103.0060194
11
55.9659981
21
98.8663194
0
LINE
8
DEFAULT_255_2_778
10
57.5976981
20
98.2342194
11
59.2010981
21
102.3739194
0
LINE
8
DEFAULT_255_2_778
10
59.2010981
20
102.3739194
11
59.6251981
21
104.6438194
0
LINE
8
DEFAULT_255_2_778
10
59.6251981
20
104.6438194
11
57.9008981
21
104.5684194
0
LINE
8
DEFAULT_255_2_778
10
28.3379981
20
105.8855194
11
28.3379981
21
104.8115194
0
LINE
8
DEFAULT_255_2_778
10
27.8823981
20
102.3736194
11
26.2789981
21
98.2342194
0
LINE
8
DEFAULT_255_2_778
10
24.6472981
20
98.8661194
11
26.2506981
21
103.0057194
0
LINE
8
DEFAULT_255_2_778
10
26.5882981
20
104.8118194
11
26.5882981
21
105.7656194
0
LINE
8
DEFAULT_255_2_778
10
26.5882981
20
105.7656194
11
23.8627981
21
105.6902194
0
LINE
8
DEFAULT_255_2_778
10
23.8627981
20
105.6902194
11
23.8627981
21
104.8118194
0
LINE
8
DEFAULT_255_2_778
10
23.8627981
20
104.8118194
11
23.4071981
21
102.3739194
0
LINE
8
DEFAULT_255_2_778
10
23.4071981
20
102.3739194
11
21.8037981
21
98.2342194
0
LINE
8
DEFAULT_255_2_778
10
20.1720981
20
98.8663194
11
21.7754981
21
103.0060194
0
LINE
8
DEFAULT_255_2_778
10
22.1130981
20
104.8120194
11
22.1130981
21
105.5706194
0
LINE
8
DEFAULT_255_2_778
10
22.1130981
20
105.5706194
11
21.6130981
21
105.5706194
0
LINE
8
DEFAULT_255_2_778
10
53.0941981
20
103.0063194
11
51.4908981
21
98.8666194
0
LINE
8
DEFAULT_255_2_778
10
53.1224981
20
98.2345194
11
54.7258981
21
102.3742194
0
LINE
8
DEFAULT_255_2_778
10
54.7258981
20
102.3742194
11
55.1132981
21
104.4469194
0
LINE
8
DEFAULT_255_2_778
10
55.1132981
20
104.4469194
11
53.4124981
21
104.3728194
0
LINE
8
DEFAULT_255_2_778
10
64.6109981
20
109.9905194
11
66.3365981
21
110.0659194
0
LINE
8
DEFAULT_255_2_778
10
66.8583981
20
109.5663194
11
68.6075981
21
109.6865194
0
LINE
8
DEFAULT_255_2_778
10
58.3713981
20
110.0685194
11
57.6220981
21
110.0357194
0
LINE
8
DEFAULT_255_2_778
10
52.9100981
20
109.4796194
11
51.1844981
21
109.4041194
0
LINE
8
DEFAULT_255_2_778
10
65.5526981
20
110.3818194
11
65.5679981
21
110.0320194
0
LINE
8
DEFAULT_255_2_778
10
68.4836981
20
101.8445194
11
68.4836981
21
101.8445194
0
LINE
8
DEFAULT_255_2_778
10
68.4836981
20
101.8445194
11
68.0166981
21
102.0228194
0
LINE
8
DEFAULT_255_2_778
10
68.0166981
20
102.0228194
11
68.0166981
21
102.0228194
0
LINE
8
DEFAULT_255_2_778
10
68.0166981
20
102.0228194
11
68.1495981
21
102.3654194
0
LINE
8
DEFAULT_255_2_778
10
68.6085981
20
104.8216194
11
68.6085981
21
109.6428194
0
LINE
8
DEFAULT_255_2_778
10
57.6635981
20
107.6918194
11
57.6635981
21
107.6844194
0
LINE
8
DEFAULT_255_2_778
10
57.6635981
20
105.1788194
11
57.6635981
21
107.7685194
0
LINE
8
DEFAULT_255_2_778
10
48.5687981
20
107.3714194
11
48.5687981
21
104.7816194
0
LINE
8
DEFAULT_255_2_778
10
46.2308981
20
106.6445194
11
46.6952981
21
106.6649194
0
LINE
8
DEFAULT_255_2_778
10
46.6952981
20
106.6649194
11
46.6952981
21
104.6996194
0
LINE
8
DEFAULT_255_2_778
10
46.6952981
20
104.6996194
11
59.4949981
21
105.2584194
0
LINE
8
DEFAULT_255_2_778
10
59.4949981
20
105.2584194
11
59.4949981
21
107.2237194
0
LINE
8
DEFAULT_255_2_778
10
59.4949981
20
107.2237194
11
62.3829981
21
107.3499194
0
LINE
8
DEFAULT_255_2_778
10
66.5670981
20
110.0751194
11
66.5540981
21
110.3749194
0
LINE
8
DEFAULT_255_2_778
10
66.5019981
20
110.4225194
11
50.6171981
21
109.7291194
0
LINE
8
DEFAULT_255_2_778
10
50.5692981
20
109.6769194
11
50.5824981
21
109.3772194
0
LINE
8
DEFAULT_255_2_778
10
65.0687981
20
110.0098194
11
65.0599981
21
110.2095194
0
LINE
8
DEFAULT_255_2_778
10
65.0078981
20
110.2572194
11
52.1202981
21
109.6944194
0
LINE
8
DEFAULT_255_2_778
10
52.0723981
20
109.6423194
11
52.0810981
21
109.4425194
0
LINE
8
DEFAULT_255_2_778
10
68.4857981
20
110.1587194
11
68.4894981
21
110.1590194
0
LINE
8
DEFAULT_255_2_778
10
87.5474981
20
1.6925194
11
87.5474981
21
1.6925194
0
LINE
8
DEFAULT_255_2_778
10
87.3550981
20
0.2855194
11
87.3550981
21
1.4494194
0
LINE
8
DEFAULT_255_2_778
10
87.5455981
20
1.6994194
11
88.6213981
21
1.9592194
0
LINE
8
DEFAULT_255_2_778
10
91.3550981
20
40.6559194
11
88.9259981
21
40.6945194
0
LINE
8
DEFAULT_255_2_778
10
88.9259981
20
78.2751194
11
91.3550981
21
78.3138194
0
LINE
8
DEFAULT_255_2_778
10
91.3550981
20
78.3138194
11
91.3550981
21
76.9848194
0
LINE
8
DEFAULT_255_2_778
10
91.3550981
20
76.9848194
11
90.8330981
21
76.0804194
0
LINE
8
DEFAULT_255_2_778
10
90.8330981
20
76.0804194
11
88.7438981
21
76.0439194
0
LINE
8
DEFAULT_255_2_778
10
88.7438981
20
76.0439194
11
88.5502981
21
77.2660194
0
LINE
8
DEFAULT_255_2_778
10
88.9259981
20
11.9896194
11
91.3550981
21
11.9896194
0
LINE
8
DEFAULT_255_2_778
10
88.9259981
20
9.4520194
11
74.2156981
21
8.8096194
0
LINE
8
DEFAULT_255_2_778
10
91.3550981
20
4.5159194
11
88.8150981
21
4.5159194
0
LINE
8
DEFAULT_255_2_778
10
68.4894981
20
29.7836194
11
71.2300981
21
29.7574194
0
LINE
8
DEFAULT_255_2_778
10
71.2300981
20
29.7574194
11
71.2300981
21
89.2117194
0
LINE
8
DEFAULT_255_2_778
10
71.2300981
20
89.2117194
11
68.4894981
21
89.1855194
0
LINE
8
DEFAULT_255_2_778
10
13.3045981
20
14.4957194
11
18.0982981
21
13.5522194
0
LINE
8
DEFAULT_255_2_778
10
18.0982981
20
13.5522194
11
19.3624981
21
13.4969194
0
LINE
8
DEFAULT_255_2_778
10
9.0545981
20
103.6365194
11
9.0545981
21
92.2470194
0
LINE
8
DEFAULT_255_2_778
10
9.0545981
20
92.2470194
11
28.3617981
21
92.2470194
0
LINE
8
DEFAULT_255_2_778
10
28.3617981
20
92.2470194
11
68.4889981
21
92.2470194
0
LINE
8
DEFAULT_255_2_778
10
68.4889981
20
92.2470194
11
68.4889981
21
101.8249194
0
LINE
8
DEFAULT_255_2_778
10
9.0545981
20
42.0338194
11
9.0545981
21
29.7804194
0
LINE
8
DEFAULT_255_2_778
10
9.0545981
20
29.7804194
11
68.4889981
21
29.7831194
0
LINE
8
DEFAULT_255_2_778
10
68.4889981
20
29.7831194
11
68.4889981
21
89.1855194
0
LINE
8
DEFAULT_255_2_778
10
68.4889981
20
89.1855194
11
9.0545981
21
89.1855194
0
LINE
8
DEFAULT_255_2_778
10
9.0545981
20
89.1855194
11
9.0545981
21
42.1608194
0
LINE
8
DEFAULT_255_2_778
10
9.0545981
20
42.1608194
11
13.3045981
21
42.1608194
0
LINE
8
DEFAULT_255_2_778
10
13.3045981
20
42.1608194
11
13.3045981
21
14.3637194
0
LINE
8
DEFAULT_255_2_778
10
13.3045981
20
14.3637194
11
9.0365981
21
14.3637194
0
LINE
8
DEFAULT_255_2_778
10
9.0365981
20
14.3637194
11
9.0061981
21
12.7532194
0
LINE
8
DEFAULT_255_2_778
10
9.0061981
20
12.7532194
11
17.9879981
21
11.0146194
0
LINE
8
DEFAULT_255_2_778
10
17.9879981
20
11.0146194
11
21.5910981
21
10.8572194
0
LINE
8
DEFAULT_255_2_778
10
88.9253981
20
109.5171194
11
74.2190981
21
110.1582194
0
LINE
8
DEFAULT_255_2_778
10
74.2190981
20
110.1582194
11
74.2211981
21
110.1410194
0
LINE
8
DEFAULT_255_2_778
10
74.2211981
20
110.1410194
11
74.2248981
21
110.0751194
0
LINE
8
DEFAULT_255_2_778
10
74.2248981
20
110.0751194
11
74.2240981
21
108.2844194
0
LINE
8
DEFAULT_255_2_778
10
74.2240981
20
108.2844194
11
74.2195981
21
107.9516194
0
LINE
8
DEFAULT_255_2_778
10
74.2195981
20
107.9516194
11
74.2148981
21
107.6217194
0
LINE
8
DEFAULT_255_2_778
10
74.2148981
20
107.6217194
11
88.9251981
21
106.9795194
0
LINE
8
DEFAULT_255_2_778
10
87.3542981
20
77.2356194
11
87.3542981
21
41.7335194
0
LINE
8
DEFAULT_255_2_778
10
90.3803981
20
77.3139194
11
87.3542981
21
77.2348194
0
LINE
8
DEFAULT_255_2_778
10
87.3542981
20
77.2348194
11
86.4877981
21
78.2114194
0
LINE
8
DEFAULT_255_2_778
10
86.4877981
20
78.2114194
11
88.9251981
21
78.2751194
0
LINE
8
DEFAULT_255_2_778
10
88.9251981
20
78.2751194
11
88.9251981
21
106.9795194
0
LINE
8
DEFAULT_255_2_778
10
88.9251981
20
106.9795194
11
91.3542981
21
106.9795194
0
LINE
8
DEFAULT_255_2_778
10
91.3542981
20
106.9795194
11
91.3542981
21
78.3132194
0
LINE
8
DEFAULT_255_2_778
10
90.3803981
20
77.3136194
11
90.3803981
21
77.3139194
0
LINE
8
DEFAULT_255_2_778
10
87.3542981
20
41.7346194
11
90.3805981
21
41.6552194
0
LINE
8
DEFAULT_255_2_778
10
91.3542981
20
40.6556194
11
91.3542981
21
11.9893194
0
LINE
8
DEFAULT_255_2_778
10
91.3542981
20
11.9893194
11
91.3542981
21
-0.1817806
0
LINE
8
DEFAULT_255_2_778
10
91.3542981
20
-0.1817806
11
88.8142981
21
-0.1817806
0
LINE
8
DEFAULT_255_2_778
10
88.8142981
20
-0.1817806
11
87.5609981
21
0.0392194
0
LINE
8
DEFAULT_255_2_778
10
87.5609981
20
0.0392194
11
87.5609981
21
1.2144194
0
LINE
8
DEFAULT_255_2_778
10
87.5609981
20
1.2144194
11
88.6078981
21
1.2134194
0
LINE
8
DEFAULT_255_2_778
10
88.6078981
20
1.2134194
11
88.8145981
21
0.9094194
0
LINE
8
DEFAULT_255_2_778
10
71.3546981
20
84.0026194
11
71.3546981
21
89.3292194
0
LINE
8
DEFAULT_255_2_778
10
71.3546981
20
89.3292194
11
71.4795981
21
89.3292194
0
LINE
8
DEFAULT_255_2_778
10
71.4795981
20
89.3292194
11
71.4795981
21
84.0026194
0
LINE
8
DEFAULT_255_2_778
10
71.4795981
20
84.0026194
11
74.2150981
21
84.0026194
0
LINE
8
DEFAULT_255_2_778
10
74.2150981
20
84.0026194
11
74.2150981
21
85.3654194
0
LINE
8
DEFAULT_255_2_778
10
74.2150981
20
85.3654194
11
86.4880981
21
85.3654194
0
LINE
8
DEFAULT_255_2_778
10
86.4880981
20
85.3654194
11
86.4880981
21
33.6029194
0
LINE
8
DEFAULT_255_2_778
10
86.4880981
20
33.6029194
11
74.2150981
21
33.6029194
0
LINE
8
DEFAULT_255_2_778
10
74.2150981
20
85.3654194
11
74.2150981
21
102.7663194
0
LINE
8
DEFAULT_255_2_778
10
74.2150981
20
16.2020194
11
74.2150981
21
34.9657194
0
LINE
8
DEFAULT_255_2_778
10
74.2150981
20
34.9657194
11
86.0472981
21
34.9657194
0
LINE
8
DEFAULT_255_2_778
10
86.0472981
20
34.9657194
11
86.0472981
21
47.3244194
0
LINE
8
DEFAULT_255_2_778
10
86.0472981
20
47.3244194
11
84.7973981
21
47.3244194
0
LINE
8
DEFAULT_255_2_778
10
84.7973981
20
47.3244194
11
84.7973981
21
48.3460194
0
LINE
8
DEFAULT_255_2_778
10
84.7973981
20
48.3460194
11
85.3545981
21
48.3947194
0
LINE
8
DEFAULT_255_2_778
10
85.3545981
20
48.3947194
11
85.3545981
21
48.6458194
0
LINE
8
DEFAULT_255_2_778
10
88.8145981
20
-0.1819806
11
88.8145981
21
9.4467194
0
LINE
8
DEFAULT_255_2_778
10
89.7143981
20
43.2432194
11
88.6697981
21
43.2432194
0
LINE
8
DEFAULT_255_2_778
10
88.6697981
20
43.2432194
11
88.6044981
21
41.7433194
0
LINE
8
DEFAULT_255_2_778
10
89.1545981
20
41.6872194
11
89.1545981
21
41.7433194
0
LINE
8
DEFAULT_255_2_778
10
89.1545981
20
41.7433194
11
87.3545981
21
41.7433194
0
LINE
8
DEFAULT_255_2_778
10
87.3545981
20
41.7433194
11
86.4880981
21
40.7577194
0
LINE
8
DEFAULT_255_2_778
10
86.4880981
20
40.7577194
11
88.9253981
21
40.6940194
0
LINE
8
DEFAULT_255_2_778
10
88.9253981
20
40.6940194
11
88.9253981
21
11.9891194
0
LINE
8
DEFAULT_255_2_778
10
88.9253981
20
11.9891194
11
74.2150981
21
11.3467194
0
LINE
8
DEFAULT_255_2_778
10
74.2150981
20
11.3467194
11
74.2150981
21
8.8090194
0
LINE
8
DEFAULT_255_2_778
10
74.2150981
20
8.8090194
11
71.4795981
21
8.8807194
0
LINE
8
DEFAULT_255_2_778
10
71.4795981
20
8.8807194
11
71.4795981
21
11.3490194
0
LINE
8
DEFAULT_255_2_778
10
71.4795981
20
11.3490194
11
71.3546981
21
11.3490194
0
LINE
8
DEFAULT_255_2_778
10
71.3546981
20
11.3490194
11
68.6080981
21
11.3490194
0
LINE
8
DEFAULT_255_2_778
10
71.4795981
20
8.8805194
11
71.3546981
21
9.0122194
0
LINE
8
DEFAULT_255_2_778
10
71.3546981
20
9.0122194
11
71.3546981
21
26.8647194
0
LINE
8
DEFAULT_255_2_778
10
71.3546981
20
26.8647194
11
71.4795981
21
26.8647194
0
LINE
8
DEFAULT_255_2_778
10
71.4795981
20
26.8647194
11
71.4795981
21
11.3488194
0
LINE
8
DEFAULT_255_2_778
10
71.4795981
20
11.3488194
11
74.2150981
21
11.3464194
0
LINE
8
DEFAULT_255_2_778
10
71.3546981
20
34.9655194
11
71.4795981
21
34.9655194
0
LINE
8
DEFAULT_255_2_778
10
74.2150981
20
34.9655194
11
71.4795981
21
34.9655194
0
LINE
8
DEFAULT_255_2_778
10
71.4795981
20
34.9655194
11
71.4795981
21
29.6384194
0
LINE
8
DEFAULT_255_2_778
10
71.4795981
20
29.6384194
11
71.3546981
21
29.6384194
0
LINE
8
DEFAULT_255_2_778
10
71.3546981
20
29.6384194
11
71.3546981
21
34.9655194
0
LINE
8
DEFAULT_255_2_778
10
71.3546981
20
34.9655194
11
71.3546981
21
35.4655194
0
LINE
8
DEFAULT_255_2_778
10
74.2177981
20
13.4702194
11
74.2150981
21
13.4702194
0
LINE
8
DEFAULT_255_2_778
10
74.2150981
20
13.4702194
11
74.2150981
21
11.3490194
0
LINE
8
DEFAULT_255_2_778
10
71.3546981
20
9.0125194
11
71.2297981
21
8.8807194
0
LINE
8
DEFAULT_255_2_778
10
71.2297981
20
8.8807194
11
69.1213981
21
8.8254194
0
LINE
8
DEFAULT_255_2_778
10
71.2297981
20
8.8807194
11
71.2297981
21
26.7473194
0
LINE
8
DEFAULT_255_2_778
10
71.2297981
20
26.7473194
11
68.4892981
21
26.7211194
0
LINE
8
DEFAULT_255_2_778
10
91.3545981
20
109.5179194
11
91.3545981
21
110.1982194
0
LINE
8
DEFAULT_255_2_778
10
91.3545981
20
110.1982194
11
91.3545981
21
111.5285194
0
LINE
8
DEFAULT_255_2_778
10
91.3545981
20
111.5285194
11
91.3545981
21
111.7021194
0
LINE
8
DEFAULT_255_2_778
10
91.1457981
20
111.9018194
11
89.4299981
21
111.8269194
0
LINE
8
DEFAULT_255_2_778
10
89.2590981
20
111.7148194
11
88.2025981
21
109.5483194
0
LINE
8
DEFAULT_255_2_778
10
89.2532981
20
109.4811194
11
91.3547981
21
109.5179194
0
LINE
8
DEFAULT_255_2_778
10
91.3547981
20
109.5179194
11
91.3547981
21
107.2639194
0
LINE
8
DEFAULT_255_2_778
10
8.6428981
20
64.5030194
11
8.6428981
21
45.9592194
0
LINE
8
DEFAULT_255_2_778
10
8.6428981
20
45.9592194
11
8.8045981
21
45.9592194
0
LINE
8
DEFAULT_255_2_778
10
8.8045981
20
105.9707194
11
8.8045981
21
92.2472194
0
LINE
8
DEFAULT_255_2_778
10
8.8045981
20
92.2472194
11
9.0545981
21
92.2472194
0
LINE
8
DEFAULT_255_2_778
10
9.0545981
20
92.2472194
11
9.0545981
21
91.3990194
0
LINE
8
DEFAULT_255_2_778
10
21.5907981
20
108.1117194
11
17.9876981
21
107.9542194
0
LINE
8
DEFAULT_255_2_778
10
17.6080981
20
107.9090194
11
9.0064981
21
106.2159194
0
LINE
8
DEFAULT_255_2_778
10
9.0064981
20
106.2159194
11
9.0077981
21
106.1286194
0
LINE
8
DEFAULT_255_2_778
10
9.0077981
20
106.1286194
11
9.0085981
21
106.0633194
0
LINE
8
DEFAULT_255_2_778
10
9.0085981
20
106.0633194
11
9.0222981
21
105.3735194
0
LINE
8
DEFAULT_255_2_778
10
9.0222981
20
105.3735194
11
9.0357981
21
104.6464194
0
LINE
8
DEFAULT_255_2_778
10
9.0357981
20
104.6464194
11
9.0548981
21
103.6368194
0
LINE
8
DEFAULT_255_2_778
10
9.0548981
20
103.6368194
11
18.0985981
21
105.4169194
0
LINE
8
DEFAULT_255_2_778
10
18.0985981
20
105.4169194
11
21.6127981
21
105.5703194
0
LINE
8
DEFAULT_255_2_778
10
13.3048981
20
26.7219194
11
68.4892981
21
26.7219194
0
LINE
8
DEFAULT_255_2_778
10
68.4892981
20
26.7219194
11
68.4892981
21
15.4144194
0
LINE
8
DEFAULT_255_2_778
10
9.0545981
20
42.1608194
11
8.8045981
21
42.1608194
0
LINE
8
DEFAULT_255_2_778
10
8.8045981
20
42.1608194
11
8.8045981
21
90.0337194
0
LINE
8
DEFAULT_255_2_778
10
8.8045981
20
103.1769194
11
8.8045981
21
98.6110194
0
LINE
8
DEFAULT_255_2_778
10
8.8045981
20
98.6110194
11
2.7881981
21
98.7399194
0
LINE
8
DEFAULT_255_2_778
10
2.7881981
20
96.1999194
11
8.8047981
21
96.3287194
0
LINE
8
DEFAULT_255_2_778
10
8.8047981
20
96.3287194
11
8.8047981
21
90.3338194
0
LINE
8
DEFAULT_255_2_778
10
9.0074981
20
106.1662194
11
8.8841981
21
106.1694194
0
LINE
8
DEFAULT_255_2_778
10
8.8841981
20
106.1694194
11
8.8185981
21
106.0524194
0
ENDSEC
0
EOF