0
SECTION
2
HEADER
9
$MEASUREMENT
70
1
0
ENDSEC
0
SECTION
2
TABLES
0
TABLE
2
LTYPE
0
LTYPE
72
65
70
64
2
CONTINUOUS
3
______
73
0
40
0
0
ENDTAB
0
TABLE
2
LAYER
0
LAYER
2
DEFAULT_255_2_778
70
0
62
255
6
CONTINUOUS
0
LAYER
2
DEFAULT_255_1_234
70
0
62
255
6
CONTINUOUS
0
ENDTAB
0
ENDSEC
0
SECTION
2
ENTITIES
0
ARC
8
DEFAULT_255_2_778
10
3.5700693
20
131.3676523
40
0.7914215
50
129.1312896
51
180.1450914
0
ARC
8
DEFAULT_255_2_778
10
3.5703345
20
131.3681394
40
0.7912112
50
89.854026
51
129.1684493
0
ARC
8
DEFAULT_255_2_778
10
25.7993937
20
131.3678259
40
0.7915249
50
39.4792447
51
90.147911
0
ARC
8
DEFAULT_255_2_778
10
25.7999935
20
131.3676726
40
0.7911595
50
359.8533901
51
39.5154338
0
ARC
8
DEFAULT_255_2_778
10
25.7996693
20
-1.9864
40
0.7914836
50
309.4761667
51
0.1482649
0
ARC
8
DEFAULT_255_2_778
10
25.799398
20
-1.9868311
40
0.7913235
50
269.8517415
51
309.511178
0
ARC
8
DEFAULT_255_2_778
10
3.570342
20
-1.9867729
40
0.7913815
50
219.1282118
51
270.1454017
0
ARC
8
DEFAULT_255_2_778
10
3.5700247
20
-1.9863904
40
0.7913769
50
179.8524075
51
219.1641908
0
LINE
8
DEFAULT_255_2_778
10
3.5723503
20
132.1593481
11
25.7973503
21
132.1593481
0
LINE
8
DEFAULT_255_2_778
10
26.5911503
20
131.3656481
11
26.5911503
21
-1.9843519
0
LINE
8
DEFAULT_255_2_778
10
25.7973503
20
-2.7781519
11
3.5723503
21
-2.7781519
0
LINE
8
DEFAULT_255_2_778
10
2.7786503
20
-1.9843519
11
2.7786503
21
131.3656481
0
LINE
8
DEFAULT_255_1_234
10
8.8576392
20
-0.6513
11
8.4520364
21
-0.6513
0
LINE
8
DEFAULT_255_1_234
10
8.4520364
20
-0.6513
11
8.4520364
21
0.5181211
0
LINE
8
DEFAULT_255_1_234
10
8.4520364
20
0.5181211
11
8.8343471
21
0.5181211
0
LINE
8
DEFAULT_255_1_234
10
8.8632614
20
-0.1043386
11
8.6062458
21
-0.1043386
0
LINE
8
DEFAULT_255_1_234
10
8.6062458
20
-0.1043386
11
8.6062458
21
-0.5252017
0
LINE
8
DEFAULT_255_1_234
10
8.6062458
20
-0.5252017
11
8.8608519
21
-0.5252017
0
LINE
8
DEFAULT_255_1_234
10
8.6062458
20
0.3912196
11
8.6062458
21
0.0193501
0
LINE
8
DEFAULT_255_1_234
10
8.6062458
20
0.0193501
11
8.8391662
21
0.0193501
0
LINE
8
DEFAULT_255_1_234
10
8.8343471
20
0.3912196
11
8.6062458
21
0.3912196
0
ARC
8
DEFAULT_255_1_234
10
8.838118
20
-0.2186099
40
0.7367406
50
82.1257326
51
90.2932599
0
ARC
8
DEFAULT_255_1_234
10
8.8770135
20
0.0532013
40
0.4621653
50
69.9044149
51
82.2857423
0
ARC
8
DEFAULT_255_1_234
10
8.9340813
20
0.2074637
40
0.2976871
50
51.1838526
51
70.0181538
0
ARC
8
DEFAULT_255_1_234
10
8.9595779
20
0.244524
40
0.2528517
50
12.1017251
51
50.4214761
0
ARC
8
DEFAULT_255_1_234
10
8.8211653
20
0.2097676
40
0.3955061
50
359.5251267
51
12.8211707
0
ARC
8
DEFAULT_255_1_234
10
8.9791579
20
0.2028344
40
0.2375281
50
323.4908128
51
0.8817314
0
ARC
8
DEFAULT_255_1_234
10
8.9373266
20
0.235155
40
0.2903817
50
298.6825083
51
323.2756573
0
ARC
8
DEFAULT_255_1_234
10
8.9011629
20
0.2952649
40
0.3604842
50
293.1999386
51
299.1396394
0
ARC
8
DEFAULT_255_1_234
10
8.9684602
20
-0.3132874
40
0.2871098
50
54.0011765
51
74.9167975
0
ARC
8
DEFAULT_255_1_234
10
8.9800961
20
-0.2935668
40
0.2643248
50
36.3580696
51
53.5291921
0
ARC
8
DEFAULT_255_1_234
10
8.9674203
20
-0.3026002
40
0.2798884
50
4.8189881
51
36.3089977
0
ARC
8
DEFAULT_255_1_234
10
8.8895038
20
-0.313573
40
0.358478
50
359.9370252
51
5.5204067
0
ARC
8
DEFAULT_255_1_234
10
8.857056
20
-0.3176333
40
0.3909429
50
344.7478609
51
0.5373281
0
ARC
8
DEFAULT_255_1_234
10
8.9561531
20
-0.3443456
40
0.2883093
50
311.1786488
51
344.6886812
0
ARC
8
DEFAULT_255_1_234
10
8.9269578
20
-0.3080013
40
0.3348923
50
286.0418249
51
310.8441291
0
ARC
8
DEFAULT_255_1_234
10
8.876241
20
-0.1433193
40
0.5071869
50
274.1042341
51
286.4071509
0
ARC
8
DEFAULT_255_1_234
10
8.8585666
20
0.0450229
40
0.6963234
50
269.9236873
51
274.445647
0
ARC
8
DEFAULT_255_1_234
10
8.8631667
20
-0.1889463
40
0.3362634
50
269.6055768
51
281.3740047
0
ARC
8
DEFAULT_255_1_234
10
8.8862305
20
-0.2982647
40
0.224546
50
281.1055983
51
302.5132223
0
ARC
8
DEFAULT_255_1_234
10
8.9009204
20
-0.3246177
40
0.1944357
50
303.0368945
51
311.8811219
0
ARC
8
DEFAULT_255_1_234
10
8.9080611
20
-0.333111
40
0.1833454
50
311.9916004
51
351.7143462
0
ARC
8
DEFAULT_255_1_234
10
8.8263841
20
-0.316607
40
0.2665871
50
350.7339597
51
0.2221581
0
ARC
8
DEFAULT_255_1_234
10
8.8156287
20
-0.3109533
40
0.2773789
50
359.0456241
51
17.2296242
0
ARC
8
DEFAULT_255_1_234
10
8.9195404
20
-0.2800837
40
0.1689915
50
17.6685481
51
78.9940892
0
ARC
8
DEFAULT_255_1_234
10
8.8678568
20
-0.4655776
40
0.3612658
50
76.5635957
51
90.6980921
0
LINE
8
DEFAULT_255_1_234
10
8.8634552
20
-0.1043387
11
8.8632614
21
-0.1043386
0
ARC
8
DEFAULT_255_1_234
10
8.8414228
20
0.3479036
40
0.3285612
50
269.6064736
51
281.4533503
0
ARC
8
DEFAULT_255_1_234
10
8.8637048
20
0.2427688
40
0.2210975
50
281.2041486
51
302.5148063
0
ARC
8
DEFAULT_255_1_234
10
8.8773898
20
0.2181241
40
0.1929674
50
303.021671
51
309.8369575
0
ARC
8
DEFAULT_255_1_234
10
8.8957359
20
0.1975488
40
0.1654181
50
309.5228395
51
356.9509836
0
ARC
8
DEFAULT_255_1_234
10
8.8293942
20
0.2070932
40
0.2322512
50
355.4701227
51
0.0492546
0
ARC
8
DEFAULT_255_1_234
10
8.8015033
20
0.2093094
40
0.2601498
50
359.5558597
51
11.2096359
0
ARC
8
DEFAULT_255_1_234
10
8.8972323
20
0.229123
40
0.1623975
50
10.9182341
51
31.3230275
0
ARC
8
DEFAULT_255_1_234
10
8.9258056
20
0.2450214
40
0.1297302
50
31.8852677
51
52.1412565
0
ARC
8
DEFAULT_255_1_234
10
8.8983789
20
0.206275
40
0.1771663
50
52.8285564
51
71.9850297
0
ARC
8
DEFAULT_255_1_234
10
8.8607965
20
0.0956664
40
0.2939794
50
71.6863486
51
82.8455995
0
ARC
8
DEFAULT_255_1_234
10
8.8368501
20
-0.0852851
40
0.476506
50
82.6984714
51
90.1729175
0
ARC
8
DEFAULT_255_1_234
10
8.8346136
20
0.0370623
40
0.3541573
50
89.8708275
51
90.0431131
0
LINE
8
DEFAULT_255_1_234
10
9.5756766
20
0.5181211
11
9.8575906
21
0.0699501
0
LINE
8
DEFAULT_255_1_234
10
9.8575906
20
0.0699501
11
10.1378982
21
0.5181211
0
LINE
8
DEFAULT_255_1_234
10
10.1378982
20
0.5181211
11
10.3194155
21
0.5181211
0
LINE
8
DEFAULT_255_1_234
10
10.3194155
20
0.5181211
11
9.9499556
21
-0.0617704
0
LINE
8
DEFAULT_255_1_234
10
9.9499556
20
-0.0617704
11
10.3282504
21
-0.6513
0
LINE
8
DEFAULT_255_1_234
10
10.3282504
20
-0.6513
11
10.1451268
21
-0.6513
0
LINE
8
DEFAULT_255_1_234
10
10.1451268
20
-0.6513
11
9.8575906
21
-0.1950973
0
LINE
8
DEFAULT_255_1_234
10
9.8575906
20
-0.1950973
11
9.568448
21
-0.6513
0
LINE
8
DEFAULT_255_1_234
10
9.568448
20
-0.6513
11
9.3861275
21
-0.6513
0
LINE
8
DEFAULT_255_1_234
10
9.3861275
20
-0.6513
11
9.7652256
21
-0.0617704
0
LINE
8
DEFAULT_255_1_234
10
9.7652256
20
-0.0617704
11
9.3949625
21
0.5181211
0
LINE
8
DEFAULT_255_1_234
10
9.3949625
20
0.5181211
11
9.5756766
21
0.5181211
0
LINE
8
DEFAULT_255_1_234
10
10.7563421
20
-0.0938974
11
10.7563421
21
-0.2151766
0
LINE
8
DEFAULT_255_1_234
10
10.7563421
20
-0.2151766
11
10.3643933
21
-0.2151766
0
LINE
8
DEFAULT_255_1_234
10
10.3643933
20
-0.2151766
11
10.3643933
21
-0.0938974
0
LINE
8
DEFAULT_255_1_234
10
10.3643933
20
-0.0938974
11
10.7563421
21
-0.0938974
0
LINE
8
DEFAULT_255_1_234
10
11.2478845
20
-0.6513
11
10.9242054
21
-0.6513
0
LINE
8
DEFAULT_255_1_234
10
10.9242054
20
-0.6513
11
10.9242054
21
0.5181211
0
LINE
8
DEFAULT_255_1_234
10
10.9242054
20
0.5181211
11
11.2543099
21
0.5181211
0
LINE
8
DEFAULT_255_1_234
10
11.7699475
20
-0.0272339
11
11.7699475
21
-0.1019291
0
LINE
8
DEFAULT_255_1_234
10
11.2583257
20
0.3912196
11
11.0784148
21
0.3912196
0
LINE
8
DEFAULT_255_1_234
10
11.0784148
20
0.3912196
11
11.0784148
21
-0.5252017
0
LINE
8
DEFAULT_255_1_234
10
11.0784148
20
-0.5252017
11
11.2406559
21
-0.5252017
0
LINE
8
DEFAULT_255_1_234
10
11.6173444
20
-0.0987164
11
11.6173444
21
-0.0304466
0
ARC
8
DEFAULT_255_1_234
10
11.2582041
20
-0.0684106
40
0.5865446
50
75.4101064
51
90.3804066
0
ARC
8
DEFAULT_255_1_234
10
11.2811555
20
0.0272492
40
0.4881916
50
60.145586
51
75.1888407
0
ARC
8
DEFAULT_255_1_234
10
11.297033
20
0.0549199
40
0.4562893
50
26.5253612
51
60.1450928
0
ARC
8
DEFAULT_255_1_234
10
11.1850079
20
-0.0044842
40
0.5830602
50
7.4030428
51
26.8320788
0
ARC
8
DEFAULT_255_1_234
10
11.0255836
20
-0.0293196
40
0.7443669
50
0.1605367
51
7.7176192
0
ARC
8
DEFAULT_255_1_234
10
11.0419741
20
-0.1057566
40
0.7279835
50
348.7289388
51
0.3012466
0
ARC
8
DEFAULT_255_1_234
10
11.2076171
20
-0.1386614
40
0.559104
50
333.0706509
51
348.7181832
0
ARC
8
DEFAULT_255_1_234
10
11.3042929
20
-0.1911681
40
0.4491417
50
299.2531685
51
333.4571258
0
ARC
8
DEFAULT_255_1_234
10
11.2682068
20
-0.1226172
40
0.5265881
50
278.107187
51
299.0339503
0
ARC
8
DEFAULT_255_1_234
10
11.2426147
20
0.0281216
40
0.679442
50
270.4443897
51
278.4511052
0
ARC
8
DEFAULT_255_1_234
10
11.2446977
20
-0.0647787
40
0.4604407
50
269.4970433
51
284.0205042
0
ARC
8
DEFAULT_255_1_234
10
11.2802278
20
-0.2013022
40
0.3193797
50
283.7700273
51
318.1555492
0
ARC
8
DEFAULT_255_1_234
10
11.2465036
20
-0.1760633
40
0.3613588
50
318.7415601
51
343.6873628
0
ARC
8
DEFAULT_255_1_234
10
11.066106
20
-0.1197168
40
0.5503313
50
343.3325091
51
355.8548958
0
ARC
8
DEFAULT_255_1_234
10
10.8562744
20
-0.0997681
40
0.7610708
50
355.4988528
51
0.0791727
0
ARC
8
DEFAULT_255_1_234
10
10.9345367
20
-0.026222
40
0.6828208
50
359.6455037
51
9.8607896
0
ARC
8
DEFAULT_255_1_234
10
11.1706064
20
0.0164099
40
0.4429406
50
9.6571907
51
26.1932807
0
ARC
8
DEFAULT_255_1_234
10
11.2634053
20
0.0595118
40
0.3406537
50
26.5777228
51
40.1532208
0
ARC
8
DEFAULT_255_1_234
10
11.288978
20
0.0794619
40
0.308246
50
40.3840491
51
80.1431104
0
ARC
8
DEFAULT_255_1_234
10
11.2562897
20
-0.0654667
40
0.4566909
50
79.2152159
51
89.7445637
0
LINE
8
DEFAULT_255_1_234
10
12.0028679
20
0.5181211
11
12.202055
21
0.5181211
0
LINE
8
DEFAULT_255_1_234
10
12.202055
20
0.5181211
11
12.5843657
21
-0.4360494
0
LINE
8
DEFAULT_255_1_234
10
12.5843657
20
-0.4360494
11
12.9666765
21
0.5181211
0
LINE
8
DEFAULT_255_1_234
10
12.9666765
20
0.5181211
11
13.1666667
21
0.5181211
0
LINE
8
DEFAULT_255_1_234
10
13.1666667
20
0.5181211
11
13.1666667
21
-0.6513
0
LINE
8
DEFAULT_255_1_234
10
13.1666667
20
-0.6513
11
13.0124574
21
-0.6513
0
LINE
8
DEFAULT_255_1_234
10
13.0124574
20
-0.6513
11
13.0124574
21
-0.1959004
0
LINE
8
DEFAULT_255_1_234
10
13.0124574
20
-0.1959004
11
13.0269145
21
0.2956419
0
LINE
8
DEFAULT_255_1_234
10
13.0269145
20
0.2956419
11
12.6429974
21
-0.6513
0
LINE
8
DEFAULT_255_1_234
10
12.6429974
20
-0.6513
11
12.5249309
21
-0.6513
0
LINE
8
DEFAULT_255_1_234
10
12.5249309
20
-0.6513
11
12.1418169
21
0.2932324
0
LINE
8
DEFAULT_255_1_234
10
12.1418169
20
0.2932324
11
12.1570772
21
-0.1959004
0
LINE
8
DEFAULT_255_1_234
10
12.1570772
20
-0.1959004
11
12.1570772
21
-0.6513
0
LINE
8
DEFAULT_255_1_234
10
12.1570772
20
-0.6513
11
12.0028679
21
-0.6513
0
LINE
8
DEFAULT_255_1_234
10
12.0028679
20
-0.6513
11
12.0028679
21
0.5181211
0
LINE
8
DEFAULT_255_1_234
10
13.88872
20
0.5237433
11
13.88872
21
-0.6513
0
LINE
8
DEFAULT_255_1_234
10
13.88872
20
-0.6513
11
13.7393297
21
-0.6513
0
LINE
8
DEFAULT_255_1_234
10
13.7393297
20
-0.6513
11
13.7393297
21
0.3390133
0
LINE
8
DEFAULT_255_1_234
10
13.7393297
20
0.3390133
11
13.4397458
21
0.2289785
0
LINE
8
DEFAULT_255_1_234
10
13.4397458
20
0.2289785
11
13.4397458
21
0.3639117
0
LINE
8
DEFAULT_255_1_234
10
13.4397458
20
0.3639117
11
13.865428
21
0.5237433
0
LINE
8
DEFAULT_255_1_234
10
13.865428
20
0.5237433
11
13.88872
21
0.5237433
0
LINE
8
DEFAULT_255_1_234
10
14.6485225
20
-0.0938974
11
14.6485225
21
-0.2151766
0
LINE
8
DEFAULT_255_1_234
10
14.6485225
20
-0.2151766
11
14.2565736
21
-0.2151766
0
LINE
8
DEFAULT_255_1_234
10
14.2565736
20
-0.2151766
11
14.2565736
21
-0.0938974
0
LINE
8
DEFAULT_255_1_234
10
14.2565736
20
-0.0938974
11
14.6485225
21
-0.0938974
0
LINE
8
DEFAULT_255_1_234
10
15.2661631
20
0.5237433
11
15.2661631
21
-0.6513
0
LINE
8
DEFAULT_255_1_234
10
15.2661631
20
-0.6513
11
15.1167728
21
-0.6513
0
LINE
8
DEFAULT_255_1_234
10
15.1167728
20
-0.6513
11
15.1167728
21
0.3390133
0
LINE
8
DEFAULT_255_1_234
10
15.1167728
20
0.3390133
11
14.817189
21
0.2289785
0
LINE
8
DEFAULT_255_1_234
10
14.817189
20
0.2289785
11
14.817189
21
0.3639117
0
LINE
8
DEFAULT_255_1_234
10
14.817189
20
0.3639117
11
15.2428711
21
0.5237433
0
LINE
8
DEFAULT_255_1_234
10
15.2428711
20
0.5237433
11
15.2661631
21
0.5237433
0
LINE
8
DEFAULT_255_1_234
10
16.4347811
20
0.0402327
11
16.4347811
21
-0.1525291
0
LINE
8
DEFAULT_255_1_234
10
15.6966643
20
-0.1726084
11
15.6966643
21
0.0257755
0
LINE
8
DEFAULT_255_1_234
10
16.2861939
20
-0.1926877
11
16.2861939
21
0.0506739
0
LINE
8
DEFAULT_255_1_234
10
15.8452515
20
0.0619184
11
15.8452515
21
-0.1758211
0
ARC
8
DEFAULT_255_1_234
10
15.21007
20
-0.1574195
40
1.2247208
50
353.8441951
51
0.2287902
0
ARC
8
DEFAULT_255_1_234
10
15.6740204
20
-0.2092194
40
0.7578929
50
344.4934747
51
353.9765454
0
ARC
8
DEFAULT_255_1_234
10
15.9732794
20
-0.2943019
40
0.4467846
50
329.2803592
51
344.7472793
0
ARC
8
DEFAULT_255_1_234
10
16.0725619
20
-0.3487982
40
0.3336173
50
324.9352394
51
328.6160465
0
ARC
8
DEFAULT_255_1_234
10
16.1102728
20
-0.3751573
40
0.2876076
50
280.580143
51
324.9173126
0
ARC
8
DEFAULT_255_1_234
10
16.070152
20
-0.2080901
40
0.4592847
50
269.5977311
51
281.6734359
0
ARC
8
DEFAULT_255_1_234
10
16.0629426
20
-0.2200827
40
0.4472986
50
256.6228859
51
270.51044
0
ARC
8
DEFAULT_255_1_234
10
16.0227404
20
-0.3749123
40
0.2873874
50
215.8618325
51
257.2788573
0
ARC
8
DEFAULT_255_1_234
10
16.1248435
20
-0.3064023
40
0.4102928
50
197.9693508
51
215.2623606
0
ARC
8
DEFAULT_255_1_234
10
16.3733551
20
-0.2225291
40
0.6725652
50
187.8816417
51
198.2346507
0
ARC
8
DEFAULT_255_1_234
10
16.7691759
20
-0.1653921
40
1.0724845
50
180.8976217
51
188.0055519
0
ARC
8
DEFAULT_255_1_234
10
17.0491947
20
-0.1550223
40
1.3526448
50
180.7449369
51
181.1510016
0
ARC
8
DEFAULT_255_1_234
10
16.8914676
20
0.0306042
40
1.1948131
50
173.7675579
51
180.231553
0
ARC
8
DEFAULT_255_1_234
10
16.4396823
20
0.0816666
40
0.7401564
50
164.3058563
51
173.9002247
0
ARC
8
DEFAULT_255_1_234
10
16.1484892
20
0.1655656
40
0.4371288
50
148.7922025
51
164.568378
0
ARC
8
DEFAULT_255_1_234
10
16.0533344
20
0.2186929
40
0.3282386
50
144.5883898
51
148.1176286
0
ARC
8
DEFAULT_255_1_234
10
16.0190242
20
0.2426315
40
0.2864044
50
101.6440918
51
144.514236
0
ARC
8
DEFAULT_255_1_234
10
16.0615309
20
0.0737069
40
0.4604934
50
89.5284041
51
102.5819763
0
ARC
8
DEFAULT_255_1_234
10
16.0694396
20
0.0698018
40
0.464401
50
77.0437873
51
90.5081339
0
ARC
8
DEFAULT_255_1_234
10
16.1096398
20
0.2340615
40
0.2953195
50
48.2778575
51
77.4994676
0
ARC
8
DEFAULT_255_1_234
10
16.1169029
20
0.2469746
40
0.2808655
50
36.3142134
51
47.6305865
0
ARC
8
DEFAULT_255_1_234
10
16.0300336
20
0.1884515
40
0.3855453
50
18.2931786
51
35.6769206
0
ARC
8
DEFAULT_255_1_234
10
15.7757095
20
0.1011593
40
0.654423
50
8.024666
51
18.5605216
0
ARC
8
DEFAULT_255_1_234
10
15.3594015
20
0.0396792
40
1.0752407
50
1.1274072
51
8.1718305
0
ARC
8
DEFAULT_255_1_234
10
15.0358206
20
0.0269885
40
1.3990231
50
0.5424119
51
1.3863029
0
ARC
8
DEFAULT_255_1_234
10
15.2179584
20
0.0542342
40
1.0682415
50
359.8090433
51
4.9407866
0
ARC
8
DEFAULT_255_1_234
10
15.6389598
20
0.0918113
40
0.6455691
50
4.8362157
51
12.2904523
0
ARC
8
DEFAULT_255_1_234
10
15.9144712
20
0.1531965
40
0.3633074
50
12.0805627
51
23.8173984
0
ARC
8
DEFAULT_255_1_234
10
16.0318418
20
0.2028919
40
0.2358723
50
24.2871213
51
31.3935614
0
ARC
8
DEFAULT_255_1_234
10
16.0843115
20
0.2372233
40
0.1732111
50
30.7407893
51
82.4657128
0
ARC
8
DEFAULT_255_1_234
10
16.0663249
20
0.1488691
40
0.263235
50
81.1060089
51
90.2184952
0
ARC
8
DEFAULT_255_1_234
10
16.0627548
20
0.1746924
40
0.2374236
50
89.3806855
51
105.6762551
0
ARC
8
DEFAULT_255_1_234
10
16.0444179
20
0.2413567
40
0.1682847
50
105.7981136
51
149.7388061
0
ARC
8
DEFAULT_255_1_234
10
16.1508257
20
0.177395
40
0.2924306
50
149.4208916
51
163.6286378
0
ARC
8
DEFAULT_255_1_234
10
16.3599145
20
0.113625
40
0.5110213
50
163.3763315
51
172.1410975
0
ARC
8
DEFAULT_255_1_234
10
16.6899864
20
0.0663518
40
0.8444586
50
172.0259487
51
178.0703232
0
ARC
8
DEFAULT_255_1_234
10
16.9929954
20
0.0519906
40
1.1477868
50
177.8631668
51
179.5044149
0
ARC
8
DEFAULT_255_1_234
10
16.8857358
20
-0.1794611
40
1.0404907
50
179.7995573
51
185.2460446
0
ARC
8
DEFAULT_255_1_234
10
16.4814397
20
-0.2177487
40
0.6343885
50
185.1411642
51
193.0079639
0
ARC
8
DEFAULT_255_1_234
10
16.217087
20
-0.2802359
40
0.3627568
50
192.7897626
51
205.2507664
0
ARC
8
DEFAULT_255_1_234
10
16.1124417
20
-0.3269585
40
0.2481908
50
205.8005384
51
211.2537509
0
ARC
8
DEFAULT_255_1_234
10
16.0600857
20
-0.362042
40
0.1852521
50
210.3789793
51
238.4008143
0
ARC
8
DEFAULT_255_1_234
10
16.0581379
20
-0.3573624
40
0.1882621
50
239.6520629
51
265.9793761
0
ARC
8
DEFAULT_255_1_234
10
16.066658
20
-0.2901573
40
0.2559272
50
265.1315437
51
270.060332
0
ARC
8
DEFAULT_255_1_234
10
16.0695358
20
-0.3225466
40
0.2235528
50
269.3314664
51
287.2178029
0
ARC
8
DEFAULT_255_1_234
10
16.083321
20
-0.3728721
40
0.1714108
50
287.7958004
51
329.080874
0
ARC
8
DEFAULT_255_1_234
10
15.9875667
20
-0.313107
40
0.2842745
50
328.6634704
51
343.3325132
0
ARC
8
DEFAULT_255_1_234
10
15.7702687
20
-0.2454137
40
0.5118644
50
343.0499468
51
351.9393422
0
ARC
8
DEFAULT_255_1_234
10
15.4235987
20
-0.1943051
40
0.8622784
50
351.8069023
51
357.7959224
0
ARC
8
DEFAULT_255_1_234
10
15.1000543
20
-0.1775279
40
1.1862365
50
357.5871873
51
359.2677531
0
LINE
8
DEFAULT_255_1_234
10
17.3246977
20
0.0153343
11
17.3246977
21
-0.110764
0
LINE
8
DEFAULT_255_1_234
10
17.3246977
20
-0.110764
11
16.817895
21
-0.110764
0
LINE
8
DEFAULT_255_1_234
10
16.817895
20
-0.110764
11
16.817895
21
-0.5252017
0
LINE
8
DEFAULT_255_1_234
10
16.817895
20
-0.5252017
11
17.4066214
21
-0.5252017
0
LINE
8
DEFAULT_255_1_234
10
17.4066214
20
-0.5252017
11
17.4066214
21
-0.6513
0
LINE
8
DEFAULT_255_1_234
10
17.4066214
20
-0.6513
11
16.6636856
21
-0.6513
0
LINE
8
DEFAULT_255_1_234
10
16.6636856
20
-0.6513
11
16.6636856
21
0.5181211
0
LINE
8
DEFAULT_255_1_234
10
16.6636856
20
0.5181211
11
17.3985896
21
0.5181211
0
LINE
8
DEFAULT_255_1_234
10
17.3985896
20
0.5181211
11
17.3985896
21
0.3912196
0
LINE
8
DEFAULT_255_1_234
10
17.3985896
20
0.3912196
11
16.817895
21
0.3912196
0
LINE
8
DEFAULT_255_1_234
10
16.817895
20
0.3912196
11
16.817895
21
0.0153343
0
LINE
8
DEFAULT_255_1_234
10
16.817895
20
0.0153343
11
17.3246977
21
0.0153343
0
LINE
8
DEFAULT_255_1_234
10
18.2812777
20
-0.6513
11
18.0274748
21
-0.1782306
0
LINE
8
DEFAULT_255_1_234
10
18.0274748
20
-0.1782306
11
17.7527893
21
-0.1782306
0
LINE
8
DEFAULT_255_1_234
10
17.7527893
20
-0.1782306
11
17.7527893
21
-0.6513
0
LINE
8
DEFAULT_255_1_234
10
17.7527893
20
-0.6513
11
17.5977768
21
-0.6513
0
LINE
8
DEFAULT_255_1_234
10
17.5977768
20
-0.6513
11
17.5977768
21
0.5181211
0
LINE
8
DEFAULT_255_1_234
10
17.5977768
20
0.5181211
11
17.9849065
21
0.5181211
0
LINE
8
DEFAULT_255_1_234
10
18.172046
20
-0.1453005
11
18.4467315
21
-0.6416619
0
LINE
8
DEFAULT_255_1_234
10
18.4467315
20
-0.6416619
11
18.4467315
21
-0.6513
0
LINE
8
DEFAULT_255_1_234
10
18.4467315
20
-0.6513
11
18.2812777
21
-0.6513
0
LINE
8
DEFAULT_255_1_234
10
17.7527893
20
0.3912196
11
17.7527893
21
-0.0521323
0
LINE
8
DEFAULT_255_1_234
10
17.7527893
20
-0.0521323
11
17.9897256
21
-0.0521323
0
LINE
8
DEFAULT_255_1_234
10
17.9889224
20
0.3912196
11
17.7527893
21
0.3912196
0
ARC
8
DEFAULT_255_1_234
10
17.9890705
20
-0.1780239
40
0.6961575
50
80.653586
51
90.3427061
0
ARC
8
DEFAULT_255_1_234
10
18.031018
20
0.0682348
40
0.4463577
50
65.6987447
51
80.8329603
0
ARC
8
DEFAULT_255_1_234
10
18.078782
20
0.1777322
40
0.3269094
50
50.0017161
51
65.4305835
0
ARC
8
DEFAULT_255_1_234
10
18.1006285
20
0.2072482
40
0.2902647
50
11.628416
51
49.5603263
0
ARC
8
DEFAULT_255_1_234
10
17.9470621
20
0.1697299
40
0.4482792
50
359.5655735
51
12.3691
0
ARC
8
DEFAULT_255_1_234
10
18.054748
20
0.1634644
40
0.3405924
50
341.9983148
51
0.4822259
0
ARC
8
DEFAULT_255_1_234
10
18.094232
20
0.1527471
40
0.2997359
50
323.8609373
51
341.61416
0
ARC
8
DEFAULT_255_1_234
10
18.0640564
20
0.1760484
40
0.3378487
50
296.7018614
51
323.6876402
0
ARC
8
DEFAULT_255_1_234
10
18.019946
20
0.2549235
40
0.4281516
50
290.8086567
51
297.2323311
0
ARC
8
DEFAULT_255_1_234
10
17.9922989
20
0.3072351
40
0.3593766
50
269.589728
51
281.8058135
0
ARC
8
DEFAULT_255_1_234
10
18.0173888
20
0.1924743
40
0.2419125
50
281.5501019
51
303.9357432
0
ARC
8
DEFAULT_255_1_234
10
18.0311076
20
0.1686936
40
0.2145323
50
304.4415616
51
311.2106213
0
ARC
8
DEFAULT_255_1_234
10
18.0443182
20
0.1547632
40
0.1953505
50
310.9875673
51
356.2715578
0
ARC
8
DEFAULT_255_1_234
10
17.968683
20
0.1660422
40
0.2716331
50
354.9348262
51
0.0609027
0
ARC
8
DEFAULT_255_1_234
10
17.9499705
20
0.1687435
40
0.2903554
50
359.5239371
51
12.8808918
0
ARC
8
DEFAULT_255_1_234
10
18.047726
20
0.1926728
40
0.1897315
50
12.4173452
51
43.1022135
0
ARC
8
DEFAULT_255_1_234
10
18.0538865
20
0.1963724
40
0.1827118
50
43.5751728
51
48.203944
0
ARC
8
DEFAULT_255_1_234
10
18.0369357
20
0.1742302
40
0.2105272
50
48.7809703
51
72.6969569
0
ARC
8
DEFAULT_255_1_234
10
18.0014981
20
0.066682
40
0.3237537
50
72.3702241
51
84.8791103
0
ARC
8
DEFAULT_255_1_234
10
17.9867457
20
-0.0675231
40
0.4587478
50
84.5400526
51
89.7281406
0
LINE
8
DEFAULT_255_1_234
10
18.897312
20
-0.0938974
11
18.897312
21
-0.2151766
0
LINE
8
DEFAULT_255_1_234
10
18.897312
20
-0.2151766
11
18.5053632
21
-0.2151766
0
LINE
8
DEFAULT_255_1_234
10
18.5053632
20
-0.2151766
11
18.5053632
21
-0.0938974
0
LINE
8
DEFAULT_255_1_234
10
18.5053632
20
-0.0938974
11
18.897312
21
-0.0938974
0
LINE
8
DEFAULT_255_1_234
10
19.3888544
20
-0.6513
11
19.0651753
21
-0.6513
0
LINE
8
DEFAULT_255_1_234
10
19.0651753
20
-0.6513
11
19.0651753
21
0.5181211
0
LINE
8
DEFAULT_255_1_234
10
19.0651753
20
0.5181211
11
19.3952798
21
0.5181211
0
LINE
8
DEFAULT_255_1_234
10
19.9109174
20
-0.0272339
11
19.9109174
21
-0.1019291
0
LINE
8
DEFAULT_255_1_234
10
19.3992957
20
0.3912196
11
19.2193847
21
0.3912196
0
LINE
8
DEFAULT_255_1_234
10
19.2193847
20
0.3912196
11
19.2193847
21
-0.5252017
0
LINE
8
DEFAULT_255_1_234
10
19.2193847
20
-0.5252017
11
19.3816258
21
-0.5252017
0
LINE
8
DEFAULT_255_1_234
10
19.7583144
20
-0.0987164
11
19.7583144
21
-0.0304466
0
ARC
8
DEFAULT_255_1_234
10
19.399174
20
-0.0684106
40
0.5865446
50
75.4101064
51
90.3804066
0
ARC
8
DEFAULT_255_1_234
10
19.4221254
20
0.0272492
40
0.4881916
50
60.145586
51
75.1888407
0
ARC
8
DEFAULT_255_1_234
10
19.4380029
20
0.0549199
40
0.4562893
50
26.5253612
51
60.1450928
0
ARC
8
DEFAULT_255_1_234
10
19.3259779
20
-0.0044842
40
0.5830602
50
7.4030428
51
26.8320788
0
ARC
8
DEFAULT_255_1_234
10
19.1665535
20
-0.0293196
40
0.7443669
50
0.1605367
51
7.7176192
0
ARC
8
DEFAULT_255_1_234
10
19.182944
20
-0.1057566
40
0.7279835
50
348.7289388
51
0.3012466
0
ARC
8
DEFAULT_255_1_234
10
19.348587
20
-0.1386614
40
0.559104
50
333.0706509
51
348.7181832
0
ARC
8
DEFAULT_255_1_234
10
19.4452628
20
-0.1911681
40
0.4491417
50
299.2531685
51
333.4571258
0
ARC
8
DEFAULT_255_1_234
10
19.4091768
20
-0.1226172
40
0.5265881
50
278.107187
51
299.0339503
0
ARC
8
DEFAULT_255_1_234
10
19.3835847
20
0.0281216
40
0.679442
50
270.4443897
51
278.4511052
0
ARC
8
DEFAULT_255_1_234
10
19.3856676
20
-0.0647787
40
0.4604407
50
269.4970433
51
284.0205042
0
ARC
8
DEFAULT_255_1_234
10
19.4211977
20
-0.2013022
40
0.3193797
50
283.7700273
51
318.1555492
0
ARC
8
DEFAULT_255_1_234
10
19.3874736
20
-0.1760633
40
0.3613588
50
318.7415601
51
343.6873628
0
ARC
8
DEFAULT_255_1_234
10
19.2070759
20
-0.1197168
40
0.5503313
50
343.3325091
51
355.8548958
0
ARC
8
DEFAULT_255_1_234
10
18.9972443
20
-0.0997681
40
0.7610708
50
355.4988528
51
0.0791727
0
ARC
8
DEFAULT_255_1_234
10
19.0755066
20
-0.026222
40
0.6828208
50
359.6455037
51
9.8607896
0
ARC
8
DEFAULT_255_1_234
10
19.3115764
20
0.0164099
40
0.4429406
50
9.6571907
51
26.1932807
0
ARC
8
DEFAULT_255_1_234
10
19.4043752
20
0.0595118
40
0.3406537
50
26.5777228
51
40.1532208
0
ARC
8
DEFAULT_255_1_234
10
19.4299479
20
0.0794619
40
0.308246
50
40.3840491
51
80.1431104
0
ARC
8
DEFAULT_255_1_234
10
19.3972596
20
-0.0654667
40
0.4566909
50
79.2152159
51
89.7445637
0
ARC
8
DEFAULT_255_2_778
10
20.2534188
20
128.5491525
40
0.3580657
50
89.9945037
51
180.0054963
0
ARC
8
DEFAULT_255_2_778
10
20.2534875
20
128.5491525
40
0.3580657
50
359.9945037
51
90.0054963
0
ARC
8
DEFAULT_255_2_778
10
20.2534875
20
128.5490838
40
0.3580657
50
269.9945037
51
0.0054963
0
ARC
8
DEFAULT_255_2_778
10
20.2534188
20
128.5490838
40
0.3580657
50
179.9945037
51
270.0054963
0
ARC
8
DEFAULT_255_2_778
10
22.9622406
20
128.280782
40
2.3282817
50
111.9150345
51
128.7655504
0
ARC
8
DEFAULT_255_2_778
10
22.8791007
20
128.412852
40
2.1733214
50
129.2366206
51
154.7721516
0
ARC
8
DEFAULT_255_2_778
10
23.480657
20
128.1170583
40
2.8435961
50
154.5467617
51
165.9285636
0
ARC
8
DEFAULT_255_2_778
10
23.9646902
20
127.9796212
40
3.3465569
50
165.6609748
51
166.525375
0
ARC
8
DEFAULT_255_2_778
10
21.5282291
20
129.1978171
40
1.414623
50
156.0627036
51
175.7189082
0
ARC
8
DEFAULT_255_2_778
10
22.1164502
20
128.944283
40
2.0551309
50
144.7505594
51
156.2560535
0
ARC
8
DEFAULT_255_2_778
10
22.8861799
20
128.4089863
40
2.9926766
50
137.345293
51
144.8863205
0
ARC
8
DEFAULT_255_2_778
10
23.8131446
20
127.5598407
40
4.2497776
50
131.6389266
51
137.393651
0
ARC
8
DEFAULT_255_2_778
10
24.5393492
20
126.7631248
40
5.3277326
50
130.1334351
51
131.7826198
0
LINE
8
DEFAULT_255_2_778
10
19.8953532
20
128.5491182
11
19.8953532
21
128.5491182
0
LINE
8
DEFAULT_255_2_778
10
21.1052532
20
130.8364182
11
22.0932532
21
130.4408182
0
LINE
8
DEFAULT_255_2_778
10
20.7102532
20
128.7594182
11
20.1175532
21
129.3034182
0
LINE
8
DEFAULT_255_2_778
10
21.1052532
20
130.8364182
11
21.1052532
21
130.8364182
0
ARC
8
DEFAULT_255_2_778
10
13.7594907
20
129.3726437
40
0.8717226
50
88.9281645
51
133.9885749
0
ARC
8
DEFAULT_255_2_778
10
13.7757454
20
129.1475604
40
1.0966534
50
88.9487005
51
89.9972984
0
ARC
8
DEFAULT_255_2_778
10
13.7953
20
129.4430011
40
0.8010283
50
72.1310318
51
89.9594908
0
ARC
8
DEFAULT_255_2_778
10
13.8705373
20
129.7000083
40
0.5333823
50
60.6505783
51
71.3519493
0
ARC
8
DEFAULT_255_2_778
10
13.9543387
20
129.8271349
40
0.3816498
50
20.3938858
51
62.2625554
0
ARC
8
DEFAULT_255_2_778
10
14.9704645
20
129.3391628
40
0.9050345
50
89.7568633
51
136.6758865
0
ARC
8
DEFAULT_255_2_778
10
14.9742773
20
129.2215709
40
1.0226182
50
88.9864436
51
89.9984426
0
ARC
8
DEFAULT_255_2_778
10
14.992248
20
129.460692
40
0.7833372
50
71.373585
51
89.9913488
0
ARC
8
DEFAULT_255_2_778
10
15.0841803
20
129.739542
40
0.489734
50
42.2193789
51
71.1458349
0
ARC
8
DEFAULT_255_2_778
10
15.0590908
20
129.7320658
40
0.5134635
50
8.5226311
51
40.9558105
0
ARC
8
DEFAULT_255_2_778
10
14.7367896
20
129.6668045
40
0.8420446
50
359.6942069
51
9.6641803
0
ARC
8
DEFAULT_255_2_778
10
14.4472507
20
129.6638277
40
1.1315727
50
355.5855084
51
359.923173
0
ARC
8
DEFAULT_255_2_778
10
14.2502845
20
129.6361289
40
0.7547163
50
352.4548626
51
359.7652122
0
ARC
8
DEFAULT_255_2_778
10
14.4078893
20
129.6332192
40
0.5971052
50
359.9824407
51
2.1700815
0
ARC
8
DEFAULT_255_2_778
10
14.8167551
20
129.6490752
40
0.1879327
50
2.0595693
51
88.944897
0
ARC
8
DEFAULT_255_2_778
10
14.7529878
20
129.3617725
40
0.4799353
50
81.9476992
51
88.9638763
0
ARC
8
DEFAULT_255_2_778
10
14.7641352
20
129.3556844
40
0.4859511
50
90.2910974
51
140.7094043
0
ARC
8
DEFAULT_255_2_778
10
14.950423
20
129.1628111
40
0.7529164
50
138.3264016
51
141.8088804
0
ARC
8
DEFAULT_255_2_778
10
13.0111845
20
129.6327289
40
0.7547163
50
352.4548626
51
359.7652122
0
ARC
8
DEFAULT_255_2_778
10
13.1687893
20
129.6298192
40
0.5971052
50
359.9824407
51
2.1700815
0
ARC
8
DEFAULT_255_2_778
10
13.5767327
20
129.6466775
40
0.1888212
50
1.7455696
51
88.6065628
0
ARC
8
DEFAULT_255_2_778
10
13.5151974
20
129.3703897
40
0.469731
50
81.9072271
51
88.8693446
0
ARC
8
DEFAULT_255_2_778
10
13.5126914
20
129.3303568
40
0.5098084
50
88.6765396
51
89.9981553
0
ARC
8
DEFAULT_255_2_778
10
13.5179114
20
129.3339569
40
0.5062351
50
90.5889431
51
134.9317856
0
ARC
8
DEFAULT_255_2_778
10
13.6708307
20
129.1435835
40
0.749469
50
132.9288129
51
135.7848647
0
LINE
8
DEFAULT_255_2_778
10
12.6682663
20
130.2099292
11
13.2005663
21
130.2115292
0
LINE
8
DEFAULT_255_2_778
10
13.2005663
20
130.2115292
11
13.1540663
21
129.9998292
0
LINE
8
DEFAULT_255_2_778
10
15.5754663
20
129.5767292
11
15.5715663
21
129.5339292
0
LINE
8
DEFAULT_255_2_778
10
15.5715663
20
129.5339292
11
15.3386663
21
128.3485292
0
LINE
8
DEFAULT_255_2_778
10
15.3386663
20
128.3485292
11
14.7655663
21
128.3485292
0
LINE
8
DEFAULT_255_2_778
10
14.7655663
20
128.3485292
11
14.9984663
21
129.5370292
0
LINE
8
DEFAULT_255_2_778
10
14.3586663
20
129.6283292
11
14.3525663
21
129.5889292
0
LINE
8
DEFAULT_255_2_778
10
14.3525663
20
129.5889292
11
14.0975663
21
128.3485292
0
LINE
8
DEFAULT_255_2_778
10
14.0975663
20
128.3485292
11
13.5265663
21
128.3485292
0
LINE
8
DEFAULT_255_2_778
10
13.5265663
20
128.3485292
11
13.7593663
21
129.5336292
0
LINE
8
DEFAULT_255_2_778
10
13.1336663
20
129.6662292
11
12.8603663
21
128.3485292
0
LINE
8
DEFAULT_255_2_778
10
12.8603663
20
128.3485292
11
12.2893663
21
128.3485292
0
LINE
8
DEFAULT_255_2_778
10
12.2893663
20
128.3485292
11
12.6679663
21
130.2096292
0
LINE
8
DEFAULT_255_2_778
10
12.6679663
20
130.2096292
11
12.6682663
21
130.2099292
0
ARC
8
DEFAULT_255_2_778
10
16.6200275
20
129.0593402
40
1.1831221
50
72.5008211
51
90.0103536
0
ARC
8
DEFAULT_255_2_778
10
16.6947507
20
129.3223399
40
0.9098586
50
60.3242318
51
72.0085714
0
ARC
8
DEFAULT_255_2_778
10
16.7751012
20
129.4428126
40
0.7654736
50
24.9543019
51
61.0852427
0
ARC
8
DEFAULT_255_2_778
10
16.6805748
20
129.4009465
40
0.8688408
50
359.4872778
51
24.8275177
0
ARC
8
DEFAULT_255_2_778
10
16.4736953
20
129.3945476
40
1.0756863
50
353.6171666
51
359.9267064
0
ARC
8
DEFAULT_255_2_778
10
16.4716377
20
129.3645267
40
1.0748142
50
309.833105
51
355.2199932
0
ARC
8
DEFAULT_255_2_778
10
16.4130984
20
129.4311469
40
1.1634726
50
274.0073872
51
309.9453537
0
ARC
8
DEFAULT_255_2_778
10
16.3618842
20
129.7996028
40
1.5348158
50
269.9462811
51
274.9533663
0
ARC
8
DEFAULT_255_2_778
10
16.3604794
20
129.9233871
40
1.6585995
50
269.1686307
51
269.9988202
0
ARC
8
DEFAULT_255_2_778
10
16.3365813
20
129.4358263
40
1.170864
50
252.1092944
51
269.9918014
0
ARC
8
DEFAULT_255_2_778
10
16.2643696
20
129.1855397
40
0.9105332
50
240.5370236
51
251.5952644
0
ARC
8
DEFAULT_255_2_778
10
16.1851911
20
129.0637089
40
0.7655666
50
205.2400495
51
241.211713
0
ARC
8
DEFAULT_255_2_778
10
16.2644037
20
129.1008751
40
0.8530649
50
179.5368594
51
205.2293562
0
ARC
8
DEFAULT_255_2_778
10
16.4511084
20
129.1064748
40
1.0397424
50
173.5174505
51
179.9285896
0
ARC
8
DEFAULT_255_2_778
10
16.6391783
20
129.0951758
40
1.2279263
50
153.4099026
51
173.9843619
0
ARC
8
DEFAULT_255_2_778
10
16.479572
20
129.1629448
40
1.0549233
50
129.6863931
51
152.8211827
0
ARC
8
DEFAULT_255_2_778
10
16.5416975
20
129.0923495
40
1.1489256
50
92.7623759
51
129.8224215
0
ARC
8
DEFAULT_255_2_778
10
16.5842285
20
128.7489549
40
1.494196
50
89.9700369
51
93.7568045
0
ARC
8
DEFAULT_255_2_778
10
16.5848986
20
128.6473597
40
1.5957911
50
88.7355209
51
89.9960014
0
ARC
8
DEFAULT_255_2_778
10
16.4400613
20
129.039103
40
0.4277578
50
179.6036168
51
209.4859363
0
ARC
8
DEFAULT_255_2_778
10
16.339416
20
128.9921836
40
0.3171735
50
211.0570865
51
223.1755117
0
ARC
8
DEFAULT_255_2_778
10
16.3473605
20
129.0101914
40
0.3353769
50
224.4904912
51
268.822899
0
ARC
8
DEFAULT_255_2_778
10
16.3773279
20
129.2221578
40
0.5485121
50
266.1471365
51
268.8180779
0
ARC
8
DEFAULT_255_2_778
10
16.3834514
20
129.3517665
40
0.6782284
50
268.5267288
51
269.9955114
0
ARC
8
DEFAULT_255_2_778
10
16.3990205
20
129.1612446
40
0.4879566
50
268.1653241
51
325.4286401
0
ARC
8
DEFAULT_255_2_778
10
16.1704675
20
129.3278589
40
0.7707306
50
324.8706977
51
351.0886768
0
ARC
8
DEFAULT_255_2_778
10
15.7623164
20
129.406759
40
1.1862684
50
350.3775551
51
0.2885744
0
ARC
8
DEFAULT_255_2_778
10
15.4717168
20
129.4124545
40
1.4768528
50
0.0108339
51
1.7075744
0
ARC
8
DEFAULT_255_2_778
10
16.4932944
20
129.4473407
40
0.4547108
50
1.1494496
51
31.2166939
0
ARC
8
DEFAULT_255_2_778
10
16.5878459
20
129.4942329
40
0.3496592
50
32.6753678
51
41.7495025
0
ARC
8
DEFAULT_255_2_778
10
16.6094593
20
129.5028938
40
0.3278631
50
43.1354862
51
88.8367492
0
ARC
8
DEFAULT_255_2_778
10
16.5789315
20
129.2905566
40
0.5414112
50
86.0618601
51
88.8694569
0
ARC
8
DEFAULT_255_2_778
10
16.5725619
20
129.1892668
40
0.6428217
50
88.4799611
51
89.9943311
0
ARC
8
DEFAULT_255_2_778
10
16.5615507
20
129.3425787
40
0.4896349
50
88.7039519
51
145.0513377
0
ARC
8
DEFAULT_255_2_778
10
16.7596336
20
129.1892936
40
0.7399051
50
144.1087108
51
170.2824956
0
ARC
8
DEFAULT_255_2_778
10
17.1861932
20
129.1021764
40
1.1751307
50
169.6063184
51
180.3528002
0
ARC
8
DEFAULT_255_2_778
10
17.5222659
20
129.0953441
40
1.5111813
50
180.0153016
51
182.009194
0
LINE
8
DEFAULT_255_2_778
10
16.6201137
20
130.2427623
11
16.6198137
21
130.2424623
0
LINE
8
DEFAULT_255_2_778
10
16.0120137
20
129.0423623
11
16.0123137
21
129.0420623
0
ARC
8
DEFAULT_255_2_778
10
18.587937
20
128.1205854
40
1.642039
50
81.2830361
51
86.628458
0
ARC
8
DEFAULT_255_2_778
10
18.6429757
20
128.9590313
40
0.8018272
50
87.0310432
51
89.8986713
0
ARC
8
DEFAULT_255_2_778
10
18.6242064
20
128.8703997
40
0.8906863
50
88.7012797
51
89.9954117
0
ARC
8
DEFAULT_255_2_778
10
18.6103452
20
129.1146623
40
0.6465738
50
88.765285
51
116.6201427
0
ARC
8
DEFAULT_255_2_778
10
18.5802548
20
129.1986694
40
0.5580924
50
117.7228833
51
138.7756782
0
ARC
8
DEFAULT_255_2_778
10
18.7590475
20
129.5648707
40
0.6980151
50
116.489914
51
143.0810972
0
ARC
8
DEFAULT_255_2_778
10
18.7053938
20
129.6449223
40
0.6025621
50
89.4580016
51
115.3188873
0
ARC
8
DEFAULT_255_2_778
10
18.6965205
20
129.3101885
40
0.9373821
50
77.9674605
51
89.1092017
0
ARC
8
DEFAULT_255_2_778
10
18.6028478
20
128.7796466
40
1.4759175
50
78.008513
51
78.7045202
0
LINE
8
DEFAULT_255_2_778
10
18.9094938
20
130.2236573
11
18.8367938
21
129.7436573
0
LINE
8
DEFAULT_255_2_778
10
18.1604938
20
129.5664573
11
17.9072938
21
128.3485573
0
LINE
8
DEFAULT_255_2_778
10
17.9072938
20
128.3485573
11
17.3362938
21
128.3485573
0
LINE
8
DEFAULT_255_2_778
10
17.3362938
20
128.3485573
11
17.7169938
21
130.2096573
0
LINE
8
DEFAULT_255_2_778
10
17.7169938
20
130.2096573
11
18.2535938
21
130.2112573
0
LINE
8
DEFAULT_255_2_778
10
18.2535938
20
130.2112573
11
18.2009938
21
129.9841573
0
LINE
8
DEFAULT_255_2_778
10
18.9094938
20
130.2233573
11
18.9094938
21
130.2236573
0
ARC
8
DEFAULT_255_2_778
10
19.1571667
20
129.435175
40
1.1701724
50
250.1393411
51
270.3226852
0
ARC
8
DEFAULT_255_2_778
10
19.1022051
20
129.2553343
40
0.9824012
50
242.0502734
51
249.5907868
0
ARC
8
DEFAULT_255_2_778
10
19.001531
20
129.0958015
40
0.794417
50
208.3292132
51
243.0715083
0
ARC
8
DEFAULT_255_2_778
10
18.9937252
20
129.0867929
40
0.7832826
50
179.5739013
51
208.0201199
0
ARC
8
DEFAULT_255_2_778
10
19.1404713
20
129.0918153
40
0.9300073
50
174.3657638
51
179.9505495
0
ARC
8
DEFAULT_255_2_778
10
19.3222378
20
129.13368
40
1.1074063
50
145.2485417
51
173.7769976
0
ARC
8
DEFAULT_255_2_778
10
19.3043239
20
129.1581177
40
1.0788028
50
116.4826416
51
145.7726174
0
ARC
8
DEFAULT_255_2_778
10
19.3348976
20
129.0884316
40
1.1548163
50
89.3335424
51
116.2986099
0
ARC
8
DEFAULT_255_2_778
10
19.3482483
20
128.8460133
40
1.3971563
50
88.7200635
51
89.9966493
0
ARC
8
DEFAULT_255_2_778
10
19.3739264
20
129.1304187
40
1.1124162
50
73.6937809
51
89.7151452
0
ARC
8
DEFAULT_255_2_778
10
19.4851962
20
129.5023827
40
0.7241771
50
40.439997
51
73.880282
0
ARC
8
DEFAULT_255_2_778
10
19.4519455
20
129.4805624
40
0.7636535
50
0.3396925
51
40.0677766
0
ARC
8
DEFAULT_255_2_778
10
19.2144824
20
129.4569788
40
1.0014977
50
359.9940332
51
1.608453
0
ARC
8
DEFAULT_255_2_778
10
19.0855644
20
129.4591523
40
1.1304181
50
353.1542739
51
359.8845474
0
ARC
8
DEFAULT_255_2_778
10
18.9436927
20
129.4736317
40
1.2730067
50
352.3796891
51
353.2683443
0
ARC
8
DEFAULT_255_2_778
10
19.1535012
20
129.0351797
40
0.3608489
50
171.5634883
51
179.9015639
0
ARC
8
DEFAULT_255_2_778
10
19.1262943
20
129.0393702
40
0.3336607
50
180.6131262
51
227.843893
0
ARC
8
DEFAULT_255_2_778
10
19.2043051
20
129.3010151
40
0.5918171
50
239.3225098
51
268.8255118
0
ARC
8
DEFAULT_255_2_778
10
19.2271512
20
129.5344016
40
0.8258202
50
267.5725716
51
270.0162941
0
ARC
8
DEFAULT_255_2_778
10
19.2268973
20
129.6181346
40
0.9095533
50
270.0307885
51
273.2244191
0
ARC
8
DEFAULT_255_2_778
10
19.2542379
20
128.9577649
40
0.2488861
50
275.4917641
51
302.3582203
0
ARC
8
DEFAULT_255_2_778
10
19.3200418
20
128.8418063
40
0.115896
50
305.561706
51
314.7657745
0
ARC
8
DEFAULT_255_2_778
10
19.3095773
20
128.8746064
40
0.1473882
50
308.6632861
51
359.3837416
0
ARC
8
DEFAULT_255_2_778
10
17.807225
20
130.5972828
40
2.962762
50
318.8021847
51
324.4102292
0
ARC
8
DEFAULT_255_2_778
10
18.7925821
20
129.7289505
40
1.6494092
50
310.4033061
51
318.953359
0
ARC
8
DEFAULT_255_2_778
10
19.3188808
20
129.1023187
40
0.831118
50
295.9312381
51
310.7744109
0
ARC
8
DEFAULT_255_2_778
10
19.4407027
20
128.8734771
40
0.5721233
50
294.3678437
51
294.9811966
0
ARC
8
DEFAULT_255_2_778
10
19.1940828
20
129.6404614
40
1.3756016
50
269.5724547
51
290.5412856
0
ARC
8
DEFAULT_255_2_778
10
19.1838577
20
129.8587488
40
1.5938505
50
269.2881822
51
269.9985732
0
ARC
8
DEFAULT_255_2_778
10
19.3390649
20
129.2721819
40
0.5598634
50
88.7931239
51
89.9984438
0
ARC
8
DEFAULT_255_2_778
10
19.3326983
20
129.3690553
40
0.463034
50
89.2102909
51
125.5845733
0
ARC
8
DEFAULT_255_2_778
10
19.4008068
20
129.2973825
40
0.5611219
50
126.9818839
51
147.669232
0
ARC
8
DEFAULT_255_2_778
10
19.876359
20
128.9776894
40
1.1340353
50
146.870707
51
156.2884785
0
ARC
8
DEFAULT_255_2_778
10
19.2333366
20
129.5558392
40
0.4293753
50
349.7481736
51
359.8266598
0
ARC
8
DEFAULT_255_2_778
10
19.2961469
20
129.5550983
40
0.3665636
50
359.9127606
51
9.1392387
0
ARC
8
DEFAULT_255_2_778
10
19.4131569
20
129.5695587
40
0.2487794
50
10.1315408
51
54.8294252
0
ARC
8
DEFAULT_255_2_778
10
19.3593417
20
129.4737413
40
0.3582778
50
56.6210187
51
91.3472693
0
LINE
8
DEFAULT_255_2_778
10
18.2149569
20
129.1831211
11
18.2213569
21
129.2537211
0
LINE
8
DEFAULT_255_2_778
10
20.2054569
20
129.3048211
11
20.1723569
21
129.0881211
0
LINE
8
DEFAULT_255_2_778
10
20.1723569
20
129.0881211
11
18.7965569
21
129.0881211
0
LINE
8
DEFAULT_255_2_778
10
19.4569569
20
128.8730211
11
20.2165569
21
128.8730211
0
LINE
8
DEFAULT_255_2_778
10
18.8380569
20
129.4337211
11
19.6434569
21
129.4337211
0
LINE
8
DEFAULT_255_2_778
10
19.6434569
20
129.4337211
11
19.6558569
21
129.4794211
0
LINE
8
DEFAULT_255_2_778
10
11.4252281
20
130.0205177
11
12.8081281
21
129.2045177
0
LINE
8
DEFAULT_255_2_778
10
12.8081281
20
129.2045177
11
11.2770281
21
128.6111177
0
LINE
8
DEFAULT_255_2_778
10
11.2770281
20
128.6111177
11
11.5979281
21
129.3281177
0
LINE
8
DEFAULT_255_2_778
10
11.5979281
20
129.3281177
11
11.4252281
21
130.0205177
0
ARC
8
DEFAULT_255_2_778
10
7.8633492
20
129.7401349
40
1.734445
50
345.0500681
51
0.450213
0
ARC
8
DEFAULT_255_2_778
10
8.1424128
20
129.6759315
40
1.4482985
50
339.8011311
51
344.6559926
0
ARC
8
DEFAULT_255_2_778
10
8.2241959
20
129.6304595
40
1.3559213
50
318.9869254
51
340.4112117
0
ARC
8
DEFAULT_255_2_778
10
8.3403786
20
129.5425223
40
1.2105876
50
317.7755753
51
318.5188915
0
ARC
8
DEFAULT_255_2_778
10
8.3677776
20
129.5166224
40
1.1728926
50
293.4453171
51
317.8130059
0
ARC
8
DEFAULT_255_2_778
10
8.3381728
20
129.5948502
40
1.2564472
50
269.4376299
51
293.2645473
0
ARC
8
DEFAULT_255_2_778
10
8.6390116
20
129.8029305
40
1.0182316
50
68.112945
51
90.7974227
0
ARC
8
DEFAULT_255_2_778
10
8.6827218
20
129.9382759
40
0.8764035
50
66.6600337
51
67.4660887
0
ARC
8
DEFAULT_255_2_778
10
8.6950616
20
129.9500129
40
0.860764
50
41.8199578
51
67.1046866
0
ARC
8
DEFAULT_255_2_778
10
8.5939144
20
129.8737866
40
0.9870277
50
18.4442061
51
41.2024761
0
ARC
8
DEFAULT_255_2_778
10
8.2913394
20
129.7701986
40
1.3068358
50
359.9236227
51
18.5554774
0
ARC
8
DEFAULT_255_2_778
10
7.9767371
20
129.7537824
40
1.6215036
50
359.9993331
51
0.5185192
0
ARC
8
DEFAULT_255_2_778
10
8.1161265
20
129.7599191
40
1.1556879
50
359.3527282
51
15.3461488
0
ARC
8
DEFAULT_255_2_778
10
8.3555709
20
129.8150091
40
0.9102591
50
15.9909101
51
17.2384514
0
ARC
8
DEFAULT_255_2_778
10
8.5215656
20
129.8784942
40
0.7329962
50
16.3441173
51
39.0583428
0
ARC
8
DEFAULT_255_2_778
10
8.6385861
20
129.9640513
40
0.5882641
50
39.7694118
51
66.0014919
0
ARC
8
DEFAULT_255_2_778
10
8.6052911
20
129.8710083
40
0.6868457
50
66.6208799
51
90.9301944
0
ARC
8
DEFAULT_255_2_778
10
8.3674619
20
129.4660777
40
0.865983
50
269.2774049
51
294.6427005
0
ARC
8
DEFAULT_255_2_778
10
8.3809787
20
129.4180801
40
0.8167574
50
295.184769
51
321.1699914
0
ARC
8
DEFAULT_255_2_778
10
8.188821
20
129.5645326
40
1.0582969
50
321.5163412
51
341.7776814
0
ARC
8
DEFAULT_255_2_778
10
7.8940618
20
129.6800931
40
1.374523
50
341.044332
51
342.4824039
0
ARC
8
DEFAULT_255_2_778
10
7.7898077
20
129.7017334
40
1.4804949
50
342.8981919
51
356.6952858
0
ARC
8
DEFAULT_255_2_778
10
7.2862441
20
129.7454849
40
1.9857973
50
356.2725814
51
0.0484329
0
LINE
8
DEFAULT_255_2_778
10
8.3258407
20
128.3384635
11
7.2765407
21
128.3141635
0
LINE
8
DEFAULT_255_2_778
10
7.2765407
20
128.3141635
11
7.7858407
21
130.8210635
0
LINE
8
DEFAULT_255_2_778
10
7.7858407
20
130.8210635
11
8.6248407
21
130.8210635
0
LINE
8
DEFAULT_255_2_778
10
9.5982407
20
129.7537635
11
9.5977407
21
129.7537635
0
LINE
8
DEFAULT_255_2_778
10
8.5941407
20
130.5577635
11
7.9962407
21
130.5397635
0
LINE
8
DEFAULT_255_2_778
10
7.9962407
20
130.5397635
11
7.6363407
21
128.5615635
0
LINE
8
DEFAULT_255_2_778
10
7.6363407
20
128.5615635
11
8.3565407
21
128.6001635
0
LINE
8
DEFAULT_255_2_778
10
9.2720407
20
129.7471635
11
9.2717407
21
129.7468635
0
ARC
8
DEFAULT_255_2_778
10
10.302374
20
129.142419
40
0.5777251
50
269.3131992
51
298.9193317
0
ARC
8
DEFAULT_255_2_778
10
10.2422898
20
129.2470114
40
0.6983333
50
299.0845099
51
323.1838183
0
ARC
8
DEFAULT_255_2_778
10
10.0730419
20
129.3709915
40
0.9081244
50
323.3206017
51
342.9705556
0
ARC
8
DEFAULT_255_2_778
10
9.9076255
20
129.4284416
40
1.0831324
50
342.6274164
51
0.2324268
0
ARC
8
DEFAULT_255_2_778
10
10.2433391
20
129.4455185
40
0.7475175
50
359.0278167
51
16.1300251
0
ARC
8
DEFAULT_255_2_778
10
10.5672449
20
129.5386392
40
0.4104922
50
16.2042834
51
41.9480466
0
ARC
8
DEFAULT_255_2_778
10
10.5796118
20
129.5304262
40
0.4070383
50
43.9719544
51
85.3997935
0
ARC
8
DEFAULT_255_2_778
10
10.5322186
20
129.2547297
40
0.686108
50
83.300847
51
90.1477804
0
ARC
8
DEFAULT_255_2_778
10
10.5219616
20
129.3594474
40
0.58145
50
89.163628
51
118.6648078
0
ARC
8
DEFAULT_255_2_778
10
10.581079
20
129.2624564
40
0.6949321
50
119.1056578
51
143.2104754
0
ARC
8
DEFAULT_255_2_778
10
10.7542438
20
129.1354766
40
0.9096571
50
143.3373192
51
162.9538381
0
ARC
8
DEFAULT_255_2_778
10
10.9180519
20
129.0784321
40
1.0830106
50
162.6089297
51
180.2167337
0
ARC
8
DEFAULT_255_2_778
10
10.590132
20
129.0616465
40
0.7551896
50
179.037255
51
196.0102976
0
ARC
8
DEFAULT_255_2_778
10
10.2623689
20
128.9681213
40
0.4143448
50
196.0798237
51
221.5429745
0
ARC
8
DEFAULT_255_2_778
10
10.2435386
20
128.9697741
40
0.4015819
50
223.501568
51
264.945498
0
ARC
8
DEFAULT_255_2_778
10
10.2934062
20
129.249923
40
0.6854906
50
262.8561454
51
270.170743
0
ARC
8
DEFAULT_255_2_778
10
10.2496801
20
129.3076733
40
0.993603
50
251.4783364
51
270.6555979
0
ARC
8
DEFAULT_255_2_778
10
10.1671823
20
129.0619369
40
0.7343883
50
228.2272369
51
251.4910714
0
ARC
8
DEFAULT_255_2_778
10
10.1298392
20
129.0112077
40
0.671704
50
202.6960886
51
227.720176
0
ARC
8
DEFAULT_255_2_778
10
10.2495562
20
129.0565656
40
0.7996635
50
179.6456167
51
202.3846702
0
ARC
8
DEFAULT_255_2_778
10
10.5173927
20
129.0727351
40
1.0675438
50
179.9999853
51
180.6023814
0
ARC
8
DEFAULT_255_2_778
10
10.5536721
20
129.079723
40
1.1038452
50
157.230675
51
180.3627006
0
ARC
8
DEFAULT_255_2_778
10
10.5843324
20
129.0701196
40
1.135837
50
135.6908415
51
157.3825693
0
ARC
8
DEFAULT_255_2_778
10
10.5546282
20
129.096815
40
1.0959349
50
113.1058727
51
135.604761
0
ARC
8
DEFAULT_255_2_778
10
10.5551078
20
129.1010049
40
1.0922713
50
89.5047522
51
113.2152626
0
ARC
8
DEFAULT_255_2_778
10
10.5759287
20
129.1979295
40
0.9953709
50
71.5130801
51
90.6550541
0
ARC
8
DEFAULT_255_2_778
10
10.6573575
20
129.4437115
40
0.7364524
50
48.2602918
51
71.4580165
0
ARC
8
DEFAULT_255_2_778
10
10.6956984
20
129.4971961
40
0.6710546
50
22.5497085
51
47.6627683
0
ARC
8
DEFAULT_255_2_778
10
10.5670556
20
129.4478328
40
0.8088011
50
359.0650515
51
22.2845409
0
ARC
8
DEFAULT_255_2_778
10
10.2767028
20
129.4285709
40
1.0990629
50
337.1812514
51
0.316152
0
ARC
8
DEFAULT_255_2_778
10
10.2412655
20
129.4391512
40
1.135837
50
315.6908415
51
337.3825693
0
ARC
8
DEFAULT_255_2_778
10
10.2631229
20
129.4211107
40
1.1075969
50
293.2336194
51
315.5688359
0
ARC
8
DEFAULT_255_2_778
10
10.268874
20
129.4004991
40
1.0863919
50
269.5873092
51
293.383724
0
LINE
8
DEFAULT_255_2_778
10
10.295449
20
128.5644354
11
10.295449
21
128.5647354
0
LINE
8
DEFAULT_255_2_778
10
10.261049
20
128.3141354
11
10.261049
21
128.3141354
0
LINE
8
DEFAULT_255_1_234
10
10.7014392
20
125.6872
11
10.2958364
21
125.6872
0
LINE
8
DEFAULT_255_1_234
10
10.2958364
20
125.6872
11
10.2958364
21
126.8566211
0
LINE
8
DEFAULT_255_1_234
10
10.2958364
20
126.8566211
11
10.6781471
21
126.8566211
0
LINE
8
DEFAULT_255_1_234
10
10.7070614
20
126.2341614
11
10.4500458
21
126.2341614
0
LINE
8
DEFAULT_255_1_234
10
10.4500458
20
126.2341614
11
10.4500458
21
125.8132983
0
LINE
8
DEFAULT_255_1_234
10
10.4500458
20
125.8132983
11
10.7046519
21
125.8132983
0
LINE
8
DEFAULT_255_1_234
10
10.4500458
20
126.7297196
11
10.4500458
21
126.3578501
0
LINE
8
DEFAULT_255_1_234
10
10.4500458
20
126.3578501
11
10.6829662
21
126.3578501
0
LINE
8
DEFAULT_255_1_234
10
10.6781471
20
126.7297196
11
10.4500458
21
126.7297196
0
ARC
8
DEFAULT_255_1_234
10
10.681918
20
126.1198901
40
0.7367406
50
82.1257326
51
90.2932599
0
ARC
8
DEFAULT_255_1_234
10
10.7208135
20
126.3917013
40
0.4621653
50
69.9044149
51
82.2857423
0
ARC
8
DEFAULT_255_1_234
10
10.7778813
20
126.5459637
40
0.2976871
50
51.1838526
51
70.0181538
0
ARC
8
DEFAULT_255_1_234
10
10.8033779
20
126.583024
40
0.2528517
50
12.1017251
51
50.4214761
0
ARC
8
DEFAULT_255_1_234
10
10.6649653
20
126.5482676
40
0.3955061
50
359.5251267
51
12.8211707
0
ARC
8
DEFAULT_255_1_234
10
10.8229579
20
126.5413344
40
0.2375281
50
323.4908128
51
0.8817314
0
ARC
8
DEFAULT_255_1_234
10
10.7811266
20
126.573655
40
0.2903817
50
298.6825083
51
323.2756573
0
ARC
8
DEFAULT_255_1_234
10
10.7449629
20
126.6337649
40
0.3604842
50
293.1999386
51
299.1396394
0
ARC
8
DEFAULT_255_1_234
10
10.8122602
20
126.0252126
40
0.2871098
50
54.0011765
51
74.9167975
0
ARC
8
DEFAULT_255_1_234
10
10.8238961
20
126.0449332
40
0.2643248
50
36.3580696
51
53.5291921
0
ARC
8
DEFAULT_255_1_234
10
10.8112203
20
126.0358998
40
0.2798884
50
4.8189881
51
36.3089977
0
ARC
8
DEFAULT_255_1_234
10
10.7333038
20
126.024927
40
0.358478
50
359.9370252
51
5.5204067
0
ARC
8
DEFAULT_255_1_234
10
10.700856
20
126.0208667
40
0.3909429
50
344.7478609
51
0.5373281
0
ARC
8
DEFAULT_255_1_234
10
10.7999531
20
125.9941544
40
0.2883093
50
311.1786488
51
344.6886812
0
ARC
8
DEFAULT_255_1_234
10
10.7707578
20
126.0304987
40
0.3348923
50
286.0418249
51
310.8441291
0
ARC
8
DEFAULT_255_1_234
10
10.720041
20
126.1951807
40
0.5071869
50
274.1042341
51
286.4071509
0
ARC
8
DEFAULT_255_1_234
10
10.7023666
20
126.3835229
40
0.6963234
50
269.9236873
51
274.445647
0
ARC
8
DEFAULT_255_1_234
10
10.7069667
20
126.1495537
40
0.3362634
50
269.6055768
51
281.3740047
0
ARC
8
DEFAULT_255_1_234
10
10.7300305
20
126.0402353
40
0.224546
50
281.1055983
51
302.5132223
0
ARC
8
DEFAULT_255_1_234
10
10.7447204
20
126.0138823
40
0.1944357
50
303.0368945
51
311.8811219
0
ARC
8
DEFAULT_255_1_234
10
10.7518611
20
126.005389
40
0.1833454
50
311.9916004
51
351.7143462
0
ARC
8
DEFAULT_255_1_234
10
10.6701841
20
126.021893
40
0.2665871
50
350.7339597
51
0.2221581
0
ARC
8
DEFAULT_255_1_234
10
10.6594287
20
126.0275467
40
0.2773789
50
359.0456241
51
17.2296242
0
ARC
8
DEFAULT_255_1_234
10
10.7633404
20
126.0584163
40
0.1689915
50
17.6685481
51
78.9940892
0
ARC
8
DEFAULT_255_1_234
10
10.7116568
20
125.8729224
40
0.3612658
50
76.5635957
51
90.6980921
0
LINE
8
DEFAULT_255_1_234
10
10.7072552
20
126.2341613
11
10.7070614
21
126.2341614
0
ARC
8
DEFAULT_255_1_234
10
10.6852228
20
126.6864036
40
0.3285612
50
269.6064736
51
281.4533503
0
ARC
8
DEFAULT_255_1_234
10
10.7075048
20
126.5812688
40
0.2210975
50
281.2041486
51
302.5148063
0
ARC
8
DEFAULT_255_1_234
10
10.7211898
20
126.5566241
40
0.1929674
50
303.021671
51
309.8369575
0
ARC
8
DEFAULT_255_1_234
10
10.7395359
20
126.5360488
40
0.1654181
50
309.5228395
51
356.9509836
0
ARC
8
DEFAULT_255_1_234
10
10.6731942
20
126.5455932
40
0.2322512
50
355.4701227
51
0.0492546
0
ARC
8
DEFAULT_255_1_234
10
10.6453033
20
126.5478094
40
0.2601498
50
359.5558597
51
11.2096359
0
ARC
8
DEFAULT_255_1_234
10
10.7410323
20
126.567623
40
0.1623975
50
10.9182341
51
31.3230275
0
ARC
8
DEFAULT_255_1_234
10
10.7696056
20
126.5835214
40
0.1297302
50
31.8852677
51
52.1412565
0
ARC
8
DEFAULT_255_1_234
10
10.7421789
20
126.544775
40
0.1771663
50
52.8285564
51
71.9850297
0
ARC
8
DEFAULT_255_1_234
10
10.7045965
20
126.4341664
40
0.2939794
50
71.6863486
51
82.8455995
0
ARC
8
DEFAULT_255_1_234
10
10.6806501
20
126.2532149
40
0.476506
50
82.6984714
51
90.1729175
0
ARC
8
DEFAULT_255_1_234
10
10.6784136
20
126.3755623
40
0.3541573
50
89.8708275
51
90.0431131
0
LINE
8
DEFAULT_255_1_234
10
12.0025808
20
125.6872
11
11.7487778
21
126.1602694
0
LINE
8
DEFAULT_255_1_234
10
11.7487778
20
126.1602694
11
11.4740924
21
126.1602694
0
LINE
8
DEFAULT_255_1_234
10
11.4740924
20
126.1602694
11
11.4740924
21
125.6872
0
LINE
8
DEFAULT_255_1_234
10
11.4740924
20
125.6872
11
11.3190798
21
125.6872
0
LINE
8
DEFAULT_255_1_234
10
11.3190798
20
125.6872
11
11.3190798
21
126.8566211
0
LINE
8
DEFAULT_255_1_234
10
11.3190798
20
126.8566211
11
11.7062096
21
126.8566211
0
LINE
8
DEFAULT_255_1_234
10
11.8933491
20
126.1931995
11
12.1680346
21
125.6968381
0
LINE
8
DEFAULT_255_1_234
10
12.1680346
20
125.6968381
11
12.1680346
21
125.6872
0
LINE
8
DEFAULT_255_1_234
10
12.1680346
20
125.6872
11
12.0025808
21
125.6872
0
LINE
8
DEFAULT_255_1_234
10
11.4740924
20
126.7297196
11
11.4740924
21
126.2863677
0
LINE
8
DEFAULT_255_1_234
10
11.4740924
20
126.2863677
11
11.7110287
21
126.2863677
0
LINE
8
DEFAULT_255_1_234
10
11.7102255
20
126.7297196
11
11.4740924
21
126.7297196
0
ARC
8
DEFAULT_255_1_234
10
11.7103736
20
126.1604761
40
0.6961575
50
80.653586
51
90.3427061
0
ARC
8
DEFAULT_255_1_234
10
11.752321
20
126.4067348
40
0.4463577
50
65.6987447
51
80.8329603
0
ARC
8
DEFAULT_255_1_234
10
11.8000851
20
126.5162322
40
0.3269094
50
50.0017161
51
65.4305835
0
ARC
8
DEFAULT_255_1_234
10
11.8219315
20
126.5457482
40
0.2902647
50
11.628416
51
49.5603263
0
ARC
8
DEFAULT_255_1_234
10
11.6683651
20
126.5082299
40
0.4482792
50
359.5655735
51
12.3691
0
ARC
8
DEFAULT_255_1_234
10
11.7760511
20
126.5019644
40
0.3405924
50
341.9983148
51
0.4822259
0
ARC
8
DEFAULT_255_1_234
10
11.8155351
20
126.4912471
40
0.2997359
50
323.8609373
51
341.61416
0
ARC
8
DEFAULT_255_1_234
10
11.7853595
20
126.5145484
40
0.3378487
50
296.7018614
51
323.6876402
0
ARC
8
DEFAULT_255_1_234
10
11.7412491
20
126.5934235
40
0.4281516
50
290.8086567
51
297.2323311
0
ARC
8
DEFAULT_255_1_234
10
11.713602
20
126.6457351
40
0.3593766
50
269.589728
51
281.8058135
0
ARC
8
DEFAULT_255_1_234
10
11.7386919
20
126.5309743
40
0.2419125
50
281.5501019
51
303.9357432
0
ARC
8
DEFAULT_255_1_234
10
11.7524107
20
126.5071936
40
0.2145323
50
304.4415616
51
311.2106213
0
ARC
8
DEFAULT_255_1_234
10
11.7656212
20
126.4932632
40
0.1953505
50
310.9875673
51
356.2715578
0
ARC
8
DEFAULT_255_1_234
10
11.6899861
20
126.5045422
40
0.2716331
50
354.9348262
51
0.0609027
0
ARC
8
DEFAULT_255_1_234
10
11.6712735
20
126.5072435
40
0.2903554
50
359.5239371
51
12.8808918
0
ARC
8
DEFAULT_255_1_234
10
11.7690291
20
126.5311728
40
0.1897315
50
12.4173452
51
43.1022135
0
ARC
8
DEFAULT_255_1_234
10
11.7751895
20
126.5348724
40
0.1827118
50
43.5751728
51
48.203944
0
ARC
8
DEFAULT_255_1_234
10
11.7582387
20
126.5127302
40
0.2105272
50
48.7809703
51
72.6969569
0
ARC
8
DEFAULT_255_1_234
10
11.7228012
20
126.405182
40
0.3237537
50
72.3702241
51
84.8791103
0
ARC
8
DEFAULT_255_1_234
10
11.7080488
20
126.2709769
40
0.4587478
50
84.5400526
51
89.7281406
0
LINE
8
DEFAULT_255_1_234
10
12.4322788
20
126.8566211
11
12.7141928
21
126.4084501
0
LINE
8
DEFAULT_255_1_234
10
12.7141928
20
126.4084501
11
12.9945004
21
126.8566211
0
LINE
8
DEFAULT_255_1_234
10
12.9945004
20
126.8566211
11
13.1760177
21
126.8566211
0
LINE
8
DEFAULT_255_1_234
10
13.1760177
20
126.8566211
11
12.8065578
21
126.2767296
0
LINE
8
DEFAULT_255_1_234
10
12.8065578
20
126.2767296
11
13.1848526
21
125.6872
0
LINE
8
DEFAULT_255_1_234
10
13.1848526
20
125.6872
11
13.001729
21
125.6872
0
LINE
8
DEFAULT_255_1_234
10
13.001729
20
125.6872
11
12.7141928
21
126.1434027
0
LINE
8
DEFAULT_255_1_234
10
12.7141928
20
126.1434027
11
12.4250502
21
125.6872
0
LINE
8
DEFAULT_255_1_234
10
12.4250502
20
125.6872
11
12.2427297
21
125.6872
0
LINE
8
DEFAULT_255_1_234
10
12.2427297
20
125.6872
11
12.6218278
21
126.2767296
0
LINE
8
DEFAULT_255_1_234
10
12.6218278
20
126.2767296
11
12.2515646
21
126.8566211
0
LINE
8
DEFAULT_255_1_234
10
12.2515646
20
126.8566211
11
12.4322788
21
126.8566211
0
LINE
8
DEFAULT_255_1_234
10
14.5470354
20
126.5184849
11
14.3920229
21
126.5184849
0
LINE
8
DEFAULT_255_1_234
10
13.6996871
20
126.0261394
11
13.8546996
21
126.0261394
0
ARC
8
DEFAULT_255_1_234
10
14.4579042
20
127.4131768
40
1.252368
50
248.9199003
51
254.1439814
0
ARC
8
DEFAULT_255_1_234
10
14.2898537
20
126.9805234
40
0.788226
50
241.633709
51
249.0064503
0
ARC
8
DEFAULT_255_1_234
10
14.1369931
20
126.7004317
40
0.4691427
50
230.498225
51
241.8087113
0
ARC
8
DEFAULT_255_1_234
10
14.0585505
20
126.6004906
40
0.3421437
50
227.4064532
51
229.9881192
0
ARC
8
DEFAULT_255_1_234
10
14.0098026
20
126.5529088
40
0.2741476
50
200.6781896
51
228.1763934
0
ARC
8
DEFAULT_255_1_234
10
14.0170337
20
126.5514077
40
0.2804109
50
179.5061581
51
199.8694617
0
ARC
8
DEFAULT_255_1_234
10
14.0161088
20
126.558821
40
0.2795204
50
132.4834203
51
181.0242172
0
ARC
8
DEFAULT_255_1_234
10
14.0756671
20
126.5025704
40
0.3612768
50
129.2532479
51
133.4242687
0
ARC
8
DEFAULT_255_1_234
10
14.090312
20
126.4805965
40
0.3875675
50
101.98776
51
128.8742646
0
ARC
8
DEFAULT_255_1_234
10
14.1301731
20
126.3084741
40
0.5642249
50
89.5906553
51
102.3169264
0
ARC
8
DEFAULT_255_1_234
10
14.1372223
20
126.3403148
40
0.5323783
50
77.2360837
51
90.3248275
0
ARC
8
DEFAULT_255_1_234
10
14.1579302
20
126.43704
40
0.4334697
50
63.837784
51
77.0809408
0
ARC
8
DEFAULT_255_1_234
10
14.1857064
20
126.4887911
40
0.3747796
50
45.9864267
51
64.1607727
0
ARC
8
DEFAULT_255_1_234
10
14.2117945
20
126.5185866
40
0.3352302
50
32.2747395
51
45.6547121
0
ARC
8
DEFAULT_255_1_234
10
14.2184386
20
126.520488
40
0.328603
50
359.6507365
51
32.6130309
0
ARC
8
DEFAULT_255_1_234
10
14.1241481
20
126.520966
40
0.2678863
50
359.469343
51
14.9832209
0
ARC
8
DEFAULT_255_1_234
10
14.1946544
20
126.5398539
40
0.1948938
50
14.9781179
51
48.2004265
0
ARC
8
DEFAULT_255_1_234
10
14.1782188
20
126.5191983
40
0.2212521
50
48.5927837
51
74.1241538
0
ARC
8
DEFAULT_255_1_234
10
14.1448677
20
126.4091248
40
0.3362561
50
73.7888341
51
86.6652678
0
ARC
8
DEFAULT_255_1_234
10
14.1346243
20
126.2883881
40
0.4573953
50
86.2640471
51
90.0526343
0
ARC
8
DEFAULT_255_1_234
10
14.1317955
20
126.3279192
40
0.4178709
50
89.6697524
51
99.2309573
0
ARC
8
DEFAULT_255_1_234
10
14.1075406
20
126.4723964
40
0.2713749
50
99.069534
51
113.7658566
0
ARC
8
DEFAULT_255_1_234
10
14.0801597
20
126.5369677
40
0.2012469
50
114.0401004
51
127.9850673
0
ARC
8
DEFAULT_255_1_234
10
14.0561161
20
126.566573
40
0.1631167
50
127.7287463
51
176.7105154
0
ARC
8
DEFAULT_255_1_234
10
14.1239879
20
126.5564693
40
0.2315392
50
175.1779447
51
180.0581938
0
ARC
8
DEFAULT_255_1_234
10
14.0396726
20
126.5552428
40
0.1472271
50
179.6142195
51
228.1246017
0
ARC
8
DEFAULT_255_1_234
10
14.0838394
20
126.5961308
40
0.2072299
50
226.5779593
51
230.8800004
0
ARC
8
DEFAULT_255_1_234
10
14.1309473
20
126.6586636
40
0.2854818
50
231.4635071
51
241.9260842
0
ARC
8
DEFAULT_255_1_234
10
14.2506651
20
126.87898
40
0.53622
50
241.7178533
51
248.3259551
0
ARC
8
DEFAULT_255_1_234
10
14.3892023
20
127.2222064
40
0.9063478
50
248.2007737
51
252.4528373
0
ARC
8
DEFAULT_255_1_234
10
14.5095748
20
127.5943441
40
1.2974635
50
252.3391078
51
254.3469452
0
ARC
8
DEFAULT_255_1_234
10
13.755345
20
124.8966148
40
1.5037162
50
71.0197183
51
74.4087047
0
ARC
8
DEFAULT_255_1_234
10
13.9248136
20
125.3858111
40
0.9859993
50
66.1847285
51
71.086374
0
ARC
8
DEFAULT_255_1_234
10
14.0804448
20
125.73622
40
0.6025855
50
59.3536294
51
66.2691831
0
ARC
8
DEFAULT_255_1_234
10
14.16931
20
125.8865609
40
0.4279449
50
49.1020879
51
59.3293958
0
ARC
8
DEFAULT_255_1_234
10
14.251184
20
125.9798834
40
0.3038015
50
32.7919921
51
49.2505539
0
ARC
8
DEFAULT_255_1_234
10
14.283293
20
126.0027191
40
0.264448
50
31.1181161
51
32.4005348
0
ARC
8
DEFAULT_255_1_234
10
14.2744468
20
125.9991779
40
0.2738556
50
8.1116974
51
30.7958831
0
ARC
8
DEFAULT_255_1_234
10
14.1934136
20
125.9853753
40
0.3560327
50
359.8389159
51
8.4706516
0
ARC
8
DEFAULT_255_1_234
10
14.2559927
20
125.9805137
40
0.2934776
50
337.4731098
51
0.7537279
0
ARC
8
DEFAULT_255_1_234
10
14.2738622
20
125.9785387
40
0.2762607
50
307.5917067
51
336.4315538
0
ARC
8
DEFAULT_255_1_234
10
14.227845
20
126.0298102
40
0.3449979
50
307.6551545
51
308.4529766
0
ARC
8
DEFAULT_255_1_234
10
14.2048169
20
126.065325
40
0.3871988
50
284.3734338
51
307.1424381
0
ARC
8
DEFAULT_255_1_234
10
14.1552999
20
126.2474932
40
0.5759636
50
272.4382747
51
284.646547
0
ARC
8
DEFAULT_255_1_234
10
14.1426208
20
126.4274893
40
0.7563528
50
269.9708387
51
272.8178037
0
ARC
8
DEFAULT_255_1_234
10
14.1383248
20
126.2236716
40
0.5525489
50
248.2707594
51
270.4055579
0
ARC
8
DEFAULT_255_1_234
10
14.1328989
20
126.2046192
40
0.5328452
50
246.1383403
51
248.0542782
0
ARC
8
DEFAULT_255_1_234
10
14.0910368
20
126.1166843
40
0.4355005
50
233.1670131
51
246.4950969
0
ARC
8
DEFAULT_255_1_234
10
14.0356273
20
126.0418812
40
0.3424126
50
215.3403242
51
233.0843104
0
ARC
8
DEFAULT_255_1_234
10
14.0083704
20
126.0220549
40
0.3087104
50
179.2419209
51
215.2648451
0
ARC
8
DEFAULT_255_1_234
10
14.0851298
20
126.0234666
40
0.2304457
50
179.335461
51
199.1045811
0
ARC
8
DEFAULT_255_1_234
10
14.0518974
20
126.0147766
40
0.1962176
50
199.8828939
51
232.7063202
0
ARC
8
DEFAULT_255_1_234
10
14.0991243
20
126.0741788
40
0.2720938
50
232.3738199
51
255.5136649
0
ARC
8
DEFAULT_255_1_234
10
14.1332109
20
126.1985835
40
0.4010747
50
255.2446292
51
267.5320849
0
ARC
8
DEFAULT_255_1_234
10
14.1419733
20
126.3218702
40
0.5246356
50
267.1557994
51
270.0286766
0
ARC
8
DEFAULT_255_1_234
10
14.1447505
20
126.277495
40
0.4802668
50
269.7000017
51
278.1660162
0
ARC
8
DEFAULT_255_1_234
10
14.170351
20
126.1044515
40
0.3053425
50
278.0231263
51
290.625471
0
ARC
8
DEFAULT_255_1_234
10
14.2051197
20
126.0117025
40
0.206291
50
290.6619762
51
307.0370976
0
ARC
8
DEFAULT_255_1_234
10
14.2351586
20
125.9748504
40
0.1587906
50
306.3943566
51
355.3030547
0
ARC
8
DEFAULT_255_1_234
10
14.1839518
20
125.9825113
40
0.2104809
50
354.3660432
51
0.0698737
0
ARC
8
DEFAULT_255_1_234
10
14.1981863
20
125.9847617
40
0.1962563
50
359.417946
51
16.1971788
0
ARC
8
DEFAULT_255_1_234
10
14.2437173
20
125.9972418
40
0.149053
50
16.4723299
51
52.6262157
0
ARC
8
DEFAULT_255_1_234
10
14.1616227
20
125.8888433
40
0.2850296
50
52.7386432
51
62.4979148
0
ARC
8
DEFAULT_255_1_234
10
14.0231304
20
125.6282283
40
0.5801521
50
62.2515216
51
68.1220564
0
ARC
8
DEFAULT_255_1_234
10
13.8511215
20
125.2054872
40
1.0365451
50
68.0062803
51
71.8053402
0
ARC
8
DEFAULT_255_1_234
10
13.6715586
20
124.6669758
40
1.6042013
50
71.7183119
51
73.9258742
0
LINE
8
DEFAULT_255_1_234
10
14.6859845
20
126.0976218
11
14.6859845
21
126.1249297
0
LINE
8
DEFAULT_255_1_234
10
15.4232981
20
126.1409932
11
15.4232981
21
126.0791488
0
LINE
8
DEFAULT_255_1_234
10
15.4232981
20
126.0791488
11
14.8345717
21
126.0791488
0
LINE
8
DEFAULT_255_1_234
10
15.321295
20
125.9096792
11
15.4120537
21
125.8389999
0
LINE
8
DEFAULT_255_1_234
10
14.8393907
20
126.2012313
11
15.2747109
21
126.2012313
0
LINE
8
DEFAULT_255_1_234
10
15.2747109
20
126.2012313
11
15.2747109
21
126.2124757
0
ARC
8
DEFAULT_255_1_234
10
15.079921
20
126.1087332
40
0.4376191
50
252.3266134
51
270.5810217
0
ARC
8
DEFAULT_255_1_234
10
15.0594299
20
126.0346644
40
0.3608374
50
223.3000567
51
251.8561855
0
ARC
8
DEFAULT_255_1_234
10
15.080566
20
126.0551937
40
0.3902993
50
190.9374509
51
223.3654032
0
ARC
8
DEFAULT_255_1_234
10
15.2530632
20
126.0941885
40
0.5670891
50
179.6531105
51
191.4989439
0
ARC
8
DEFAULT_255_1_234
10
15.2652645
20
126.1281417
40
0.5792888
50
167.4007466
51
180.3176909
0
ARC
8
DEFAULT_255_1_234
10
15.1600706
20
126.1503885
40
0.471777
50
154.1835823
51
167.250763
0
ARC
8
DEFAULT_255_1_234
10
15.0969174
20
126.1836417
40
0.4004528
50
134.3149965
51
154.5315275
0
ARC
8
DEFAULT_255_1_234
10
15.0751669
20
126.2027228
40
0.371612
50
122.8616532
51
133.9707695
0
ARC
8
DEFAULT_255_1_234
10
15.0648243
20
126.2249703
40
0.3473289
50
89.8249009
51
123.4199222
0
ARC
8
DEFAULT_255_1_234
10
15.0698284
20
126.1602967
40
0.4120197
50
74.7876118
51
90.5482747
0
ARC
8
DEFAULT_255_1_234
10
15.0992027
20
126.268803
40
0.2996077
50
39.8178249
51
74.7633718
0
ARC
8
DEFAULT_255_1_234
10
15.0479347
20
126.2288351
40
0.3645855
50
16.8990863
51
39.4829761
0
ARC
8
DEFAULT_255_1_234
10
14.8584644
20
126.1681526
40
0.5635218
50
4.9636328
51
17.2026414
0
ARC
8
DEFAULT_255_1_234
10
14.6166714
20
126.142634
40
0.8066286
50
359.8834553
51
5.2834307
0
ARC
8
DEFAULT_255_1_234
10
15.2204238
20
126.0857803
40
0.3859091
50
180.9846213
51
194.9401313
0
ARC
8
DEFAULT_255_1_234
10
15.1154516
20
126.0570849
40
0.2770883
50
194.80314
51
222.0412631
0
ARC
8
DEFAULT_255_1_234
10
15.0850398
20
126.0269116
40
0.2343055
50
221.5417084
51
268.8614402
0
ARC
8
DEFAULT_255_1_234
10
15.0923393
20
126.0945686
40
0.3021528
50
267.732405
51
270.0097136
0
ARC
8
DEFAULT_255_1_234
10
15.0941203
20
126.1147105
40
0.3222994
50
269.6924892
51
280.4117579
0
ARC
8
DEFAULT_255_1_234
10
15.1117609
20
126.0228193
40
0.2287344
50
280.2255091
51
298.6338936
0
ARC
8
DEFAULT_255_1_234
10
15.1234401
20
125.9984223
40
0.2017294
50
299.0430333
51
300.4643464
0
ARC
8
DEFAULT_255_1_234
10
15.0554407
20
126.1118038
40
0.3339357
50
300.6577328
51
322.0378878
0
ARC
8
DEFAULT_255_1_234
10
15.0203946
20
126.1422021
40
0.3802736
50
321.6750233
51
322.3046845
0
ARC
8
DEFAULT_255_1_234
10
15.1134907
20
126.025537
40
0.3520454
50
276.9728461
51
328.0035423
0
ARC
8
DEFAULT_255_1_234
10
15.085796
20
126.1735841
40
0.5024498
50
269.8361028
51
278.0581756
0
ARC
8
DEFAULT_255_1_234
10
15.0630698
20
126.2480757
40
0.202159
50
89.2018686
51
117.2851756
0
ARC
8
DEFAULT_255_1_234
10
15.0683867
20
126.2438752
40
0.2083484
50
118.0551165
51
137.4540413
0
ARC
8
DEFAULT_255_1_234
10
15.1058607
20
126.2098304
40
0.2589774
50
137.5109581
51
158.8516286
0
ARC
8
DEFAULT_255_1_234
10
15.2196442
20
126.1639074
40
0.38167
50
158.5845963
51
170.1721436
0
ARC
8
DEFAULT_255_1_234
10
15.3365831
20
126.1406823
40
0.5008657
50
169.8376422
51
173.0566086
0
ARC
8
DEFAULT_255_1_234
10
14.8668905
20
126.1917509
40
0.4083467
50
2.9091802
51
12.8847116
0
ARC
8
DEFAULT_255_1_234
10
15.0039582
20
126.2240101
40
0.2675383
50
12.6957781
51
28.6404489
0
ARC
8
DEFAULT_255_1_234
10
15.0581253
20
126.2520458
40
0.2065654
50
29.0169854
51
41.1487595
0
ARC
8
DEFAULT_255_1_234
10
15.0784038
20
126.2697003
40
0.1796786
50
41.1646065
51
85.0013516
0
ARC
8
DEFAULT_255_1_234
10
15.0663134
20
126.1962431
40
0.2539726
50
83.7280015
51
90.0964893
0
LINE
8
DEFAULT_255_1_234
10
16.0152372
20
126.5610531
11
16.0152372
21
126.4229072
0
LINE
8
DEFAULT_255_1_234
10
15.7437645
20
126.3040375
11
15.7437645
21
125.6872
0
LINE
8
DEFAULT_255_1_234
10
15.7437645
20
125.6872
11
15.5951773
21
125.6872
0
LINE
8
DEFAULT_255_1_234
10
15.5951773
20
125.6872
11
15.5951773
21
126.5562341
0
LINE
8
DEFAULT_255_1_234
10
15.5951773
20
126.5562341
11
15.7397486
21
126.5562341
0
LINE
8
DEFAULT_255_1_234
10
15.7397486
20
126.5562341
11
15.7421581
21
126.4558374
0
ARC
8
DEFAULT_255_1_234
10
15.9485778
20
126.0169342
40
0.4114092
50
80.6754243
51
86.8932892
0
ARC
8
DEFAULT_255_1_234
10
15.9425312
20
125.92017
40
0.5083596
50
86.8038578
51
90.0431435
0
ARC
8
DEFAULT_255_1_234
10
15.9388293
20
126.1658866
40
0.2626638
50
89.2759698
51
106.6213787
0
ARC
8
DEFAULT_255_1_234
10
15.9183857
20
126.240183
40
0.1856317
50
107.1346045
51
157.6458115
0
ARC
8
DEFAULT_255_1_234
10
15.9875458
20
126.2018311
40
0.2643398
50
155.6586782
51
157.2539184
0
ARC
8
DEFAULT_255_1_234
10
15.967066
20
126.3187157
40
0.2634121
50
127.8165941
51
148.6302098
0
ARC
8
DEFAULT_255_1_234
10
15.9417129
20
126.3447218
40
0.2273596
50
91.3329982
51
126.7875809
0
ARC
8
DEFAULT_255_1_234
10
15.949307
20
126.2732195
40
0.299078
50
89.986594
51
92.4688449
0
ARC
8
DEFAULT_255_1_234
10
15.9501465
20
126.3007078
40
0.2715908
50
85.3589899
51
90.1623399
0
ARC
8
DEFAULT_255_1_234
10
15.958598
20
126.4011164
40
0.1708278
50
78.401942
51
85.4594656
0
ARC
8
DEFAULT_255_1_234
10
15.9730864
20
126.4702236
40
0.1002194
50
67.7858312
51
78.5728455
0
ARC
8
DEFAULT_255_1_234
10
15.9838717
20
126.4981887
40
0.0702548
50
63.4835954
51
67.3062642
0
LINE
8
DEFAULT_255_1_234
10
16.3132147
20
126.5562341
11
16.3132147
21
125.6872
0
LINE
8
DEFAULT_255_1_234
10
16.3132147
20
125.6872
11
16.1646275
21
125.6872
0
LINE
8
DEFAULT_255_1_234
10
16.1646275
20
125.6872
11
16.1646275
21
126.5562341
0
LINE
8
DEFAULT_255_1_234
10
16.1646275
20
126.5562341
11
16.3132147
21
126.5562341
0
ARC
8
DEFAULT_255_1_234
10
16.2504424
20
126.7876889
40
0.097867
50
161.415052
51
180.5526306
0
ARC
8
DEFAULT_255_1_234
10
16.2380202
20
126.7911077
40
0.0850062
50
138.1827368
51
160.9307106
0
ARC
8
DEFAULT_255_1_234
10
16.2270148
20
126.8006588
40
0.0704362
50
104.6368899
51
138.0039868
0
ARC
8
DEFAULT_255_1_234
10
16.2377303
20
126.7639963
40
0.1086221
50
92.0600725
51
105.2189128
0
ARC
8
DEFAULT_255_1_234
10
16.2400651
20
126.7297117
40
0.1429728
50
89.9756393
51
92.5012496
0
ARC
8
DEFAULT_255_1_234
10
16.241067
20
126.7522731
40
0.1204151
50
78.0235316
51
90.4478182
0
ARC
8
DEFAULT_255_1_234
10
16.2502762
20
126.7936295
40
0.0780493
50
55.051506
51
78.3369085
0
ARC
8
DEFAULT_255_1_234
10
16.2553037
20
126.8020711
40
0.0682538
50
42.0501187
51
54.4513741
0
ARC
8
DEFAULT_255_1_234
10
16.2417904
20
126.7896798
40
0.0865878
50
1.7497075
51
42.1496013
0
ARC
8
DEFAULT_255_1_234
10
16.2163237
20
126.7867738
40
0.1121515
50
359.9852656
51
2.8364544
0
ARC
8
DEFAULT_255_1_234
10
16.2329229
20
126.7858229
40
0.0955566
50
342.1070653
51
0.552888
0
ARC
8
DEFAULT_255_1_234
10
16.2471926
20
126.7818904
40
0.0807713
50
316.7107116
51
341.6516965
0
ARC
8
DEFAULT_255_1_234
10
16.2538963
20
126.7758823
40
0.0717724
50
285.4397031
51
316.5324284
0
ARC
8
DEFAULT_255_1_234
10
16.242888
20
126.8124554
40
0.1099597
50
272.3547054
51
285.8953117
0
ARC
8
DEFAULT_255_1_234
10
16.2402038
20
126.8490048
40
0.1465932
50
269.9695369
51
272.8160237
0
ARC
8
DEFAULT_255_1_234
10
16.239222
20
126.8270863
40
0.1246779
50
258.8431134
51
270.4153935
0
ARC
8
DEFAULT_255_1_234
10
16.2302262
20
126.7835414
40
0.0802162
50
238.5431189
51
259.1288175
0
ARC
8
DEFAULT_255_1_234
10
16.2234147
20
126.7711856
40
0.0661247
50
222.5062634
51
237.9906969
0
ARC
8
DEFAULT_255_1_234
10
16.2361734
20
126.7827889
40
0.0833707
50
184.1069131
51
222.460413
0
ARC
8
DEFAULT_255_1_234
10
16.2630975
20
126.7866349
40
0.1105176
50
179.9429482
51
185.0960898
0
LINE
8
DEFAULT_255_1_234
10
16.513205
20
126.0976218
11
16.513205
21
126.1249297
0
LINE
8
DEFAULT_255_1_234
10
17.2505186
20
126.1409932
11
17.2505186
21
126.0791488
0
LINE
8
DEFAULT_255_1_234
10
17.2505186
20
126.0791488
11
16.6617921
21
126.0791488
0
LINE
8
DEFAULT_255_1_234
10
17.1485155
20
125.9096792
11
17.2392741
21
125.8389999
0
LINE
8
DEFAULT_255_1_234
10
16.6666112
20
126.2012313
11
17.1019314
21
126.2012313
0
LINE
8
DEFAULT_255_1_234
10
17.1019314
20
126.2012313
11
17.1019314
21
126.2124757
0
ARC
8
DEFAULT_255_1_234
10
16.9071415
20
126.1087332
40
0.4376191
50
252.3266134
51
270.5810217
0
ARC
8
DEFAULT_255_1_234
10
16.8866504
20
126.0346644
40
0.3608374
50
223.3000567
51
251.8561855
0
ARC
8
DEFAULT_255_1_234
10
16.9077865
20
126.0551937
40
0.3902993
50
190.9374509
51
223.3654032
0
ARC
8
DEFAULT_255_1_234
10
17.0802837
20
126.0941885
40
0.5670891
50
179.6531105
51
191.4989439
0
ARC
8
DEFAULT_255_1_234
10
17.0924849
20
126.1281417
40
0.5792888
50
167.4007466
51
180.3176909
0
ARC
8
DEFAULT_255_1_234
10
16.9872911
20
126.1503885
40
0.471777
50
154.1835823
51
167.250763
0
ARC
8
DEFAULT_255_1_234
10
16.9241378
20
126.1836417
40
0.4004528
50
134.3149965
51
154.5315275
0
ARC
8
DEFAULT_255_1_234
10
16.9023873
20
126.2027228
40
0.371612
50
122.8616532
51
133.9707695
0
ARC
8
DEFAULT_255_1_234
10
16.8920447
20
126.2249703
40
0.3473289
50
89.8249009
51
123.4199222
0
ARC
8
DEFAULT_255_1_234
10
16.8970488
20
126.1602967
40
0.4120197
50
74.7876118
51
90.5482747
0
ARC
8
DEFAULT_255_1_234
10
16.9264232
20
126.268803
40
0.2996077
50
39.8178249
51
74.7633718
0
ARC
8
DEFAULT_255_1_234
10
16.8751552
20
126.2288351
40
0.3645855
50
16.8990863
51
39.4829761
0
ARC
8
DEFAULT_255_1_234
10
16.6856848
20
126.1681526
40
0.5635218
50
4.9636328
51
17.2026414
0
ARC
8
DEFAULT_255_1_234
10
16.4438918
20
126.142634
40
0.8066286
50
359.8834553
51
5.2834307
0
ARC
8
DEFAULT_255_1_234
10
17.0476443
20
126.0857803
40
0.3859091
50
180.9846213
51
194.9401313
0
ARC
8
DEFAULT_255_1_234
10
16.9426721
20
126.0570849
40
0.2770883
50
194.80314
51
222.0412631
0
ARC
8
DEFAULT_255_1_234
10
16.9122603
20
126.0269116
40
0.2343055
50
221.5417084
51
268.8614402
0
ARC
8
DEFAULT_255_1_234
10
16.9195597
20
126.0945686
40
0.3021528
50
267.732405
51
270.0097136
0
ARC
8
DEFAULT_255_1_234
10
16.9213407
20
126.1147105
40
0.3222994
50
269.6924892
51
280.4117579
0
ARC
8
DEFAULT_255_1_234
10
16.9389814
20
126.0228193
40
0.2287344
50
280.2255091
51
298.6338936
0
ARC
8
DEFAULT_255_1_234
10
16.9506606
20
125.9984223
40
0.2017294
50
299.0430333
51
300.4643464
0
ARC
8
DEFAULT_255_1_234
10
16.8826611
20
126.1118038
40
0.3339357
50
300.6577328
51
322.0378878
0
ARC
8
DEFAULT_255_1_234
10
16.8476151
20
126.1422021
40
0.3802736
50
321.6750233
51
322.3046845
0
ARC
8
DEFAULT_255_1_234
10
16.9407112
20
126.025537
40
0.3520454
50
276.9728461
51
328.0035423
0
ARC
8
DEFAULT_255_1_234
10
16.9130165
20
126.1735841
40
0.5024498
50
269.8361028
51
278.0581756
0
ARC
8
DEFAULT_255_1_234
10
16.8902902
20
126.2480757
40
0.202159
50
89.2018686
51
117.2851756
0
ARC
8
DEFAULT_255_1_234
10
16.8956071
20
126.2438752
40
0.2083484
50
118.0551165
51
137.4540413
0
ARC
8
DEFAULT_255_1_234
10
16.9330811
20
126.2098304
40
0.2589774
50
137.5109581
51
158.8516286
0
ARC
8
DEFAULT_255_1_234
10
17.0468647
20
126.1639074
40
0.38167
50
158.5845963
51
170.1721436
0
ARC
8
DEFAULT_255_1_234
10
17.1638036
20
126.1406823
40
0.5008657
50
169.8376422
51
173.0566086
0
ARC
8
DEFAULT_255_1_234
10
16.694111
20
126.1917509
40
0.4083467
50
2.9091802
51
12.8847116
0
ARC
8
DEFAULT_255_1_234
10
16.8311786
20
126.2240101
40
0.2675383
50
12.6957781
51
28.6404489
0
ARC
8
DEFAULT_255_1_234
10
16.8853457
20
126.2520458
40
0.2065654
50
29.0169854
51
41.1487595
0
ARC
8
DEFAULT_255_1_234
10
16.9056242
20
126.2697003
40
0.1796786
50
41.1646065
51
85.0013516
0
ARC
8
DEFAULT_255_1_234
10
16.8935339
20
126.1962431
40
0.2539726
50
83.7280015
51
90.0964893
0
LINE
8
DEFAULT_255_1_234
10
18.0689527
20
126.3008248
11
17.9195624
21
126.3008248
0
LINE
8
DEFAULT_255_1_234
10
17.3862549
20
125.9546569
11
17.5348421
21
125.9546569
0
ARC
8
DEFAULT_255_1_234
10
17.8007442
20
125.9191959
40
0.1276617
50
359.3334982
51
18.5871358
0
ARC
8
DEFAULT_255_1_234
10
17.8216079
20
125.9247133
40
0.1061371
50
19.3540742
51
54.6485071
0
ARC
8
DEFAULT_255_1_234
10
17.7711981
20
125.8551919
40
0.1920087
50
54.3827097
51
65.0622807
0
ARC
8
DEFAULT_255_1_234
10
17.6943378
20
125.69349
40
0.3710447
50
64.8282493
51
71.4200025
0
ARC
8
DEFAULT_255_1_234
10
17.6041253
20
125.4288107
40
0.6506741
50
71.3164301
51
75.8006402
0
ARC
8
DEFAULT_255_1_234
10
17.5200073
20
125.1047561
40
0.9854641
50
75.6809531
51
78.0061883
0
ARC
8
DEFAULT_255_1_234
10
17.9648606
20
127.202677
40
1.1591028
50
254.6901892
51
258.0466452
0
ARC
8
DEFAULT_255_1_234
10
17.8610515
20
126.8267781
40
0.7691345
50
249.9010773
51
254.755261
0
ARC
8
DEFAULT_255_1_234
10
17.7606857
20
126.5541982
40
0.478665
50
243.3097214
51
249.9709442
0
ARC
8
DEFAULT_255_1_234
10
17.6977878
20
126.4287778
40
0.3383568
50
234.4047477
51
243.2862168
0
ARC
8
DEFAULT_255_1_234
10
17.6355401
20
126.3428232
40
0.2322322
50
220.8667099
51
234.5493881
0
ARC
8
DEFAULT_255_1_234
10
17.6013342
20
126.3116817
40
0.1859923
50
214.3062465
51
220.5065136
0
ARC
8
DEFAULT_255_1_234
10
17.5987422
20
126.308588
40
0.1821108
50
186.912965
51
213.9618616
0
ARC
8
DEFAULT_255_1_234
10
17.6519516
20
126.3172009
40
0.2359799
50
179.8808832
51
187.4339886
0
ARC
8
DEFAULT_255_1_234
10
17.636465
20
126.3192088
40
0.2204978
50
132.005434
51
180.3942919
0
ARC
8
DEFAULT_255_1_234
10
17.7021263
20
126.2586083
40
0.3095791
50
129.2319861
51
133.5302299
0
ARC
8
DEFAULT_255_1_234
10
17.7074771
20
126.2491928
40
0.3202615
50
100.4410011
51
128.9081242
0
ARC
8
DEFAULT_255_1_234
10
17.7348655
20
126.1206455
40
0.4516583
50
89.6985377
51
100.9026564
0
ARC
8
DEFAULT_255_1_234
10
17.7405697
20
126.1046166
40
0.4676928
50
77.6965325
51
90.4076836
0
ARC
8
DEFAULT_255_1_234
10
17.7736681
20
126.2473413
40
0.3211988
50
50.7276602
51
78.0399361
0
ARC
8
DEFAULT_255_1_234
10
17.818114
20
126.2991296
40
0.2529778
50
25.7545084
51
51.0957453
0
ARC
8
DEFAULT_255_1_234
10
17.8182364
20
126.3041206
40
0.250738
50
359.2468627
51
24.7394243
0
ARC
8
DEFAULT_255_1_234
10
17.7897816
20
126.3012664
40
0.1297815
50
359.8050318
51
45.1544908
0
ARC
8
DEFAULT_255_1_234
10
17.7490958
20
126.2664794
40
0.1831883
50
43.8047702
51
49.6271585
0
ARC
8
DEFAULT_255_1_234
10
17.749886
20
126.2665678
40
0.18261
50
49.7980766
51
82.1218353
0
ARC
8
DEFAULT_255_1_234
10
17.7379831
20
126.2018998
40
0.2483163
50
81.4465357
51
90.1710293
0
ARC
8
DEFAULT_255_1_234
10
17.7355434
20
126.149288
40
0.300932
50
89.6766211
51
99.1264602
0
ARC
8
DEFAULT_255_1_234
10
17.7183896
20
126.2526537
40
0.1961547
50
98.968313
51
113.4570237
0
ARC
8
DEFAULT_255_1_234
10
17.6987981
20
126.2994965
40
0.1453859
50
113.722589
51
127.4763106
0
ARC
8
DEFAULT_255_1_234
10
17.6819627
20
126.3195124
40
0.1192639
50
126.9083309
51
150.3165862
0
ARC
8
DEFAULT_255_1_234
10
17.677196
20
126.3245981
40
0.112623
50
151.3635175
51
180.0701457
0
ARC
8
DEFAULT_255_1_234
10
17.7080745
20
126.322499
40
0.1435149
50
179.2169974
51
179.9954013
0
ARC
8
DEFAULT_255_1_234
10
17.6719802
20
126.3212056
40
0.1074286
50
179.3040112
51
198.4225446
0
ARC
8
DEFAULT_255_1_234
10
17.6527936
20
126.3162127
40
0.0876573
50
199.2895851
51
238.6034594
0
ARC
8
DEFAULT_255_1_234
10
17.7130782
20
126.410845
40
0.1998512
50
237.9846301
51
246.8744712
0
ARC
8
DEFAULT_255_1_234
10
17.7988727
20
126.6071205
40
0.4140547
50
246.6234531
51
251.8168941
0
ARC
8
DEFAULT_255_1_234
10
17.9019271
20
126.9165905
40
0.7402308
50
251.713434
51
255.0778414
0
ARC
8
DEFAULT_255_1_234
10
18.0218533
20
127.3632563
40
1.2027155
50
255.0367487
51
257.4705983
0
ARC
8
DEFAULT_255_1_234
10
17.5110543
20
125.0618863
40
1.1546601
50
73.6837552
51
77.5016755
0
ARC
8
DEFAULT_255_1_234
10
17.6199318
20
125.4318581
40
0.7690009
50
68.7044154
51
73.7249639
0
ARC
8
DEFAULT_255_1_234
10
17.7102339
20
125.6645654
40
0.5193873
50
63.590599
51
68.6626804
0
ARC
8
DEFAULT_255_1_234
10
17.7873358
20
125.8183123
40
0.3473927
50
54.7106439
51
63.7013633
0
ARC
8
DEFAULT_255_1_234
10
17.8497812
20
125.90554
40
0.2401192
50
41.0622434
51
54.8487496
0
ARC
8
DEFAULT_255_1_234
10
17.8839199
20
125.9368592
40
0.1938094
50
34.4950568
51
40.7105546
0
ARC
8
DEFAULT_255_1_234
10
17.8886006
20
125.9417078
40
0.1872106
50
9.3763373
51
34.0833615
0
ARC
8
DEFAULT_255_1_234
10
17.8232876
20
125.9291728
40
0.2536988
50
359.7694872
51
9.7663171
0
ARC
8
DEFAULT_255_1_234
10
17.8430377
20
125.9248764
40
0.2339696
50
335.8654732
51
0.8022045
0
ARC
8
DEFAULT_255_1_234
10
17.8505422
20
125.9262197
40
0.2277108
50
307.7357725
51
334.7849066
0
ARC
8
DEFAULT_255_1_234
10
17.8104597
20
125.9712645
40
0.2878951
50
307.0241536
51
308.5578354
0
ARC
8
DEFAULT_255_1_234
10
17.7846929
20
126.0098801
40
0.3342515
50
282.9362969
51
306.5646424
0
ARC
8
DEFAULT_255_1_234
10
17.7485226
20
126.1566108
40
0.4853615
50
271.1026298
51
283.2200835
0
ARC
8
DEFAULT_255_1_234
10
17.742147
20
126.2807418
40
0.6096052
50
269.9919117
51
271.4772449
0
ARC
8
DEFAULT_255_1_234
10
17.7395225
20
126.1729436
40
0.5018135
50
259.0723564
51
270.289833
0
ARC
8
DEFAULT_255_1_234
10
17.7182957
20
126.0612271
40
0.388099
50
245.4963068
51
259.0227342
0
ARC
8
DEFAULT_255_1_234
10
17.6904914
20
126.0030615
40
0.3236422
50
228.9684658
51
245.7044727
0
ARC
8
DEFAULT_255_1_234
10
17.6639357
20
125.9703575
40
0.2815426
50
214.4011705
51
228.6759915
0
ARC
8
DEFAULT_255_1_234
10
17.6350098
20
125.954529
40
0.2487548
50
179.9705531
51
215.1572795
0
ARC
8
DEFAULT_255_1_234
10
17.7050698
20
125.9618806
40
0.1703809
50
182.4299387
51
203.0329699
0
ARC
8
DEFAULT_255_1_234
10
17.6866355
20
125.9562396
40
0.1512226
50
203.798802
51
232.548466
0
ARC
8
DEFAULT_255_1_234
10
17.7142877
20
125.9913826
40
0.1959374
50
232.3782728
51
256.3934612
0
ARC
8
DEFAULT_255_1_234
10
17.7373238
20
126.0803842
40
0.2878639
50
256.104506
51
268.4626716
0
ARC
8
DEFAULT_255_1_234
10
17.7419723
20
126.1600487
40
0.3676329
50
268.0715632
51
270.0138206
0
ARC
8
DEFAULT_255_1_234
10
17.7438247
20
126.1328083
40
0.3403971
50
269.7031147
51
278.8341955
0
ARC
8
DEFAULT_255_1_234
10
17.7620341
20
126.0197876
40
0.2259217
50
278.6728789
51
292.8232582
0
ARC
8
DEFAULT_255_1_234
10
17.7820879
20
125.9696449
40
0.171929
50
293.1452328
51
303.6655899
0
ARC
8
DEFAULT_255_1_234
10
17.8085758
20
125.9320204
40
0.1259367
50
303.1248165
51
321.742847
0
ARC
8
DEFAULT_255_1_234
10
17.8271638
20
125.9157156
40
0.1012531
50
322.4748573
51
1.1291126
0
LINE
8
DEFAULT_255_2_778
10
9.3932417
20
116.2843985
11
10.7161417
21
116.2843985
0
LINE
8
DEFAULT_255_2_778
10
10.7161417
20
116.2843985
11
10.7161417
21
63.3676985
0
LINE
8
DEFAULT_255_2_778
10
10.7161417
20
58.0760985
11
10.7161417
21
5.1593985
0
LINE
8
DEFAULT_255_2_778
10
10.7161417
20
5.1593985
11
9.3932417
21
5.1593985
0
LINE
8
DEFAULT_255_2_778
10
9.3932834
20
63.3677333
11
12.0390834
21
63.3677333
0
LINE
8
DEFAULT_255_2_778
10
12.0390834
20
63.3677333
11
12.0390834
21
58.0760333
0
LINE
8
DEFAULT_255_2_778
10
12.0390834
20
58.0760333
11
9.3932834
21
58.0760333
0
LINE
8
DEFAULT_255_2_778
10
9.3932834
20
58.0760333
11
9.3932834
21
63.3677333
0
LINE
8
DEFAULT_255_2_778
10
10.187
20
58.6052666
11
10.187
21
62.8385666
0
LINE
8
DEFAULT_255_2_778
10
9.9224167
20
62.044875
11
10.1870167
21
62.838575
0
LINE
8
DEFAULT_255_2_778
10
10.1870167
20
62.838575
11
10.4516167
21
62.044875
0
LINE
8
DEFAULT_255_2_778
10
10.4516167
20
62.044875
11
9.9224167
21
62.044875
0
LINE
8
DEFAULT_255_2_778
10
11.2453
20
62.8385666
11
11.2453
21
58.6052666
0
LINE
8
DEFAULT_255_2_778
10
10.9807167
20
59.398975
11
11.2453167
21
58.605275
0
LINE
8
DEFAULT_255_2_778
10
11.2453167
20
58.605275
11
11.5099167
21
59.398975
0
LINE
8
DEFAULT_255_2_778
10
11.5099167
20
59.398975
11
10.9807167
21
59.398975
0
LINE
8
DEFAULT_255_2_778
10
19.9765417
20
116.2843987
11
18.6536417
21
116.2843987
0
LINE
8
DEFAULT_255_2_778
10
18.6536417
20
116.2843987
11
18.6536417
21
71.3051987
0
LINE
8
DEFAULT_255_2_778
10
18.6536417
20
66.0135987
11
18.6536417
21
21.0343987
0
LINE
8
DEFAULT_255_2_778
10
18.6536417
20
21.0343987
11
19.9765417
21
21.0343987
0
LINE
8
DEFAULT_255_2_778
10
17.3307834
20
71.3052333
11
19.9765834
21
71.3052333
0
LINE
8
DEFAULT_255_2_778
10
19.9765834
20
71.3052333
11
19.9765834
21
66.0135333
0
LINE
8
DEFAULT_255_2_778
10
19.9765834
20
66.0135333
11
17.3307834
21
66.0135333
0
LINE
8
DEFAULT_255_2_778
10
17.3307834
20
66.0135333
11
17.3307834
21
71.3052333
0
LINE
8
DEFAULT_255_2_778
10
18.1245
20
66.5427666
11
18.1245
21
70.7760666
0
LINE
8
DEFAULT_255_2_778
10
17.8599167
20
69.982375
11
18.1245167
21
70.776075
0
LINE
8
DEFAULT_255_2_778
10
18.1245167
20
70.776075
11
18.3891167
21
69.982375
0
LINE
8
DEFAULT_255_2_778
10
18.3891167
20
69.982375
11
17.8599167
21
69.982375
0
LINE
8
DEFAULT_255_2_778
10
19.1828
20
70.7760666
11
19.1828
21
66.5427666
0
LINE
8
DEFAULT_255_2_778
10
18.9182167
20
67.336475
11
19.1828167
21
66.542775
0
LINE
8
DEFAULT_255_2_778
10
19.1828167
20
66.542775
11
19.4474167
21
67.336475
0
LINE
8
DEFAULT_255_2_778
10
19.4474167
20
67.336475
11
18.9182167
21
67.336475
0
LINE
8
DEFAULT_255_1_234
10
4.6865344
20
124.1607091
11
4.4110458
21
124.1607091
0
LINE
8
DEFAULT_255_1_234
10
4.4110458
20
124.1607091
11
4.4110458
21
123.7029
0
LINE
8
DEFAULT_255_1_234
10
4.4110458
20
123.7029
11
4.2568364
21
123.7029
0
LINE
8
DEFAULT_255_1_234
10
4.2568364
20
123.7029
11
4.2568364
21
124.8723211
0
LINE
8
DEFAULT_255_1_234
10
4.2568364
20
124.8723211
11
4.6881407
21
124.8723211
0
LINE
8
DEFAULT_255_1_234
10
4.4110458
20
124.7454196
11
4.4110458
21
124.2868074
0
LINE
8
DEFAULT_255_1_234
10
4.4110458
20
124.2868074
11
4.6881407
21
124.2868074
0
LINE
8
DEFAULT_255_1_234
10
4.6969756
20
124.7454196
11
4.4110458
21
124.7454196
0
ARC
8
DEFAULT_255_1_234
10
4.6923534
20
124.2664195
40
0.6059162
50
78.8378113
51
90.3983573
0
ARC
8
DEFAULT_255_1_234
10
4.7339548
20
124.4684879
40
0.3996205
50
58.9632738
51
79.0810598
0
ARC
8
DEFAULT_255_1_234
10
4.764109
20
124.5244721
40
0.3361177
50
48.0197965
51
58.447194
0
ARC
8
DEFAULT_255_1_234
10
4.7729951
20
124.5330225
40
0.3238191
50
3.3375044
51
48.1766626
0
ARC
8
DEFAULT_255_1_234
10
4.649979
20
124.5153171
40
0.4477806
50
359.9477528
51
4.6829065
0
ARC
8
DEFAULT_255_1_234
10
4.6623107
20
124.5110628
40
0.4354656
50
346.1877825
51
0.5060252
0
ARC
8
DEFAULT_255_1_234
10
4.7981975
20
124.4757731
40
0.295089
50
310.8831995
51
346.5426355
0
ARC
8
DEFAULT_255_1_234
10
4.7673395
20
124.5174695
40
0.3468331
50
286.6925341
51
310.2288297
0
ARC
8
DEFAULT_255_1_234
10
4.7104226
20
124.6964882
40
0.5346654
50
274.6850312
51
287.0245141
0
ARC
8
DEFAULT_255_1_234
10
4.6878949
20
124.9173932
40
0.7566852
50
269.8969846
51
275.018904
0
ARC
8
DEFAULT_255_1_234
10
4.690654
20
124.7094707
40
0.4226708
50
269.6593078
51
279.4153575
0
ARC
8
DEFAULT_255_1_234
10
4.7163815
20
124.5604133
40
0.2714146
50
279.2049762
51
294.9900808
0
ARC
8
DEFAULT_255_1_234
10
4.7454141
20
124.4956508
40
0.2004525
50
295.2888114
51
311.2911209
0
ARC
8
DEFAULT_255_1_234
10
4.7525035
20
124.485122
40
0.1878703
50
311.7854996
51
347.2861051
0
ARC
8
DEFAULT_255_1_234
10
4.6541194
20
124.5104092
40
0.2894234
50
346.6893224
51
0.1059443
0
ARC
8
DEFAULT_255_1_234
10
4.5786089
20
124.5132685
40
0.3649409
50
359.6350983
51
0.0053152
0
ARC
8
DEFAULT_255_1_234
10
4.6756417
20
124.5157937
40
0.2679199
50
359.4672059
51
15.5933957
0
ARC
8
DEFAULT_255_1_234
10
4.7381306
20
124.5326779
40
0.2031932
50
15.7442113
51
46.6203375
0
ARC
8
DEFAULT_255_1_234
10
4.7233527
20
124.5156484
40
0.2257226
50
46.8628658
51
75.6676503
0
ARC
8
DEFAULT_255_1_234
10
4.6939347
20
124.4097718
40
0.3355939
50
75.276167
51
88.2915297
0
ARC
8
DEFAULT_255_1_234
10
4.6881054
20
124.3219524
40
0.4235602
50
87.8575022
51
88.8000139
0
LINE
8
DEFAULT_255_1_234
10
5.3620036
20
124.8723211
11
5.5467335
21
124.0715568
0
LINE
8
DEFAULT_255_1_234
10
5.5467335
20
124.0715568
11
5.5692224
21
123.9173474
0
LINE
8
DEFAULT_255_1_234
10
5.5692224
20
123.9173474
11
5.6021525
21
124.0562965
0
LINE
8
DEFAULT_255_1_234
10
5.6021525
20
124.0562965
11
5.8334666
21
124.8723211
0
LINE
8
DEFAULT_255_1_234
10
5.8334666
20
124.8723211
11
5.9635808
21
124.8723211
0
LINE
8
DEFAULT_255_1_234
10
5.9635808
20
124.8723211
11
6.1892726
21
124.0562965
0
LINE
8
DEFAULT_255_1_234
10
6.1892726
20
124.0562965
11
6.2213996
21
123.9149379
0
LINE
8
DEFAULT_255_1_234
10
6.2213996
20
123.9149379
11
6.2462979
21
124.07236
0
LINE
8
DEFAULT_255_1_234
10
6.2462979
20
124.07236
11
6.4278152
21
124.8723211
0
LINE
8
DEFAULT_255_1_234
10
6.4278152
20
124.8723211
11
6.5828278
21
124.8723211
0
LINE
8
DEFAULT_255_1_234
10
6.5828278
20
124.8723211
11
6.2993074
21
123.7029
0
LINE
8
DEFAULT_255_1_234
10
6.2993074
20
123.7029
11
6.158752
21
123.7029
0
LINE
8
DEFAULT_255_1_234
10
6.158752
20
123.7029
11
5.9177999
21
124.5550674
0
LINE
8
DEFAULT_255_1_234
10
5.9177999
20
124.5550674
11
5.8993269
21
124.6442197
0
LINE
8
DEFAULT_255_1_234
10
5.8993269
20
124.6442197
11
5.8808539
21
124.5550674
0
LINE
8
DEFAULT_255_1_234
10
5.8808539
20
124.5550674
11
5.6310668
21
123.7029
0
LINE
8
DEFAULT_255_1_234
10
5.6310668
20
123.7029
11
5.4905114
21
123.7029
0
LINE
8
DEFAULT_255_1_234
10
5.4905114
20
123.7029
11
5.2077942
21
124.8723211
0
LINE
8
DEFAULT_255_1_234
10
5.2077942
20
124.8723211
11
5.3620036
21
124.8723211
0
LINE
8
DEFAULT_255_1_234
10
7.4366016
20
123.7029
11
7.1827986
21
124.1759694
0
LINE
8
DEFAULT_255_1_234
10
7.1827986
20
124.1759694
11
6.9081132
21
124.1759694
0
LINE
8
DEFAULT_255_1_234
10
6.9081132
20
124.1759694
11
6.9081132
21
123.7029
0
LINE
8
DEFAULT_255_1_234
10
6.9081132
20
123.7029
11
6.7531006
21
123.7029
0
LINE
8
DEFAULT_255_1_234
10
6.7531006
20
123.7029
11
6.7531006
21
124.8723211
0
LINE
8
DEFAULT_255_1_234
10
6.7531006
20
124.8723211
11
7.1402304
21
124.8723211
0
LINE
8
DEFAULT_255_1_234
10
7.3273699
20
124.2088995
11
7.6020554
21
123.7125381
0
LINE
8
DEFAULT_255_1_234
10
7.6020554
20
123.7125381
11
7.6020554
21
123.7029
0
LINE
8
DEFAULT_255_1_234
10
7.6020554
20
123.7029
11
7.4366016
21
123.7029
0
LINE
8
DEFAULT_255_1_234
10
6.9081132
20
124.7454196
11
6.9081132
21
124.3020677
0
LINE
8
DEFAULT_255_1_234
10
6.9081132
20
124.3020677
11
7.1450495
21
124.3020677
0
LINE
8
DEFAULT_255_1_234
10
7.1442463
20
124.7454196
11
6.9081132
21
124.7454196
0
ARC
8
DEFAULT_255_1_234
10
7.1443944
20
124.1761761
40
0.6961575
50
80.653586
51
90.3427061
0
ARC
8
DEFAULT_255_1_234
10
7.1863418
20
124.4224348
40
0.4463577
50
65.6987447
51
80.8329603
0
ARC
8
DEFAULT_255_1_234
10
7.2341059
20
124.5319322
40
0.3269094
50
50.0017161
51
65.4305835
0
ARC
8
DEFAULT_255_1_234
10
7.2559523
20
124.5614482
40
0.2902647
50
11.628416
51
49.5603263
0
ARC
8
DEFAULT_255_1_234
10
7.1023859
20
124.5239299
40
0.4482792
50
359.5655735
51
12.3691
0
ARC
8
DEFAULT_255_1_234
10
7.2100719
20
124.5176644
40
0.3405924
50
341.9983148
51
0.4822259
0
ARC
8
DEFAULT_255_1_234
10
7.2495559
20
124.5069471
40
0.2997359
50
323.8609373
51
341.61416
0
ARC
8
DEFAULT_255_1_234
10
7.2193803
20
124.5302484
40
0.3378487
50
296.7018614
51
323.6876402
0
ARC
8
DEFAULT_255_1_234
10
7.1752699
20
124.6091235
40
0.4281516
50
290.8086567
51
297.2323311
0
ARC
8
DEFAULT_255_1_234
10
7.1476228
20
124.6614351
40
0.3593766
50
269.589728
51
281.8058135
0
ARC
8
DEFAULT_255_1_234
10
7.1727127
20
124.5466743
40
0.2419125
50
281.5501019
51
303.9357432
0
ARC
8
DEFAULT_255_1_234
10
7.1864315
20
124.5228936
40
0.2145323
50
304.4415616
51
311.2106213
0
ARC
8
DEFAULT_255_1_234
10
7.199642
20
124.5089632
40
0.1953505
50
310.9875673
51
356.2715578
0
ARC
8
DEFAULT_255_1_234
10
7.1240069
20
124.5202422
40
0.2716331
50
354.9348262
51
0.0609027
0
ARC
8
DEFAULT_255_1_234
10
7.1052943
20
124.5229435
40
0.2903554
50
359.5239371
51
12.8808918
0
ARC
8
DEFAULT_255_1_234
10
7.2030499
20
124.5468728
40
0.1897315
50
12.4173452
51
43.1022135
0
ARC
8
DEFAULT_255_1_234
10
7.2092103
20
124.5505724
40
0.1827118
50
43.5751728
51
48.203944
0
ARC
8
DEFAULT_255_1_234
10
7.1922595
20
124.5284302
40
0.2105272
50
48.7809703
51
72.6969569
0
ARC
8
DEFAULT_255_1_234
10
7.156822
20
124.420882
40
0.3237537
50
72.3702241
51
84.8791103
0
ARC
8
DEFAULT_255_1_234
10
7.1420696
20
124.2866769
40
0.4587478
50
84.5400526
51
89.7281406
0
LINE
8
DEFAULT_255_1_234
10
8.1690961
20
124.6715276
11
8.1690961
21
124.3301788
0
LINE
8
DEFAULT_255_1_234
10
8.1690961
20
124.3301788
11
8.4951847
21
124.3301788
0
LINE
8
DEFAULT_255_1_234
10
8.4951847
20
124.3301788
11
8.4951847
21
124.1896233
0
LINE
8
DEFAULT_255_1_234
10
8.4951847
20
124.1896233
11
8.1690961
21
124.1896233
0
LINE
8
DEFAULT_255_1_234
10
8.1690961
20
124.1896233
11
8.1690961
21
123.8201634
0
LINE
8
DEFAULT_255_1_234
10
8.1690961
20
123.8201634
11
8.0197058
21
123.8201634
0
LINE
8
DEFAULT_255_1_234
10
8.0197058
20
123.8201634
11
8.0197058
21
124.1896233
0
LINE
8
DEFAULT_255_1_234
10
8.0197058
20
124.1896233
11
7.6936172
21
124.1896233
0
LINE
8
DEFAULT_255_1_234
10
7.6936172
20
124.1896233
11
7.6936172
21
124.3301788
0
LINE
8
DEFAULT_255_1_234
10
7.6936172
20
124.3301788
11
8.0197058
21
124.3301788
0
LINE
8
DEFAULT_255_1_234
10
8.0197058
20
124.3301788
11
8.0197058
21
124.6715276
0
LINE
8
DEFAULT_255_1_234
10
8.0197058
20
124.6715276
11
8.1690961
21
124.6715276
0
LINE
8
DEFAULT_255_1_234
10
4.265203
20
5.8098211
11
4.449933
21
5.0090568
0
LINE
8
DEFAULT_255_1_234
10
4.449933
20
5.0090568
11
4.4724218
21
4.8548474
0
LINE
8
DEFAULT_255_1_234
10
4.4724218
20
4.8548474
11
4.505352
21
4.9937965
0
LINE
8
DEFAULT_255_1_234
10
4.505352
20
4.9937965
11
4.736666
21
5.8098211
0
LINE
8
DEFAULT_255_1_234
10
4.736666
20
5.8098211
11
4.8667802
21
5.8098211
0
LINE
8
DEFAULT_255_1_234
10
4.8667802
20
5.8098211
11
5.092472
21
4.9937965
0
LINE
8
DEFAULT_255_1_234
10
5.092472
20
4.9937965
11
5.124599
21
4.8524379
0
LINE
8
DEFAULT_255_1_234
10
5.124599
20
4.8524379
11
5.1494974
21
5.00986
0
LINE
8
DEFAULT_255_1_234
10
5.1494974
20
5.00986
11
5.3310146
21
5.8098211
0
LINE
8
DEFAULT_255_1_234
10
5.3310146
20
5.8098211
11
5.4860272
21
5.8098211
0
LINE
8
DEFAULT_255_1_234
10
5.4860272
20
5.8098211
11
5.2025068
21
4.6404
0
LINE
8
DEFAULT_255_1_234
10
5.2025068
20
4.6404
11
5.0619514
21
4.6404
0
LINE
8
DEFAULT_255_1_234
10
5.0619514
20
4.6404
11
4.8209993
21
5.4925674
0
LINE
8
DEFAULT_255_1_234
10
4.8209993
20
5.4925674
11
4.8025263
21
5.5817197
0
LINE
8
DEFAULT_255_1_234
10
4.8025263
20
5.5817197
11
4.7840533
21
5.4925674
0
LINE
8
DEFAULT_255_1_234
10
4.7840533
20
5.4925674
11
4.5342662
21
4.6404
0
LINE
8
DEFAULT_255_1_234
10
4.5342662
20
4.6404
11
4.3937108
21
4.6404
0
LINE
8
DEFAULT_255_1_234
10
4.3937108
20
4.6404
11
4.1109936
21
5.8098211
0
LINE
8
DEFAULT_255_1_234
10
4.1109936
20
5.8098211
11
4.265203
21
5.8098211
0
LINE
8
DEFAULT_255_1_234
10
5.7566968
20
5.8098211
11
6.0386108
21
5.3616501
0
LINE
8
DEFAULT_255_1_234
10
6.0386108
20
5.3616501
11
6.3189185
21
5.8098211
0
LINE
8
DEFAULT_255_1_234
10
6.3189185
20
5.8098211
11
6.5004357
21
5.8098211
0
LINE
8
DEFAULT_255_1_234
10
6.5004357
20
5.8098211
11
6.1309758
21
5.2299296
0
LINE
8
DEFAULT_255_1_234
10
6.1309758
20
5.2299296
11
6.5092707
21
4.6404
0
LINE
8
DEFAULT_255_1_234
10
6.5092707
20
4.6404
11
6.326147
21
4.6404
0
LINE
8
DEFAULT_255_1_234
10
6.326147
20
4.6404
11
6.0386108
21
5.0966027
0
LINE
8
DEFAULT_255_1_234
10
6.0386108
20
5.0966027
11
5.7494682
21
4.6404
0
LINE
8
DEFAULT_255_1_234
10
5.7494682
20
4.6404
11
5.5671478
21
4.6404
0
LINE
8
DEFAULT_255_1_234
10
5.5671478
20
4.6404
11
5.9462458
21
5.2299296
0
LINE
8
DEFAULT_255_1_234
10
5.9462458
20
5.2299296
11
5.5759827
21
5.8098211
0
LINE
8
DEFAULT_255_1_234
10
5.5759827
20
5.8098211
11
5.7566968
21
5.8098211
0
LINE
8
DEFAULT_255_1_234
10
7.3831238
20
5.3319327
11
7.3831238
21
5.1391709
0
LINE
8
DEFAULT_255_1_234
10
6.645007
20
5.1190916
11
6.645007
21
5.3174755
0
LINE
8
DEFAULT_255_1_234
10
7.2345366
20
5.0990123
11
7.2345366
21
5.3423739
0
LINE
8
DEFAULT_255_1_234
10
6.7935942
20
5.3536184
11
6.7935942
21
5.1158789
0
ARC
8
DEFAULT_255_1_234
10
6.1584127
20
5.1342805
40
1.2247208
50
353.8441951
51
0.2287902
0
ARC
8
DEFAULT_255_1_234
10
6.6223631
20
5.0824806
40
0.7578929
50
344.4934747
51
353.9765454
0
ARC
8
DEFAULT_255_1_234
10
6.9216221
20
4.9973981
40
0.4467846
50
329.2803592
51
344.7472793
0
ARC
8
DEFAULT_255_1_234
10
7.0209046
20
4.9429018
40
0.3336173
50
324.9352394
51
328.6160465
0
ARC
8
DEFAULT_255_1_234
10
7.0586155
20
4.9165427
40
0.2876076
50
280.580143
51
324.9173126
0
ARC
8
DEFAULT_255_1_234
10
7.0184947
20
5.0836099
40
0.4592847
50
269.5977311
51
281.6734359
0
ARC
8
DEFAULT_255_1_234
10
7.0112853
20
5.0716173
40
0.4472986
50
256.6228859
51
270.51044
0
ARC
8
DEFAULT_255_1_234
10
6.9710831
20
4.9167877
40
0.2873874
50
215.8618325
51
257.2788573
0
ARC
8
DEFAULT_255_1_234
10
7.0731862
20
4.9852977
40
0.4102928
50
197.9693508
51
215.2623606
0
ARC
8
DEFAULT_255_1_234
10
7.3216978
20
5.0691709
40
0.6725652
50
187.8816417
51
198.2346507
0
ARC
8
DEFAULT_255_1_234
10
7.7175186
20
5.1263079
40
1.0724845
50
180.8976217
51
188.0055519
0
ARC
8
DEFAULT_255_1_234
10
7.9975374
20
5.1366777
40
1.3526448
50
180.7449369
51
181.1510016
0
ARC
8
DEFAULT_255_1_234
10
7.8398104
20
5.3223042
40
1.1948131
50
173.7675579
51
180.231553
0
ARC
8
DEFAULT_255_1_234
10
7.388025
20
5.3733666
40
0.7401564
50
164.3058563
51
173.9002247
0
ARC
8
DEFAULT_255_1_234
10
7.0968319
20
5.4572656
40
0.4371288
50
148.7922025
51
164.568378
0
ARC
8
DEFAULT_255_1_234
10
7.0016771
20
5.5103929
40
0.3282386
50
144.5883898
51
148.1176286
0
ARC
8
DEFAULT_255_1_234
10
6.9673669
20
5.5343315
40
0.2864044
50
101.6440918
51
144.514236
0
ARC
8
DEFAULT_255_1_234
10
7.0098736
20
5.3654069
40
0.4604934
50
89.5284041
51
102.5819763
0
ARC
8
DEFAULT_255_1_234
10
7.0177824
20
5.3615018
40
0.464401
50
77.0437873
51
90.5081339
0
ARC
8
DEFAULT_255_1_234
10
7.0579825
20
5.5257615
40
0.2953195
50
48.2778575
51
77.4994676
0
ARC
8
DEFAULT_255_1_234
10
7.0652457
20
5.5386746
40
0.2808655
50
36.3142134
51
47.6305865
0
ARC
8
DEFAULT_255_1_234
10
6.9783764
20
5.4801515
40
0.3855453
50
18.2931786
51
35.6769206
0
ARC
8
DEFAULT_255_1_234
10
6.7240522
20
5.3928593
40
0.654423
50
8.024666
51
18.5605216
0
ARC
8
DEFAULT_255_1_234
10
6.3077442
20
5.3313792
40
1.0752407
50
1.1274072
51
8.1718305
0
ARC
8
DEFAULT_255_1_234
10
5.9841633
20
5.3186885
40
1.3990231
50
0.5424119
51
1.3863029
0
ARC
8
DEFAULT_255_1_234
10
6.1663011
20
5.3459342
40
1.0682415
50
359.8090433
51
4.9407866
0
ARC
8
DEFAULT_255_1_234
10
6.5873025
20
5.3835113
40
0.6455691
50
4.8362157
51
12.2904523
0
ARC
8
DEFAULT_255_1_234
10
6.862814
20
5.4448965
40
0.3633074
50
12.0805627
51
23.8173984
0
ARC
8
DEFAULT_255_1_234
10
6.9801845
20
5.4945919
40
0.2358723
50
24.2871213
51
31.3935614
0
ARC
8
DEFAULT_255_1_234
10
7.0326542
20
5.5289233
40
0.1732111
50
30.7407893
51
82.4657128
0
ARC
8
DEFAULT_255_1_234
10
7.0146677
20
5.4405691
40
0.263235
50
81.1060089
51
90.2184952
0
ARC
8
DEFAULT_255_1_234
10
7.0110975
20
5.4663924
40
0.2374236
50
89.3806855
51
105.6762551
0
ARC
8
DEFAULT_255_1_234
10
6.9927606
20
5.5330567
40
0.1682847
50
105.7981136
51
149.7388061
0
ARC
8
DEFAULT_255_1_234
10
7.0991684
20
5.469095
40
0.2924306
50
149.4208916
51
163.6286378
0
ARC
8
DEFAULT_255_1_234
10
7.3082572
20
5.405325
40
0.5110213
50
163.3763315
51
172.1410975
0
ARC
8
DEFAULT_255_1_234
10
7.6383291
20
5.3580518
40
0.8444586
50
172.0259487
51
178.0703232
0
ARC
8
DEFAULT_255_1_234
10
7.9413381
20
5.3436906
40
1.1477868
50
177.8631668
51
179.5044149
0
ARC
8
DEFAULT_255_1_234
10
7.8340785
20
5.1122389
40
1.0404907
50
179.7995573
51
185.2460446
0
ARC
8
DEFAULT_255_1_234
10
7.4297825
20
5.0739513
40
0.6343885
50
185.1411642
51
193.0079639
0
ARC
8
DEFAULT_255_1_234
10
7.1654297
20
5.0114641
40
0.3627568
50
192.7897626
51
205.2507664
0
ARC
8
DEFAULT_255_1_234
10
7.0607844
20
4.9647415
40
0.2481908
50
205.8005384
51
211.2537509
0
ARC
8
DEFAULT_255_1_234
10
7.0084285
20
4.929658
40
0.1852521
50
210.3789793
51
238.4008143
0
ARC
8
DEFAULT_255_1_234
10
7.0064806
20
4.9343376
40
0.1882621
50
239.6520629
51
265.9793761
0
ARC
8
DEFAULT_255_1_234
10
7.0150007
20
5.0015427
40
0.2559272
50
265.1315437
51
270.060332
0
ARC
8
DEFAULT_255_1_234
10
7.0178785
20
4.9691534
40
0.2235528
50
269.3314664
51
287.2178029
0
ARC
8
DEFAULT_255_1_234
10
7.0316637
20
4.9188279
40
0.1714108
50
287.7958004
51
329.080874
0
ARC
8
DEFAULT_255_1_234
10
6.9359094
20
4.978593
40
0.2842745
50
328.6634704
51
343.3325132
0
ARC
8
DEFAULT_255_1_234
10
6.7186114
20
5.0462863
40
0.5118644
50
343.0499468
51
351.9393422
0
ARC
8
DEFAULT_255_1_234
10
6.3719414
20
5.0973949
40
0.8622784
50
351.8069023
51
357.7959224
0
ARC
8
DEFAULT_255_1_234
10
6.048397
20
5.1141721
40
1.1862365
50
357.5871873
51
359.2677531
0
LINE
8
DEFAULT_255_1_234
10
4.5801137
20
13.7529433
11
4.5801137
21
12.5779
0
LINE
8
DEFAULT_255_1_234
10
4.5801137
20
12.5779
11
4.4307234
21
12.5779
0
LINE
8
DEFAULT_255_1_234
10
4.4307234
20
12.5779
11
4.4307234
21
13.5682133
0
LINE
8
DEFAULT_255_1_234
10
4.4307234
20
13.5682133
11
4.1311396
21
13.4581785
0
LINE
8
DEFAULT_255_1_234
10
4.1311396
20
13.4581785
11
4.1311396
21
13.5931117
0
LINE
8
DEFAULT_255_1_234
10
4.1311396
20
13.5931117
11
4.5568217
21
13.7529433
0
LINE
8
DEFAULT_255_1_234
10
4.5568217
20
13.7529433
11
4.5801137
21
13.7529433
0
LINE
8
DEFAULT_255_1_234
10
5.7591729
20
12.9489663
11
5.9141854
21
12.9489663
0
LINE
8
DEFAULT_255_1_234
10
5.0138276
20
13.1079947
11
5.0138276
21
13.2204391
0
LINE
8
DEFAULT_255_1_234
10
5.9141854
20
13.3714357
11
5.7591729
21
13.3714357
0
LINE
8
DEFAULT_255_1_234
10
5.1688401
20
13.2164232
11
5.1688401
21
13.1031757
0
ARC
8
DEFAULT_255_1_234
10
5.3661241
20
13.0086846
40
0.5513052
50
340.1774281
51
353.7814284
0
ARC
8
DEFAULT_255_1_234
10
5.5232594
20
12.9501582
40
0.3836379
50
311.4558989
51
340.4421614
0
ARC
8
DEFAULT_255_1_234
10
5.5199262
20
12.9612528
40
0.3941894
50
282.4333181
51
310.7513653
0
ARC
8
DEFAULT_255_1_234
10
5.4760001
20
13.1427679
40
0.5809175
50
269.9358511
51
282.809604
0
ARC
8
DEFAULT_255_1_234
10
5.4708067
20
13.2885212
40
0.7266847
50
270.0021091
51
270.3581957
0
ARC
8
DEFAULT_255_1_234
10
5.4655484
20
13.0284585
40
0.4666519
50
250.7884749
51
270.6489167
0
ARC
8
DEFAULT_255_1_234
10
5.4487319
20
12.9647319
40
0.4009729
50
219.3627325
51
250.0611886
0
ARC
8
DEFAULT_255_1_234
10
5.531653
20
13.0352042
40
0.5097822
50
193.5479632
51
219.5756669
0
ARC
8
DEFAULT_255_1_234
10
5.7688151
20
13.0967919
40
0.7547848
50
181.1218675
51
193.87563
0
ARC
8
DEFAULT_255_1_234
10
5.9758332
20
13.107858
40
0.9620055
50
179.9918545
51
181.5394234
0
ARC
8
DEFAULT_255_1_234
10
5.7907434
20
13.2241788
40
0.7769248
50
169.5837241
51
180.2757934
0
ARC
8
DEFAULT_255_1_234
10
5.6070372
20
13.2581229
40
0.590109
50
155.0365899
51
169.6003176
0
ARC
8
DEFAULT_255_1_234
10
5.4934836
20
13.3128677
40
0.4640625
50
136.783148
51
155.2472683
0
ARC
8
DEFAULT_255_1_234
10
5.4545313
20
13.3459562
40
0.4130255
50
121.7633186
51
136.428115
0
ARC
8
DEFAULT_255_1_234
10
5.4680275
20
13.3210227
40
0.4413323
50
95.6459699
51
121.5490577
0
ARC
8
DEFAULT_255_1_234
10
5.4837557
20
13.2101949
40
0.55319
50
89.924208
51
96.1377933
0
ARC
8
DEFAULT_255_1_234
10
5.488799
20
13.2220542
40
0.5413475
50
76.6779277
51
90.4563316
0
ARC
8
DEFAULT_255_1_234
10
5.5281613
20
13.3811114
40
0.3775041
50
47.485847
51
76.9287264
0
ARC
8
DEFAULT_255_1_234
10
5.5134586
20
13.3711159
40
0.3948286
50
16.5424086
51
46.8933463
0
ARC
8
DEFAULT_255_1_234
10
5.3526743
20
13.3182861
40
0.564021
50
5.4072051
51
17.0365086
0
ARC
8
DEFAULT_255_1_234
10
5.208776
20
13.2951679
40
0.5556559
50
7.8891745
51
15.9239216
0
ARC
8
DEFAULT_255_1_234
10
5.4074773
20
13.3528631
40
0.3487515
50
15.7653144
51
27.9410532
0
ARC
8
DEFAULT_255_1_234
10
5.5178991
20
13.411979
40
0.2235026
50
27.8166557
51
46.4008329
0
ARC
8
DEFAULT_255_1_234
10
5.5228634
20
13.4114082
40
0.2205286
50
47.4371857
51
75.0698205
0
ARC
8
DEFAULT_255_1_234
10
5.4920029
20
13.3039765
40
0.3322915
50
74.7008593
51
87.8124495
0
ARC
8
DEFAULT_255_1_234
10
5.4846716
20
13.1983844
40
0.4380987
50
87.3814673
51
90.0240855
0
ARC
8
DEFAULT_255_1_234
10
5.4808259
20
13.3161291
40
0.3203749
50
89.3451631
51
108.5745436
0
ARC
8
DEFAULT_255_1_234
10
5.4671365
20
13.3674908
40
0.2673494
50
109.2998449
51
143.3037509
0
ARC
8
DEFAULT_255_1_234
10
5.5433437
20
13.3088881
40
0.3634757
50
143.0753173
51
163.1916937
0
ARC
8
DEFAULT_255_1_234
10
5.7385165
20
13.2472967
40
0.5681262
50
162.9373603
51
174.6208611
0
ARC
8
DEFAULT_255_1_234
10
6.0011207
20
13.218501
40
0.8322832
50
174.3419979
51
180.1430411
0
ARC
8
DEFAULT_255_1_234
10
5.9080363
20
13.0990698
40
0.7392076
50
179.6817502
51
189.150529
0
ARC
8
DEFAULT_255_1_234
10
5.6579611
20
13.057419
40
0.4856932
50
188.9910863
51
203.5773039
0
ARC
8
DEFAULT_255_1_234
10
5.5499944
20
13.0126211
40
0.3688271
50
203.9077269
51
215.1312379
0
ARC
8
DEFAULT_255_1_234
10
5.4577038
20
12.9410941
40
0.2522457
50
213.9071664
51
263.8849284
0
ARC
8
DEFAULT_255_1_234
10
5.4702367
20
13.0195518
40
0.3316174
50
263.1758525
51
270.1031083
0
ARC
8
DEFAULT_255_1_234
10
5.4734459
20
13.1442365
40
0.4563091
50
269.6719807
51
279.0609165
0
ARC
8
DEFAULT_255_1_234
10
5.5001227
20
12.9829907
40
0.2928759
50
278.8750225
51
293.6346586
0
ARC
8
DEFAULT_255_1_234
10
5.5321435
20
12.90779
40
0.2111472
50
293.8553404
51
310.0518804
0
ARC
8
DEFAULT_255_1_234
10
5.5326289
20
12.9015516
40
0.2060917
50
311.0646779
51
332.0108348
0
ARC
8
DEFAULT_255_1_234
10
5.4134016
20
12.9672978
40
0.3422352
50
331.6588543
51
343.2878891
0
ARC
8
DEFAULT_255_1_234
10
5.2071531
20
13.0306798
40
0.5580003
50
343.1446044
51
351.010618
0
ARC
8
DEFAULT_255_1_234
10
5.0530177
20
13.0587871
40
0.7146438
50
350.7157277
51
351.1602153
0
LINE
8
DEFAULT_255_1_234
10
4.3091299
20
21.6848211
11
4.5910439
21
21.2366501
0
LINE
8
DEFAULT_255_1_234
10
4.5910439
20
21.2366501
11
4.8713516
21
21.6848211
0
LINE
8
DEFAULT_255_1_234
10
4.8713516
20
21.6848211
11
5.0528689
21
21.6848211
0
LINE
8
DEFAULT_255_1_234
10
5.0528689
20
21.6848211
11
4.6834089
21
21.1049296
0
LINE
8
DEFAULT_255_1_234
10
4.6834089
20
21.1049296
11
5.0617038
21
20.5154
0
LINE
8
DEFAULT_255_1_234
10
5.0617038
20
20.5154
11
4.8785802
21
20.5154
0
LINE
8
DEFAULT_255_1_234
10
4.8785802
20
20.5154
11
4.5910439
21
20.9716027
0
LINE
8
DEFAULT_255_1_234
10
4.5910439
20
20.9716027
11
4.3019014
21
20.5154
0
LINE
8
DEFAULT_255_1_234
10
4.3019014
20
20.5154
11
4.1195809
21
20.5154
0
LINE
8
DEFAULT_255_1_234
10
4.1195809
20
20.5154
11
4.498679
21
21.1049296
0
LINE
8
DEFAULT_255_1_234
10
4.498679
20
21.1049296
11
4.1284158
21
21.6848211
0
LINE
8
DEFAULT_255_1_234
10
4.1284158
20
21.6848211
11
4.3091299
21
21.6848211
0
LINE
8
DEFAULT_255_1_234
10
5.9210998
20
21.2173739
11
5.9210998
21
21.1740025
0
LINE
8
DEFAULT_255_1_234
10
5.3789575
20
20.5145968
11
5.3500432
21
20.5145968
0
LINE
8
DEFAULT_255_1_234
10
5.3500432
20
20.5145968
11
5.3500432
21
20.6398919
0
LINE
8
DEFAULT_255_1_234
10
5.3500432
20
20.6398919
11
5.381367
21
20.6398919
0
LINE
8
DEFAULT_255_1_234
10
5.7725126
20
21.1884597
11
5.7725126
21
21.2478945
0
ARC
8
DEFAULT_255_1_234
10
5.4931396
20
21.2630403
40
0.3635579
50
297.4037347
51
320.016758
0
ARC
8
DEFAULT_255_1_234
10
5.5221345
20
21.207324
40
0.3007486
50
270.2633101
51
297.3851877
0
ARC
8
DEFAULT_255_1_234
10
5.51873
20
21.2536904
40
0.3471448
50
269.9966443
51
270.7900392
0
ARC
8
DEFAULT_255_1_234
10
5.5161782
20
21.2535143
40
0.3469779
50
254.5999133
51
270.4180344
0
ARC
8
DEFAULT_255_1_234
10
5.5019141
20
21.1970647
40
0.2887697
50
236.4717942
51
254.3541279
0
ARC
8
DEFAULT_255_1_234
10
5.5175359
20
21.2180711
40
0.3149125
50
208.4727207
51
236.2134933
0
ARC
8
DEFAULT_255_1_234
10
5.5814134
20
21.2571455
40
0.3897115
50
204.3447514
51
209.0453999
0
ARC
8
DEFAULT_255_1_234
10
5.649371
20
21.2859656
40
0.4635101
50
183.9375985
51
204.1276318
0
ARC
8
DEFAULT_255_1_234
10
5.7401961
20
21.2957482
40
0.5548037
50
179.9652252
51
184.3013875
0
ARC
8
DEFAULT_255_1_234
10
5.7162007
20
21.2990507
40
0.5308164
50
166.7585989
51
180.3201225
0
ARC
8
DEFAULT_255_1_234
10
5.6315621
20
21.3174488
40
0.4442163
50
154.6955053
51
166.5679793
0
ARC
8
DEFAULT_255_1_234
10
5.5462491
20
21.360421
40
0.3487299
50
136.3324195
51
155.0871442
0
ARC
8
DEFAULT_255_1_234
10
5.5181564
20
21.3844954
40
0.3117924
50
121.236733
51
135.9680508
0
ARC
8
DEFAULT_255_1_234
10
5.5322062
20
21.3584743
40
0.3413302
50
96.845628
51
120.9881519
0
ARC
8
DEFAULT_255_1_234
10
5.5467643
20
21.2649515
40
0.4359341
50
89.8870174
51
97.2802754
0
ARC
8
DEFAULT_255_1_234
10
5.5520082
20
21.3287095
40
0.3722009
50
70.6505584
51
90.6749113
0
ARC
8
DEFAULT_255_1_234
10
5.5651361
20
21.3800361
40
0.3194571
50
36.7492984
51
69.8219918
0
ARC
8
DEFAULT_255_1_234
10
5.4652525
20
21.3021993
40
0.4460685
50
15.39587
51
37.0840084
0
ARC
8
DEFAULT_255_1_234
10
5.2522959
20
21.2401242
40
0.6678714
50
3.9488873
51
15.6798563
0
ARC
8
DEFAULT_255_1_234
10
5.0121587
20
21.2184964
40
0.9089418
50
359.929245
51
4.2665314
0
ARC
8
DEFAULT_255_1_234
10
4.5516024
20
21.1673513
40
1.3695135
50
352.8366322
51
0.2782669
0
ARC
8
DEFAULT_255_1_234
10
5.0803703
20
21.0986629
40
0.8363105
50
341.8359505
51
352.9884176
0
ARC
8
DEFAULT_255_1_234
10
5.4022422
20
20.99017
40
0.4966642
50
322.8578092
51
342.1527901
0
ARC
8
DEFAULT_255_1_234
10
5.4886378
20
20.9312384
40
0.3922466
50
319.334325
51
322.0998941
0
ARC
8
DEFAULT_255_1_234
10
5.4576715
20
20.9623209
40
0.4360033
50
285.9541367
51
318.8878087
0
ARC
8
DEFAULT_255_1_234
10
5.3849976
20
21.19336
40
0.678149
50
272.9281676
51
286.4922826
0
ARC
8
DEFAULT_255_1_234
10
5.3660094
20
21.4184587
40
0.9039547
50
270.8207226
51
273.4012994
0
ARC
8
DEFAULT_255_1_234
10
5.3748945
20
21.2365666
40
0.5967098
50
270.6214993
51
281.4062806
0
ARC
8
DEFAULT_255_1_234
10
5.4178925
20
21.0309833
40
0.3866861
50
281.1852553
51
299.0621114
0
ARC
8
DEFAULT_255_1_234
10
5.4552497
20
20.9588798
40
0.3055236
50
299.5067782
51
313.1200873
0
ARC
8
DEFAULT_255_1_234
10
5.4574464
20
20.9509554
40
0.2982623
50
313.8526205
51
338.5989322
0
ARC
8
DEFAULT_255_1_234
10
5.2950538
20
21.0176781
40
0.4738131
50
338.2523585
51
351.2430902
0
ARC
8
DEFAULT_255_1_234
10
5.0539834
20
21.0586447
40
0.7183203
50
350.9409515
51
357.6691871
0
ARC
8
DEFAULT_255_1_234
10
5.5430264
20
21.2588764
40
0.2294452
50
269.9447023
51
306.8248917
0
ARC
8
DEFAULT_255_1_234
10
5.5193179
20
21.3011898
40
0.2775994
50
305.5072438
51
327.0773448
0
ARC
8
DEFAULT_255_1_234
10
5.531162
20
21.2917025
40
0.2625056
50
327.4104943
51
336.840169
0
ARC
8
DEFAULT_255_1_234
10
5.2217685
20
21.2511302
40
0.5507537
50
359.6633817
51
10.117533
0
ARC
8
DEFAULT_255_1_234
10
5.3971483
20
21.2835777
40
0.372403
50
9.9430141
51
26.7700076
0
ARC
8
DEFAULT_255_1_234
10
5.4568695
20
21.3111187
40
0.3066865
50
27.2015464
51
34.6829435
0
ARC
8
DEFAULT_255_1_234
10
5.5058175
20
21.3478977
40
0.245519
50
34.1250343
51
50.3070065
0
ARC
8
DEFAULT_255_1_234
10
5.5504855
20
21.4013385
40
0.1758693
50
50.3851167
51
90.6705993
0
ARC
8
DEFAULT_255_1_234
10
5.5458088
20
21.3708799
40
0.2063326
50
89.272901
51
111.9140407
0
ARC
8
DEFAULT_255_1_234
10
5.5438616
20
21.384944
40
0.1925887
50
112.9382311
51
142.5320782
0
ARC
8
DEFAULT_255_1_234
10
5.5984796
20
21.3405969
40
0.2629232
50
142.1021256
51
166.3835592
0
ARC
8
DEFAULT_255_1_234
10
5.7166101
20
21.3100915
40
0.3849193
50
166.1100289
51
178.665427
0
ARC
8
DEFAULT_255_1_234
10
5.821369
20
21.3042117
40
0.4897989
50
178.2632126
51
180.0111093
0
ARC
8
DEFAULT_255_1_234
10
5.7411811
20
21.3013728
40
0.40962
50
179.6161962
51
191.8787166
0
ARC
8
DEFAULT_255_1_234
10
5.619165
20
21.2743896
40
0.2846655
50
191.6191692
51
215.2972286
0
ARC
8
DEFAULT_255_1_234
10
5.5994841
20
21.2628918
40
0.2619665
50
215.7320102
51
216.5355409
0
ARC
8
DEFAULT_255_1_234
10
5.5455927
20
21.2196647
40
0.1929497
50
215.7486685
51
239.9727502
0
ARC
8
DEFAULT_255_1_234
10
5.5385843
20
21.2145894
40
0.1850822
50
241.0650169
51
269.2810483
0
ARC
8
DEFAULT_255_1_234
10
5.5427758
20
21.2636371
40
0.2342059
50
268.4062526
51
270.0071348
0
LINE
8
DEFAULT_255_1_234
10
4.3091299
20
29.6223211
11
4.5910439
21
29.1741501
0
LINE
8
DEFAULT_255_1_234
10
4.5910439
20
29.1741501
11
4.8713516
21
29.6223211
0
LINE
8
DEFAULT_255_1_234
10
4.8713516
20
29.6223211
11
5.0528689
21
29.6223211
0
LINE
8
DEFAULT_255_1_234
10
5.0528689
20
29.6223211
11
4.6834089
21
29.0424296
0
LINE
8
DEFAULT_255_1_234
10
4.6834089
20
29.0424296
11
5.0617038
21
28.4529
0
LINE
8
DEFAULT_255_1_234
10
5.0617038
20
28.4529
11
4.8785802
21
28.4529
0
LINE
8
DEFAULT_255_1_234
10
4.8785802
20
28.4529
11
4.5910439
21
28.9091027
0
LINE
8
DEFAULT_255_1_234
10
4.5910439
20
28.9091027
11
4.3019014
21
28.4529
0
LINE
8
DEFAULT_255_1_234
10
4.3019014
20
28.4529
11
4.1195809
21
28.4529
0
LINE
8
DEFAULT_255_1_234
10
4.1195809
20
28.4529
11
4.498679
21
29.0424296
0
LINE
8
DEFAULT_255_1_234
10
4.498679
20
29.0424296
11
4.1284158
21
29.6223211
0
LINE
8
DEFAULT_255_1_234
10
4.1284158
20
29.6223211
11
4.3091299
21
29.6223211
0
ARC
8
DEFAULT_255_1_234
10
5.6292376
20
29.3145703
40
0.2822356
50
338.8763615
51
0.5166041
0
ARC
8
DEFAULT_255_1_234
10
5.646103
20
29.3100208
40
0.2648703
50
325.8412414
51
338.4795939
0
ARC
8
DEFAULT_255_1_234
10
5.6070398
20
29.3371042
40
0.3124019
50
296.7586019
51
325.753654
0
ARC
8
DEFAULT_255_1_234
10
5.5782506
20
29.3855789
40
0.368668
50
296.0902311
51
297.3618122
0
ARC
8
DEFAULT_255_1_234
10
5.6039964
20
28.7301041
40
0.3518806
50
47.9009248
51
67.1946869
0
ARC
8
DEFAULT_255_1_234
10
5.6236206
20
28.7547395
40
0.320451
50
35.236241
51
47.551371
0
ARC
8
DEFAULT_255_1_234
10
5.6497824
20
28.7721993
40
0.2890103
50
359.2759738
51
35.4014081
0
ARC
8
DEFAULT_255_1_234
10
5.5752855
20
28.7648826
40
0.3635026
50
343.1294516
51
0.5776525
0
ARC
8
DEFAULT_255_1_234
10
5.64774
20
28.744933
40
0.2883832
50
310.8497458
51
342.744803
0
ARC
8
DEFAULT_255_1_234
10
5.6059513
20
28.7926294
40
0.3517954
50
281.5473923
51
310.9169905
0
ARC
8
DEFAULT_255_1_234
10
5.5702962
20
28.9479084
40
0.5110832
50
269.6192722
51
281.9789957
0
ARC
8
DEFAULT_255_1_234
10
5.5630752
20
28.9479828
40
0.5111606
50
257.4584469
51
270.4287458
0
ARC
8
DEFAULT_255_1_234
10
5.5249895
20
28.7876344
40
0.3463762
50
228.7553743
51
257.8484423
0
ARC
8
DEFAULT_255_1_234
10
5.4940093
20
28.7503442
40
0.297916
50
184.0104442
51
228.5071787
0
ARC
8
DEFAULT_255_1_234
10
5.6103037
20
28.7680512
40
0.4152734
50
179.9315461
51
185.3254504
0
ARC
8
DEFAULT_255_1_234
10
5.4926683
20
28.7717992
40
0.2976554
50
145.6795913
51
180.6259649
0
ARC
8
DEFAULT_255_1_234
10
5.5090032
20
28.7603929
40
0.3175776
50
115.5537925
51
145.6416199
0
ARC
8
DEFAULT_255_1_234
10
5.5430962
20
28.6993028
40
0.3874232
50
113.2437915
51
116.2054627
0
ARC
8
DEFAULT_255_1_234
10
5.5278175
20
29.339158
40
0.3154751
50
222.9548379
51
244.1372485
0
ARC
8
DEFAULT_255_1_234
10
5.515625
20
29.3254834
40
0.2972382
50
213.3439227
51
222.6271327
0
ARC
8
DEFAULT_255_1_234
10
5.4964184
20
29.3124308
40
0.274019
50
180.4316517
51
213.2713999
0
ARC
8
DEFAULT_255_1_234
10
5.5539186
20
29.317111
40
0.33158
50
179.9992944
51
181.1655061
0
ARC
8
DEFAULT_255_1_234
10
5.5948603
20
29.3205561
40
0.3725376
50
164.6186108
51
180.5292368
0
ARC
8
DEFAULT_255_1_234
10
5.5050466
20
29.3447101
40
0.2795349
50
132.2454369
51
164.5092287
0
ARC
8
DEFAULT_255_1_234
10
5.533757
20
29.3122028
40
0.3229019
50
100.7052766
51
132.1387266
0
ARC
8
DEFAULT_255_1_234
10
5.5642542
20
29.1744086
40
0.4639835
50
89.6732617
51
101.2449487
0
ARC
8
DEFAULT_255_1_234
10
5.570474
20
29.191899
40
0.4464999
50
76.2876631
51
90.4586123
0
ARC
8
DEFAULT_255_1_234
10
5.6010972
20
29.314122
40
0.3205023
50
47.8240157
51
76.4266918
0
ARC
8
DEFAULT_255_1_234
10
5.6233522
20
29.340159
40
0.2862661
50
6.9168658
51
47.6261438
0
ARC
8
DEFAULT_255_1_234
10
5.5046925
20
29.318237
40
0.4067708
50
359.8419705
51
7.9694496
0
ARC
8
DEFAULT_255_1_234
10
5.5388822
20
28.7741925
40
0.2513121
50
359.4454068
51
16.9256425
0
ARC
8
DEFAULT_255_1_234
10
5.5857633
20
28.7871033
40
0.2027071
50
17.292259
51
45.462717
0
ARC
8
DEFAULT_255_1_234
10
5.5803569
20
28.7824434
40
0.2098212
50
45.3028762
51
83.1921472
0
ARC
8
DEFAULT_255_1_234
10
5.5660253
20
28.7022895
40
0.2911472
50
82.2614531
51
90.143954
0
ARC
8
DEFAULT_255_1_234
10
5.5629373
20
28.725595
40
0.2678513
50
89.4959189
51
104.8579811
0
ARC
8
DEFAULT_255_1_234
10
5.5452632
20
28.792589
40
0.1985654
50
104.8855873
51
135.2448349
0
ARC
8
DEFAULT_255_1_234
10
5.5502405
20
28.7881336
40
0.2052373
50
135.3398955
51
172.104394
0
ARC
8
DEFAULT_255_1_234
10
5.6309463
20
28.7726925
40
0.2873299
50
171.2651929
51
180.1859362
0
ARC
8
DEFAULT_255_1_234
10
5.6140164
20
28.7694733
40
0.2704083
50
179.515471
51
193.6466734
0
ARC
8
DEFAULT_255_1_234
10
5.5323933
20
28.7486777
40
0.1861855
50
193.3540587
51
225.8256931
0
ARC
8
DEFAULT_255_1_234
10
5.536469
20
28.7557524
40
0.1941102
50
226.418029
51
255.8553723
0
ARC
8
DEFAULT_255_1_234
10
5.5621123
20
28.8493998
40
0.2911917
50
255.4655572
51
268.7985967
0
ARC
8
DEFAULT_255_1_234
10
5.5668315
20
28.9332491
40
0.3751331
50
268.3464808
51
270.0104874
0
ARC
8
DEFAULT_255_1_234
10
5.5691703
20
28.8648138
40
0.3067064
50
269.575914
51
282.0823146
0
ARC
8
DEFAULT_255_1_234
10
5.5916612
20
28.7653803
40
0.2047712
50
281.7522535
51
306.6056425
0
ARC
8
DEFAULT_255_1_234
10
5.6015038
20
28.7492487
40
0.1859604
50
307.1350025
51
314.0277951
0
ARC
8
DEFAULT_255_1_234
10
5.5979122
20
28.7518766
40
0.1903475
50
314.2553419
51
350.169324
0
ARC
8
DEFAULT_255_1_234
10
5.5127591
20
28.7703409
40
0.2774269
50
349.4145679
51
0.2930737
0
ARC
8
DEFAULT_255_1_234
10
5.5648024
20
29.2862353
40
0.2300764
50
89.477591
51
105.729794
0
ARC
8
DEFAULT_255_1_234
10
5.5511937
20
29.3367637
40
0.1777519
50
105.922966
51
135.1662921
0
ARC
8
DEFAULT_255_1_234
10
5.553244
20
29.3353419
40
0.1802087
50
135.3053131
51
168.9882338
0
ARC
8
DEFAULT_255_1_234
10
5.6360012
20
29.3163721
40
0.2650806
50
168.3802067
51
180.3602358
0
ARC
8
DEFAULT_255_1_234
10
5.6131592
20
29.3126041
40
0.2422425
50
179.5029707
51
194.9126783
0
ARC
8
DEFAULT_255_1_234
10
5.5546253
20
29.297211
40
0.1817188
50
194.9722181
51
224.1943972
0
ARC
8
DEFAULT_255_1_234
10
5.551812
20
29.2949169
40
0.1781027
50
224.2961434
51
262.0157375
0
ARC
8
DEFAULT_255_1_234
10
5.5660363
20
29.3680661
40
0.2525492
50
261.1250369
51
270.1959853
0
ARC
8
DEFAULT_255_1_234
10
5.5690118
20
29.3493339
40
0.233825
50
269.4825617
51
285.0988277
0
ARC
8
DEFAULT_255_1_234
10
5.5844277
20
29.291499
40
0.1739712
50
285.1585659
51
315.9484648
0
ARC
8
DEFAULT_255_1_234
10
5.5755289
20
29.2996886
40
0.1860616
50
316.0412958
51
351.9162715
0
ARC
8
DEFAULT_255_1_234
10
5.5022244
20
29.3138245
40
0.2606517
50
351.1056823
51
0.1936567
0
ARC
8
DEFAULT_255_1_234
10
5.5285073
20
29.3168369
40
0.234377
50
359.4789506
51
16.0679113
0
ARC
8
DEFAULT_255_1_234
10
5.5761032
20
29.329681
40
0.1850875
50
16.3251951
51
44.791304
0
ARC
8
DEFAULT_255_1_234
10
5.5743313
20
29.3297339
40
0.186312
50
44.3958661
51
88.2498933
0
ARC
8
DEFAULT_255_1_234
10
5.5669867
20
29.2686154
40
0.2476868
50
86.9833827
51
90.0200148
0
LINE
8
DEFAULT_255_1_234
10
4.3091299
20
37.5598211
11
4.5910439
21
37.1116501
0
LINE
8
DEFAULT_255_1_234
10
4.5910439
20
37.1116501
11
4.8713516
21
37.5598211
0
LINE
8
DEFAULT_255_1_234
10
4.8713516
20
37.5598211
11
5.0528689
21
37.5598211
0
LINE
8
DEFAULT_255_1_234
10
5.0528689
20
37.5598211
11
4.6834089
21
36.9799296
0
LINE
8
DEFAULT_255_1_234
10
4.6834089
20
36.9799296
11
5.0617038
21
36.3904
0
LINE
8
DEFAULT_255_1_234
10
5.0617038
20
36.3904
11
4.8785802
21
36.3904
0
LINE
8
DEFAULT_255_1_234
10
4.8785802
20
36.3904
11
4.5910439
21
36.8466027
0
LINE
8
DEFAULT_255_1_234
10
4.5910439
20
36.8466027
11
4.3019014
21
36.3904
0
LINE
8
DEFAULT_255_1_234
10
4.3019014
20
36.3904
11
4.1195809
21
36.3904
0
LINE
8
DEFAULT_255_1_234
10
4.1195809
20
36.3904
11
4.498679
21
36.9799296
0
LINE
8
DEFAULT_255_1_234
10
4.498679
20
36.9799296
11
4.1284158
21
37.5598211
0
LINE
8
DEFAULT_255_1_234
10
4.1284158
20
37.5598211
11
4.3091299
21
37.5598211
0
LINE
8
DEFAULT_255_1_234
10
5.9572426
20
37.5598211
11
5.9572426
21
37.476291
0
LINE
8
DEFAULT_255_1_234
10
5.9572426
20
37.476291
11
5.4729288
21
36.3904
0
LINE
8
DEFAULT_255_1_234
10
5.4729288
20
36.3904
11
5.3171131
21
36.3904
0
LINE
8
DEFAULT_255_1_234
10
5.3171131
20
36.3904
11
5.7998206
21
37.4377387
0
LINE
8
DEFAULT_255_1_234
10
5.7998206
20
37.4377387
11
5.1669196
21
37.4377387
0
LINE
8
DEFAULT_255_1_234
10
5.1669196
20
37.4377387
11
5.1669196
21
37.5598211
0
LINE
8
DEFAULT_255_1_234
10
5.1669196
20
37.5598211
11
5.9572426
21
37.5598211
0
LINE
8
DEFAULT_255_1_234
10
4.3091299
20
45.4973211
11
4.5910439
21
45.0491501
0
LINE
8
DEFAULT_255_1_234
10
4.5910439
20
45.0491501
11
4.8713516
21
45.4973211
0
LINE
8
DEFAULT_255_1_234
10
4.8713516
20
45.4973211
11
5.0528689
21
45.4973211
0
LINE
8
DEFAULT_255_1_234
10
5.0528689
20
45.4973211
11
4.6834089
21
44.9174296
0
LINE
8
DEFAULT_255_1_234
10
4.6834089
20
44.9174296
11
5.0617038
21
44.3279
0
LINE
8
DEFAULT_255_1_234
10
5.0617038
20
44.3279
11
4.8785802
21
44.3279
0
LINE
8
DEFAULT_255_1_234
10
4.8785802
20
44.3279
11
4.5910439
21
44.7841027
0
LINE
8
DEFAULT_255_1_234
10
4.5910439
20
44.7841027
11
4.3019014
21
44.3279
0
LINE
8
DEFAULT_255_1_234
10
4.3019014
20
44.3279
11
4.1195809
21
44.3279
0
LINE
8
DEFAULT_255_1_234
10
4.1195809
20
44.3279
11
4.498679
21
44.9174296
0
LINE
8
DEFAULT_255_1_234
10
4.498679
20
44.9174296
11
4.1284158
21
45.4973211
0
LINE
8
DEFAULT_255_1_234
10
4.1284158
20
45.4973211
11
4.3091299
21
45.4973211
0
LINE
8
DEFAULT_255_1_234
10
5.7588587
20
45.4981243
11
5.7853634
21
45.4981243
0
LINE
8
DEFAULT_255_1_234
10
5.7853634
20
45.4981243
11
5.7853634
21
45.372026
0
LINE
8
DEFAULT_255_1_234
10
5.7853634
20
45.372026
11
5.7580555
21
45.372026
0
LINE
8
DEFAULT_255_1_234
10
5.2110941
20
44.7728583
11
5.2110941
21
44.8298836
0
LINE
8
DEFAULT_255_1_234
10
5.3604845
20
44.8106075
11
5.3604845
21
44.7559917
0
ARC
8
DEFAULT_255_1_234
10
5.7632903
20
44.8722455
40
0.4998079
50
90.6001036
51
104.514704
0
ARC
8
DEFAULT_255_1_234
10
5.7244419
20
45.0167131
40
0.3502176
50
104.2855254
51
133.862935
0
ARC
8
DEFAULT_255_1_234
10
5.7408176
20
45.005883
40
0.3693984
50
134.5302688
51
161.6210873
0
ARC
8
DEFAULT_255_1_234
10
5.9061365
20
44.9475895
40
0.5446739
50
161.2849839
51
174.2076652
0
ARC
8
DEFAULT_255_1_234
10
6.0468302
20
44.9281787
40
0.6866274
50
173.7810589
51
174.9254635
0
ARC
8
DEFAULT_255_1_234
10
5.5918134
20
44.7898839
40
0.3033419
50
95.8330959
51
138.9954921
0
ARC
8
DEFAULT_255_1_234
10
5.614149
20
44.6620375
40
0.4328947
50
89.8753725
51
97.0544009
0
ARC
8
DEFAULT_255_1_234
10
5.6188956
20
44.7455748
40
0.3493769
50
71.6407809
51
90.6240094
0
ARC
8
DEFAULT_255_1_234
10
5.6339529
20
44.8010082
40
0.2920396
50
39.6367836
51
71.019018
0
ARC
8
DEFAULT_255_1_234
10
5.5703002
20
44.7459998
40
0.3761538
50
10.658731
51
39.9043955
0
ARC
8
DEFAULT_255_1_234
10
5.4155085
20
44.7123686
40
0.5345136
50
359.682601
51
11.132623
0
ARC
8
DEFAULT_255_1_234
10
5.4115216
20
44.705301
40
0.5385081
50
347.2486944
51
0.4369317
0
ARC
8
DEFAULT_255_1_234
10
5.5782693
20
44.6651807
40
0.3670249
50
318.1409698
51
347.6118597
0
ARC
8
DEFAULT_255_1_234
10
5.6107686
20
44.6384702
40
0.3250007
50
275.6342139
51
317.8248465
0
ARC
8
DEFAULT_255_1_234
10
5.5886797
20
44.7684219
40
0.4565864
50
269.8874292
51
276.7917694
0
ARC
8
DEFAULT_255_1_234
10
5.5831868
20
44.6658743
40
0.3540676
50
246.9140195
51
270.7437342
0
ARC
8
DEFAULT_255_1_234
10
5.5838258
20
44.6516384
40
0.3412781
50
218.1665114
51
245.878116
0
ARC
8
DEFAULT_255_1_234
10
5.6717719
20
44.7252279
40
0.455911
50
191.4115814
51
218.6077802
0
ARC
8
DEFAULT_255_1_234
10
5.8655808
20
44.7686833
40
0.6545001
50
179.6345085
51
191.7836486
0
ARC
8
DEFAULT_255_1_234
10
6.4238145
20
44.8365697
40
1.2127388
50
171.4525249
51
180.3158839
0
ARC
8
DEFAULT_255_1_234
10
5.9843021
20
44.9049608
40
0.7679464
50
157.9802646
51
171.6246686
0
ARC
8
DEFAULT_255_1_234
10
5.7629042
20
44.9932421
40
0.5296008
50
141.4298019
51
157.854097
0
ARC
8
DEFAULT_255_1_234
10
5.6987362
20
45.0386381
40
0.4511509
50
102.8715806
51
140.8564722
0
ARC
8
DEFAULT_255_1_234
10
5.7634978
20
44.7946552
40
0.7034845
50
90.3778349
51
103.5869322
0
ARC
8
DEFAULT_255_1_234
10
5.5896754
20
44.734173
40
0.2370698
50
89.8751008
51
126.2071704
0
ARC
8
DEFAULT_255_1_234
10
5.5942544
20
44.7187303
40
0.2522934
50
124.9745049
51
144.895901
0
ARC
8
DEFAULT_255_1_234
10
5.5766734
20
44.733056
40
0.2296779
50
145.2974905
51
160.2660252
0
ARC
8
DEFAULT_255_1_234
10
5.8839273
20
44.7528071
40
0.5234525
50
179.6514266
51
190.2855912
0
ARC
8
DEFAULT_255_1_234
10
5.714541
20
44.7208786
40
0.3510893
50
190.0945431
51
207.5098196
0
ARC
8
DEFAULT_255_1_234
10
5.657968
20
44.6939623
40
0.288489
50
207.9583163
51
216.3251085
0
ARC
8
DEFAULT_255_1_234
10
5.6239788
20
44.6660105
40
0.2445587
50
215.7661442
51
232.5456785
0
ARC
8
DEFAULT_255_1_234
10
5.5856771
20
44.6173482
40
0.1826382
50
232.8005391
51
270.6605633
0
ARC
8
DEFAULT_255_1_234
10
5.5902472
20
44.6537612
40
0.2190529
50
269.35537
51
288.4744281
0
ARC
8
DEFAULT_255_1_234
10
5.5995369
20
44.6188118
40
0.1829749
50
289.1833337
51
322.9683818
0
ARC
8
DEFAULT_255_1_234
10
5.5383891
20
44.6670391
40
0.2608399
50
322.6007884
51
346.5182367
0
ARC
8
DEFAULT_255_1_234
10
5.4226487
20
44.6965616
40
0.3802777
50
346.2582162
51
358.7741648
0
ARC
8
DEFAULT_255_1_234
10
5.3208156
20
44.7020965
40
0.4822176
50
358.3755224
51
0.0098023
0
ARC
8
DEFAULT_255_1_234
10
5.3964343
20
44.7048657
40
0.4066078
50
359.6214041
51
11.2839074
0
ARC
8
DEFAULT_255_1_234
10
5.524149
20
44.7315066
40
0.2761514
50
11.0482309
51
31.8146458
0
ARC
8
DEFAULT_255_1_234
10
5.5550533
20
44.7482584
40
0.2410679
50
32.3035391
51
38.082671
0
ARC
8
DEFAULT_255_1_234
10
5.5971193
20
44.7863662
40
0.1844966
50
36.825067
51
85.7415724
0
ARC
8
DEFAULT_255_1_234
10
5.5904026
20
44.7363301
40
0.2349122
50
85.0140713
51
90.0513278
0
LINE
8
DEFAULT_255_1_234
10
4.3091299
20
53.4348211
11
4.5910439
21
52.9866501
0
LINE
8
DEFAULT_255_1_234
10
4.5910439
20
52.9866501
11
4.8713516
21
53.4348211
0
LINE
8
DEFAULT_255_1_234
10
4.8713516
20
53.4348211
11
5.0528689
21
53.4348211
0
LINE
8
DEFAULT_255_1_234
10
5.0528689
20
53.4348211
11
4.6834089
21
52.8549296
0
LINE
8
DEFAULT_255_1_234
10
4.6834089
20
52.8549296
11
5.0617038
21
52.2654
0
LINE
8
DEFAULT_255_1_234
10
5.0617038
20
52.2654
11
4.8785802
21
52.2654
0
LINE
8
DEFAULT_255_1_234
10
4.8785802
20
52.2654
11
4.5910439
21
52.7216027
0
LINE
8
DEFAULT_255_1_234
10
4.5910439
20
52.7216027
11
4.3019014
21
52.2654
0
LINE
8
DEFAULT_255_1_234
10
4.3019014
20
52.2654
11
4.1195809
21
52.2654
0
LINE
8
DEFAULT_255_1_234
10
4.1195809
20
52.2654
11
4.498679
21
52.8549296
0
LINE
8
DEFAULT_255_1_234
10
4.498679
20
52.8549296
11
4.1284158
21
53.4348211
0
LINE
8
DEFAULT_255_1_234
10
4.1284158
20
53.4348211
11
4.3091299
21
53.4348211
0
LINE
8
DEFAULT_255_1_234
10
5.3893987
20
52.8211963
11
5.270529
21
52.8517169
0
LINE
8
DEFAULT_255_1_234
10
5.270529
20
52.8517169
11
5.3299639
21
53.4348211
0
LINE
8
DEFAULT_255_1_234
10
5.3299639
20
53.4348211
11
5.9291315
21
53.4348211
0
LINE
8
DEFAULT_255_1_234
10
5.9291315
20
53.4348211
11
5.9291315
21
53.2974784
0
LINE
8
DEFAULT_255_1_234
10
5.9291315
20
53.2974784
11
5.4560622
21
53.2974784
0
LINE
8
DEFAULT_255_1_234
10
5.4560622
20
53.2974784
11
5.4207225
21
52.9786184
0
LINE
8
DEFAULT_255_1_234
10
5.228764
20
52.5730156
11
5.3693194
21
52.5730156
0
LINE
8
DEFAULT_255_1_234
10
5.4287542
20
52.8533232
11
5.3893987
21
52.8211963
0
ARC
8
DEFAULT_255_1_234
10
5.6062009
20
52.660623
40
0.3681349
50
93.7182161
51
120.2538958
0
ARC
8
DEFAULT_255_1_234
10
5.6156272
20
52.5798394
40
0.449379
50
89.9660152
51
94.2496022
0
ARC
8
DEFAULT_255_1_234
10
5.6197006
20
52.6387549
40
0.390482
50
73.8043271
51
90.5585896
0
ARC
8
DEFAULT_255_1_234
10
5.6431903
20
52.7245602
40
0.3015334
50
41.3071453
51
73.5430202
0
ARC
8
DEFAULT_255_1_234
10
5.601573
20
52.6887324
40
0.3564457
50
13.5075983
51
41.2174222
0
ARC
8
DEFAULT_255_1_234
10
5.4373934
20
52.6457486
40
0.5261351
50
1.1331335
51
13.8829381
0
ARC
8
DEFAULT_255_1_234
10
5.2962303
20
52.6381665
40
0.6674378
50
359.9919444
51
1.544251
0
ARC
8
DEFAULT_255_1_234
10
5.4239129
20
52.634028
40
0.5397702
50
347.8572367
51
0.4293338
0
ARC
8
DEFAULT_255_1_234
10
5.5989447
20
52.5943736
40
0.3603188
50
323.673004
51
348.1672506
0
ARC
8
DEFAULT_255_1_234
10
5.6283955
20
52.5764168
40
0.3259678
50
316.8171152
51
323.1492751
0
ARC
8
DEFAULT_255_1_234
10
5.6345144
20
52.572746
40
0.3189975
50
281.8396411
51
316.5457803
0
ARC
8
DEFAULT_255_1_234
10
5.5969408
20
52.7282762
40
0.4789527
50
269.5770101
51
282.4214771
0
ARC
8
DEFAULT_255_1_234
10
5.5898219
20
52.7069125
40
0.45759
50
256.2427136
51
270.4486331
0
ARC
8
DEFAULT_255_1_234
10
5.5599121
20
52.5869229
40
0.3339303
50
228.9023911
51
256.3314342
0
ARC
8
DEFAULT_255_1_234
10
5.5525354
20
52.5752746
40
0.32031
50
193.753695
51
228.5271154
0
ARC
8
DEFAULT_255_1_234
10
5.6763308
20
52.61158
40
0.4492253
50
184.924711
51
194.497588
0
ARC
8
DEFAULT_255_1_234
10
5.6955875
20
52.6151591
40
0.3289787
50
187.3600538
51
198.6732863
0
ARC
8
DEFAULT_255_1_234
10
5.5906169
20
52.5787674
40
0.217884
50
198.4451669
51
217.794479
0
ARC
8
DEFAULT_255_1_234
10
5.5610344
20
52.5578085
40
0.1816698
50
218.2887171
51
228.5612368
0
ARC
8
DEFAULT_255_1_234
10
5.5708131
20
52.5709963
40
0.1980329
50
228.9654866
51
258.1234728
0
ARC
8
DEFAULT_255_1_234
10
5.5913841
20
52.6590833
40
0.2884748
50
257.7258293
51
270.401361
0
ARC
8
DEFAULT_255_1_234
10
5.5958727
20
52.6145821
40
0.2439788
50
269.4204404
51
286.4209037
0
ARC
8
DEFAULT_255_1_234
10
5.6107215
20
52.5606657
40
0.1880666
50
286.7251356
51
320.600362
0
ARC
8
DEFAULT_255_1_234
10
5.572404
20
52.5917595
40
0.2374121
50
320.6712579
51
344.5441685
0
ARC
8
DEFAULT_255_1_234
10
5.4567366
20
52.6257045
40
0.3579479
50
344.2412205
51
356.7357071
0
ARC
8
DEFAULT_255_1_234
10
5.3318515
20
52.6360444
40
0.4832297
50
356.3548756
51
0.0500261
0
ARC
8
DEFAULT_255_1_234
10
5.4655024
20
52.639165
40
0.3495889
50
359.5576869
51
12.953486
0
ARC
8
DEFAULT_255_1_234
10
5.5709921
20
52.6647434
40
0.2410532
50
12.6490276
51
41.6081334
0
ARC
8
DEFAULT_255_1_234
10
5.5940292
20
52.6843321
40
0.2108218
50
41.7850273
51
85.9892764
0
ARC
8
DEFAULT_255_1_234
10
5.5817029
20
52.6030462
40
0.2928454
50
84.6957577
51
90.0676183
0
ARC
8
DEFAULT_255_1_234
10
5.5793513
20
52.5361716
40
0.3597255
50
89.6804936
51
99.1614436
0
ARC
8
DEFAULT_255_1_234
10
5.5588144
20
52.6589131
40
0.235281
50
98.9830931
51
113.8908934
0
ARC
8
DEFAULT_255_1_234
10
5.5358554
20
52.7130587
40
0.176479
50
114.1950727
51
127.3641004
0
LINE
8
DEFAULT_255_1_234
10
4.8580119
20
60.3241792
11
4.8580119
21
60.2029
0
LINE
8
DEFAULT_255_1_234
10
4.8580119
20
60.2029
11
4.091784
21
60.2029
0
LINE
8
DEFAULT_255_1_234
10
4.091784
20
60.2029
11
4.091784
21
60.3097221
0
LINE
8
DEFAULT_255_1_234
10
4.091784
20
60.3097221
11
4.4965836
21
60.7594995
0
LINE
8
DEFAULT_255_1_234
10
4.2178823
20
61.0277595
11
4.0692952
21
61.0277595
0
LINE
8
DEFAULT_255_1_234
10
4.5841296
20
60.6639218
11
4.2708918
21
60.3241792
0
LINE
8
DEFAULT_255_1_234
10
4.2708918
20
60.3241792
11
4.8580119
21
60.3241792
0
ARC
8
DEFAULT_255_1_234
10
3.147567
20
61.9524527
40
1.8008286
50
318.5132453
51
320.7828378
0
ARC
8
DEFAULT_255_1_234
10
3.6762644
20
61.5221426
40
1.1191493
50
320.7372736
51
323.9737074
0
ARC
8
DEFAULT_255_1_234
10
4.0682501
20
61.2381361
40
0.6350923
50
323.8961724
51
328.6421089
0
ARC
8
DEFAULT_255_1_234
10
4.2729096
20
61.1119031
40
0.3946393
50
328.8299013
51
331.789948
0
ARC
8
DEFAULT_255_1_234
10
4.3726274
20
61.0604509
40
0.2824501
50
331.4255242
51
352.9364833
0
ARC
8
DEFAULT_255_1_234
10
4.3862775
20
61.0573976
40
0.2685315
50
353.2248685
51
0.0169286
0
ARC
8
DEFAULT_255_1_234
10
4.4072652
20
61.059695
40
0.2475536
50
359.4866256
51
15.9339782
0
ARC
8
DEFAULT_255_1_234
10
4.4579637
20
61.0733286
40
0.1950618
50
16.1714718
51
43.5284424
0
ARC
8
DEFAULT_255_1_234
10
4.4656946
20
61.0810573
40
0.184134
50
43.4415429
51
83.1661404
0
ARC
8
DEFAULT_255_1_234
10
4.4522864
20
61.0073771
40
0.258926
50
82.160215
51
90.1505798
0
ARC
8
DEFAULT_255_1_234
10
4.4491291
20
60.9536865
40
0.3126255
50
89.5460705
51
102.5418777
0
ARC
8
DEFAULT_255_1_234
10
4.4248377
20
61.0567665
40
0.2067346
50
102.1739365
51
129.2061916
0
ARC
8
DEFAULT_255_1_234
10
4.4169449
20
61.0692094
40
0.1921118
50
129.7279328
51
135.7542026
0
ARC
8
DEFAULT_255_1_234
10
4.4290977
20
61.0595045
40
0.2075944
50
136.175737
51
166.3674722
0
ARC
8
DEFAULT_255_1_234
10
4.5297896
20
61.0325182
40
0.3118201
50
165.9092917
51
178.8683903
0
ARC
8
DEFAULT_255_1_234
10
4.6162757
20
61.0278179
40
0.3983935
50
178.438168
51
180.0083905
0
ARC
8
DEFAULT_255_1_234
10
4.4761359
20
61.0317231
40
0.4068601
50
163.2878735
51
180.5581814
0
ARC
8
DEFAULT_255_1_234
10
4.3959621
20
61.053784
40
0.3237344
50
133.454115
51
162.9470031
0
ARC
8
DEFAULT_255_1_234
10
4.4138162
20
61.0348
40
0.349795
50
100.7869394
51
133.4384016
0
ARC
8
DEFAULT_255_1_234
10
4.4485934
20
60.8799319
40
0.5084616
50
89.6605301
51
101.3704185
0
ARC
8
DEFAULT_255_1_234
10
4.4552273
20
60.8860496
40
0.502348
50
78.2171172
51
90.4130393
0
ARC
8
DEFAULT_255_1_234
10
4.4907351
20
61.0484637
40
0.3361092
50
55.9268222
51
78.4888551
0
ARC
8
DEFAULT_255_1_234
10
4.5103791
20
61.0823324
40
0.2970617
50
47.9292255
51
55.4054003
0
ARC
8
DEFAULT_255_1_234
10
4.5205352
20
61.0926502
40
0.2825983
50
4.3347696
51
48.0560701
0
ARC
8
DEFAULT_255_1_234
10
4.4109745
20
61.0756601
40
0.393225
50
359.925209
51
5.5967654
0
ARC
8
DEFAULT_255_1_234
10
4.4538637
20
61.0812816
40
0.3503892
50
337.8914096
51
358.9967724
0
ARC
8
DEFAULT_255_1_234
10
4.1825049
20
61.1859706
40
0.6412172
50
326.9135351
51
338.3505194
0
ARC
8
DEFAULT_255_1_234
10
3.7839353
20
61.4414284
40
1.1146189
50
319.6472867
51
327.095818
0
ARC
8
DEFAULT_255_1_234
10
3.4006356
20
61.7576
40
1.6114559
50
317.2586784
51
319.9046139
0
LINE
8
DEFAULT_255_1_234
10
5.7591729
20
60.5739663
11
5.9141854
21
60.5739663
0
LINE
8
DEFAULT_255_1_234
10
5.0138276
20
60.7329947
11
5.0138276
21
60.8454391
0
LINE
8
DEFAULT_255_1_234
10
5.9141854
20
60.9964357
11
5.7591729
21
60.9964357
0
LINE
8
DEFAULT_255_1_234
10
5.1688401
20
60.8414232
11
5.1688401
21
60.7281757
0
ARC
8
DEFAULT_255_1_234
10
5.3661241
20
60.6336846
40
0.5513052
50
340.1774281
51
353.7814284
0
ARC
8
DEFAULT_255_1_234
10
5.5232594
20
60.5751582
40
0.3836379
50
311.4558989
51
340.4421614
0
ARC
8
DEFAULT_255_1_234
10
5.5199262
20
60.5862528
40
0.3941894
50
282.4333181
51
310.7513653
0
ARC
8
DEFAULT_255_1_234
10
5.4760001
20
60.7677679
40
0.5809175
50
269.9358511
51
282.809604
0
ARC
8
DEFAULT_255_1_234
10
5.4708067
20
60.9135212
40
0.7266847
50
270.0021091
51
270.3581957
0
ARC
8
DEFAULT_255_1_234
10
5.4655484
20
60.6534585
40
0.4666519
50
250.7884749
51
270.6489167
0
ARC
8
DEFAULT_255_1_234
10
5.4487319
20
60.5897319
40
0.4009729
50
219.3627325
51
250.0611886
0
ARC
8
DEFAULT_255_1_234
10
5.531653
20
60.6602042
40
0.5097822
50
193.5479632
51
219.5756669
0
ARC
8
DEFAULT_255_1_234
10
5.7688151
20
60.7217919
40
0.7547848
50
181.1218675
51
193.87563
0
ARC
8
DEFAULT_255_1_234
10
5.9758332
20
60.732858
40
0.9620055
50
179.9918545
51
181.5394234
0
ARC
8
DEFAULT_255_1_234
10
5.7907434
20
60.8491788
40
0.7769248
50
169.5837241
51
180.2757934
0
ARC
8
DEFAULT_255_1_234
10
5.6070372
20
60.8831229
40
0.590109
50
155.0365899
51
169.6003176
0
ARC
8
DEFAULT_255_1_234
10
5.4934836
20
60.9378677
40
0.4640625
50
136.783148
51
155.2472683
0
ARC
8
DEFAULT_255_1_234
10
5.4545313
20
60.9709562
40
0.4130255
50
121.7633186
51
136.428115
0
ARC
8
DEFAULT_255_1_234
10
5.4680275
20
60.9460227
40
0.4413323
50
95.6459699
51
121.5490577
0
ARC
8
DEFAULT_255_1_234
10
5.4837557
20
60.8351949
40
0.55319
50
89.924208
51
96.1377933
0
ARC
8
DEFAULT_255_1_234
10
5.488799
20
60.8470542
40
0.5413475
50
76.6779277
51
90.4563316
0
ARC
8
DEFAULT_255_1_234
10
5.5281613
20
61.0061114
40
0.3775041
50
47.485847
51
76.9287264
0
ARC
8
DEFAULT_255_1_234
10
5.5134586
20
60.9961159
40
0.3948286
50
16.5424086
51
46.8933463
0
ARC
8
DEFAULT_255_1_234
10
5.3526743
20
60.9432861
40
0.564021
50
5.4072051
51
17.0365086
0
ARC
8
DEFAULT_255_1_234
10
5.208776
20
60.9201679
40
0.5556559
50
7.8891745
51
15.9239216
0
ARC
8
DEFAULT_255_1_234
10
5.4074773
20
60.9778631
40
0.3487515
50
15.7653144
51
27.9410532
0
ARC
8
DEFAULT_255_1_234
10
5.5178991
20
61.036979
40
0.2235026
50
27.8166557
51
46.4008329
0
ARC
8
DEFAULT_255_1_234
10
5.5228634
20
61.0364082
40
0.2205286
50
47.4371857
51
75.0698205
0
ARC
8
DEFAULT_255_1_234
10
5.4920029
20
60.9289765
40
0.3322915
50
74.7008593
51
87.8124495
0
ARC
8
DEFAULT_255_1_234
10
5.4846716
20
60.8233844
40
0.4380987
50
87.3814673
51
90.0240855
0
ARC
8
DEFAULT_255_1_234
10
5.4808259
20
60.9411291
40
0.3203749
50
89.3451631
51
108.5745436
0
ARC
8
DEFAULT_255_1_234
10
5.4671365
20
60.9924908
40
0.2673494
50
109.2998449
51
143.3037509
0
ARC
8
DEFAULT_255_1_234
10
5.5433437
20
60.9338881
40
0.3634757
50
143.0753173
51
163.1916937
0
ARC
8
DEFAULT_255_1_234
10
5.7385165
20
60.8722967
40
0.5681262
50
162.9373603
51
174.6208611
0
ARC
8
DEFAULT_255_1_234
10
6.0011207
20
60.843501
40
0.8322832
50
174.3419979
51
180.1430411
0
ARC
8
DEFAULT_255_1_234
10
5.9080363
20
60.7240698
40
0.7392076
50
179.6817502
51
189.150529
0
ARC
8
DEFAULT_255_1_234
10
5.6579611
20
60.682419
40
0.4856932
50
188.9910863
51
203.5773039
0
ARC
8
DEFAULT_255_1_234
10
5.5499944
20
60.6376211
40
0.3688271
50
203.9077269
51
215.1312379
0
ARC
8
DEFAULT_255_1_234
10
5.4577038
20
60.5660941
40
0.2522457
50
213.9071664
51
263.8849284
0
ARC
8
DEFAULT_255_1_234
10
5.4702367
20
60.6445518
40
0.3316174
50
263.1758525
51
270.1031083
0
ARC
8
DEFAULT_255_1_234
10
5.4734459
20
60.7692365
40
0.4563091
50
269.6719807
51
279.0609165
0
ARC
8
DEFAULT_255_1_234
10
5.5001227
20
60.6079907
40
0.2928759
50
278.8750225
51
293.6346586
0
ARC
8
DEFAULT_255_1_234
10
5.5321435
20
60.53279
40
0.2111472
50
293.8553404
51
310.0518804
0
ARC
8
DEFAULT_255_1_234
10
5.5326289
20
60.5265516
40
0.2060917
50
311.0646779
51
332.0108348
0
ARC
8
DEFAULT_255_1_234
10
5.4134016
20
60.5922978
40
0.3422352
50
331.6588543
51
343.2878891
0
ARC
8
DEFAULT_255_1_234
10
5.2071531
20
60.6556798
40
0.5580003
50
343.1446044
51
351.010618
0
ARC
8
DEFAULT_255_1_234
10
5.0530177
20
60.6837871
40
0.7146438
50
350.7157277
51
351.1602153
0
LINE
8
DEFAULT_255_1_234
10
4.4149299
20
69.3098211
11
4.6968439
21
68.8616501
0
LINE
8
DEFAULT_255_1_234
10
4.6968439
20
68.8616501
11
4.9771516
21
69.3098211
0
LINE
8
DEFAULT_255_1_234
10
4.9771516
20
69.3098211
11
5.1586689
21
69.3098211
0
LINE
8
DEFAULT_255_1_234
10
5.1586689
20
69.3098211
11
4.7892089
21
68.7299296
0
LINE
8
DEFAULT_255_1_234
10
4.7892089
20
68.7299296
11
5.1675038
21
68.1404
0
LINE
8
DEFAULT_255_1_234
10
5.1675038
20
68.1404
11
4.9843802
21
68.1404
0
LINE
8
DEFAULT_255_1_234
10
4.9843802
20
68.1404
11
4.6968439
21
68.5966027
0
LINE
8
DEFAULT_255_1_234
10
4.6968439
20
68.5966027
11
4.4077014
21
68.1404
0
LINE
8
DEFAULT_255_1_234
10
4.4077014
20
68.1404
11
4.2253809
21
68.1404
0
LINE
8
DEFAULT_255_1_234
10
4.2253809
20
68.1404
11
4.604479
21
68.7299296
0
LINE
8
DEFAULT_255_1_234
10
4.604479
20
68.7299296
11
4.2342158
21
69.3098211
0
LINE
8
DEFAULT_255_1_234
10
4.2342158
20
69.3098211
11
4.4149299
21
69.3098211
0
LINE
8
DEFAULT_255_1_234
10
5.935338
20
69.3098211
11
5.935338
21
68.533152
0
LINE
8
DEFAULT_255_1_234
10
5.935338
20
68.533152
11
6.0975791
21
68.533152
0
LINE
8
DEFAULT_255_1_234
10
6.0975791
20
68.533152
11
6.0975791
21
68.4118728
0
LINE
8
DEFAULT_255_1_234
10
6.0975791
20
68.4118728
11
5.935338
21
68.4118728
0
LINE
8
DEFAULT_255_1_234
10
5.935338
20
68.4118728
11
5.935338
21
68.1404
0
LINE
8
DEFAULT_255_1_234
10
5.935338
20
68.1404
11
5.7859477
21
68.1404
0
LINE
8
DEFAULT_255_1_234
10
5.7859477
20
68.1404
11
5.7859477
21
68.4118728
0
LINE
8
DEFAULT_255_1_234
10
5.7859477
20
68.4118728
11
5.2534434
21
68.4118728
0
LINE
8
DEFAULT_255_1_234
10
5.2534434
20
68.4118728
11
5.2534434
21
68.4994187
0
LINE
8
DEFAULT_255_1_234
10
5.2534434
20
68.4994187
11
5.7771127
21
69.3098211
0
LINE
8
DEFAULT_255_1_234
10
5.7771127
20
69.3098211
11
5.935338
21
69.3098211
0
LINE
8
DEFAULT_255_1_234
10
5.7682778
20
69.0744912
11
5.4221099
21
68.533152
0
LINE
8
DEFAULT_255_1_234
10
5.4221099
20
68.533152
11
5.7859477
21
68.533152
0
LINE
8
DEFAULT_255_1_234
10
5.7859477
20
68.533152
11
5.7859477
21
69.1066181
0
LINE
8
DEFAULT_255_1_234
10
5.7859477
20
69.1066181
11
5.7682778
21
69.0744912
0
LINE
8
DEFAULT_255_1_234
10
4.3091299
20
77.2473211
11
4.5910439
21
76.7991501
0
LINE
8
DEFAULT_255_1_234
10
4.5910439
20
76.7991501
11
4.8713516
21
77.2473211
0
LINE
8
DEFAULT_255_1_234
10
4.8713516
20
77.2473211
11
5.0528689
21
77.2473211
0
LINE
8
DEFAULT_255_1_234
10
5.0528689
20
77.2473211
11
4.6834089
21
76.6674296
0
LINE
8
DEFAULT_255_1_234
10
4.6834089
20
76.6674296
11
5.0617038
21
76.0779
0
LINE
8
DEFAULT_255_1_234
10
5.0617038
20
76.0779
11
4.8785802
21
76.0779
0
LINE
8
DEFAULT_255_1_234
10
4.8785802
20
76.0779
11
4.5910439
21
76.5341027
0
LINE
8
DEFAULT_255_1_234
10
4.5910439
20
76.5341027
11
4.3019014
21
76.0779
0
LINE
8
DEFAULT_255_1_234
10
4.3019014
20
76.0779
11
4.1195809
21
76.0779
0
LINE
8
DEFAULT_255_1_234
10
4.1195809
20
76.0779
11
4.498679
21
76.6674296
0
LINE
8
DEFAULT_255_1_234
10
4.498679
20
76.6674296
11
4.1284158
21
77.2473211
0
LINE
8
DEFAULT_255_1_234
10
4.1284158
20
77.2473211
11
4.3091299
21
77.2473211
0
LINE
8
DEFAULT_255_1_234
10
5.418313
20
76.6136169
11
5.418313
21
76.7348962
0
LINE
8
DEFAULT_255_1_234
10
5.418313
20
76.7348962
11
5.5299542
21
76.7348962
0
LINE
8
DEFAULT_255_1_234
10
5.339602
20
76.9405087
11
5.1910148
21
76.9405087
0
LINE
8
DEFAULT_255_1_234
10
5.1805735
20
76.3863188
11
5.3299639
21
76.3863188
0
LINE
8
DEFAULT_255_1_234
10
5.5299542
20
76.6136169
11
5.418313
21
76.6136169
0
ARC
8
DEFAULT_255_1_234
10
5.5270408
20
77.0741713
40
0.3392876
50
270.4919872
51
281.8951556
0
ARC
8
DEFAULT_255_1_234
10
5.551167
20
76.9639702
40
0.2264817
50
281.6691735
51
301.2943132
0
ARC
8
DEFAULT_255_1_234
10
5.568188
20
76.9328304
40
0.1910381
50
301.7833094
51
311.7545298
0
ARC
8
DEFAULT_255_1_234
10
5.5773456
20
76.9226748
40
0.1773635
50
311.7323931
51
354.2802411
0
ARC
8
DEFAULT_255_1_234
10
5.5047081
20
76.9351722
40
0.2509385
50
353.0937916
51
0.1181479
0
ARC
8
DEFAULT_255_1_234
10
5.4585866
20
76.9399386
40
0.2970898
50
359.1805295
51
15.0453146
0
ARC
8
DEFAULT_255_1_234
10
5.5931703
20
76.9791992
40
0.1569564
50
13.9577229
51
77.6713066
0
ARC
8
DEFAULT_255_1_234
10
5.5545232
20
76.8406949
40
0.3006298
50
76.1116566
51
90.7026153
0
ARC
8
DEFAULT_255_1_234
10
5.548607
20
76.8680545
40
0.2732568
50
89.5324876
51
103.531937
0
ARC
8
DEFAULT_255_1_234
10
5.5285514
20
76.9479884
40
0.1908508
50
103.2931773
51
133.5619022
0
ARC
8
DEFAULT_255_1_234
10
5.5241003
20
76.9539375
40
0.1834746
50
133.8349307
51
173.5344437
0
ARC
8
DEFAULT_255_1_234
10
5.5964046
20
76.9411213
40
0.2568033
50
172.5096846
51
180.1366907
0
ARC
8
DEFAULT_255_1_234
10
5.501294
20
76.9445622
40
0.3103056
50
155.3484492
51
180.7484736
0
ARC
8
DEFAULT_255_1_234
10
5.4964029
20
76.9416846
40
0.3070957
50
131.5744599
51
154.4798489
0
ARC
8
DEFAULT_255_1_234
10
5.5277176
20
76.910031
40
0.3515643
50
96.9875458
51
131.9690667
0
ARC
8
DEFAULT_255_1_234
10
5.5496656
20
76.7854636
40
0.4779224
50
89.8596053
51
97.7825159
0
ARC
8
DEFAULT_255_1_234
10
5.5544719
20
76.7592616
40
0.5041361
50
78.3655447
51
90.4131539
0
ARC
8
DEFAULT_255_1_234
10
5.5902637
20
76.9251887
40
0.3344039
50
56.6229102
51
78.638727
0
ARC
8
DEFAULT_255_1_234
10
5.6117581
20
76.9627805
40
0.2912001
50
47.0253525
51
56.0854072
0
ARC
8
DEFAULT_255_1_234
10
5.6137361
20
76.9667223
40
0.2869704
50
10.9208013
51
46.7778124
0
ARC
8
DEFAULT_255_1_234
10
5.4773427
20
76.9351857
40
0.426899
50
359.6364486
51
11.6087304
0
ARC
8
DEFAULT_255_1_234
10
5.6608271
20
76.9336752
40
0.243409
50
332.3549906
51
359.7179418
0
ARC
8
DEFAULT_255_1_234
10
5.5957873
20
76.9645142
40
0.3153459
50
325.2333722
51
332.8745602
0
ARC
8
DEFAULT_255_1_234
10
5.6110496
20
76.9538828
40
0.2967456
50
292.9802137
51
325.2392345
0
ARC
8
DEFAULT_255_1_234
10
5.583587
20
77.0072863
40
0.3566604
50
292.5402179
51
293.6924929
0
ARC
8
DEFAULT_255_1_234
10
5.6228466
20
76.3618091
40
0.3307468
50
57.6435486
51
72.8625112
0
ARC
8
DEFAULT_255_1_234
10
5.6582966
20
76.4192549
40
0.2632492
50
36.7248896
51
57.4697979
0
ARC
8
DEFAULT_255_1_234
10
5.6571598
20
76.420522
40
0.2634081
50
8.0545065
51
36.356114
0
ARC
8
DEFAULT_255_1_234
10
5.5708784
20
76.4050174
40
0.3510261
50
359.8320645
51
8.5869982
0
ARC
8
DEFAULT_255_1_234
10
5.533356
20
76.4002101
40
0.3885653
50
343.9829931
51
0.5571613
0
ARC
8
DEFAULT_255_1_234
10
5.6219757
20
76.3759438
40
0.2966924
50
311.6359546
51
343.7651759
0
ARC
8
DEFAULT_255_1_234
10
5.5841326
20
76.4186102
40
0.3537231
50
279.7829875
51
311.6255694
0
ARC
8
DEFAULT_255_1_234
10
5.5540102
20
76.562328
40
0.5004971
50
269.7286406
51
280.3856417
0
ARC
8
DEFAULT_255_1_234
10
5.5478175
20
76.5581996
40
0.4963778
50
256.6828919
51
270.4412052
0
ARC
8
DEFAULT_255_1_234
10
5.5139471
20
76.4197394
40
0.3538406
50
229.4223008
51
256.8556159
0
ARC
8
DEFAULT_255_1_234
10
5.4724864
20
76.3730736
40
0.2914296
50
181.818294
51
229.6455059
0
ARC
8
DEFAULT_255_1_234
10
5.576482
20
76.3861496
40
0.3959084
50
179.9755256
51
183.2323064
0
ARC
8
DEFAULT_255_1_234
10
5.5592566
20
76.3841037
40
0.2293034
50
179.4465117
51
196.2869258
0
ARC
8
DEFAULT_255_1_234
10
5.5104974
20
76.3707651
40
0.1787621
50
196.5661473
51
227.705904
0
ARC
8
DEFAULT_255_1_234
10
5.5269069
20
76.3891155
40
0.2033784
50
227.7652068
51
257.8762805
0
ARC
8
DEFAULT_255_1_234
10
5.5494039
20
76.4834156
40
0.3003081
50
257.4584385
51
270.426602
0
ARC
8
DEFAULT_255_1_234
10
5.5539605
20
76.5123996
40
0.329292
50
269.5962073
51
280.8789248
0
ARC
8
DEFAULT_255_1_234
10
5.5769134
20
76.3977685
40
0.2123908
50
280.6346389
51
299.8595945
0
ARC
8
DEFAULT_255_1_234
10
5.596004
20
76.3615212
40
0.171457
50
300.3576302
51
314.5517981
0
ARC
8
DEFAULT_255_1_234
10
5.5877101
20
76.3675919
40
0.1816095
50
315.0728369
51
345.0431014
0
ARC
8
DEFAULT_255_1_234
10
5.4953915
20
76.3944841
40
0.2777492
50
344.5986631
51
357.9269593
0
ARC
8
DEFAULT_255_1_234
10
5.4058241
20
76.4006276
40
0.3674917
50
357.4748886
51
0.0231117
0
ARC
8
DEFAULT_255_1_234
10
5.5081351
20
76.4030679
40
0.2651907
50
359.5047933
51
13.4239635
0
ARC
8
DEFAULT_255_1_234
10
5.5947994
20
76.4252478
40
0.1757509
50
12.9498199
51
48.7551375
0
ARC
8
DEFAULT_255_1_234
10
5.5765728
20
76.40034
40
0.2065134
50
49.5088623
51
72.1836453
0
ARC
8
DEFAULT_255_1_234
10
5.5407881
20
76.2941291
40
0.3185836
50
71.9010081
51
84.3554254
0
ARC
8
DEFAULT_255_1_234
10
5.5246513
20
76.1580326
40
0.4556151
50
84.0193428
51
89.333121
0
LINE
8
DEFAULT_255_1_234
10
4.3091299
20
85.1848211
11
4.5910439
21
84.7366501
0
LINE
8
DEFAULT_255_1_234
10
4.5910439
20
84.7366501
11
4.8713516
21
85.1848211
0
LINE
8
DEFAULT_255_1_234
10
4.8713516
20
85.1848211
11
5.0528689
21
85.1848211
0
LINE
8
DEFAULT_255_1_234
10
5.0528689
20
85.1848211
11
4.6834089
21
84.6049296
0
LINE
8
DEFAULT_255_1_234
10
4.6834089
20
84.6049296
11
5.0617038
21
84.0154
0
LINE
8
DEFAULT_255_1_234
10
5.0617038
20
84.0154
11
4.8785802
21
84.0154
0
LINE
8
DEFAULT_255_1_234
10
4.8785802
20
84.0154
11
4.5910439
21
84.4716027
0
LINE
8
DEFAULT_255_1_234
10
4.5910439
20
84.4716027
11
4.3019014
21
84.0154
0
LINE
8
DEFAULT_255_1_234
10
4.3019014
20
84.0154
11
4.1195809
21
84.0154
0
LINE
8
DEFAULT_255_1_234
10
4.1195809
20
84.0154
11
4.498679
21
84.6049296
0
LINE
8
DEFAULT_255_1_234
10
4.498679
20
84.6049296
11
4.1284158
21
85.1848211
0
LINE
8
DEFAULT_255_1_234
10
4.1284158
20
85.1848211
11
4.3091299
21
85.1848211
0
LINE
8
DEFAULT_255_1_234
10
5.9684871
20
84.1366792
11
5.9684871
21
84.0154
0
LINE
8
DEFAULT_255_1_234
10
5.9684871
20
84.0154
11
5.2022592
21
84.0154
0
LINE
8
DEFAULT_255_1_234
10
5.2022592
20
84.0154
11
5.2022592
21
84.1222221
0
LINE
8
DEFAULT_255_1_234
10
5.2022592
20
84.1222221
11
5.6070588
21
84.5719995
0
LINE
8
DEFAULT_255_1_234
10
5.3283575
20
84.8402595
11
5.1797704
21
84.8402595
0
LINE
8
DEFAULT_255_1_234
10
5.6946048
20
84.4764218
11
5.381367
21
84.1366792
0
LINE
8
DEFAULT_255_1_234
10
5.381367
20
84.1366792
11
5.9684871
21
84.1366792
0
ARC
8
DEFAULT_255_1_234
10
4.2580422
20
85.7649527
40
1.8008286
50
318.5132453
51
320.7828378
0
ARC
8
DEFAULT_255_1_234
10
4.7867396
20
85.3346426
40
1.1191493
50
320.7372736
51
323.9737074
0
ARC
8
DEFAULT_255_1_234
10
5.1787252
20
85.0506361
40
0.6350923
50
323.8961724
51
328.6421089
0
ARC
8
DEFAULT_255_1_234
10
5.3833848
20
84.9244031
40
0.3946393
50
328.8299013
51
331.789948
0
ARC
8
DEFAULT_255_1_234
10
5.4831026
20
84.8729509
40
0.2824501
50
331.4255242
51
352.9364833
0
ARC
8
DEFAULT_255_1_234
10
5.4967527
20
84.8698976
40
0.2685315
50
353.2248685
51
0.0169286
0
ARC
8
DEFAULT_255_1_234
10
5.5177404
20
84.872195
40
0.2475536
50
359.4866256
51
15.9339782
0
ARC
8
DEFAULT_255_1_234
10
5.5684389
20
84.8858286
40
0.1950618
50
16.1714718
51
43.5284424
0
ARC
8
DEFAULT_255_1_234
10
5.5761698
20
84.8935573
40
0.184134
50
43.4415429
51
83.1661404
0
ARC
8
DEFAULT_255_1_234
10
5.5627616
20
84.8198771
40
0.258926
50
82.160215
51
90.1505798
0
ARC
8
DEFAULT_255_1_234
10
5.5596043
20
84.7661865
40
0.3126255
50
89.5460705
51
102.5418777
0
ARC
8
DEFAULT_255_1_234
10
5.5353129
20
84.8692665
40
0.2067346
50
102.1739365
51
129.2061916
0
ARC
8
DEFAULT_255_1_234
10
5.5274201
20
84.8817094
40
0.1921118
50
129.7279328
51
135.7542026
0
ARC
8
DEFAULT_255_1_234
10
5.5395729
20
84.8720045
40
0.2075944
50
136.175737
51
166.3674722
0
ARC
8
DEFAULT_255_1_234
10
5.6402648
20
84.8450182
40
0.3118201
50
165.9092917
51
178.8683903
0
ARC
8
DEFAULT_255_1_234
10
5.7267509
20
84.8403179
40
0.3983935
50
178.438168
51
180.0083905
0
ARC
8
DEFAULT_255_1_234
10
5.5866111
20
84.8442231
40
0.4068601
50
163.2878735
51
180.5581814
0
ARC
8
DEFAULT_255_1_234
10
5.5064373
20
84.866284
40
0.3237344
50
133.454115
51
162.9470031
0
ARC
8
DEFAULT_255_1_234
10
5.5242914
20
84.8473
40
0.349795
50
100.7869394
51
133.4384016
0
ARC
8
DEFAULT_255_1_234
10
5.5590686
20
84.6924319
40
0.5084616
50
89.6605301
51
101.3704185
0
ARC
8
DEFAULT_255_1_234
10
5.5657024
20
84.6985496
40
0.502348
50
78.2171172
51
90.4130393
0
ARC
8
DEFAULT_255_1_234
10
5.6012103
20
84.8609637
40
0.3361092
50
55.9268222
51
78.4888551
0
ARC
8
DEFAULT_255_1_234
10
5.6208543
20
84.8948324
40
0.2970617
50
47.9292255
51
55.4054003
0
ARC
8
DEFAULT_255_1_234
10
5.6310103
20
84.9051502
40
0.2825983
50
4.3347696
51
48.0560701
0
ARC
8
DEFAULT_255_1_234
10
5.5214497
20
84.8881601
40
0.393225
50
359.925209
51
5.5967654
0
ARC
8
DEFAULT_255_1_234
10
5.5643389
20
84.8937816
40
0.3503892
50
337.8914096
51
358.9967724
0
ARC
8
DEFAULT_255_1_234
10
5.2929801
20
84.9984706
40
0.6412172
50
326.9135351
51
338.3505194
0
ARC
8
DEFAULT_255_1_234
10
4.8944105
20
85.2539284
40
1.1146189
50
319.6472867
51
327.095818
0
ARC
8
DEFAULT_255_1_234
10
4.5111108
20
85.5701
40
1.6114559
50
317.2586784
51
319.9046139
0
LINE
8
DEFAULT_255_1_234
10
4.3007299
20
93.1223211
11
4.5826439
21
92.6741501
0
LINE
8
DEFAULT_255_1_234
10
4.5826439
20
92.6741501
11
4.8629516
21
93.1223211
0
LINE
8
DEFAULT_255_1_234
10
4.8629516
20
93.1223211
11
5.0444689
21
93.1223211
0
LINE
8
DEFAULT_255_1_234
10
5.0444689
20
93.1223211
11
4.6750089
21
92.5424296
0
LINE
8
DEFAULT_255_1_234
10
4.6750089
20
92.5424296
11
5.0533038
21
91.9529
0
LINE
8
DEFAULT_255_1_234
10
5.0533038
20
91.9529
11
4.8701802
21
91.9529
0
LINE
8
DEFAULT_255_1_234
10
4.8701802
20
91.9529
11
4.5826439
21
92.4091027
0
LINE
8
DEFAULT_255_1_234
10
4.5826439
20
92.4091027
11
4.2935014
21
91.9529
0
LINE
8
DEFAULT_255_1_234
10
4.2935014
20
91.9529
11
4.1111809
21
91.9529
0
LINE
8
DEFAULT_255_1_234
10
4.1111809
20
91.9529
11
4.490279
21
92.5424296
0
LINE
8
DEFAULT_255_1_234
10
4.490279
20
92.5424296
11
4.1200158
21
93.1223211
0
LINE
8
DEFAULT_255_1_234
10
4.1200158
20
93.1223211
11
4.3007299
21
93.1223211
0
LINE
8
DEFAULT_255_1_234
10
5.6821889
20
93.1279433
11
5.6821889
21
91.9529
0
LINE
8
DEFAULT_255_1_234
10
5.6821889
20
91.9529
11
5.5327986
21
91.9529
0
LINE
8
DEFAULT_255_1_234
10
5.5327986
20
91.9529
11
5.5327986
21
92.9432133
0
LINE
8
DEFAULT_255_1_234
10
5.5327986
20
92.9432133
11
5.2332147
21
92.8331785
0
LINE
8
DEFAULT_255_1_234
10
5.2332147
20
92.8331785
11
5.2332147
21
92.9681117
0
LINE
8
DEFAULT_255_1_234
10
5.2332147
20
92.9681117
11
5.6588969
21
93.1279433
0
LINE
8
DEFAULT_255_1_234
10
5.6588969
20
93.1279433
11
5.6821889
21
93.1279433
0
LINE
8
DEFAULT_255_1_234
10
4.3091299
20
101.0598211
11
4.5910439
21
100.6116501
0
LINE
8
DEFAULT_255_1_234
10
4.5910439
20
100.6116501
11
4.8713516
21
101.0598211
0
LINE
8
DEFAULT_255_1_234
10
4.8713516
20
101.0598211
11
5.0528689
21
101.0598211
0
LINE
8
DEFAULT_255_1_234
10
5.0528689
20
101.0598211
11
4.6834089
21
100.4799296
0
LINE
8
DEFAULT_255_1_234
10
4.6834089
20
100.4799296
11
5.0617038
21
99.8904
0
LINE
8
DEFAULT_255_1_234
10
5.0617038
20
99.8904
11
4.8785802
21
99.8904
0
LINE
8
DEFAULT_255_1_234
10
4.8785802
20
99.8904
11
4.5910439
21
100.3466027
0
LINE
8
DEFAULT_255_1_234
10
4.5910439
20
100.3466027
11
4.3019014
21
99.8904
0
LINE
8
DEFAULT_255_1_234
10
4.3019014
20
99.8904
11
4.1195809
21
99.8904
0
LINE
8
DEFAULT_255_1_234
10
4.1195809
20
99.8904
11
4.498679
21
100.4799296
0
LINE
8
DEFAULT_255_1_234
10
4.498679
20
100.4799296
11
4.1284158
21
101.0598211
0
LINE
8
DEFAULT_255_1_234
10
4.1284158
20
101.0598211
11
4.3091299
21
101.0598211
0
LINE
8
DEFAULT_255_1_234
10
5.9355569
20
100.5819327
11
5.9355569
21
100.3891709
0
LINE
8
DEFAULT_255_1_234
10
5.1974402
20
100.3690916
11
5.1974402
21
100.5674755
0
LINE
8
DEFAULT_255_1_234
10
5.7869698
20
100.3490123
11
5.7869698
21
100.5923739
0
LINE
8
DEFAULT_255_1_234
10
5.3460273
20
100.6036184
11
5.3460273
21
100.3658789
0
ARC
8
DEFAULT_255_1_234
10
4.7108459
20
100.3842805
40
1.2247208
50
353.8441951
51
0.2287902
0
ARC
8
DEFAULT_255_1_234
10
5.1747963
20
100.3324806
40
0.7578929
50
344.4934747
51
353.9765454
0
ARC
8
DEFAULT_255_1_234
10
5.4740553
20
100.2473981
40
0.4467846
50
329.2803592
51
344.7472793
0
ARC
8
DEFAULT_255_1_234
10
5.5733378
20
100.1929018
40
0.3336173
50
324.9352394
51
328.6160465
0
ARC
8
DEFAULT_255_1_234
10
5.6110486
20
100.1665427
40
0.2876076
50
280.580143
51
324.9173126
0
ARC
8
DEFAULT_255_1_234
10
5.5709279
20
100.3336099
40
0.4592847
50
269.5977311
51
281.6734359
0
ARC
8
DEFAULT_255_1_234
10
5.5637185
20
100.3216173
40
0.4472986
50
256.6228859
51
270.51044
0
ARC
8
DEFAULT_255_1_234
10
5.5235162
20
100.1667877
40
0.2873874
50
215.8618325
51
257.2788573
0
ARC
8
DEFAULT_255_1_234
10
5.6256194
20
100.2352977
40
0.4102928
50
197.9693508
51
215.2623606
0
ARC
8
DEFAULT_255_1_234
10
5.874131
20
100.3191709
40
0.6725652
50
187.8816417
51
198.2346507
0
ARC
8
DEFAULT_255_1_234
10
6.2699518
20
100.3763079
40
1.0724845
50
180.8976217
51
188.0055519
0
ARC
8
DEFAULT_255_1_234
10
6.5499706
20
100.3866777
40
1.3526448
50
180.7449369
51
181.1510016
0
ARC
8
DEFAULT_255_1_234
10
6.3922435
20
100.5723042
40
1.1948131
50
173.7675579
51
180.231553
0
ARC
8
DEFAULT_255_1_234
10
5.9404582
20
100.6233666
40
0.7401564
50
164.3058563
51
173.9002247
0
ARC
8
DEFAULT_255_1_234
10
5.649265
20
100.7072656
40
0.4371288
50
148.7922025
51
164.568378
0
ARC
8
DEFAULT_255_1_234
10
5.5541103
20
100.7603929
40
0.3282386
50
144.5883898
51
148.1176286
0
ARC
8
DEFAULT_255_1_234
10
5.5198001
20
100.7843315
40
0.2864044
50
101.6440918
51
144.514236
0
ARC
8
DEFAULT_255_1_234
10
5.5623067
20
100.6154069
40
0.4604934
50
89.5284041
51
102.5819763
0
ARC
8
DEFAULT_255_1_234
10
5.5702155
20
100.6115018
40
0.464401
50
77.0437873
51
90.5081339
0
ARC
8
DEFAULT_255_1_234
10
5.6104157
20
100.7757615
40
0.2953195
50
48.2778575
51
77.4994676
0
ARC
8
DEFAULT_255_1_234
10
5.6176788
20
100.7886746
40
0.2808655
50
36.3142134
51
47.6305865
0
ARC
8
DEFAULT_255_1_234
10
5.5308095
20
100.7301515
40
0.3855453
50
18.2931786
51
35.6769206
0
ARC
8
DEFAULT_255_1_234
10
5.2764854
20
100.6428593
40
0.654423
50
8.024666
51
18.5605216
0
ARC
8
DEFAULT_255_1_234
10
4.8601774
20
100.5813792
40
1.0752407
50
1.1274072
51
8.1718305
0
ARC
8
DEFAULT_255_1_234
10
4.5365964
20
100.5686885
40
1.3990231
50
0.5424119
51
1.3863029
0
ARC
8
DEFAULT_255_1_234
10
4.7187342
20
100.5959342
40
1.0682415
50
359.8090433
51
4.9407866
0
ARC
8
DEFAULT_255_1_234
10
5.1397356
20
100.6335113
40
0.6455691
50
4.8362157
51
12.2904523
0
ARC
8
DEFAULT_255_1_234
10
5.4152471
20
100.6948965
40
0.3633074
50
12.0805627
51
23.8173984
0
ARC
8
DEFAULT_255_1_234
10
5.5326176
20
100.7445919
40
0.2358723
50
24.2871213
51
31.3935614
0
ARC
8
DEFAULT_255_1_234
10
5.5850874
20
100.7789233
40
0.1732111
50
30.7407893
51
82.4657128
0
ARC
8
DEFAULT_255_1_234
10
5.5671008
20
100.6905691
40
0.263235
50
81.1060089
51
90.2184952
0
ARC
8
DEFAULT_255_1_234
10
5.5635307
20
100.7163924
40
0.2374236
50
89.3806855
51
105.6762551
0
ARC
8
DEFAULT_255_1_234
10
5.5451938
20
100.7830567
40
0.1682847
50
105.7981136
51
149.7388061
0
ARC
8
DEFAULT_255_1_234
10
5.6516016
20
100.719095
40
0.2924306
50
149.4208916
51
163.6286378
0
ARC
8
DEFAULT_255_1_234
10
5.8606904
20
100.655325
40
0.5110213
50
163.3763315
51
172.1410975
0
ARC
8
DEFAULT_255_1_234
10
6.1907623
20
100.6080518
40
0.8444586
50
172.0259487
51
178.0703232
0
ARC
8
DEFAULT_255_1_234
10
6.4937712
20
100.5936906
40
1.1477868
50
177.8631668
51
179.5044149
0
ARC
8
DEFAULT_255_1_234
10
6.3865117
20
100.3622389
40
1.0404907
50
179.7995573
51
185.2460446
0
ARC
8
DEFAULT_255_1_234
10
5.9822156
20
100.3239513
40
0.6343885
50
185.1411642
51
193.0079639
0
ARC
8
DEFAULT_255_1_234
10
5.7178629
20
100.2614641
40
0.3627568
50
192.7897626
51
205.2507664
0
ARC
8
DEFAULT_255_1_234
10
5.6132176
20
100.2147415
40
0.2481908
50
205.8005384
51
211.2537509
0
ARC
8
DEFAULT_255_1_234
10
5.5608616
20
100.179658
40
0.1852521
50
210.3789793
51
238.4008143
0
ARC
8
DEFAULT_255_1_234
10
5.5589138
20
100.1843376
40
0.1882621
50
239.6520629
51
265.9793761
0
ARC
8
DEFAULT_255_1_234
10
5.5674338
20
100.2515427
40
0.2559272
50
265.1315437
51
270.060332
0
ARC
8
DEFAULT_255_1_234
10
5.5703117
20
100.2191534
40
0.2235528
50
269.3314664
51
287.2178029
0
ARC
8
DEFAULT_255_1_234
10
5.5840969
20
100.1688279
40
0.1714108
50
287.7958004
51
329.080874
0
ARC
8
DEFAULT_255_1_234
10
5.4883426
20
100.228593
40
0.2842745
50
328.6634704
51
343.3325132
0
ARC
8
DEFAULT_255_1_234
10
5.2710446
20
100.2962863
40
0.5118644
50
343.0499468
51
351.9393422
0
ARC
8
DEFAULT_255_1_234
10
4.9243746
20
100.3473949
40
0.8622784
50
351.8069023
51
357.7959224
0
ARC
8
DEFAULT_255_1_234
10
4.6008302
20
100.3641721
40
1.1862365
50
357.5871873
51
359.2677531
0
LINE
8
DEFAULT_255_1_234
10
4.5801137
20
109.0029433
11
4.5801137
21
107.8279
0
LINE
8
DEFAULT_255_1_234
10
4.5801137
20
107.8279
11
4.4307234
21
107.8279
0
LINE
8
DEFAULT_255_1_234
10
4.4307234
20
107.8279
11
4.4307234
21
108.8182133
0
LINE
8
DEFAULT_255_1_234
10
4.4307234
20
108.8182133
11
4.1311396
21
108.7081785
0
LINE
8
DEFAULT_255_1_234
10
4.1311396
20
108.7081785
11
4.1311396
21
108.8431117
0
LINE
8
DEFAULT_255_1_234
10
4.1311396
20
108.8431117
11
4.5568217
21
109.0029433
0
LINE
8
DEFAULT_255_1_234
10
4.5568217
20
109.0029433
11
4.5801137
21
109.0029433
0
LINE
8
DEFAULT_255_1_234
10
5.7591729
20
108.1989663
11
5.9141854
21
108.1989663
0
LINE
8
DEFAULT_255_1_234
10
5.0138276
20
108.3579947
11
5.0138276
21
108.4704391
0
LINE
8
DEFAULT_255_1_234
10
5.9141854
20
108.6214357
11
5.7591729
21
108.6214357
0
LINE
8
DEFAULT_255_1_234
10
5.1688401
20
108.4664232
11
5.1688401
21
108.3531757
0
ARC
8
DEFAULT_255_1_234
10
5.3661241
20
108.2586846
40
0.5513052
50
340.1774281
51
353.7814284
0
ARC
8
DEFAULT_255_1_234
10
5.5232594
20
108.2001582
40
0.3836379
50
311.4558989
51
340.4421614
0
ARC
8
DEFAULT_255_1_234
10
5.5199262
20
108.2112528
40
0.3941894
50
282.4333181
51
310.7513653
0
ARC
8
DEFAULT_255_1_234
10
5.4760001
20
108.3927679
40
0.5809175
50
269.9358511
51
282.809604
0
ARC
8
DEFAULT_255_1_234
10
5.4708067
20
108.5385212
40
0.7266847
50
270.0021091
51
270.3581957
0
ARC
8
DEFAULT_255_1_234
10
5.4655484
20
108.2784585
40
0.4666519
50
250.7884749
51
270.6489167
0
ARC
8
DEFAULT_255_1_234
10
5.4487319
20
108.2147319
40
0.4009729
50
219.3627325
51
250.0611886
0
ARC
8
DEFAULT_255_1_234
10
5.531653
20
108.2852042
40
0.5097822
50
193.5479632
51
219.5756669
0
ARC
8
DEFAULT_255_1_234
10
5.7688151
20
108.3467919
40
0.7547848
50
181.1218675
51
193.87563
0
ARC
8
DEFAULT_255_1_234
10
5.9758332
20
108.357858
40
0.9620055
50
179.9918545
51
181.5394234
0
ARC
8
DEFAULT_255_1_234
10
5.7907434
20
108.4741788
40
0.7769248
50
169.5837241
51
180.2757934
0
ARC
8
DEFAULT_255_1_234
10
5.6070372
20
108.5081229
40
0.590109
50
155.0365899
51
169.6003176
0
ARC
8
DEFAULT_255_1_234
10
5.4934836
20
108.5628677
40
0.4640625
50
136.783148
51
155.2472683
0
ARC
8
DEFAULT_255_1_234
10
5.4545313
20
108.5959562
40
0.4130255
50
121.7633186
51
136.428115
0
ARC
8
DEFAULT_255_1_234
10
5.4680275
20
108.5710227
40
0.4413323
50
95.6459699
51
121.5490577
0
ARC
8
DEFAULT_255_1_234
10
5.4837557
20
108.4601949
40
0.55319
50
89.924208
51
96.1377933
0
ARC
8
DEFAULT_255_1_234
10
5.488799
20
108.4720542
40
0.5413475
50
76.6779277
51
90.4563316
0
ARC
8
DEFAULT_255_1_234
10
5.5281613
20
108.6311114
40
0.3775041
50
47.485847
51
76.9287264
0
ARC
8
DEFAULT_255_1_234
10
5.5134586
20
108.6211159
40
0.3948286
50
16.5424086
51
46.8933463
0
ARC
8
DEFAULT_255_1_234
10
5.3526743
20
108.5682861
40
0.564021
50
5.4072051
51
17.0365086
0
ARC
8
DEFAULT_255_1_234
10
5.208776
20
108.5451679
40
0.5556559
50
7.8891745
51
15.9239216
0
ARC
8
DEFAULT_255_1_234
10
5.4074773
20
108.6028631
40
0.3487515
50
15.7653144
51
27.9410532
0
ARC
8
DEFAULT_255_1_234
10
5.5178991
20
108.661979
40
0.2235026
50
27.8166557
51
46.4008329
0
ARC
8
DEFAULT_255_1_234
10
5.5228634
20
108.6614082
40
0.2205286
50
47.4371857
51
75.0698205
0
ARC
8
DEFAULT_255_1_234
10
5.4920029
20
108.5539765
40
0.3322915
50
74.7008593
51
87.8124495
0
ARC
8
DEFAULT_255_1_234
10
5.4846716
20
108.4483844
40
0.4380987
50
87.3814673
51
90.0240855
0
ARC
8
DEFAULT_255_1_234
10
5.4808259
20
108.5661291
40
0.3203749
50
89.3451631
51
108.5745436
0
ARC
8
DEFAULT_255_1_234
10
5.4671365
20
108.6174908
40
0.2673494
50
109.2998449
51
143.3037509
0
ARC
8
DEFAULT_255_1_234
10
5.5433437
20
108.5588881
40
0.3634757
50
143.0753173
51
163.1916937
0
ARC
8
DEFAULT_255_1_234
10
5.7385165
20
108.4972967
40
0.5681262
50
162.9373603
51
174.6208611
0
ARC
8
DEFAULT_255_1_234
10
6.0011207
20
108.468501
40
0.8322832
50
174.3419979
51
180.1430411
0
ARC
8
DEFAULT_255_1_234
10
5.9080363
20
108.3490698
40
0.7392076
50
179.6817502
51
189.150529
0
ARC
8
DEFAULT_255_1_234
10
5.6579611
20
108.307419
40
0.4856932
50
188.9910863
51
203.5773039
0
ARC
8
DEFAULT_255_1_234
10
5.5499944
20
108.2626211
40
0.3688271
50
203.9077269
51
215.1312379
0
ARC
8
DEFAULT_255_1_234
10
5.4577038
20
108.1910941
40
0.2522457
50
213.9071664
51
263.8849284
0
ARC
8
DEFAULT_255_1_234
10
5.4702367
20
108.2695518
40
0.3316174
50
263.1758525
51
270.1031083
0
ARC
8
DEFAULT_255_1_234
10
5.4734459
20
108.3942365
40
0.4563091
50
269.6719807
51
279.0609165
0
ARC
8
DEFAULT_255_1_234
10
5.5001227
20
108.2329907
40
0.2928759
50
278.8750225
51
293.6346586
0
ARC
8
DEFAULT_255_1_234
10
5.5321435
20
108.15779
40
0.2111472
50
293.8553404
51
310.0518804
0
ARC
8
DEFAULT_255_1_234
10
5.5326289
20
108.1515516
40
0.2060917
50
311.0646779
51
332.0108348
0
ARC
8
DEFAULT_255_1_234
10
5.4134016
20
108.2172978
40
0.3422352
50
331.6588543
51
343.2878891
0
ARC
8
DEFAULT_255_1_234
10
5.2071531
20
108.2806798
40
0.5580003
50
343.1446044
51
351.010618
0
ARC
8
DEFAULT_255_1_234
10
5.0530177
20
108.3087871
40
0.7146438
50
350.7157277
51
351.1602153
0
LINE
8
DEFAULT_255_1_234
10
4.2603522
20
116.9348211
11
4.5928662
21
115.9702093
0
LINE
8
DEFAULT_255_1_234
10
4.5928662
20
115.9702093
11
4.9269865
21
116.9348211
0
LINE
8
DEFAULT_255_1_234
10
4.9269865
20
116.9348211
11
5.095653
21
116.9348211
0
LINE
8
DEFAULT_255_1_234
10
5.095653
20
116.9348211
11
4.6619391
21
115.7654
0
LINE
8
DEFAULT_255_1_234
10
4.6619391
20
115.7654
11
4.5253996
21
115.7654
0
LINE
8
DEFAULT_255_1_234
10
4.5253996
20
115.7654
11
4.0924889
21
116.9348211
0
LINE
8
DEFAULT_255_1_234
10
4.0924889
20
116.9348211
11
4.2603522
21
116.9348211
0
LINE
8
DEFAULT_255_1_234
10
5.654662
20
116.7340276
11
5.654662
21
116.3926788
0
LINE
8
DEFAULT_255_1_234
10
5.654662
20
116.3926788
11
5.9807505
21
116.3926788
0
LINE
8
DEFAULT_255_1_234
10
5.9807505
20
116.3926788
11
5.9807505
21
116.2521233
0
LINE
8
DEFAULT_255_1_234
10
5.9807505
20
116.2521233
11
5.654662
21
116.2521233
0
LINE
8
DEFAULT_255_1_234
10
5.654662
20
116.2521233
11
5.654662
21
115.8826634
0
LINE
8
DEFAULT_255_1_234
10
5.654662
20
115.8826634
11
5.5052716
21
115.8826634
0
LINE
8
DEFAULT_255_1_234
10
5.5052716
20
115.8826634
11
5.5052716
21
116.2521233
0
LINE
8
DEFAULT_255_1_234
10
5.5052716
20
116.2521233
11
5.1791831
21
116.2521233
0
LINE
8
DEFAULT_255_1_234
10
5.1791831
20
116.2521233
11
5.1791831
21
116.3926788
0
LINE
8
DEFAULT_255_1_234
10
5.1791831
20
116.3926788
11
5.5052716
21
116.3926788
0
LINE
8
DEFAULT_255_1_234
10
5.5052716
20
116.3926788
11
5.5052716
21
116.7340276
0
LINE
8
DEFAULT_255_1_234
10
5.5052716
20
116.7340276
11
5.654662
21
116.7340276
0
LINE
8
DEFAULT_255_1_234
10
20.7672344
20
124.1607091
11
20.4917458
21
124.1607091
0
LINE
8
DEFAULT_255_1_234
10
20.4917458
20
124.1607091
11
20.4917458
21
123.7029
0
LINE
8
DEFAULT_255_1_234
10
20.4917458
20
123.7029
11
20.3375364
21
123.7029
0
LINE
8
DEFAULT_255_1_234
10
20.3375364
20
123.7029
11
20.3375364
21
124.8723211
0
LINE
8
DEFAULT_255_1_234
10
20.3375364
20
124.8723211
11
20.7688407
21
124.8723211
0
LINE
8
DEFAULT_255_1_234
10
20.4917458
20
124.7454196
11
20.4917458
21
124.2868074
0
LINE
8
DEFAULT_255_1_234
10
20.4917458
20
124.2868074
11
20.7688407
21
124.2868074
0
LINE
8
DEFAULT_255_1_234
10
20.7776756
20
124.7454196
11
20.4917458
21
124.7454196
0
ARC
8
DEFAULT_255_1_234
10
20.7730534
20
124.2664195
40
0.6059162
50
78.8378113
51
90.3983573
0
ARC
8
DEFAULT_255_1_234
10
20.8146548
20
124.4684879
40
0.3996205
50
58.9632738
51
79.0810598
0
ARC
8
DEFAULT_255_1_234
10
20.844809
20
124.5244721
40
0.3361177
50
48.0197965
51
58.447194
0
ARC
8
DEFAULT_255_1_234
10
20.8536951
20
124.5330225
40
0.3238191
50
3.3375044
51
48.1766626
0
ARC
8
DEFAULT_255_1_234
10
20.730679
20
124.5153171
40
0.4477806
50
359.9477528
51
4.6829065
0
ARC
8
DEFAULT_255_1_234
10
20.7430107
20
124.5110628
40
0.4354656
50
346.1877825
51
0.5060252
0
ARC
8
DEFAULT_255_1_234
10
20.8788975
20
124.4757731
40
0.295089
50
310.8831995
51
346.5426355
0
ARC
8
DEFAULT_255_1_234
10
20.8480395
20
124.5174695
40
0.3468331
50
286.6925341
51
310.2288297
0
ARC
8
DEFAULT_255_1_234
10
20.7911226
20
124.6964882
40
0.5346654
50
274.6850312
51
287.0245141
0
ARC
8
DEFAULT_255_1_234
10
20.7685949
20
124.9173932
40
0.7566852
50
269.8969846
51
275.018904
0
ARC
8
DEFAULT_255_1_234
10
20.771354
20
124.7094707
40
0.4226708
50
269.6593078
51
279.4153575
0
ARC
8
DEFAULT_255_1_234
10
20.7970815
20
124.5604133
40
0.2714146
50
279.2049762
51
294.9900808
0
ARC
8
DEFAULT_255_1_234
10
20.8261141
20
124.4956508
40
0.2004525
50
295.2888114
51
311.2911209
0
ARC
8
DEFAULT_255_1_234
10
20.8332035
20
124.485122
40
0.1878703
50
311.7854996
51
347.2861051
0
ARC
8
DEFAULT_255_1_234
10
20.7348194
20
124.5104092
40
0.2894234
50
346.6893224
51
0.1059443
0
ARC
8
DEFAULT_255_1_234
10
20.6593089
20
124.5132685
40
0.3649409
50
359.6350983
51
0.0053152
0
ARC
8
DEFAULT_255_1_234
10
20.7563417
20
124.5157937
40
0.2679199
50
359.4672059
51
15.5933957
0
ARC
8
DEFAULT_255_1_234
10
20.8188306
20
124.5326779
40
0.2031932
50
15.7442113
51
46.6203375
0
ARC
8
DEFAULT_255_1_234
10
20.8040527
20
124.5156484
40
0.2257226
50
46.8628658
51
75.6676503
0
ARC
8
DEFAULT_255_1_234
10
20.7746347
20
124.4097718
40
0.3355939
50
75.276167
51
88.2915297
0
ARC
8
DEFAULT_255_1_234
10
20.7688054
20
124.3219524
40
0.4235602
50
87.8575022
51
88.8000139
0
LINE
8
DEFAULT_255_1_234
10
21.4427036
20
124.8723211
11
21.6274335
21
124.0715568
0
LINE
8
DEFAULT_255_1_234
10
21.6274335
20
124.0715568
11
21.6499224
21
123.9173474
0
LINE
8
DEFAULT_255_1_234
10
21.6499224
20
123.9173474
11
21.6828525
21
124.0562965
0
LINE
8
DEFAULT_255_1_234
10
21.6828525
20
124.0562965
11
21.9141666
21
124.8723211
0
LINE
8
DEFAULT_255_1_234
10
21.9141666
20
124.8723211
11
22.0442808
21
124.8723211
0
LINE
8
DEFAULT_255_1_234
10
22.0442808
20
124.8723211
11
22.2699726
21
124.0562965
0
LINE
8
DEFAULT_255_1_234
10
22.2699726
20
124.0562965
11
22.3020996
21
123.9149379
0
LINE
8
DEFAULT_255_1_234
10
22.3020996
20
123.9149379
11
22.3269979
21
124.07236
0
LINE
8
DEFAULT_255_1_234
10
22.3269979
20
124.07236
11
22.5085152
21
124.8723211
0
LINE
8
DEFAULT_255_1_234
10
22.5085152
20
124.8723211
11
22.6635278
21
124.8723211
0
LINE
8
DEFAULT_255_1_234
10
22.6635278
20
124.8723211
11
22.3800074
21
123.7029
0
LINE
8
DEFAULT_255_1_234
10
22.3800074
20
123.7029
11
22.239452
21
123.7029
0
LINE
8
DEFAULT_255_1_234
10
22.239452
20
123.7029
11
21.9984999
21
124.5550674
0
LINE
8
DEFAULT_255_1_234
10
21.9984999
20
124.5550674
11
21.9800269
21
124.6442197
0
LINE
8
DEFAULT_255_1_234
10
21.9800269
20
124.6442197
11
21.9615539
21
124.5550674
0
LINE
8
DEFAULT_255_1_234
10
21.9615539
20
124.5550674
11
21.7117668
21
123.7029
0
LINE
8
DEFAULT_255_1_234
10
21.7117668
20
123.7029
11
21.5712114
21
123.7029
0
LINE
8
DEFAULT_255_1_234
10
21.5712114
20
123.7029
11
21.2884942
21
124.8723211
0
LINE
8
DEFAULT_255_1_234
10
21.2884942
20
124.8723211
11
21.4427036
21
124.8723211
0
LINE
8
DEFAULT_255_1_234
10
23.5173016
20
123.7029
11
23.2634986
21
124.1759694
0
LINE
8
DEFAULT_255_1_234
10
23.2634986
20
124.1759694
11
22.9888132
21
124.1759694
0
LINE
8
DEFAULT_255_1_234
10
22.9888132
20
124.1759694
11
22.9888132
21
123.7029
0
LINE
8
DEFAULT_255_1_234
10
22.9888132
20
123.7029
11
22.8338006
21
123.7029
0
LINE
8
DEFAULT_255_1_234
10
22.8338006
20
123.7029
11
22.8338006
21
124.8723211
0
LINE
8
DEFAULT_255_1_234
10
22.8338006
20
124.8723211
11
23.2209304
21
124.8723211
0
LINE
8
DEFAULT_255_1_234
10
23.4080699
20
124.2088995
11
23.6827554
21
123.7125381
0
LINE
8
DEFAULT_255_1_234
10
23.6827554
20
123.7125381
11
23.6827554
21
123.7029
0
LINE
8
DEFAULT_255_1_234
10
23.6827554
20
123.7029
11
23.5173016
21
123.7029
0
LINE
8
DEFAULT_255_1_234
10
22.9888132
20
124.7454196
11
22.9888132
21
124.3020677
0
LINE
8
DEFAULT_255_1_234
10
22.9888132
20
124.3020677
11
23.2257495
21
124.3020677
0
LINE
8
DEFAULT_255_1_234
10
23.2249463
20
124.7454196
11
22.9888132
21
124.7454196
0
ARC
8
DEFAULT_255_1_234
10
23.2250944
20
124.1761761
40
0.6961575
50
80.653586
51
90.3427061
0
ARC
8
DEFAULT_255_1_234
10
23.2670418
20
124.4224348
40
0.4463577
50
65.6987447
51
80.8329603
0
ARC
8
DEFAULT_255_1_234
10
23.3148059
20
124.5319322
40
0.3269094
50
50.0017161
51
65.4305835
0
ARC
8
DEFAULT_255_1_234
10
23.3366523
20
124.5614482
40
0.2902647
50
11.628416
51
49.5603263
0
ARC
8
DEFAULT_255_1_234
10
23.1830859
20
124.5239299
40
0.4482792
50
359.5655735
51
12.3691
0
ARC
8
DEFAULT_255_1_234
10
23.2907719
20
124.5176644
40
0.3405924
50
341.9983148
51
0.4822259
0
ARC
8
DEFAULT_255_1_234
10
23.3302559
20
124.5069471
40
0.2997359
50
323.8609373
51
341.61416
0
ARC
8
DEFAULT_255_1_234
10
23.3000803
20
124.5302484
40
0.3378487
50
296.7018614
51
323.6876402
0
ARC
8
DEFAULT_255_1_234
10
23.2559699
20
124.6091235
40
0.4281516
50
290.8086567
51
297.2323311
0
ARC
8
DEFAULT_255_1_234
10
23.2283228
20
124.6614351
40
0.3593766
50
269.589728
51
281.8058135
0
ARC
8
DEFAULT_255_1_234
10
23.2534127
20
124.5466743
40
0.2419125
50
281.5501019
51
303.9357432
0
ARC
8
DEFAULT_255_1_234
10
23.2671315
20
124.5228936
40
0.2145323
50
304.4415616
51
311.2106213
0
ARC
8
DEFAULT_255_1_234
10
23.280342
20
124.5089632
40
0.1953505
50
310.9875673
51
356.2715578
0
ARC
8
DEFAULT_255_1_234
10
23.2047069
20
124.5202422
40
0.2716331
50
354.9348262
51
0.0609027
0
ARC
8
DEFAULT_255_1_234
10
23.1859943
20
124.5229435
40
0.2903554
50
359.5239371
51
12.8808918
0
ARC
8
DEFAULT_255_1_234
10
23.2837499
20
124.5468728
40
0.1897315
50
12.4173452
51
43.1022135
0
ARC
8
DEFAULT_255_1_234
10
23.2899103
20
124.5505724
40
0.1827118
50
43.5751728
51
48.203944
0
ARC
8
DEFAULT_255_1_234
10
23.2729595
20
124.5284302
40
0.2105272
50
48.7809703
51
72.6969569
0
ARC
8
DEFAULT_255_1_234
10
23.237522
20
124.420882
40
0.3237537
50
72.3702241
51
84.8791103
0
ARC
8
DEFAULT_255_1_234
10
23.2227696
20
124.2866769
40
0.4587478
50
84.5400526
51
89.7281406
0
LINE
8
DEFAULT_255_1_234
10
24.1333359
20
124.2603026
11
24.1333359
21
124.1390234
0
LINE
8
DEFAULT_255_1_234
10
24.1333359
20
124.1390234
11
23.7413871
21
124.1390234
0
LINE
8
DEFAULT_255_1_234
10
23.7413871
20
124.1390234
11
23.7413871
21
124.2603026
0
LINE
8
DEFAULT_255_1_234
10
23.7413871
20
124.2603026
11
24.1333359
21
124.2603026
0
LINE
8
DEFAULT_255_1_234
10
24.2795482
20
21.097701
11
24.2795482
21
20.6688062
0
LINE
8
DEFAULT_255_1_234
10
23.3783872
20
21.0438884
11
23.3783872
21
21.1458915
0
LINE
8
DEFAULT_255_1_234
10
24.2795482
20
21.3418659
11
24.1253389
21
21.3418659
0
LINE
8
DEFAULT_255_1_234
10
23.5333998
20
21.1499073
11
23.5333998
21
21.0543296
0
LINE
8
DEFAULT_255_1_234
10
24.126142
20
20.7097681
11
24.126142
21
20.9724059
0
LINE
8
DEFAULT_255_1_234
10
24.126142
20
20.9724059
11
23.8554725
21
20.9724059
0
LINE
8
DEFAULT_255_1_234
10
23.8554725
20
20.9724059
11
23.8554725
21
21.097701
0
LINE
8
DEFAULT_255_1_234
10
23.8554725
20
21.097701
11
24.2795482
21
21.097701
0
ARC
8
DEFAULT_255_1_234
10
23.9963989
20
20.8681396
40
0.3462765
50
295.8437914
51
324.8549609
0
ARC
8
DEFAULT_255_1_234
10
23.9547956
20
20.9434567
40
0.4322211
50
291.5695085
51
296.4549398
0
ARC
8
DEFAULT_255_1_234
10
23.9037207
20
21.0799275
40
0.5779178
50
278.6622409
51
291.3045483
0
ARC
8
DEFAULT_255_1_234
10
23.8697699
20
21.2947408
40
0.7953952
50
270.020006
51
278.7494541
0
ARC
8
DEFAULT_255_1_234
10
23.8659623
20
21.4264036
40
0.927067
50
269.9969998
51
270.2524872
0
ARC
8
DEFAULT_255_1_234
10
23.8621336
20
21.0180589
40
0.5187361
50
253.5786322
51
270.4175299
0
ARC
8
DEFAULT_255_1_234
10
23.8447992
20
20.9509236
40
0.4494451
50
238.8203306
51
253.2788235
0
ARC
8
DEFAULT_255_1_234
10
23.8428365
20
20.9458231
40
0.4440665
50
206.7883783
51
238.6962764
0
ARC
8
DEFAULT_255_1_234
10
23.9202275
20
20.9922405
40
0.5341121
50
206.1129412
51
207.4916643
0
ARC
8
DEFAULT_255_1_234
10
23.979919
20
21.0176488
40
0.5989041
50
188.6921119
51
205.7821245
0
ARC
8
DEFAULT_255_1_234
10
24.1655552
20
21.049223
40
0.7871862
50
180.3882829
51
188.9219216
0
ARC
8
DEFAULT_255_1_234
10
24.2883366
20
21.1515464
40
0.909967
50
170.2024264
51
180.3560651
0
ARC
8
DEFAULT_255_1_234
10
23.9719884
20
21.2081237
40
0.5886083
50
154.2857445
51
170.3893044
0
ARC
8
DEFAULT_255_1_234
10
23.8438087
20
21.266795
40
0.4476743
50
139.8401567
51
153.9332699
0
ARC
8
DEFAULT_255_1_234
10
23.8078823
20
21.2955577
40
0.4016697
50
98.4190291
51
139.6707122
0
ARC
8
DEFAULT_255_1_234
10
23.8458341
20
21.1110328
40
0.5898566
50
89.7659205
51
99.4415478
0
ARC
8
DEFAULT_255_1_234
10
23.852359
20
21.1175844
40
0.5833147
50
78.0551672
51
90.4042112
0
ARC
8
DEFAULT_255_1_234
10
23.89281
20
21.2994644
40
0.3970055
50
54.6380464
51
78.3339173
0
ARC
8
DEFAULT_255_1_234
10
23.9118156
20
21.3314795
40
0.3599102
50
50.031736
51
54.1558201
0
ARC
8
DEFAULT_255_1_234
10
23.9010944
20
21.3218766
40
0.3741624
50
18.1092409
51
49.7180913
0
ARC
8
DEFAULT_255_1_234
10
23.7554144
20
21.2685089
40
0.5292424
50
7.9672797
51
18.6984571
0
ARC
8
DEFAULT_255_1_234
10
23.7704622
20
21.2808504
40
0.3600838
50
9.7557294
51
27.3215714
0
ARC
8
DEFAULT_255_1_234
10
23.8832094
20
21.3371912
40
0.2340608
50
27.7361077
51
84.5257964
0
ARC
8
DEFAULT_255_1_234
10
23.8504481
20
21.172864
40
0.4011215
50
82.106034
51
90.2001166
0
ARC
8
DEFAULT_255_1_234
10
23.8454698
20
21.2236215
40
0.3503799
50
89.4150119
51
105.5823402
0
ARC
8
DEFAULT_255_1_234
10
23.8197696
20
21.3171867
40
0.2533503
50
105.6678618
51
144.2648758
0
ARC
8
DEFAULT_255_1_234
10
23.9090951
20
21.2536289
40
0.3629787
50
144.3561283
51
162.8564086
0
ARC
8
DEFAULT_255_1_234
10
24.117486
20
21.1867017
40
0.5818441
50
162.6076014
51
173.6780284
0
ARC
8
DEFAULT_255_1_234
10
24.4236004
20
21.149489
40
0.8902007
50
173.4670142
51
179.9730753
0
ARC
8
DEFAULT_255_1_234
10
24.2327675
20
21.050126
40
0.6993804
50
179.6556203
51
190.0080463
0
ARC
8
DEFAULT_255_1_234
10
24.0011504
20
21.0076375
40
0.4639066
50
189.8116607
51
206.6796816
0
ARC
8
DEFAULT_255_1_234
10
23.9166656
20
20.9682503
40
0.3707421
50
207.1031645
51
217.7074368
0
ARC
8
DEFAULT_255_1_234
10
23.8532345
20
20.9130559
40
0.2868417
50
216.7345547
51
265.6812148
0
ARC
8
DEFAULT_255_1_234
10
23.8663136
20
21.0034855
40
0.3780509
50
264.7366618
51
270.0611241
0
ARC
8
DEFAULT_255_1_234
10
23.8686399
20
21.2875111
40
0.662079
50
269.8335834
51
276.0539546
0
ARC
8
DEFAULT_255_1_234
10
23.8893404
20
21.097356
40
0.4708016
50
275.9894168
51
284.4615085
0
ARC
8
DEFAULT_255_1_234
10
23.9091411
20
21.0140663
40
0.3852094
50
284.7034461
51
286.4953897
0
ARC
8
DEFAULT_255_1_234
10
23.9498424
20
20.8829965
40
0.2479842
50
286.0770838
51
304.2625829
0
ARC
8
DEFAULT_255_1_234
10
23.9631838
20
20.8611594
40
0.2224291
50
304.5891602
51
317.1073298
0
LINE
8
DEFAULT_255_1_234
10
21.087203
20
29.6223211
11
21.271933
21
28.8215568
0
LINE
8
DEFAULT_255_1_234
10
21.271933
20
28.8215568
11
21.2944218
21
28.6673474
0
LINE
8
DEFAULT_255_1_234
10
21.2944218
20
28.6673474
11
21.327352
21
28.8062965
0
LINE
8
DEFAULT_255_1_234
10
21.327352
20
28.8062965
11
21.558666
21
29.6223211
0
LINE
8
DEFAULT_255_1_234
10
21.558666
20
29.6223211
11
21.6887802
21
29.6223211
0
LINE
8
DEFAULT_255_1_234
10
21.6887802
20
29.6223211
11
21.914472
21
28.8062965
0
LINE
8
DEFAULT_255_1_234
10
21.914472
20
28.8062965
11
21.946599
21
28.6649379
0
LINE
8
DEFAULT_255_1_234
10
21.946599
20
28.6649379
11
21.9714974
21
28.82236
0
LINE
8
DEFAULT_255_1_234
10
21.9714974
20
28.82236
11
22.1530146
21
29.6223211
0
LINE
8
DEFAULT_255_1_234
10
22.1530146
20
29.6223211
11
22.3080272
21
29.6223211
0
LINE
8
DEFAULT_255_1_234
10
22.3080272
20
29.6223211
11
22.0245068
21
28.4529
0
LINE
8
DEFAULT_255_1_234
10
22.0245068
20
28.4529
11
21.8839514
21
28.4529
0
LINE
8
DEFAULT_255_1_234
10
21.8839514
20
28.4529
11
21.6429993
21
29.3050674
0
LINE
8
DEFAULT_255_1_234
10
21.6429993
20
29.3050674
11
21.6245263
21
29.3942197
0
LINE
8
DEFAULT_255_1_234
10
21.6245263
20
29.3942197
11
21.6060533
21
29.3050674
0
LINE
8
DEFAULT_255_1_234
10
21.6060533
20
29.3050674
11
21.3562662
21
28.4529
0
LINE
8
DEFAULT_255_1_234
10
21.3562662
20
28.4529
11
21.2157108
21
28.4529
0
LINE
8
DEFAULT_255_1_234
10
21.2157108
20
28.4529
11
20.9329936
21
29.6223211
0
LINE
8
DEFAULT_255_1_234
10
20.9329936
20
29.6223211
11
21.087203
21
29.6223211
0
LINE
8
DEFAULT_255_1_234
10
22.5321127
20
29.6223211
11
22.8357124
21
29.035201
0
LINE
8
DEFAULT_255_1_234
10
22.8357124
20
29.035201
11
23.1409185
21
29.6223211
0
LINE
8
DEFAULT_255_1_234
10
23.1409185
20
29.6223211
11
23.3160104
21
29.6223211
0
LINE
8
DEFAULT_255_1_234
10
23.3160104
20
29.6223211
11
22.9128171
21
28.8890234
0
LINE
8
DEFAULT_255_1_234
10
22.9128171
20
28.8890234
11
22.9128171
21
28.4529
0
LINE
8
DEFAULT_255_1_234
10
22.9128171
20
28.4529
11
22.7586077
21
28.4529
0
LINE
8
DEFAULT_255_1_234
10
22.7586077
20
28.4529
11
22.7586077
21
28.8890234
0
LINE
8
DEFAULT_255_1_234
10
22.7586077
20
28.8890234
11
22.3554145
21
29.6223211
0
LINE
8
DEFAULT_255_1_234
10
22.3554145
20
29.6223211
11
22.5321127
21
29.6223211
0
LINE
8
DEFAULT_255_1_234
10
24.1617524
20
29.1444327
11
24.1617524
21
28.9516709
0
LINE
8
DEFAULT_255_1_234
10
23.4236356
20
28.9315916
11
23.4236356
21
29.1299755
0
LINE
8
DEFAULT_255_1_234
10
24.0131652
20
28.9115123
11
24.0131652
21
29.1548739
0
LINE
8
DEFAULT_255_1_234
10
23.5722228
20
29.1661184
11
23.5722228
21
28.9283789
0
ARC
8
DEFAULT_255_1_234
10
22.9370413
20
28.9467805
40
1.2247208
50
353.8441951
51
0.2287902
0
ARC
8
DEFAULT_255_1_234
10
23.4009917
20
28.8949806
40
0.7578929
50
344.4934747
51
353.9765454
0
ARC
8
DEFAULT_255_1_234
10
23.7002507
20
28.8098981
40
0.4467846
50
329.2803592
51
344.7472793
0
ARC
8
DEFAULT_255_1_234
10
23.7995332
20
28.7554018
40
0.3336173
50
324.9352394
51
328.6160465
0
ARC
8
DEFAULT_255_1_234
10
23.8372441
20
28.7290427
40
0.2876076
50
280.580143
51
324.9173126
0
ARC
8
DEFAULT_255_1_234
10
23.7971234
20
28.8961099
40
0.4592847
50
269.5977311
51
281.6734359
0
ARC
8
DEFAULT_255_1_234
10
23.7899139
20
28.8841173
40
0.4472986
50
256.6228859
51
270.51044
0
ARC
8
DEFAULT_255_1_234
10
23.7497117
20
28.7292877
40
0.2873874
50
215.8618325
51
257.2788573
0
ARC
8
DEFAULT_255_1_234
10
23.8518149
20
28.7977977
40
0.4102928
50
197.9693508
51
215.2623606
0
ARC
8
DEFAULT_255_1_234
10
24.1003264
20
28.8816709
40
0.6725652
50
187.8816417
51
198.2346507
0
ARC
8
DEFAULT_255_1_234
10
24.4961472
20
28.9388079
40
1.0724845
50
180.8976217
51
188.0055519
0
ARC
8
DEFAULT_255_1_234
10
24.7761661
20
28.9491777
40
1.3526448
50
180.7449369
51
181.1510016
0
ARC
8
DEFAULT_255_1_234
10
24.618439
20
29.1348042
40
1.1948131
50
173.7675579
51
180.231553
0
ARC
8
DEFAULT_255_1_234
10
24.1666536
20
29.1858666
40
0.7401564
50
164.3058563
51
173.9002247
0
ARC
8
DEFAULT_255_1_234
10
23.8754605
20
29.2697656
40
0.4371288
50
148.7922025
51
164.568378
0
ARC
8
DEFAULT_255_1_234
10
23.7803057
20
29.3228929
40
0.3282386
50
144.5883898
51
148.1176286
0
ARC
8
DEFAULT_255_1_234
10
23.7459955
20
29.3468315
40
0.2864044
50
101.6440918
51
144.514236
0
ARC
8
DEFAULT_255_1_234
10
23.7885022
20
29.1779069
40
0.4604934
50
89.5284041
51
102.5819763
0
ARC
8
DEFAULT_255_1_234
10
23.796411
20
29.1740018
40
0.464401
50
77.0437873
51
90.5081339
0
ARC
8
DEFAULT_255_1_234
10
23.8366111
20
29.3382615
40
0.2953195
50
48.2778575
51
77.4994676
0
ARC
8
DEFAULT_255_1_234
10
23.8438743
20
29.3511746
40
0.2808655
50
36.3142134
51
47.6305865
0
ARC
8
DEFAULT_255_1_234
10
23.757005
20
29.2926515
40
0.3855453
50
18.2931786
51
35.6769206
0
ARC
8
DEFAULT_255_1_234
10
23.5026808
20
29.2053593
40
0.654423
50
8.024666
51
18.5605216
0
ARC
8
DEFAULT_255_1_234
10
23.0863729
20
29.1438792
40
1.0752407
50
1.1274072
51
8.1718305
0
ARC
8
DEFAULT_255_1_234
10
22.7627919
20
29.1311885
40
1.3990231
50
0.5424119
51
1.3863029
0
ARC
8
DEFAULT_255_1_234
10
22.9449297
20
29.1584342
40
1.0682415
50
359.8090433
51
4.9407866
0
ARC
8
DEFAULT_255_1_234
10
23.3659311
20
29.1960113
40
0.6455691
50
4.8362157
51
12.2904523
0
ARC
8
DEFAULT_255_1_234
10
23.6414426
20
29.2573965
40
0.3633074
50
12.0805627
51
23.8173984
0
ARC
8
DEFAULT_255_1_234
10
23.7588131
20
29.3070919
40
0.2358723
50
24.2871213
51
31.3935614
0
ARC
8
DEFAULT_255_1_234
10
23.8112828
20
29.3414233
40
0.1732111
50
30.7407893
51
82.4657128
0
ARC
8
DEFAULT_255_1_234
10
23.7932963
20
29.2530691
40
0.263235
50
81.1060089
51
90.2184952
0
ARC
8
DEFAULT_255_1_234
10
23.7897262
20
29.2788924
40
0.2374236
50
89.3806855
51
105.6762551
0
ARC
8
DEFAULT_255_1_234
10
23.7713892
20
29.3455567
40
0.1682847
50
105.7981136
51
149.7388061
0
ARC
8
DEFAULT_255_1_234
10
23.877797
20
29.281595
40
0.2924306
50
149.4208916
51
163.6286378
0
ARC
8
DEFAULT_255_1_234
10
24.0868859
20
29.217825
40
0.5110213
50
163.3763315
51
172.1410975
0
ARC
8
DEFAULT_255_1_234
10
24.4169577
20
29.1705518
40
0.8444586
50
172.0259487
51
178.0703232
0
ARC
8
DEFAULT_255_1_234
10
24.7199667
20
29.1561906
40
1.1477868
50
177.8631668
51
179.5044149
0
ARC
8
DEFAULT_255_1_234
10
24.6127071
20
28.9247389
40
1.0404907
50
179.7995573
51
185.2460446
0
ARC
8
DEFAULT_255_1_234
10
24.2084111
20
28.8864513
40
0.6343885
50
185.1411642
51
193.0079639
0
ARC
8
DEFAULT_255_1_234
10
23.9440583
20
28.8239641
40
0.3627568
50
192.7897626
51
205.2507664
0
ARC
8
DEFAULT_255_1_234
10
23.839413
20
28.7772415
40
0.2481908
50
205.8005384
51
211.2537509
0
ARC
8
DEFAULT_255_1_234
10
23.7870571
20
28.742158
40
0.1852521
50
210.3789793
51
238.4008143
0
ARC
8
DEFAULT_255_1_234
10
23.7851093
20
28.7468376
40
0.1882621
50
239.6520629
51
265.9793761
0
ARC
8
DEFAULT_255_1_234
10
23.7936293
20
28.8140427
40
0.2559272
50
265.1315437
51
270.060332
0
ARC
8
DEFAULT_255_1_234
10
23.7965072
20
28.7816534
40
0.2235528
50
269.3314664
51
287.2178029
0
ARC
8
DEFAULT_255_1_234
10
23.8102924
20
28.7313279
40
0.1714108
50
287.7958004
51
329.080874
0
ARC
8
DEFAULT_255_1_234
10
23.714538
20
28.791093
40
0.2842745
50
328.6634704
51
343.3325132
0
ARC
8
DEFAULT_255_1_234
10
23.49724
20
28.8587863
40
0.5118644
50
343.0499468
51
351.9393422
0
ARC
8
DEFAULT_255_1_234
10
23.15057
20
28.9098949
40
0.8622784
50
351.8069023
51
357.7959224
0
ARC
8
DEFAULT_255_1_234
10
22.8270256
20
28.9266721
40
1.1862365
50
357.5871873
51
359.2677531
0
LINE
8
DEFAULT_255_1_234
10
22.5181458
20
37.5598211
11
22.8217456
21
36.972701
0
LINE
8
DEFAULT_255_1_234
10
22.8217456
20
36.972701
11
23.1269516
21
37.5598211
0
LINE
8
DEFAULT_255_1_234
10
23.1269516
20
37.5598211
11
23.3020435
21
37.5598211
0
LINE
8
DEFAULT_255_1_234
10
23.3020435
20
37.5598211
11
22.8988502
21
36.8265234
0
LINE
8
DEFAULT_255_1_234
10
22.8988502
20
36.8265234
11
22.8988502
21
36.3904
0
LINE
8
DEFAULT_255_1_234
10
22.8988502
20
36.3904
11
22.7446409
21
36.3904
0
LINE
8
DEFAULT_255_1_234
10
22.7446409
20
36.3904
11
22.7446409
21
36.8265234
0
LINE
8
DEFAULT_255_1_234
10
22.7446409
20
36.8265234
11
22.3414476
21
37.5598211
0
LINE
8
DEFAULT_255_1_234
10
22.3414476
20
37.5598211
11
22.5181458
21
37.5598211
0
LINE
8
DEFAULT_255_1_234
10
24.1694712
20
37.5598211
11
24.1694712
21
37.476291
0
LINE
8
DEFAULT_255_1_234
10
24.1694712
20
37.476291
11
23.6851574
21
36.3904
0
LINE
8
DEFAULT_255_1_234
10
23.6851574
20
36.3904
11
23.5293417
21
36.3904
0
LINE
8
DEFAULT_255_1_234
10
23.5293417
20
36.3904
11
24.0120492
21
37.4377387
0
LINE
8
DEFAULT_255_1_234
10
24.0120492
20
37.4377387
11
23.3791482
21
37.4377387
0
LINE
8
DEFAULT_255_1_234
10
23.3791482
20
37.4377387
11
23.3791482
21
37.5598211
0
LINE
8
DEFAULT_255_1_234
10
23.3791482
20
37.5598211
11
24.1694712
21
37.5598211
0
LINE
8
DEFAULT_255_1_234
10
22.5181458
20
45.4973211
11
22.8217456
21
44.910201
0
LINE
8
DEFAULT_255_1_234
10
22.8217456
20
44.910201
11
23.1269516
21
45.4973211
0
LINE
8
DEFAULT_255_1_234
10
23.1269516
20
45.4973211
11
23.3020435
21
45.4973211
0
LINE
8
DEFAULT_255_1_234
10
23.3020435
20
45.4973211
11
22.8988502
21
44.7640234
0
LINE
8
DEFAULT_255_1_234
10
22.8988502
20
44.7640234
11
22.8988502
21
44.3279
0
LINE
8
DEFAULT_255_1_234
10
22.8988502
20
44.3279
11
22.7446409
21
44.3279
0
LINE
8
DEFAULT_255_1_234
10
22.7446409
20
44.3279
11
22.7446409
21
44.7640234
0
LINE
8
DEFAULT_255_1_234
10
22.7446409
20
44.7640234
11
22.3414476
21
45.4973211
0
LINE
8
DEFAULT_255_1_234
10
22.3414476
20
45.4973211
11
22.5181458
21
45.4973211
0
LINE
8
DEFAULT_255_1_234
10
23.9710873
20
45.4981243
11
23.997592
21
45.4981243
0
LINE
8
DEFAULT_255_1_234
10
23.997592
20
45.4981243
11
23.997592
21
45.372026
0
LINE
8
DEFAULT_255_1_234
10
23.997592
20
45.372026
11
23.9702841
21
45.372026
0
LINE
8
DEFAULT_255_1_234
10
23.4233228
20
44.7728583
11
23.4233228
21
44.8298836
0
LINE
8
DEFAULT_255_1_234
10
23.5727131
20
44.8106075
11
23.5727131
21
44.7559917
0
ARC
8
DEFAULT_255_1_234
10
23.9755189
20
44.8722455
40
0.4998079
50
90.6001036
51
104.514704
0
ARC
8
DEFAULT_255_1_234
10
23.9366705
20
45.0167131
40
0.3502176
50
104.2855254
51
133.862935
0
ARC
8
DEFAULT_255_1_234
10
23.9530462
20
45.005883
40
0.3693984
50
134.5302688
51
161.6210873
0
ARC
8
DEFAULT_255_1_234
10
24.1183651
20
44.9475895
40
0.5446739
50
161.2849839
51
174.2076652
0
ARC
8
DEFAULT_255_1_234
10
24.2590588
20
44.9281787
40
0.6866274
50
173.7810589
51
174.9254635
0
ARC
8
DEFAULT_255_1_234
10
23.804042
20
44.7898839
40
0.3033419
50
95.8330959
51
138.9954921
0
ARC
8
DEFAULT_255_1_234
10
23.8263776
20
44.6620375
40
0.4328947
50
89.8753725
51
97.0544009
0
ARC
8
DEFAULT_255_1_234
10
23.8311242
20
44.7455748
40
0.3493769
50
71.6407809
51
90.6240094
0
ARC
8
DEFAULT_255_1_234
10
23.8461815
20
44.8010082
40
0.2920396
50
39.6367836
51
71.019018
0
ARC
8
DEFAULT_255_1_234
10
23.7825288
20
44.7459998
40
0.3761538
50
10.658731
51
39.9043955
0
ARC
8
DEFAULT_255_1_234
10
23.6277371
20
44.7123686
40
0.5345136
50
359.682601
51
11.132623
0
ARC
8
DEFAULT_255_1_234
10
23.6237502
20
44.705301
40
0.5385081
50
347.2486944
51
0.4369317
0
ARC
8
DEFAULT_255_1_234
10
23.7904979
20
44.6651807
40
0.3670249
50
318.1409698
51
347.6118597
0
ARC
8
DEFAULT_255_1_234
10
23.8229972
20
44.6384702
40
0.3250007
50
275.6342139
51
317.8248465
0
ARC
8
DEFAULT_255_1_234
10
23.8009083
20
44.7684219
40
0.4565864
50
269.8874292
51
276.7917694
0
ARC
8
DEFAULT_255_1_234
10
23.7954154
20
44.6658743
40
0.3540676
50
246.9140195
51
270.7437342
0
ARC
8
DEFAULT_255_1_234
10
23.7960544
20
44.6516384
40
0.3412781
50
218.1665114
51
245.878116
0
ARC
8
DEFAULT_255_1_234
10
23.8840005
20
44.7252279
40
0.455911
50
191.4115814
51
218.6077802
0
ARC
8
DEFAULT_255_1_234
10
24.0778094
20
44.7686833
40
0.6545001
50
179.6345085
51
191.7836486
0
ARC
8
DEFAULT_255_1_234
10
24.6360431
20
44.8365697
40
1.2127388
50
171.4525249
51
180.3158839
0
ARC
8
DEFAULT_255_1_234
10
24.1965307
20
44.9049608
40
0.7679464
50
157.9802646
51
171.6246686
0
ARC
8
DEFAULT_255_1_234
10
23.9751328
20
44.9932421
40
0.5296008
50
141.4298019
51
157.854097
0
ARC
8
DEFAULT_255_1_234
10
23.9109649
20
45.0386381
40
0.4511509
50
102.8715806
51
140.8564722
0
ARC
8
DEFAULT_255_1_234
10
23.9757264
20
44.7946552
40
0.7034845
50
90.3778349
51
103.5869322
0
ARC
8
DEFAULT_255_1_234
10
23.801904
20
44.734173
40
0.2370698
50
89.8751008
51
126.2071704
0
ARC
8
DEFAULT_255_1_234
10
23.806483
20
44.7187303
40
0.2522934
50
124.9745049
51
144.895901
0
ARC
8
DEFAULT_255_1_234
10
23.7889021
20
44.733056
40
0.2296779
50
145.2974905
51
160.2660252
0
ARC
8
DEFAULT_255_1_234
10
24.0961559
20
44.7528071
40
0.5234525
50
179.6514266
51
190.2855912
0
ARC
8
DEFAULT_255_1_234
10
23.9267697
20
44.7208786
40
0.3510893
50
190.0945431
51
207.5098196
0
ARC
8
DEFAULT_255_1_234
10
23.8701966
20
44.6939623
40
0.288489
50
207.9583163
51
216.3251085
0
ARC
8
DEFAULT_255_1_234
10
23.8362074
20
44.6660105
40
0.2445587
50
215.7661442
51
232.5456785
0
ARC
8
DEFAULT_255_1_234
10
23.7979057
20
44.6173482
40
0.1826382
50
232.8005391
51
270.6605633
0
ARC
8
DEFAULT_255_1_234
10
23.8024758
20
44.6537612
40
0.2190529
50
269.35537
51
288.4744281
0
ARC
8
DEFAULT_255_1_234
10
23.8117655
20
44.6188118
40
0.1829749
50
289.1833337
51
322.9683818
0
ARC
8
DEFAULT_255_1_234
10
23.7506177
20
44.6670391
40
0.2608399
50
322.6007884
51
346.5182367
0
ARC
8
DEFAULT_255_1_234
10
23.6348773
20
44.6965616
40
0.3802777
50
346.2582162
51
358.7741648
0
ARC
8
DEFAULT_255_1_234
10
23.5330442
20
44.7020965
40
0.4822176
50
358.3755224
51
0.0098023
0
ARC
8
DEFAULT_255_1_234
10
23.6086629
20
44.7048657
40
0.4066078
50
359.6214041
51
11.2839074
0
ARC
8
DEFAULT_255_1_234
10
23.7363776
20
44.7315066
40
0.2761514
50
11.0482309
51
31.8146458
0
ARC
8
DEFAULT_255_1_234
10
23.7672819
20
44.7482584
40
0.2410679
50
32.3035391
51
38.082671
0
ARC
8
DEFAULT_255_1_234
10
23.8093479
20
44.7863662
40
0.1844966
50
36.825067
51
85.7415724
0
ARC
8
DEFAULT_255_1_234
10
23.8026312
20
44.7363301
40
0.2349122
50
85.0140713
51
90.0513278
0
LINE
8
DEFAULT_255_1_234
10
22.5181458
20
53.4348211
11
22.8217456
21
52.847701
0
LINE
8
DEFAULT_255_1_234
10
22.8217456
20
52.847701
11
23.1269516
21
53.4348211
0
LINE
8
DEFAULT_255_1_234
10
23.1269516
20
53.4348211
11
23.3020435
21
53.4348211
0
LINE
8
DEFAULT_255_1_234
10
23.3020435
20
53.4348211
11
22.8988502
21
52.7015234
0
LINE
8
DEFAULT_255_1_234
10
22.8988502
20
52.7015234
11
22.8988502
21
52.2654
0
LINE
8
DEFAULT_255_1_234
10
22.8988502
20
52.2654
11
22.7446409
21
52.2654
0
LINE
8
DEFAULT_255_1_234
10
22.7446409
20
52.2654
11
22.7446409
21
52.7015234
0
LINE
8
DEFAULT_255_1_234
10
22.7446409
20
52.7015234
11
22.3414476
21
53.4348211
0
LINE
8
DEFAULT_255_1_234
10
22.3414476
20
53.4348211
11
22.5181458
21
53.4348211
0
LINE
8
DEFAULT_255_1_234
10
23.6016273
20
52.8211963
11
23.4827576
21
52.8517169
0
LINE
8
DEFAULT_255_1_234
10
23.4827576
20
52.8517169
11
23.5421925
21
53.4348211
0
LINE
8
DEFAULT_255_1_234
10
23.5421925
20
53.4348211
11
24.1413602
21
53.4348211
0
LINE
8
DEFAULT_255_1_234
10
24.1413602
20
53.4348211
11
24.1413602
21
53.2974784
0
LINE
8
DEFAULT_255_1_234
10
24.1413602
20
53.2974784
11
23.6682908
21
53.2974784
0
LINE
8
DEFAULT_255_1_234
10
23.6682908
20
53.2974784
11
23.6329511
21
52.9786184
0
LINE
8
DEFAULT_255_1_234
10
23.4409926
20
52.5730156
11
23.581548
21
52.5730156
0
LINE
8
DEFAULT_255_1_234
10
23.6409829
20
52.8533232
11
23.6016273
21
52.8211963
0
ARC
8
DEFAULT_255_1_234
10
23.8184295
20
52.660623
40
0.3681349
50
93.7182161
51
120.2538958
0
ARC
8
DEFAULT_255_1_234
10
23.8278558
20
52.5798394
40
0.449379
50
89.9660152
51
94.2496022
0
ARC
8
DEFAULT_255_1_234
10
23.8319292
20
52.6387549
40
0.390482
50
73.8043271
51
90.5585896
0
ARC
8
DEFAULT_255_1_234
10
23.8554189
20
52.7245602
40
0.3015334
50
41.3071453
51
73.5430202
0
ARC
8
DEFAULT_255_1_234
10
23.8138016
20
52.6887324
40
0.3564457
50
13.5075983
51
41.2174222
0
ARC
8
DEFAULT_255_1_234
10
23.649622
20
52.6457486
40
0.5261351
50
1.1331335
51
13.8829381
0
ARC
8
DEFAULT_255_1_234
10
23.5084589
20
52.6381665
40
0.6674378
50
359.9919444
51
1.544251
0
ARC
8
DEFAULT_255_1_234
10
23.6361415
20
52.634028
40
0.5397702
50
347.8572367
51
0.4293338
0
ARC
8
DEFAULT_255_1_234
10
23.8111733
20
52.5943736
40
0.3603188
50
323.673004
51
348.1672506
0
ARC
8
DEFAULT_255_1_234
10
23.8406241
20
52.5764168
40
0.3259678
50
316.8171152
51
323.1492751
0
ARC
8
DEFAULT_255_1_234
10
23.846743
20
52.572746
40
0.3189975
50
281.8396411
51
316.5457803
0
ARC
8
DEFAULT_255_1_234
10
23.8091694
20
52.7282762
40
0.4789527
50
269.5770101
51
282.4214771
0
ARC
8
DEFAULT_255_1_234
10
23.8020505
20
52.7069125
40
0.45759
50
256.2427136
51
270.4486331
0
ARC
8
DEFAULT_255_1_234
10
23.7721408
20
52.5869229
40
0.3339303
50
228.9023911
51
256.3314342
0
ARC
8
DEFAULT_255_1_234
10
23.764764
20
52.5752746
40
0.32031
50
193.753695
51
228.5271154
0
ARC
8
DEFAULT_255_1_234
10
23.8885594
20
52.61158
40
0.4492253
50
184.924711
51
194.497588
0
ARC
8
DEFAULT_255_1_234
10
23.9078161
20
52.6151591
40
0.3289787
50
187.3600538
51
198.6732863
0
ARC
8
DEFAULT_255_1_234
10
23.8028455
20
52.5787674
40
0.217884
50
198.4451669
51
217.794479
0
ARC
8
DEFAULT_255_1_234
10
23.773263
20
52.5578085
40
0.1816698
50
218.2887171
51
228.5612368
0
ARC
8
DEFAULT_255_1_234
10
23.7830417
20
52.5709963
40
0.1980329
50
228.9654866
51
258.1234728
0
ARC
8
DEFAULT_255_1_234
10
23.8036127
20
52.6590833
40
0.2884748
50
257.7258293
51
270.401361
0
ARC
8
DEFAULT_255_1_234
10
23.8081014
20
52.6145821
40
0.2439788
50
269.4204404
51
286.4209037
0
ARC
8
DEFAULT_255_1_234
10
23.8229501
20
52.5606657
40
0.1880666
50
286.7251356
51
320.600362
0
ARC
8
DEFAULT_255_1_234
10
23.7846326
20
52.5917595
40
0.2374121
50
320.6712579
51
344.5441685
0
ARC
8
DEFAULT_255_1_234
10
23.6689652
20
52.6257045
40
0.3579479
50
344.2412205
51
356.7357071
0
ARC
8
DEFAULT_255_1_234
10
23.5440801
20
52.6360444
40
0.4832297
50
356.3548756
51
0.0500261
0
ARC
8
DEFAULT_255_1_234
10
23.677731
20
52.639165
40
0.3495889
50
359.5576869
51
12.953486
0
ARC
8
DEFAULT_255_1_234
10
23.7832207
20
52.6647434
40
0.2410532
50
12.6490276
51
41.6081334
0
ARC
8
DEFAULT_255_1_234
10
23.8062578
20
52.6843321
40
0.2108218
50
41.7850273
51
85.9892764
0
ARC
8
DEFAULT_255_1_234
10
23.7939315
20
52.6030462
40
0.2928454
50
84.6957577
51
90.0676183
0
ARC
8
DEFAULT_255_1_234
10
23.7915799
20
52.5361716
40
0.3597255
50
89.6804936
51
99.1614436
0
ARC
8
DEFAULT_255_1_234
10
23.771043
20
52.6589131
40
0.235281
50
98.9830931
51
113.8908934
0
ARC
8
DEFAULT_255_1_234
10
23.748084
20
52.7130587
40
0.176479
50
114.1950727
51
127.3641004
0
LINE
8
DEFAULT_255_1_234
10
22.4123458
20
61.3723211
11
22.7159456
21
60.785201
0
LINE
8
DEFAULT_255_1_234
10
22.7159456
20
60.785201
11
23.0211516
21
61.3723211
0
LINE
8
DEFAULT_255_1_234
10
23.0211516
20
61.3723211
11
23.1962435
21
61.3723211
0
LINE
8
DEFAULT_255_1_234
10
23.1962435
20
61.3723211
11
22.7930502
21
60.6390234
0
LINE
8
DEFAULT_255_1_234
10
22.7930502
20
60.6390234
11
22.7930502
21
60.2029
0
LINE
8
DEFAULT_255_1_234
10
22.7930502
20
60.2029
11
22.6388409
21
60.2029
0
LINE
8
DEFAULT_255_1_234
10
22.6388409
20
60.2029
11
22.6388409
21
60.6390234
0
LINE
8
DEFAULT_255_1_234
10
22.6388409
20
60.6390234
11
22.2356476
21
61.3723211
0
LINE
8
DEFAULT_255_1_234
10
22.2356476
20
61.3723211
11
22.4123458
21
61.3723211
0
LINE
8
DEFAULT_255_1_234
10
23.9359666
20
61.3723211
11
23.9359666
21
60.595652
0
LINE
8
DEFAULT_255_1_234
10
23.9359666
20
60.595652
11
24.0982077
21
60.595652
0
LINE
8
DEFAULT_255_1_234
10
24.0982077
20
60.595652
11
24.0982077
21
60.4743728
0
LINE
8
DEFAULT_255_1_234
10
24.0982077
20
60.4743728
11
23.9359666
21
60.4743728
0
LINE
8
DEFAULT_255_1_234
10
23.9359666
20
60.4743728
11
23.9359666
21
60.2029
0
LINE
8
DEFAULT_255_1_234
10
23.9359666
20
60.2029
11
23.7865763
21
60.2029
0
LINE
8
DEFAULT_255_1_234
10
23.7865763
20
60.2029
11
23.7865763
21
60.4743728
0
LINE
8
DEFAULT_255_1_234
10
23.7865763
20
60.4743728
11
23.254072
21
60.4743728
0
LINE
8
DEFAULT_255_1_234
10
23.254072
20
60.4743728
11
23.254072
21
60.5619187
0
LINE
8
DEFAULT_255_1_234
10
23.254072
20
60.5619187
11
23.7777414
21
61.3723211
0
LINE
8
DEFAULT_255_1_234
10
23.7777414
20
61.3723211
11
23.9359666
21
61.3723211
0
LINE
8
DEFAULT_255_1_234
10
23.7689064
20
61.1369912
11
23.4227385
21
60.595652
0
LINE
8
DEFAULT_255_1_234
10
23.4227385
20
60.595652
11
23.7865763
21
60.595652
0
LINE
8
DEFAULT_255_1_234
10
23.7865763
20
60.595652
11
23.7865763
21
61.1691181
0
LINE
8
DEFAULT_255_1_234
10
23.7865763
20
61.1691181
11
23.7689064
21
61.1369912
0
LINE
8
DEFAULT_255_1_234
10
23.1876119
20
68.2616792
11
23.1876119
21
68.1404
0
LINE
8
DEFAULT_255_1_234
10
23.1876119
20
68.1404
11
22.421384
21
68.1404
0
LINE
8
DEFAULT_255_1_234
10
22.421384
20
68.1404
11
22.421384
21
68.2472221
0
LINE
8
DEFAULT_255_1_234
10
22.421384
20
68.2472221
11
22.8261836
21
68.6969995
0
LINE
8
DEFAULT_255_1_234
10
22.5474823
20
68.9652595
11
22.3988952
21
68.9652595
0
LINE
8
DEFAULT_255_1_234
10
22.9137296
20
68.6014218
11
22.6004918
21
68.2616792
0
LINE
8
DEFAULT_255_1_234
10
22.6004918
20
68.2616792
11
23.1876119
21
68.2616792
0
ARC
8
DEFAULT_255_1_234
10
21.477167
20
69.8899527
40
1.8008286
50
318.5132453
51
320.7828378
0
ARC
8
DEFAULT_255_1_234
10
22.0058644
20
69.4596426
40
1.1191493
50
320.7372736
51
323.9737074
0
ARC
8
DEFAULT_255_1_234
10
22.3978501
20
69.1756361
40
0.6350923
50
323.8961724
51
328.6421089
0
ARC
8
DEFAULT_255_1_234
10
22.6025096
20
69.0494031
40
0.3946393
50
328.8299013
51
331.789948
0
ARC
8
DEFAULT_255_1_234
10
22.7022274
20
68.9979509
40
0.2824501
50
331.4255242
51
352.9364833
0
ARC
8
DEFAULT_255_1_234
10
22.7158775
20
68.9948976
40
0.2685315
50
353.2248685
51
0.0169286
0
ARC
8
DEFAULT_255_1_234
10
22.7368652
20
68.997195
40
0.2475536
50
359.4866256
51
15.9339782
0
ARC
8
DEFAULT_255_1_234
10
22.7875637
20
69.0108286
40
0.1950618
50
16.1714718
51
43.5284424
0
ARC
8
DEFAULT_255_1_234
10
22.7952946
20
69.0185573
40
0.184134
50
43.4415429
51
83.1661404
0
ARC
8
DEFAULT_255_1_234
10
22.7818864
20
68.9448771
40
0.258926
50
82.160215
51
90.1505798
0
ARC
8
DEFAULT_255_1_234
10
22.7787291
20
68.8911865
40
0.3126255
50
89.5460705
51
102.5418777
0
ARC
8
DEFAULT_255_1_234
10
22.7544377
20
68.9942665
40
0.2067346
50
102.1739365
51
129.2061916
0
ARC
8
DEFAULT_255_1_234
10
22.7465449
20
69.0067094
40
0.1921118
50
129.7279328
51
135.7542026
0
ARC
8
DEFAULT_255_1_234
10
22.7586977
20
68.9970045
40
0.2075944
50
136.175737
51
166.3674722
0
ARC
8
DEFAULT_255_1_234
10
22.8593896
20
68.9700182
40
0.3118201
50
165.9092917
51
178.8683903
0
ARC
8
DEFAULT_255_1_234
10
22.9458757
20
68.9653179
40
0.3983935
50
178.438168
51
180.0083905
0
ARC
8
DEFAULT_255_1_234
10
22.8057359
20
68.9692231
40
0.4068601
50
163.2878735
51
180.5581814
0
ARC
8
DEFAULT_255_1_234
10
22.7255621
20
68.991284
40
0.3237344
50
133.454115
51
162.9470031
0
ARC
8
DEFAULT_255_1_234
10
22.7434162
20
68.9723
40
0.349795
50
100.7869394
51
133.4384016
0
ARC
8
DEFAULT_255_1_234
10
22.7781934
20
68.8174319
40
0.5084616
50
89.6605301
51
101.3704185
0
ARC
8
DEFAULT_255_1_234
10
22.7848273
20
68.8235496
40
0.502348
50
78.2171172
51
90.4130393
0
ARC
8
DEFAULT_255_1_234
10
22.8203351
20
68.9859637
40
0.3361092
50
55.9268222
51
78.4888551
0
ARC
8
DEFAULT_255_1_234
10
22.8399791
20
69.0198324
40
0.2970617
50
47.9292255
51
55.4054003
0
ARC
8
DEFAULT_255_1_234
10
22.8501352
20
69.0301502
40
0.2825983
50
4.3347696
51
48.0560701
0
ARC
8
DEFAULT_255_1_234
10
22.7405745
20
69.0131601
40
0.393225
50
359.925209
51
5.5967654
0
ARC
8
DEFAULT_255_1_234
10
22.7834637
20
69.0187816
40
0.3503892
50
337.8914096
51
358.9967724
0
ARC
8
DEFAULT_255_1_234
10
22.5121049
20
69.1234706
40
0.6412172
50
326.9135351
51
338.3505194
0
ARC
8
DEFAULT_255_1_234
10
22.1135353
20
69.3789284
40
1.1146189
50
319.6472867
51
327.095818
0
ARC
8
DEFAULT_255_1_234
10
21.7302356
20
69.6951
40
1.6114559
50
317.2586784
51
319.9046139
0
LINE
8
DEFAULT_255_1_234
10
24.0887729
20
68.5114663
11
24.2437854
21
68.5114663
0
LINE
8
DEFAULT_255_1_234
10
23.3434276
20
68.6704947
11
23.3434276
21
68.7829391
0
LINE
8
DEFAULT_255_1_234
10
24.2437854
20
68.9339357
11
24.0887729
21
68.9339357
0
LINE
8
DEFAULT_255_1_234
10
23.4984401
20
68.7789232
11
23.4984401
21
68.6656757
0
ARC
8
DEFAULT_255_1_234
10
23.6957241
20
68.5711846
40
0.5513052
50
340.1774281
51
353.7814284
0
ARC
8
DEFAULT_255_1_234
10
23.8528594
20
68.5126582
40
0.3836379
50
311.4558989
51
340.4421614
0
ARC
8
DEFAULT_255_1_234
10
23.8495262
20
68.5237528
40
0.3941894
50
282.4333181
51
310.7513653
0
ARC
8
DEFAULT_255_1_234
10
23.8056001
20
68.7052679
40
0.5809175
50
269.9358511
51
282.809604
0
ARC
8
DEFAULT_255_1_234
10
23.8004067
20
68.8510212
40
0.7266847
50
270.0021091
51
270.3581957
0
ARC
8
DEFAULT_255_1_234
10
23.7951484
20
68.5909585
40
0.4666519
50
250.7884749
51
270.6489167
0
ARC
8
DEFAULT_255_1_234
10
23.7783319
20
68.5272319
40
0.4009729
50
219.3627325
51
250.0611886
0
ARC
8
DEFAULT_255_1_234
10
23.861253
20
68.5977042
40
0.5097822
50
193.5479632
51
219.5756669
0
ARC
8
DEFAULT_255_1_234
10
24.0984151
20
68.6592919
40
0.7547848
50
181.1218675
51
193.87563
0
ARC
8
DEFAULT_255_1_234
10
24.3054332
20
68.670358
40
0.9620055
50
179.9918545
51
181.5394234
0
ARC
8
DEFAULT_255_1_234
10
24.1203434
20
68.7866788
40
0.7769248
50
169.5837241
51
180.2757934
0
ARC
8
DEFAULT_255_1_234
10
23.9366372
20
68.8206229
40
0.590109
50
155.0365899
51
169.6003176
0
ARC
8
DEFAULT_255_1_234
10
23.8230836
20
68.8753677
40
0.4640625
50
136.783148
51
155.2472683
0
ARC
8
DEFAULT_255_1_234
10
23.7841313
20
68.9084562
40
0.4130255
50
121.7633186
51
136.428115
0
ARC
8
DEFAULT_255_1_234
10
23.7976275
20
68.8835227
40
0.4413323
50
95.6459699
51
121.5490577
0
ARC
8
DEFAULT_255_1_234
10
23.8133557
20
68.7726949
40
0.55319
50
89.924208
51
96.1377933
0
ARC
8
DEFAULT_255_1_234
10
23.818399
20
68.7845542
40
0.5413475
50
76.6779277
51
90.4563316
0
ARC
8
DEFAULT_255_1_234
10
23.8577613
20
68.9436114
40
0.3775041
50
47.485847
51
76.9287264
0
ARC
8
DEFAULT_255_1_234
10
23.8430586
20
68.9336159
40
0.3948286
50
16.5424086
51
46.8933463
0
ARC
8
DEFAULT_255_1_234
10
23.6822743
20
68.8807861
40
0.564021
50
5.4072051
51
17.0365086
0
ARC
8
DEFAULT_255_1_234
10
23.538376
20
68.8576679
40
0.5556559
50
7.8891745
51
15.9239216
0
ARC
8
DEFAULT_255_1_234
10
23.7370773
20
68.9153631
40
0.3487515
50
15.7653144
51
27.9410532
0
ARC
8
DEFAULT_255_1_234
10
23.8474991
20
68.974479
40
0.2235026
50
27.8166557
51
46.4008329
0
ARC
8
DEFAULT_255_1_234
10
23.8524634
20
68.9739082
40
0.2205286
50
47.4371857
51
75.0698205
0
ARC
8
DEFAULT_255_1_234
10
23.8216029
20
68.8664765
40
0.3322915
50
74.7008593
51
87.8124495
0
ARC
8
DEFAULT_255_1_234
10
23.8142716
20
68.7608844
40
0.4380987
50
87.3814673
51
90.0240855
0
ARC
8
DEFAULT_255_1_234
10
23.8104259
20
68.8786291
40
0.3203749
50
89.3451631
51
108.5745436
0
ARC
8
DEFAULT_255_1_234
10
23.7967365
20
68.9299908
40
0.2673494
50
109.2998449
51
143.3037509
0
ARC
8
DEFAULT_255_1_234
10
23.8729437
20
68.8713881
40
0.3634757
50
143.0753173
51
163.1916937
0
ARC
8
DEFAULT_255_1_234
10
24.0681165
20
68.8097967
40
0.5681262
50
162.9373603
51
174.6208611
0
ARC
8
DEFAULT_255_1_234
10
24.3307207
20
68.781001
40
0.8322832
50
174.3419979
51
180.1430411
0
ARC
8
DEFAULT_255_1_234
10
24.2376363
20
68.6615698
40
0.7392076
50
179.6817502
51
189.150529
0
ARC
8
DEFAULT_255_1_234
10
23.9875611
20
68.619919
40
0.4856932
50
188.9910863
51
203.5773039
0
ARC
8
DEFAULT_255_1_234
10
23.8795944
20
68.5751211
40
0.3688271
50
203.9077269
51
215.1312379
0
ARC
8
DEFAULT_255_1_234
10
23.7873038
20
68.5035941
40
0.2522457
50
213.9071664
51
263.8849284
0
ARC
8
DEFAULT_255_1_234
10
23.7998367
20
68.5820518
40
0.3316174
50
263.1758525
51
270.1031083
0
ARC
8
DEFAULT_255_1_234
10
23.8030459
20
68.7067365
40
0.4563091
50
269.6719807
51
279.0609165
0
ARC
8
DEFAULT_255_1_234
10
23.8297227
20
68.5454907
40
0.2928759
50
278.8750225
51
293.6346586
0
ARC
8
DEFAULT_255_1_234
10
23.8617435
20
68.47029
40
0.2111472
50
293.8553404
51
310.0518804
0
ARC
8
DEFAULT_255_1_234
10
23.8622289
20
68.4640516
40
0.2060917
50
311.0646779
51
332.0108348
0
ARC
8
DEFAULT_255_1_234
10
23.7430016
20
68.5297978
40
0.3422352
50
331.6588543
51
343.2878891
0
ARC
8
DEFAULT_255_1_234
10
23.5367531
20
68.5931798
40
0.5580003
50
343.1446044
51
351.010618
0
ARC
8
DEFAULT_255_1_234
10
23.3826177
20
68.6212871
40
0.7146438
50
350.7157277
51
351.1602153
0
LINE
8
DEFAULT_255_1_234
10
22.5181458
20
77.2473211
11
22.8217456
21
76.660201
0
LINE
8
DEFAULT_255_1_234
10
22.8217456
20
76.660201
11
23.1269516
21
77.2473211
0
LINE
8
DEFAULT_255_1_234
10
23.1269516
20
77.2473211
11
23.3020435
21
77.2473211
0
LINE
8
DEFAULT_255_1_234
10
23.3020435
20
77.2473211
11
22.8988502
21
76.5140234
0
LINE
8
DEFAULT_255_1_234
10
22.8988502
20
76.5140234
11
22.8988502
21
76.0779
0
LINE
8
DEFAULT_255_1_234
10
22.8988502
20
76.0779
11
22.7446409
21
76.0779
0
LINE
8
DEFAULT_255_1_234
10
22.7446409
20
76.0779
11
22.7446409
21
76.5140234
0
LINE
8
DEFAULT_255_1_234
10
22.7446409
20
76.5140234
11
22.3414476
21
77.2473211
0
LINE
8
DEFAULT_255_1_234
10
22.3414476
20
77.2473211
11
22.5181458
21
77.2473211
0
LINE
8
DEFAULT_255_1_234
10
23.6305416
20
76.6136169
11
23.6305416
21
76.7348962
0
LINE
8
DEFAULT_255_1_234
10
23.6305416
20
76.7348962
11
23.7421828
21
76.7348962
0
LINE
8
DEFAULT_255_1_234
10
23.5518306
20
76.9405087
11
23.4032434
21
76.9405087
0
LINE
8
DEFAULT_255_1_234
10
23.3928021
20
76.3863188
11
23.5421925
21
76.3863188
0
LINE
8
DEFAULT_255_1_234
10
23.7421828
20
76.6136169
11
23.6305416
21
76.6136169
0
ARC
8
DEFAULT_255_1_234
10
23.7392694
20
77.0741713
40
0.3392876
50
270.4919872
51
281.8951556
0
ARC
8
DEFAULT_255_1_234
10
23.7633956
20
76.9639702
40
0.2264817
50
281.6691735
51
301.2943132
0
ARC
8
DEFAULT_255_1_234
10
23.7804166
20
76.9328304
40
0.1910381
50
301.7833094
51
311.7545298
0
ARC
8
DEFAULT_255_1_234
10
23.7895742
20
76.9226748
40
0.1773635
50
311.7323931
51
354.2802411
0
ARC
8
DEFAULT_255_1_234
10
23.7169367
20
76.9351722
40
0.2509385
50
353.0937916
51
0.1181479
0
ARC
8
DEFAULT_255_1_234
10
23.6708152
20
76.9399386
40
0.2970898
50
359.1805295
51
15.0453146
0
ARC
8
DEFAULT_255_1_234
10
23.8053989
20
76.9791992
40
0.1569564
50
13.9577229
51
77.6713066
0
ARC
8
DEFAULT_255_1_234
10
23.7667518
20
76.8406949
40
0.3006298
50
76.1116566
51
90.7026153
0
ARC
8
DEFAULT_255_1_234
10
23.7608356
20
76.8680545
40
0.2732568
50
89.5324876
51
103.531937
0
ARC
8
DEFAULT_255_1_234
10
23.7407801
20
76.9479884
40
0.1908508
50
103.2931773
51
133.5619022
0
ARC
8
DEFAULT_255_1_234
10
23.7363289
20
76.9539375
40
0.1834746
50
133.8349307
51
173.5344437
0
ARC
8
DEFAULT_255_1_234
10
23.8086332
20
76.9411213
40
0.2568033
50
172.5096846
51
180.1366907
0
ARC
8
DEFAULT_255_1_234
10
23.7135226
20
76.9445622
40
0.3103056
50
155.3484492
51
180.7484736
0
ARC
8
DEFAULT_255_1_234
10
23.7086315
20
76.9416846
40
0.3070957
50
131.5744599
51
154.4798489
0
ARC
8
DEFAULT_255_1_234
10
23.7399462
20
76.910031
40
0.3515643
50
96.9875458
51
131.9690667
0
ARC
8
DEFAULT_255_1_234
10
23.7618942
20
76.7854636
40
0.4779224
50
89.8596053
51
97.7825159
0
ARC
8
DEFAULT_255_1_234
10
23.7667005
20
76.7592616
40
0.5041361
50
78.3655447
51
90.4131539
0
ARC
8
DEFAULT_255_1_234
10
23.8024923
20
76.9251887
40
0.3344039
50
56.6229102
51
78.638727
0
ARC
8
DEFAULT_255_1_234
10
23.8239867
20
76.9627805
40
0.2912001
50
47.0253525
51
56.0854072
0
ARC
8
DEFAULT_255_1_234
10
23.8259647
20
76.9667223
40
0.2869704
50
10.9208013
51
46.7778124
0
ARC
8
DEFAULT_255_1_234
10
23.6895713
20
76.9351857
40
0.426899
50
359.6364486
51
11.6087304
0
ARC
8
DEFAULT_255_1_234
10
23.8730557
20
76.9336752
40
0.243409
50
332.3549906
51
359.7179418
0
ARC
8
DEFAULT_255_1_234
10
23.8080159
20
76.9645142
40
0.3153459
50
325.2333722
51
332.8745602
0
ARC
8
DEFAULT_255_1_234
10
23.8232783
20
76.9538828
40
0.2967456
50
292.9802137
51
325.2392345
0
ARC
8
DEFAULT_255_1_234
10
23.7958157
20
77.0072863
40
0.3566604
50
292.5402179
51
293.6924929
0
ARC
8
DEFAULT_255_1_234
10
23.8350752
20
76.3618091
40
0.3307468
50
57.6435486
51
72.8625112
0
ARC
8
DEFAULT_255_1_234
10
23.8705252
20
76.4192549
40
0.2632492
50
36.7248896
51
57.4697979
0
ARC
8
DEFAULT_255_1_234
10
23.8693885
20
76.420522
40
0.2634081
50
8.0545065
51
36.356114
0
ARC
8
DEFAULT_255_1_234
10
23.783107
20
76.4050174
40
0.3510261
50
359.8320645
51
8.5869982
0
ARC
8
DEFAULT_255_1_234
10
23.7455846
20
76.4002101
40
0.3885653
50
343.9829931
51
0.5571613
0
ARC
8
DEFAULT_255_1_234
10
23.8342043
20
76.3759438
40
0.2966924
50
311.6359546
51
343.7651759
0
ARC
8
DEFAULT_255_1_234
10
23.7963613
20
76.4186102
40
0.3537231
50
279.7829875
51
311.6255694
0
ARC
8
DEFAULT_255_1_234
10
23.7662389
20
76.562328
40
0.5004971
50
269.7286406
51
280.3856417
0
ARC
8
DEFAULT_255_1_234
10
23.7600461
20
76.5581996
40
0.4963778
50
256.6828919
51
270.4412052
0
ARC
8
DEFAULT_255_1_234
10
23.7261757
20
76.4197394
40
0.3538406
50
229.4223008
51
256.8556159
0
ARC
8
DEFAULT_255_1_234
10
23.684715
20
76.3730736
40
0.2914296
50
181.818294
51
229.6455059
0
ARC
8
DEFAULT_255_1_234
10
23.7887106
20
76.3861496
40
0.3959084
50
179.9755256
51
183.2323064
0
ARC
8
DEFAULT_255_1_234
10
23.7714852
20
76.3841037
40
0.2293034
50
179.4465117
51
196.2869258
0
ARC
8
DEFAULT_255_1_234
10
23.722726
20
76.3707651
40
0.1787621
50
196.5661473
51
227.705904
0
ARC
8
DEFAULT_255_1_234
10
23.7391355
20
76.3891155
40
0.2033784
50
227.7652068
51
257.8762805
0
ARC
8
DEFAULT_255_1_234
10
23.7616325
20
76.4834156
40
0.3003081
50
257.4584385
51
270.426602
0
ARC
8
DEFAULT_255_1_234
10
23.7661891
20
76.5123996
40
0.329292
50
269.5962073
51
280.8789248
0
ARC
8
DEFAULT_255_1_234
10
23.789142
20
76.3977685
40
0.2123908
50
280.6346389
51
299.8595945
0
ARC
8
DEFAULT_255_1_234
10
23.8082327
20
76.3615212
40
0.171457
50
300.3576302
51
314.5517981
0
ARC
8
DEFAULT_255_1_234
10
23.7999387
20
76.3675919
40
0.1816095
50
315.0728369
51
345.0431014
0
ARC
8
DEFAULT_255_1_234
10
23.7076201
20
76.3944841
40
0.2777492
50
344.5986631
51
357.9269593
0
ARC
8
DEFAULT_255_1_234
10
23.6180528
20
76.4006276
40
0.3674917
50
357.4748886
51
0.0231117
0
ARC
8
DEFAULT_255_1_234
10
23.7203637
20
76.4030679
40
0.2651907
50
359.5047933
51
13.4239635
0
ARC
8
DEFAULT_255_1_234
10
23.8070281
20
76.4252478
40
0.1757509
50
12.9498199
51
48.7551375
0
ARC
8
DEFAULT_255_1_234
10
23.7888014
20
76.40034
40
0.2065134
50
49.5088623
51
72.1836453
0
ARC
8
DEFAULT_255_1_234
10
23.7530167
20
76.2941291
40
0.3185836
50
71.9010081
51
84.3554254
0
ARC
8
DEFAULT_255_1_234
10
23.7368799
20
76.1580326
40
0.4556151
50
84.0193428
51
89.333121
0
LINE
8
DEFAULT_255_1_234
10
22.5181458
20
85.1848211
11
22.8217456
21
84.597701
0
LINE
8
DEFAULT_255_1_234
10
22.8217456
20
84.597701
11
23.1269516
21
85.1848211
0
LINE
8
DEFAULT_255_1_234
10
23.1269516
20
85.1848211
11
23.3020435
21
85.1848211
0
LINE
8
DEFAULT_255_1_234
10
23.3020435
20
85.1848211
11
22.8988502
21
84.4515234
0
LINE
8
DEFAULT_255_1_234
10
22.8988502
20
84.4515234
11
22.8988502
21
84.0154
0
LINE
8
DEFAULT_255_1_234
10
22.8988502
20
84.0154
11
22.7446409
21
84.0154
0
LINE
8
DEFAULT_255_1_234
10
22.7446409
20
84.0154
11
22.7446409
21
84.4515234
0
LINE
8
DEFAULT_255_1_234
10
22.7446409
20
84.4515234
11
22.3414476
21
85.1848211
0
LINE
8
DEFAULT_255_1_234
10
22.3414476
20
85.1848211
11
22.5181458
21
85.1848211
0
LINE
8
DEFAULT_255_1_234
10
24.1807157
20
84.1366792
11
24.1807157
21
84.0154
0
LINE
8
DEFAULT_255_1_234
10
24.1807157
20
84.0154
11
23.4144878
21
84.0154
0
LINE
8
DEFAULT_255_1_234
10
23.4144878
20
84.0154
11
23.4144878
21
84.1222221
0
LINE
8
DEFAULT_255_1_234
10
23.4144878
20
84.1222221
11
23.8192875
21
84.5719995
0
LINE
8
DEFAULT_255_1_234
10
23.5405861
20
84.8402595
11
23.391999
21
84.8402595
0
LINE
8
DEFAULT_255_1_234
10
23.9068334
20
84.4764218
11
23.5935956
21
84.1366792
0
LINE
8
DEFAULT_255_1_234
10
23.5935956
20
84.1366792
11
24.1807157
21
84.1366792
0
ARC
8
DEFAULT_255_1_234
10
22.4702708
20
85.7649527
40
1.8008286
50
318.5132453
51
320.7828378
0
ARC
8
DEFAULT_255_1_234
10
22.9989682
20
85.3346426
40
1.1191493
50
320.7372736
51
323.9737074
0
ARC
8
DEFAULT_255_1_234
10
23.3909539
20
85.0506361
40
0.6350923
50
323.8961724
51
328.6421089
0
ARC
8
DEFAULT_255_1_234
10
23.5956134
20
84.9244031
40
0.3946393
50
328.8299013
51
331.789948
0
ARC
8
DEFAULT_255_1_234
10
23.6953313
20
84.8729509
40
0.2824501
50
331.4255242
51
352.9364833
0
ARC
8
DEFAULT_255_1_234
10
23.7089813
20
84.8698976
40
0.2685315
50
353.2248685
51
0.0169286
0
ARC
8
DEFAULT_255_1_234
10
23.729969
20
84.872195
40
0.2475536
50
359.4866256
51
15.9339782
0
ARC
8
DEFAULT_255_1_234
10
23.7806675
20
84.8858286
40
0.1950618
50
16.1714718
51
43.5284424
0
ARC
8
DEFAULT_255_1_234
10
23.7883984
20
84.8935573
40
0.184134
50
43.4415429
51
83.1661404
0
ARC
8
DEFAULT_255_1_234
10
23.7749902
20
84.8198771
40
0.258926
50
82.160215
51
90.1505798
0
ARC
8
DEFAULT_255_1_234
10
23.7718329
20
84.7661865
40
0.3126255
50
89.5460705
51
102.5418777
0
ARC
8
DEFAULT_255_1_234
10
23.7475416
20
84.8692665
40
0.2067346
50
102.1739365
51
129.2061916
0
ARC
8
DEFAULT_255_1_234
10
23.7396487
20
84.8817094
40
0.1921118
50
129.7279328
51
135.7542026
0
ARC
8
DEFAULT_255_1_234
10
23.7518015
20
84.8720045
40
0.2075944
50
136.175737
51
166.3674722
0
ARC
8
DEFAULT_255_1_234
10
23.8524934
20
84.8450182
40
0.3118201
50
165.9092917
51
178.8683903
0
ARC
8
DEFAULT_255_1_234
10
23.9389795
20
84.8403179
40
0.3983935
50
178.438168
51
180.0083905
0
ARC
8
DEFAULT_255_1_234
10
23.7988398
20
84.8442231
40
0.4068601
50
163.2878735
51
180.5581814
0
ARC
8
DEFAULT_255_1_234
10
23.7186659
20
84.866284
40
0.3237344
50
133.454115
51
162.9470031
0
ARC
8
DEFAULT_255_1_234
10
23.73652
20
84.8473
40
0.349795
50
100.7869394
51
133.4384016
0
ARC
8
DEFAULT_255_1_234
10
23.7712972
20
84.6924319
40
0.5084616
50
89.6605301
51
101.3704185
0
ARC
8
DEFAULT_255_1_234
10
23.7779311
20
84.6985496
40
0.502348
50
78.2171172
51
90.4130393
0
ARC
8
DEFAULT_255_1_234
10
23.8134389
20
84.8609637
40
0.3361092
50
55.9268222
51
78.4888551
0
ARC
8
DEFAULT_255_1_234
10
23.8330829
20
84.8948324
40
0.2970617
50
47.9292255
51
55.4054003
0
ARC
8
DEFAULT_255_1_234
10
23.843239
20
84.9051502
40
0.2825983
50
4.3347696
51
48.0560701
0
ARC
8
DEFAULT_255_1_234
10
23.7336783
20
84.8881601
40
0.393225
50
359.925209
51
5.5967654
0
ARC
8
DEFAULT_255_1_234
10
23.7765675
20
84.8937816
40
0.3503892
50
337.8914096
51
358.9967724
0
ARC
8
DEFAULT_255_1_234
10
23.5052087
20
84.9984706
40
0.6412172
50
326.9135351
51
338.3505194
0
ARC
8
DEFAULT_255_1_234
10
23.1066391
20
85.2539284
40
1.1146189
50
319.6472867
51
327.095818
0
ARC
8
DEFAULT_255_1_234
10
22.7233394
20
85.5701
40
1.6114559
50
317.2586784
51
319.9046139
0
LINE
8
DEFAULT_255_1_234
10
22.5269458
20
93.1223211
11
22.8305456
21
92.535201
0
LINE
8
DEFAULT_255_1_234
10
22.8305456
20
92.535201
11
23.1357516
21
93.1223211
0
LINE
8
DEFAULT_255_1_234
10
23.1357516
20
93.1223211
11
23.3108435
21
93.1223211
0
LINE
8
DEFAULT_255_1_234
10
23.3108435
20
93.1223211
11
22.9076502
21
92.3890234
0
LINE
8
DEFAULT_255_1_234
10
22.9076502
20
92.3890234
11
22.9076502
21
91.9529
0
LINE
8
DEFAULT_255_1_234
10
22.9076502
20
91.9529
11
22.7534409
21
91.9529
0
LINE
8
DEFAULT_255_1_234
10
22.7534409
20
91.9529
11
22.7534409
21
92.3890234
0
LINE
8
DEFAULT_255_1_234
10
22.7534409
20
92.3890234
11
22.3502476
21
93.1223211
0
LINE
8
DEFAULT_255_1_234
10
22.3502476
20
93.1223211
11
22.5269458
21
93.1223211
0
LINE
8
DEFAULT_255_1_234
10
23.9116175
20
93.1279433
11
23.9116175
21
91.9529
0
LINE
8
DEFAULT_255_1_234
10
23.9116175
20
91.9529
11
23.7622272
21
91.9529
0
LINE
8
DEFAULT_255_1_234
10
23.7622272
20
91.9529
11
23.7622272
21
92.9432133
0
LINE
8
DEFAULT_255_1_234
10
23.7622272
20
92.9432133
11
23.4626434
21
92.8331785
0
LINE
8
DEFAULT_255_1_234
10
23.4626434
20
92.8331785
11
23.4626434
21
92.9681117
0
LINE
8
DEFAULT_255_1_234
10
23.4626434
20
92.9681117
11
23.8883255
21
93.1279433
0
LINE
8
DEFAULT_255_1_234
10
23.8883255
20
93.1279433
11
23.9116175
21
93.1279433
0
LINE
8
DEFAULT_255_1_234
10
22.5181458
20
101.0598211
11
22.8217456
21
100.472701
0
LINE
8
DEFAULT_255_1_234
10
22.8217456
20
100.472701
11
23.1269516
21
101.0598211
0
LINE
8
DEFAULT_255_1_234
10
23.1269516
20
101.0598211
11
23.3020435
21
101.0598211
0
LINE
8
DEFAULT_255_1_234
10
23.3020435
20
101.0598211
11
22.8988502
21
100.3265234
0
LINE
8
DEFAULT_255_1_234
10
22.8988502
20
100.3265234
11
22.8988502
21
99.8904
0
LINE
8
DEFAULT_255_1_234
10
22.8988502
20
99.8904
11
22.7446409
21
99.8904
0
LINE
8
DEFAULT_255_1_234
10
22.7446409
20
99.8904
11
22.7446409
21
100.3265234
0
LINE
8
DEFAULT_255_1_234
10
22.7446409
20
100.3265234
11
22.3414476
21
101.0598211
0
LINE
8
DEFAULT_255_1_234
10
22.3414476
20
101.0598211
11
22.5181458
21
101.0598211
0
LINE
8
DEFAULT_255_1_234
10
24.1477855
20
100.5819327
11
24.1477855
21
100.3891709
0
LINE
8
DEFAULT_255_1_234
10
23.4096688
20
100.3690916
11
23.4096688
21
100.5674755
0
LINE
8
DEFAULT_255_1_234
10
23.9991984
20
100.3490123
11
23.9991984
21
100.5923739
0
LINE
8
DEFAULT_255_1_234
10
23.558256
20
100.6036184
11
23.558256
21
100.3658789
0
ARC
8
DEFAULT_255_1_234
10
22.9230745
20
100.3842805
40
1.2247208
50
353.8441951
51
0.2287902
0
ARC
8
DEFAULT_255_1_234
10
23.3870249
20
100.3324806
40
0.7578929
50
344.4934747
51
353.9765454
0
ARC
8
DEFAULT_255_1_234
10
23.6862839
20
100.2473981
40
0.4467846
50
329.2803592
51
344.7472793
0
ARC
8
DEFAULT_255_1_234
10
23.7855664
20
100.1929018
40
0.3336173
50
324.9352394
51
328.6160465
0
ARC
8
DEFAULT_255_1_234
10
23.8232773
20
100.1665427
40
0.2876076
50
280.580143
51
324.9173126
0
ARC
8
DEFAULT_255_1_234
10
23.7831565
20
100.3336099
40
0.4592847
50
269.5977311
51
281.6734359
0
ARC
8
DEFAULT_255_1_234
10
23.7759471
20
100.3216173
40
0.4472986
50
256.6228859
51
270.51044
0
ARC
8
DEFAULT_255_1_234
10
23.7357449
20
100.1667877
40
0.2873874
50
215.8618325
51
257.2788573
0
ARC
8
DEFAULT_255_1_234
10
23.837848
20
100.2352977
40
0.4102928
50
197.9693508
51
215.2623606
0
ARC
8
DEFAULT_255_1_234
10
24.0863596
20
100.3191709
40
0.6725652
50
187.8816417
51
198.2346507
0
ARC
8
DEFAULT_255_1_234
10
24.4821804
20
100.3763079
40
1.0724845
50
180.8976217
51
188.0055519
0
ARC
8
DEFAULT_255_1_234
10
24.7621992
20
100.3866777
40
1.3526448
50
180.7449369
51
181.1510016
0
ARC
8
DEFAULT_255_1_234
10
24.6044721
20
100.5723042
40
1.1948131
50
173.7675579
51
180.231553
0
ARC
8
DEFAULT_255_1_234
10
24.1526868
20
100.6233666
40
0.7401564
50
164.3058563
51
173.9002247
0
ARC
8
DEFAULT_255_1_234
10
23.8614937
20
100.7072656
40
0.4371288
50
148.7922025
51
164.568378
0
ARC
8
DEFAULT_255_1_234
10
23.7663389
20
100.7603929
40
0.3282386
50
144.5883898
51
148.1176286
0
ARC
8
DEFAULT_255_1_234
10
23.7320287
20
100.7843315
40
0.2864044
50
101.6440918
51
144.514236
0
ARC
8
DEFAULT_255_1_234
10
23.7745354
20
100.6154069
40
0.4604934
50
89.5284041
51
102.5819763
0
ARC
8
DEFAULT_255_1_234
10
23.7824441
20
100.6115018
40
0.464401
50
77.0437873
51
90.5081339
0
ARC
8
DEFAULT_255_1_234
10
23.8226443
20
100.7757615
40
0.2953195
50
48.2778575
51
77.4994676
0
ARC
8
DEFAULT_255_1_234
10
23.8299074
20
100.7886746
40
0.2808655
50
36.3142134
51
47.6305865
0
ARC
8
DEFAULT_255_1_234
10
23.7430381
20
100.7301515
40
0.3855453
50
18.2931786
51
35.6769206
0
ARC
8
DEFAULT_255_1_234
10
23.488714
20
100.6428593
40
0.654423
50
8.024666
51
18.5605216
0
ARC
8
DEFAULT_255_1_234
10
23.072406
20
100.5813792
40
1.0752407
50
1.1274072
51
8.1718305
0
ARC
8
DEFAULT_255_1_234
10
22.7488251
20
100.5686885
40
1.3990231
50
0.5424119
51
1.3863029
0
ARC
8
DEFAULT_255_1_234
10
22.9309629
20
100.5959342
40
1.0682415
50
359.8090433
51
4.9407866
0
ARC
8
DEFAULT_255_1_234
10
23.3519643
20
100.6335113
40
0.6455691
50
4.8362157
51
12.2904523
0
ARC
8
DEFAULT_255_1_234
10
23.6274757
20
100.6948965
40
0.3633074
50
12.0805627
51
23.8173984
0
ARC
8
DEFAULT_255_1_234
10
23.7448463
20
100.7445919
40
0.2358723
50
24.2871213
51
31.3935614
0
ARC
8
DEFAULT_255_1_234
10
23.797316
20
100.7789233
40
0.1732111
50
30.7407893
51
82.4657128
0
ARC
8
DEFAULT_255_1_234
10
23.7793294
20
100.6905691
40
0.263235
50
81.1060089
51
90.2184952
0
ARC
8
DEFAULT_255_1_234
10
23.7757593
20
100.7163924
40
0.2374236
50
89.3806855
51
105.6762551
0
ARC
8
DEFAULT_255_1_234
10
23.7574224
20
100.7830567
40
0.1682847
50
105.7981136
51
149.7388061
0
ARC
8
DEFAULT_255_1_234
10
23.8638302
20
100.719095
40
0.2924306
50
149.4208916
51
163.6286378
0
ARC
8
DEFAULT_255_1_234
10
24.072919
20
100.655325
40
0.5110213
50
163.3763315
51
172.1410975
0
ARC
8
DEFAULT_255_1_234
10
24.4029909
20
100.6080518
40
0.8444586
50
172.0259487
51
178.0703232
0
ARC
8
DEFAULT_255_1_234
10
24.7059999
20
100.5936906
40
1.1477868
50
177.8631668
51
179.5044149
0
ARC
8
DEFAULT_255_1_234
10
24.5987403
20
100.3622389
40
1.0404907
50
179.7995573
51
185.2460446
0
ARC
8
DEFAULT_255_1_234
10
24.1944442
20
100.3239513
40
0.6343885
50
185.1411642
51
193.0079639
0
ARC
8
DEFAULT_255_1_234
10
23.9300915
20
100.2614641
40
0.3627568
50
192.7897626
51
205.2507664
0
ARC
8
DEFAULT_255_1_234
10
23.8254462
20
100.2147415
40
0.2481908
50
205.8005384
51
211.2537509
0
ARC
8
DEFAULT_255_1_234
10
23.7730902
20
100.179658
40
0.1852521
50
210.3789793
51
238.4008143
0
ARC
8
DEFAULT_255_1_234
10
23.7711424
20
100.1843376
40
0.1882621
50
239.6520629
51
265.9793761
0
ARC
8
DEFAULT_255_1_234
10
23.7796624
20
100.2515427
40
0.2559272
50
265.1315437
51
270.060332
0
ARC
8
DEFAULT_255_1_234
10
23.7825403
20
100.2191534
40
0.2235528
50
269.3314664
51
287.2178029
0
ARC
8
DEFAULT_255_1_234
10
23.7963255
20
100.1688279
40
0.1714108
50
287.7958004
51
329.080874
0
ARC
8
DEFAULT_255_1_234
10
23.7005712
20
100.228593
40
0.2842745
50
328.6634704
51
343.3325132
0
ARC
8
DEFAULT_255_1_234
10
23.4832732
20
100.2962863
40
0.5118644
50
343.0499468
51
351.9393422
0
ARC
8
DEFAULT_255_1_234
10
23.1366032
20
100.3473949
40
0.8622784
50
351.8069023
51
357.7959224
0
ARC
8
DEFAULT_255_1_234
10
22.8130588
20
100.3641721
40
1.1862365
50
357.5871873
51
359.2677531
0
LINE
8
DEFAULT_255_1_234
10
22.9097137
20
109.0029433
11
22.9097137
21
107.8279
0
LINE
8
DEFAULT_255_1_234
10
22.9097137
20
107.8279
11
22.7603234
21
107.8279
0
LINE
8
DEFAULT_255_1_234
10
22.7603234
20
107.8279
11
22.7603234
21
108.8182133
0
LINE
8
DEFAULT_255_1_234
10
22.7603234
20
108.8182133
11
22.4607396
21
108.7081785
0
LINE
8
DEFAULT_255_1_234
10
22.4607396
20
108.7081785
11
22.4607396
21
108.8431117
0
LINE
8
DEFAULT_255_1_234
10
22.4607396
20
108.8431117
11
22.8864217
21
109.0029433
0
LINE
8
DEFAULT_255_1_234
10
22.8864217
20
109.0029433
11
22.9097137
21
109.0029433
0
LINE
8
DEFAULT_255_1_234
10
24.0887729
20
108.1989663
11
24.2437854
21
108.1989663
0
LINE
8
DEFAULT_255_1_234
10
23.3434276
20
108.3579947
11
23.3434276
21
108.4704391
0
LINE
8
DEFAULT_255_1_234
10
24.2437854
20
108.6214357
11
24.0887729
21
108.6214357
0
LINE
8
DEFAULT_255_1_234
10
23.4984401
20
108.4664232
11
23.4984401
21
108.3531757
0
ARC
8
DEFAULT_255_1_234
10
23.6957241
20
108.2586846
40
0.5513052
50
340.1774281
51
353.7814284
0
ARC
8
DEFAULT_255_1_234
10
23.8528594
20
108.2001582
40
0.3836379
50
311.4558989
51
340.4421614
0
ARC
8
DEFAULT_255_1_234
10
23.8495262
20
108.2112528
40
0.3941894
50
282.4333181
51
310.7513653
0
ARC
8
DEFAULT_255_1_234
10
23.8056001
20
108.3927679
40
0.5809175
50
269.9358511
51
282.809604
0
ARC
8
DEFAULT_255_1_234
10
23.8004067
20
108.5385212
40
0.7266847
50
270.0021091
51
270.3581957
0
ARC
8
DEFAULT_255_1_234
10
23.7951484
20
108.2784585
40
0.4666519
50
250.7884749
51
270.6489167
0
ARC
8
DEFAULT_255_1_234
10
23.7783319
20
108.2147319
40
0.4009729
50
219.3627325
51
250.0611886
0
ARC
8
DEFAULT_255_1_234
10
23.861253
20
108.2852042
40
0.5097822
50
193.5479632
51
219.5756669
0
ARC
8
DEFAULT_255_1_234
10
24.0984151
20
108.3467919
40
0.7547848
50
181.1218675
51
193.87563
0
ARC
8
DEFAULT_255_1_234
10
24.3054332
20
108.357858
40
0.9620055
50
179.9918545
51
181.5394234
0
ARC
8
DEFAULT_255_1_234
10
24.1203434
20
108.4741788
40
0.7769248
50
169.5837241
51
180.2757934
0
ARC
8
DEFAULT_255_1_234
10
23.9366372
20
108.5081229
40
0.590109
50
155.0365899
51
169.6003176
0
ARC
8
DEFAULT_255_1_234
10
23.8230836
20
108.5628677
40
0.4640625
50
136.783148
51
155.2472683
0
ARC
8
DEFAULT_255_1_234
10
23.7841313
20
108.5959562
40
0.4130255
50
121.7633186
51
136.428115
0
ARC
8
DEFAULT_255_1_234
10
23.7976275
20
108.5710227
40
0.4413323
50
95.6459699
51
121.5490577
0
ARC
8
DEFAULT_255_1_234
10
23.8133557
20
108.4601949
40
0.55319
50
89.924208
51
96.1377933
0
ARC
8
DEFAULT_255_1_234
10
23.818399
20
108.4720542
40
0.5413475
50
76.6779277
51
90.4563316
0
ARC
8
DEFAULT_255_1_234
10
23.8577613
20
108.6311114
40
0.3775041
50
47.485847
51
76.9287264
0
ARC
8
DEFAULT_255_1_234
10
23.8430586
20
108.6211159
40
0.3948286
50
16.5424086
51
46.8933463
0
ARC
8
DEFAULT_255_1_234
10
23.6822743
20
108.5682861
40
0.564021
50
5.4072051
51
17.0365086
0
ARC
8
DEFAULT_255_1_234
10
23.538376
20
108.5451679
40
0.5556559
50
7.8891745
51
15.9239216
0
ARC
8
DEFAULT_255_1_234
10
23.7370773
20
108.6028631
40
0.3487515
50
15.7653144
51
27.9410532
0
ARC
8
DEFAULT_255_1_234
10
23.8474991
20
108.661979
40
0.2235026
50
27.8166557
51
46.4008329
0
ARC
8
DEFAULT_255_1_234
10
23.8524634
20
108.6614082
40
0.2205286
50
47.4371857
51
75.0698205
0
ARC
8
DEFAULT_255_1_234
10
23.8216029
20
108.5539765
40
0.3322915
50
74.7008593
51
87.8124495
0
ARC
8
DEFAULT_255_1_234
10
23.8142716
20
108.4483844
40
0.4380987
50
87.3814673
51
90.0240855
0
ARC
8
DEFAULT_255_1_234
10
23.8104259
20
108.5661291
40
0.3203749
50
89.3451631
51
108.5745436
0
ARC
8
DEFAULT_255_1_234
10
23.7967365
20
108.6174908
40
0.2673494
50
109.2998449
51
143.3037509
0
ARC
8
DEFAULT_255_1_234
10
23.8729437
20
108.5588881
40
0.3634757
50
143.0753173
51
163.1916937
0
ARC
8
DEFAULT_255_1_234
10
24.0681165
20
108.4972967
40
0.5681262
50
162.9373603
51
174.6208611
0
ARC
8
DEFAULT_255_1_234
10
24.3307207
20
108.468501
40
0.8322832
50
174.3419979
51
180.1430411
0
ARC
8
DEFAULT_255_1_234
10
24.2376363
20
108.3490698
40
0.7392076
50
179.6817502
51
189.150529
0
ARC
8
DEFAULT_255_1_234
10
23.9875611
20
108.307419
40
0.4856932
50
188.9910863
51
203.5773039
0
ARC
8
DEFAULT_255_1_234
10
23.8795944
20
108.2626211
40
0.3688271
50
203.9077269
51
215.1312379
0
ARC
8
DEFAULT_255_1_234
10
23.7873038
20
108.1910941
40
0.2522457
50
213.9071664
51
263.8849284
0
ARC
8
DEFAULT_255_1_234
10
23.7998367
20
108.2695518
40
0.3316174
50
263.1758525
51
270.1031083
0
ARC
8
DEFAULT_255_1_234
10
23.8030459
20
108.3942365
40
0.4563091
50
269.6719807
51
279.0609165
0
ARC
8
DEFAULT_255_1_234
10
23.8297227
20
108.2329907
40
0.2928759
50
278.8750225
51
293.6346586
0
ARC
8
DEFAULT_255_1_234
10
23.8617435
20
108.15779
40
0.2111472
50
293.8553404
51
310.0518804
0
ARC
8
DEFAULT_255_1_234
10
23.8622289
20
108.1515516
40
0.2060917
50
311.0646779
51
332.0108348
0
ARC
8
DEFAULT_255_1_234
10
23.7430016
20
108.2172978
40
0.3422352
50
331.6588543
51
343.2878891
0
ARC
8
DEFAULT_255_1_234
10
23.5367531
20
108.2806798
40
0.5580003
50
343.1446044
51
351.010618
0
ARC
8
DEFAULT_255_1_234
10
23.3826177
20
108.3087871
40
0.7146438
50
350.7157277
51
351.1602153
0
LINE
8
DEFAULT_255_1_234
10
22.9342522
20
116.9348211
11
23.2667662
21
115.9702093
0
LINE
8
DEFAULT_255_1_234
10
23.2667662
20
115.9702093
11
23.6008865
21
116.9348211
0
LINE
8
DEFAULT_255_1_234
10
23.6008865
20
116.9348211
11
23.769553
21
116.9348211
0
LINE
8
DEFAULT_255_1_234
10
23.769553
20
116.9348211
11
23.3358391
21
115.7654
0
LINE
8
DEFAULT_255_1_234
10
23.3358391
20
115.7654
11
23.1992996
21
115.7654
0
LINE
8
DEFAULT_255_1_234
10
23.1992996
20
115.7654
11
22.7663889
21
116.9348211
0
LINE
8
DEFAULT_255_1_234
10
22.7663889
20
116.9348211
11
22.9342522
21
116.9348211
0
LINE
8
DEFAULT_255_1_234
10
24.1823843
20
116.3228026
11
24.1823843
21
116.2015234
0
LINE
8
DEFAULT_255_1_234
10
24.1823843
20
116.2015234
11
23.7904355
21
116.2015234
0
LINE
8
DEFAULT_255_1_234
10
23.7904355
20
116.2015234
11
23.7904355
21
116.3228026
0
LINE
8
DEFAULT_255_1_234
10
23.7904355
20
116.3228026
11
24.1823843
21
116.3228026
0
ENDSEC
0
EOF