0
SECTION
2
HEADER
9
$MEASUREMENT
70
1
0
ENDSEC
0
SECTION
2
TABLES
0
TABLE
2
LTYPE
0
LTYPE
72
65
70
64
2
CONTINUOUS
3
______
73
0
40
0
0
ENDTAB
0
TABLE
2
LAYER
0
LAYER
2
DEFAULT_255_2_778
70
0
62
255
6
CONTINUOUS
0
LAYER
2
DEFAULT_255_1_388
70
0
62
255
6
CONTINUOUS
0
ENDTAB
0
ENDSEC
0
SECTION
2
ENTITIES
0
ARC
8
DEFAULT_255_2_778
10
3.5700693
20
131.3676523
40
0.7914215
50
129.1312896
51
180.1450914
0
ARC
8
DEFAULT_255_2_778
10
3.5703345
20
131.3681394
40
0.7912112
50
89.854026
51
129.1684493
0
ARC
8
DEFAULT_255_2_778
10
25.7993937
20
131.3678259
40
0.7915249
50
39.4792447
51
90.147911
0
ARC
8
DEFAULT_255_2_778
10
25.7999935
20
131.3676726
40
0.7911595
50
359.8533901
51
39.5154338
0
ARC
8
DEFAULT_255_2_778
10
25.7996693
20
-1.9864
40
0.7914836
50
309.4761667
51
0.1482649
0
ARC
8
DEFAULT_255_2_778
10
25.799398
20
-1.9868311
40
0.7913235
50
269.8517415
51
309.511178
0
ARC
8
DEFAULT_255_2_778
10
3.570342
20
-1.9867729
40
0.7913815
50
219.1282118
51
270.1454017
0
ARC
8
DEFAULT_255_2_778
10
3.5700247
20
-1.9863904
40
0.7913769
50
179.8524075
51
219.1641908
0
LINE
8
DEFAULT_255_2_778
10
3.5723503
20
132.1593481
11
25.7973503
21
132.1593481
0
LINE
8
DEFAULT_255_2_778
10
26.5911503
20
131.3656481
11
26.5911503
21
-1.9843519
0
LINE
8
DEFAULT_255_2_778
10
25.7973503
20
-2.7781519
11
3.5723503
21
-2.7781519
0
LINE
8
DEFAULT_255_2_778
10
2.7786503
20
-1.9843519
11
2.7786503
21
131.3656481
0
LINE
8
DEFAULT_255_1_388
10
7.6403024
20
-0.6398
11
7.1840024
21
-0.6398
0
LINE
8
DEFAULT_255_1_388
10
7.1840024
20
-0.6398
11
7.1840024
21
0.6757898
0
LINE
8
DEFAULT_255_1_388
10
7.1840024
20
0.6757898
11
7.6140991
21
0.6757898
0
LINE
8
DEFAULT_255_1_388
10
7.6466274
20
-0.0244726
11
7.3574868
21
-0.0244726
0
LINE
8
DEFAULT_255_1_388
10
7.3574868
20
-0.0244726
11
7.3574868
21
-0.4979404
0
LINE
8
DEFAULT_255_1_388
10
7.3574868
20
-0.4979404
11
7.6439167
21
-0.4979404
0
LINE
8
DEFAULT_255_1_388
10
7.3574868
20
0.5330267
11
7.3574868
21
0.1146763
0
LINE
8
DEFAULT_255_1_388
10
7.3574868
20
0.1146763
11
7.6195205
21
0.1146763
0
LINE
8
DEFAULT_255_1_388
10
7.6140991
20
0.5330267
11
7.3574868
21
0.5330267
0
ARC
8
DEFAULT_255_1_388
10
7.6183411
20
-0.1530176
40
0.8288183
50
82.1256322
51
90.2932506
0
ARC
8
DEFAULT_255_1_388
10
7.6620986
20
0.152759
40
0.5199321
50
69.9044202
51
82.2857574
0
ARC
8
DEFAULT_255_1_388
10
7.7262979
20
0.3262993
40
0.3348993
50
51.1840204
51
70.018125
0
ARC
8
DEFAULT_255_1_388
10
7.7549811
20
0.3679945
40
0.2844579
50
12.1018086
51
50.421322
0
ARC
8
DEFAULT_255_1_388
10
7.5992682
20
0.3288937
40
0.4449429
50
359.5252354
51
12.8212369
0
ARC
8
DEFAULT_255_1_388
10
7.7770112
20
0.3210943
40
0.2672162
50
323.4907456
51
0.8818258
0
ARC
8
DEFAULT_255_1_388
10
7.7299525
20
0.3574523
40
0.3266736
50
298.6824053
51
323.2758285
0
ARC
8
DEFAULT_255_1_388
10
7.6892816
20
0.4250509
40
0.4055105
50
293.1994739
51
299.139634
0
ARC
8
DEFAULT_255_1_388
10
7.7649766
20
-0.2595349
40
0.3229926
50
54.0009997
51
74.9168635
0
ARC
8
DEFAULT_255_1_388
10
7.7780693
20
-0.2373489
40
0.2973581
50
36.3578854
51
53.5293172
0
ARC
8
DEFAULT_255_1_388
10
7.7638061
20
-0.247515
40
0.3148715
50
4.8189348
51
36.3090187
0
ARC
8
DEFAULT_255_1_388
10
7.6761085
20
-0.2598617
40
0.4033265
50
359.9373213
51
5.5201284
0
ARC
8
DEFAULT_255_1_388
10
7.6396415
20
-0.2644267
40
0.4398126
50
344.7479357
51
0.5372278
0
ARC
8
DEFAULT_255_1_388
10
7.7511314
20
-0.2944795
40
0.3243441
50
311.1785587
51
344.6887681
0
ARC
8
DEFAULT_255_1_388
10
7.7182857
20
-0.2535916
40
0.3767511
50
286.0417804
51
310.8440924
0
ARC
8
DEFAULT_255_1_388
10
7.6612266
20
-0.0683115
40
0.5705957
50
274.1044074
51
286.4070149
0
ARC
8
DEFAULT_255_1_388
10
7.6413482
20
0.1434901
40
0.7832907
50
269.9235077
51
274.4458593
0
ARC
8
DEFAULT_255_1_388
10
7.64652
20
-0.1196538
40
0.3782955
50
269.6057074
51
281.3740795
0
ARC
8
DEFAULT_255_1_388
10
7.6724698
20
-0.2426431
40
0.2526069
50
281.105298
51
302.5134029
0
ARC
8
DEFAULT_255_1_388
10
7.6890086
20
-0.2723056
40
0.2187131
50
303.0365425
51
311.8818034
0
ARC
8
DEFAULT_255_1_388
10
7.6970263
20
-0.2818398
40
0.2062624
50
311.9916937
51
351.7143773
0
ARC
8
DEFAULT_255_1_388
10
7.6051288
20
-0.2632729
40
0.2999202
50
350.7343295
51
0.2221526
0
ARC
8
DEFAULT_255_1_388
10
7.5930376
20
-0.256913
40
0.3120525
50
359.045729
51
17.2295312
0
ARC
8
DEFAULT_255_1_388
10
7.7099406
20
-0.2221845
40
0.1901144
50
17.6685208
51
78.9940245
0
ARC
8
DEFAULT_255_1_388
10
7.6517767
20
-0.4309989
40
0.4065575
50
76.565218
51
90.7103392
0
LINE
8
DEFAULT_255_1_388
10
7.6467364
20
-0.0244726
11
7.6466274
21
-0.0244726
0
ARC
8
DEFAULT_255_1_388
10
7.6220593
20
0.4842949
40
0.3696273
50
269.6064514
51
281.4533785
0
ARC
8
DEFAULT_255_1_388
10
7.6471234
20
0.3660283
40
0.2487412
50
281.2044438
51
302.5143998
0
ARC
8
DEFAULT_255_1_388
10
7.6625488
20
0.3382576
40
0.2170405
50
303.0211308
51
309.8378766
0
ARC
8
DEFAULT_255_1_388
10
7.6831605
20
0.3151486
40
0.1860946
50
309.5229446
51
356.9509628
0
ARC
8
DEFAULT_255_1_388
10
7.6085731
20
0.3258831
40
0.2612347
50
355.4699226
51
0.0498632
0
ARC
8
DEFAULT_255_1_388
10
7.5771404
20
0.3283789
40
0.2926762
50
359.5558955
51
11.2092924
0
ARC
8
DEFAULT_255_1_388
10
7.6848372
20
0.3506667
40
0.1827036
50
10.9185717
51
31.322519
0
ARC
8
DEFAULT_255_1_388
10
7.716992
20
0.3685571
40
0.1459418
50
31.8850633
51
52.1415586
0
ARC
8
DEFAULT_255_1_388
10
7.6861349
20
0.3249674
40
0.1993088
50
52.8283418
51
71.9850132
0
ARC
8
DEFAULT_255_1_388
10
7.643851
20
0.2005158
40
0.3307407
50
71.686634
51
82.8453416
0
ARC
8
DEFAULT_255_1_388
10
7.6169157
20
-0.0030108
40
0.536039
50
82.6981895
51
90.1730083
0
ARC
8
DEFAULT_255_1_388
10
7.6143989
20
0.0848836
40
0.4481429
50
89.8851568
51
90.0383283
0
LINE
8
DEFAULT_255_1_388
10
8.4480891
20
0.6757898
11
8.7652402
21
0.1716009
0
LINE
8
DEFAULT_255_1_388
10
8.7652402
20
0.1716009
11
9.0805842
21
0.6757898
0
LINE
8
DEFAULT_255_1_388
10
9.0805842
20
0.6757898
11
9.2847897
21
0.6757898
0
LINE
8
DEFAULT_255_1_388
10
9.2847897
20
0.6757898
11
8.8691501
21
0.0234163
0
LINE
8
DEFAULT_255_1_388
10
8.8691501
20
0.0234163
11
9.294729
21
-0.6398
0
LINE
8
DEFAULT_255_1_388
10
9.294729
20
-0.6398
11
9.0887163
21
-0.6398
0
LINE
8
DEFAULT_255_1_388
10
9.0887163
20
-0.6398
11
8.7652402
21
-0.1265754
0
LINE
8
DEFAULT_255_1_388
10
8.7652402
20
-0.1265754
11
8.439957
21
-0.6398
0
LINE
8
DEFAULT_255_1_388
10
8.439957
20
-0.6398
11
8.2348479
21
-0.6398
0
LINE
8
DEFAULT_255_1_388
10
8.2348479
20
-0.6398
11
8.6613303
21
0.0234163
0
LINE
8
DEFAULT_255_1_388
10
8.6613303
20
0.0234163
11
8.2447871
21
0.6757898
0
LINE
8
DEFAULT_255_1_388
10
8.2447871
20
0.6757898
11
8.4480891
21
0.6757898
0
LINE
8
DEFAULT_255_1_388
10
9.7763288
20
-0.0127263
11
9.7763288
21
-0.1491645
0
LINE
8
DEFAULT_255_1_388
10
9.7763288
20
-0.1491645
11
9.3353894
21
-0.1491645
0
LINE
8
DEFAULT_255_1_388
10
9.3353894
20
-0.1491645
11
9.3353894
21
-0.0127263
0
LINE
8
DEFAULT_255_1_388
10
9.3353894
20
-0.0127263
11
9.7763288
21
-0.0127263
0
LINE
8
DEFAULT_255_1_388
10
10.3293103
20
-0.6398
11
9.9651738
21
-0.6398
0
LINE
8
DEFAULT_255_1_388
10
9.9651738
20
-0.6398
11
9.9651738
21
0.6757898
0
LINE
8
DEFAULT_255_1_388
10
9.9651738
20
0.6757898
11
10.3365388
21
0.6757898
0
LINE
8
DEFAULT_255_1_388
10
10.9166271
20
0.0622696
11
10.9166271
21
-0.0217619
0
LINE
8
DEFAULT_255_1_388
10
10.3410566
20
0.5330267
11
10.1386582
21
0.5330267
0
LINE
8
DEFAULT_255_1_388
10
10.1386582
20
0.5330267
11
10.1386582
21
-0.4979404
0
LINE
8
DEFAULT_255_1_388
10
10.1386582
20
-0.4979404
11
10.3211782
21
-0.4979404
0
LINE
8
DEFAULT_255_1_388
10
10.7449499
20
-0.0181477
11
10.7449499
21
0.0586553
0
ARC
8
DEFAULT_255_1_388
10
10.3409182
20
0.0159436
40
0.6598608
50
75.4100343
51
90.3802731
0
ARC
8
DEFAULT_255_1_388
10
10.3667428
20
0.1235691
40
0.5492049
50
60.1455157
51
75.1889627
0
ARC
8
DEFAULT_255_1_388
10
10.3846019
20
0.1546914
40
0.5133226
50
26.525419
51
60.1451222
0
ARC
8
DEFAULT_255_1_388
10
10.2585806
20
0.0878642
40
0.6559324
50
7.4029944
51
26.832209
0
ARC
8
DEFAULT_255_1_388
10
10.0792203
20
0.0599229
40
0.8374103
50
0.1605597
51
7.7176135
0
ARC
8
DEFAULT_255_1_388
10
10.0976603
20
-0.0260679
40
0.8189782
50
348.7289744
51
0.30125
0
ARC
8
DEFAULT_255_1_388
10
10.2840067
20
-0.0630844
40
0.628991
50
333.0706936
51
348.7181455
0
ARC
8
DEFAULT_255_1_388
10
10.3927695
20
-0.1221551
40
0.5052808
50
299.2531435
51
333.4571133
0
ARC
8
DEFAULT_255_1_388
10
10.3521726
20
-0.0450371
40
0.5924066
50
278.1072193
51
299.0340218
0
ARC
8
DEFAULT_255_1_388
10
10.3233775
20
0.1245979
40
0.7644209
50
270.4446841
51
278.4508355
0
ARC
8
DEFAULT_255_1_388
10
10.3257258
20
0.02003
40
0.5179903
50
269.4969684
51
284.0204874
0
ARC
8
DEFAULT_255_1_388
10
10.3656977
20
-0.1335585
40
0.3592968
50
283.7699076
51
318.1557121
0
ARC
8
DEFAULT_255_1_388
10
10.3277522
20
-0.1051601
40
0.4065308
50
318.7417595
51
343.687252
0
ARC
8
DEFAULT_255_1_388
10
10.1248101
20
-0.0417725
40
0.6191194
50
343.3324891
51
355.8548594
0
ARC
8
DEFAULT_255_1_388
10
9.8887138
20
-0.0193281
40
0.856237
50
355.4988754
51
0.0789913
0
ARC
8
DEFAULT_255_1_388
10
9.9767938
20
0.063408
40
0.7681709
50
359.6455047
51
9.8607559
0
ARC
8
DEFAULT_255_1_388
10
10.2423661
20
0.1113664
40
0.498312
50
9.6573037
51
26.1931522
0
ARC
8
DEFAULT_255_1_388
10
10.3467736
20
0.1598587
40
0.3832303
50
26.5777895
51
40.1533752
0
ARC
8
DEFAULT_255_1_388
10
10.3755401
20
0.182302
40
0.3467742
50
40.3839958
51
80.1430923
0
ARC
8
DEFAULT_255_1_388
10
10.3387656
20
0.0192486
40
0.5137832
50
79.2153636
51
89.7445174
0
LINE
8
DEFAULT_255_1_388
10
11.1786608
20
0.6757898
11
11.4027448
21
0.6757898
0
LINE
8
DEFAULT_255_1_388
10
11.4027448
20
0.6757898
11
11.8328415
21
-0.3976447
0
LINE
8
DEFAULT_255_1_388
10
11.8328415
20
-0.3976447
11
12.2629382
21
0.6757898
0
LINE
8
DEFAULT_255_1_388
10
12.2629382
20
0.6757898
11
12.4879257
21
0.6757898
0
LINE
8
DEFAULT_255_1_388
10
12.4879257
20
0.6757898
11
12.4879257
21
-0.6398
0
LINE
8
DEFAULT_255_1_388
10
12.4879257
20
-0.6398
11
12.3144414
21
-0.6398
0
LINE
8
DEFAULT_255_1_388
10
12.3144414
20
-0.6398
11
12.3144414
21
-0.127479
0
LINE
8
DEFAULT_255_1_388
10
12.3144414
20
-0.127479
11
12.3307055
21
0.4255025
0
LINE
8
DEFAULT_255_1_388
10
12.3307055
20
0.4255025
11
11.8988017
21
-0.6398
0
LINE
8
DEFAULT_255_1_388
10
11.8988017
20
-0.6398
11
11.7659777
21
-0.6398
0
LINE
8
DEFAULT_255_1_388
10
11.7659777
20
-0.6398
11
11.3349775
21
0.4227918
0
LINE
8
DEFAULT_255_1_388
10
11.3349775
20
0.4227918
11
11.3521452
21
-0.127479
0
LINE
8
DEFAULT_255_1_388
10
11.3521452
20
-0.127479
11
11.3521452
21
-0.6398
0
LINE
8
DEFAULT_255_1_388
10
11.3521452
20
-0.6398
11
11.1786608
21
-0.6398
0
LINE
8
DEFAULT_255_1_388
10
11.1786608
20
-0.6398
11
11.1786608
21
0.6757898
0
LINE
8
DEFAULT_255_1_388
10
13.3002302
20
0.6821148
11
13.3002302
21
-0.6398
0
LINE
8
DEFAULT_255_1_388
10
13.3002302
20
-0.6398
11
13.1321672
21
-0.6398
0
LINE
8
DEFAULT_255_1_388
10
13.1321672
20
-0.6398
11
13.1321672
21
0.474295
0
LINE
8
DEFAULT_255_1_388
10
13.1321672
20
0.474295
11
12.7951376
21
0.3505066
0
LINE
8
DEFAULT_255_1_388
10
12.7951376
20
0.3505066
11
12.7951376
21
0.5023055
0
LINE
8
DEFAULT_255_1_388
10
12.7951376
20
0.5023055
11
13.2740268
21
0.6821148
0
LINE
8
DEFAULT_255_1_388
10
13.2740268
20
0.6821148
11
13.3002302
21
0.6821148
0
LINE
8
DEFAULT_255_1_388
10
14.1550021
20
-0.0127263
11
14.1550021
21
-0.1491645
0
LINE
8
DEFAULT_255_1_388
10
14.1550021
20
-0.1491645
11
13.7140627
21
-0.1491645
0
LINE
8
DEFAULT_255_1_388
10
13.7140627
20
-0.1491645
11
13.7140627
21
-0.0127263
0
LINE
8
DEFAULT_255_1_388
10
13.7140627
20
-0.0127263
11
14.1550021
21
-0.0127263
0
LINE
8
DEFAULT_255_1_388
10
14.8498432
20
0.6821148
11
14.8498432
21
-0.6398
0
LINE
8
DEFAULT_255_1_388
10
14.8498432
20
-0.6398
11
14.6817802
21
-0.6398
0
LINE
8
DEFAULT_255_1_388
10
14.6817802
20
-0.6398
11
14.6817802
21
0.474295
0
LINE
8
DEFAULT_255_1_388
10
14.6817802
20
0.474295
11
14.3447507
21
0.3505066
0
LINE
8
DEFAULT_255_1_388
10
14.3447507
20
0.3505066
11
14.3447507
21
0.5023055
0
LINE
8
DEFAULT_255_1_388
10
14.3447507
20
0.5023055
11
14.8236398
21
0.6821148
0
LINE
8
DEFAULT_255_1_388
10
14.8236398
20
0.6821148
11
14.8498432
21
0.6821148
0
LINE
8
DEFAULT_255_1_388
10
16.1645295
20
0.138169
11
16.1645295
21
-0.0786865
0
LINE
8
DEFAULT_255_1_388
10
15.3341538
20
-0.1012756
11
15.3341538
21
0.1219048
0
LINE
8
DEFAULT_255_1_388
10
15.9973701
20
-0.1238647
11
15.9973701
21
0.1499153
0
LINE
8
DEFAULT_255_1_388
10
15.5013132
20
0.1625652
11
15.5013132
21
-0.1048898
0
ARC
8
DEFAULT_255_1_388
10
14.7867629
20
-0.0841882
40
1.3777776
50
353.8440855
51
0.2287917
0
ARC
8
DEFAULT_255_1_388
10
15.3086646
20
-0.1424586
40
0.852639
50
344.4934746
51
353.9763743
0
ARC
8
DEFAULT_255_1_388
10
15.6453453
20
-0.2381809
40
0.5026273
50
329.2803599
51
344.7473406
0
ARC
8
DEFAULT_255_1_388
10
15.7568949
20
-0.2993962
40
0.3754848
50
324.9361395
51
328.6153007
0
ARC
8
DEFAULT_255_1_388
10
15.7994599
20
-0.3291414
40
0.3235566
50
280.5801797
51
324.9173226
0
ARC
8
DEFAULT_255_1_388
10
15.7543228
20
-0.1411764
40
0.5167077
50
269.5979457
51
281.6732777
0
ARC
8
DEFAULT_255_1_388
10
15.7462131
20
-0.1546887
40
0.5032026
50
256.6228565
51
270.5105488
0
ARC
8
DEFAULT_255_1_388
10
15.7009874
20
-0.3288655
40
0.3233092
50
215.8618351
51
257.2787793
0
ARC
8
DEFAULT_255_1_388
10
15.8158581
20
-0.2517894
40
0.4615831
50
197.9695203
51
215.2622745
0
ARC
8
DEFAULT_255_1_388
10
16.0954257
20
-0.1574359
40
0.7566307
50
187.8816486
51
198.2346584
0
ARC
8
DEFAULT_255_1_388
10
16.5407495
20
-0.0931547
40
1.2065653
50
180.8977266
51
188.0054894
0
ARC
8
DEFAULT_255_1_388
10
16.8457709
20
-0.08166
40
1.5117443
50
180.7434591
51
181.152202
0
ARC
8
DEFAULT_255_1_388
10
16.6782704
20
0.1273371
40
1.3441277
50
173.7674302
51
180.2315596
0
ARC
8
DEFAULT_255_1_388
10
16.1700573
20
0.1847779
40
0.8326847
50
164.3058537
51
173.9000553
0
ARC
8
DEFAULT_255_1_388
10
15.8424573
20
0.2791652
40
0.4917711
50
148.7922028
51
164.5682288
0
ARC
8
DEFAULT_255_1_388
10
15.7355311
20
0.3388457
40
0.3694204
50
144.5883979
51
148.1161588
0
ARC
8
DEFAULT_255_1_388
10
15.6968056
20
0.3658667
40
0.322202
50
101.6440149
51
144.5142619
0
ARC
8
DEFAULT_255_1_388
10
15.7446248
20
0.1758337
40
0.5180451
50
89.528284
51
102.5820197
0
ARC
8
DEFAULT_255_1_388
10
15.753524
20
0.1714376
40
0.5224441
50
77.0437914
51
90.508231
0
ARC
8
DEFAULT_255_1_388
10
15.7987494
20
0.3562272
40
0.3322297
50
48.2777708
51
77.4996087
0
ARC
8
DEFAULT_255_1_388
10
15.8069234
20
0.3707557
40
0.315966
50
36.3141586
51
47.6307332
0
ARC
8
DEFAULT_255_1_388
10
15.7091956
20
0.3049159
40
0.4337313
50
18.2931065
51
35.6770203
0
ARC
8
DEFAULT_255_1_388
10
15.4230797
20
0.2067107
40
0.7362203
50
8.0246996
51
18.5605636
0
ARC
8
DEFAULT_255_1_388
10
14.9547152
20
0.1375432
40
1.2096583
50
1.127539
51
8.1718423
0
ARC
8
DEFAULT_255_1_388
10
14.5898286
20
0.1232374
40
1.5747719
50
0.5432713
51
1.38669
0
ARC
8
DEFAULT_255_1_388
10
14.7955665
20
0.1539163
40
1.2018103
50
359.8092569
51
4.9408001
0
ARC
8
DEFAULT_255_1_388
10
15.2692246
20
0.19619
40
0.7262727
50
4.8364937
51
12.2906017
0
ARC
8
DEFAULT_255_1_388
10
15.5791711
20
0.2652485
40
0.4087324
50
12.0806994
51
23.8171225
0
ARC
8
DEFAULT_255_1_388
10
15.7112107
20
0.3211508
40
0.2653719
50
24.2874621
51
31.3934353
0
ARC
8
DEFAULT_255_1_388
10
15.7702542
20
0.3597822
40
0.1948607
50
30.7407708
51
82.4658033
0
ARC
8
DEFAULT_255_1_388
10
15.7500203
20
0.2604017
40
0.2961198
50
81.1057101
51
90.2187368
0
ARC
8
DEFAULT_255_1_388
10
15.7460015
20
0.2894421
40
0.2670929
50
89.380395
51
105.6763916
0
ARC
8
DEFAULT_255_1_388
10
15.7253737
20
0.364432
40
0.1893189
50
105.7980655
51
149.7387869
0
ARC
8
DEFAULT_255_1_388
10
15.8450877
20
0.2924719
40
0.3289892
50
149.4208441
51
163.628295
0
ARC
8
DEFAULT_255_1_388
10
16.0803107
20
0.2207345
40
0.5749004
50
163.3764549
51
172.141138
0
ARC
8
DEFAULT_255_1_388
10
16.4515828
20
0.1675582
40
0.9499585
50
172.0258462
51
178.0705453
0
ARC
8
DEFAULT_255_1_388
10
16.7937381
20
0.1513682
40
1.2924734
50
177.8639301
51
179.5036263
0
ARC
8
DEFAULT_255_1_388
10
16.67184
20
-0.1089849
40
1.170534
50
179.7995545
51
185.246089
0
ARC
8
DEFAULT_255_1_388
10
16.2169993
20
-0.1520596
40
0.7136613
50
185.1411911
51
193.0082205
0
ARC
8
DEFAULT_255_1_388
10
15.9196254
20
-0.2223559
40
0.4080987
50
192.7897338
51
205.2507384
0
ARC
8
DEFAULT_255_1_388
10
15.8018464
20
-0.2749462
40
0.2791522
50
205.8001921
51
211.2545876
0
ARC
8
DEFAULT_255_1_388
10
15.7430003
20
-0.3143868
40
0.2084074
50
210.3789935
51
238.4007996
0
ARC
8
DEFAULT_255_1_388
10
15.7408089
20
-0.3091214
40
0.2117943
50
239.6521916
51
265.9793852
0
ARC
8
DEFAULT_255_1_388
10
15.7503938
20
-0.2334642
40
0.2879689
50
265.1324455
51
270.0603288
0
ARC
8
DEFAULT_255_1_388
10
15.7536315
20
-0.2699582
40
0.2514919
50
269.3314378
51
287.2180039
0
ARC
8
DEFAULT_255_1_388
10
15.7691397
20
-0.3265709
40
0.1928357
50
287.7957942
51
329.0808983
0
ARC
8
DEFAULT_255_1_388
10
15.6614154
20
-0.2593349
40
0.319808
50
328.6635261
51
343.3325043
0
ARC
8
DEFAULT_255_1_388
10
15.4169613
20
-0.1831805
40
0.5758408
50
343.0498092
51
351.9392499
0
ARC
8
DEFAULT_255_1_388
10
15.0268934
20
-0.1256795
40
0.9701202
50
351.8071632
51
357.7957897
0
ARC
8
DEFAULT_255_1_388
10
14.6634411
20
-0.1068276
40
1.3340376
50
357.5870923
51
359.2682493
0
LINE
8
DEFAULT_255_1_388
10
17.1656789
20
0.1101585
11
17.1656789
21
-0.0317011
0
LINE
8
DEFAULT_255_1_388
10
17.1656789
20
-0.0317011
11
16.5955297
21
-0.0317011
0
LINE
8
DEFAULT_255_1_388
10
16.5955297
20
-0.0317011
11
16.5955297
21
-0.4979404
0
LINE
8
DEFAULT_255_1_388
10
16.5955297
20
-0.4979404
11
17.2578425
21
-0.4979404
0
LINE
8
DEFAULT_255_1_388
10
17.2578425
20
-0.4979404
11
17.2578425
21
-0.6398
0
LINE
8
DEFAULT_255_1_388
10
17.2578425
20
-0.6398
11
16.4220454
21
-0.6398
0
LINE
8
DEFAULT_255_1_388
10
16.4220454
20
-0.6398
11
16.4220454
21
0.6757898
0
LINE
8
DEFAULT_255_1_388
10
16.4220454
20
0.6757898
11
17.2488068
21
0.6757898
0
LINE
8
DEFAULT_255_1_388
10
17.2488068
20
0.6757898
11
17.2488068
21
0.5330267
0
LINE
8
DEFAULT_255_1_388
10
17.2488068
20
0.5330267
11
16.5955297
21
0.5330267
0
LINE
8
DEFAULT_255_1_388
10
16.5955297
20
0.5330267
11
16.5955297
21
0.1101585
0
LINE
8
DEFAULT_255_1_388
10
16.5955297
20
0.1101585
11
17.1656789
21
0.1101585
0
LINE
8
DEFAULT_255_1_388
10
17.8379309
20
-0.6398
11
17.4737944
21
-0.6398
0
LINE
8
DEFAULT_255_1_388
10
17.4737944
20
-0.6398
11
17.4737944
21
0.6757898
0
LINE
8
DEFAULT_255_1_388
10
17.4737944
20
0.6757898
11
17.8451594
21
0.6757898
0
LINE
8
DEFAULT_255_1_388
10
18.4252478
20
0.0622696
11
18.4252478
21
-0.0217619
0
LINE
8
DEFAULT_255_1_388
10
17.8496772
20
0.5330267
11
17.6472788
21
0.5330267
0
LINE
8
DEFAULT_255_1_388
10
17.6472788
20
0.5330267
11
17.6472788
21
-0.4979404
0
LINE
8
DEFAULT_255_1_388
10
17.6472788
20
-0.4979404
11
17.8297988
21
-0.4979404
0
LINE
8
DEFAULT_255_1_388
10
18.2535705
20
-0.0181477
11
18.2535705
21
0.0586553
0
ARC
8
DEFAULT_255_1_388
10
17.8495389
20
0.0159436
40
0.6598608
50
75.4100343
51
90.3802731
0
ARC
8
DEFAULT_255_1_388
10
17.8753634
20
0.1235691
40
0.5492049
50
60.1455157
51
75.1889627
0
ARC
8
DEFAULT_255_1_388
10
17.8932225
20
0.1546914
40
0.5133226
50
26.525419
51
60.1451222
0
ARC
8
DEFAULT_255_1_388
10
17.7672012
20
0.0878642
40
0.6559324
50
7.4029944
51
26.832209
0
ARC
8
DEFAULT_255_1_388
10
17.5878409
20
0.0599229
40
0.8374103
50
0.1605597
51
7.7176135
0
ARC
8
DEFAULT_255_1_388
10
17.6062809
20
-0.0260679
40
0.8189782
50
348.7289744
51
0.30125
0
ARC
8
DEFAULT_255_1_388
10
17.7926273
20
-0.0630844
40
0.628991
50
333.0706936
51
348.7181455
0
ARC
8
DEFAULT_255_1_388
10
17.9013901
20
-0.1221551
40
0.5052808
50
299.2531435
51
333.4571133
0
ARC
8
DEFAULT_255_1_388
10
17.8607932
20
-0.0450371
40
0.5924066
50
278.1072193
51
299.0340218
0
ARC
8
DEFAULT_255_1_388
10
17.8319981
20
0.1245979
40
0.7644209
50
270.4446841
51
278.4508355
0
ARC
8
DEFAULT_255_1_388
10
17.8343464
20
0.02003
40
0.5179903
50
269.4969684
51
284.0204874
0
ARC
8
DEFAULT_255_1_388
10
17.8743183
20
-0.1335585
40
0.3592968
50
283.7699076
51
318.1557121
0
ARC
8
DEFAULT_255_1_388
10
17.8363728
20
-0.1051601
40
0.4065308
50
318.7417595
51
343.687252
0
ARC
8
DEFAULT_255_1_388
10
17.6334307
20
-0.0417725
40
0.6191194
50
343.3324891
51
355.8548594
0
ARC
8
DEFAULT_255_1_388
10
17.3973344
20
-0.0193281
40
0.856237
50
355.4988754
51
0.0789913
0
ARC
8
DEFAULT_255_1_388
10
17.4854144
20
0.063408
40
0.7681709
50
359.6455047
51
9.8607559
0
ARC
8
DEFAULT_255_1_388
10
17.7509867
20
0.1113664
40
0.498312
50
9.6573037
51
26.1931522
0
ARC
8
DEFAULT_255_1_388
10
17.8553942
20
0.1598587
40
0.3832303
50
26.5777895
51
40.1533752
0
ARC
8
DEFAULT_255_1_388
10
17.8841607
20
0.182302
40
0.3467742
50
40.3839958
51
80.1430923
0
ARC
8
DEFAULT_255_1_388
10
17.8473862
20
0.0192486
40
0.5137832
50
79.2153636
51
89.7445174
0
LINE
8
DEFAULT_255_1_388
10
19.1932775
20
0.6821148
11
19.1932775
21
-0.6398
0
LINE
8
DEFAULT_255_1_388
10
19.1932775
20
-0.6398
11
19.0252146
21
-0.6398
0
LINE
8
DEFAULT_255_1_388
10
19.0252146
20
-0.6398
11
19.0252146
21
0.474295
0
LINE
8
DEFAULT_255_1_388
10
19.0252146
20
0.474295
11
18.688185
21
0.3505066
0
LINE
8
DEFAULT_255_1_388
10
18.688185
20
0.3505066
11
18.688185
21
0.5023055
0
LINE
8
DEFAULT_255_1_388
10
18.688185
20
0.5023055
11
19.1670742
21
0.6821148
0
LINE
8
DEFAULT_255_1_388
10
19.1670742
20
0.6821148
11
19.1932775
21
0.6821148
0
LINE
8
DEFAULT_255_1_388
10
20.0480495
20
-0.0127263
11
20.0480495
21
-0.1491645
0
LINE
8
DEFAULT_255_1_388
10
20.0480495
20
-0.1491645
11
19.6071101
21
-0.1491645
0
LINE
8
DEFAULT_255_1_388
10
19.6071101
20
-0.1491645
11
19.6071101
21
-0.0127263
0
LINE
8
DEFAULT_255_1_388
10
19.6071101
20
-0.0127263
11
20.0480495
21
-0.0127263
0
LINE
8
DEFAULT_255_1_388
10
20.601031
20
-0.6398
11
20.2368945
21
-0.6398
0
LINE
8
DEFAULT_255_1_388
10
20.2368945
20
-0.6398
11
20.2368945
21
0.6757898
0
LINE
8
DEFAULT_255_1_388
10
20.2368945
20
0.6757898
11
20.6082595
21
0.6757898
0
LINE
8
DEFAULT_255_1_388
10
21.1883479
20
0.0622696
11
21.1883479
21
-0.0217619
0
LINE
8
DEFAULT_255_1_388
10
20.6127773
20
0.5330267
11
20.4103789
21
0.5330267
0
LINE
8
DEFAULT_255_1_388
10
20.4103789
20
0.5330267
11
20.4103789
21
-0.4979404
0
LINE
8
DEFAULT_255_1_388
10
20.4103789
20
-0.4979404
11
20.5928989
21
-0.4979404
0
LINE
8
DEFAULT_255_1_388
10
21.0166706
20
-0.0181477
11
21.0166706
21
0.0586553
0
ARC
8
DEFAULT_255_1_388
10
20.6126389
20
0.0159436
40
0.6598608
50
75.4100343
51
90.3802731
0
ARC
8
DEFAULT_255_1_388
10
20.6384635
20
0.1235691
40
0.5492049
50
60.1455157
51
75.1889627
0
ARC
8
DEFAULT_255_1_388
10
20.6563226
20
0.1546914
40
0.5133226
50
26.525419
51
60.1451222
0
ARC
8
DEFAULT_255_1_388
10
20.5303013
20
0.0878642
40
0.6559324
50
7.4029944
51
26.832209
0
ARC
8
DEFAULT_255_1_388
10
20.350941
20
0.0599229
40
0.8374103
50
0.1605597
51
7.7176135
0
ARC
8
DEFAULT_255_1_388
10
20.369381
20
-0.0260679
40
0.8189782
50
348.7289744
51
0.30125
0
ARC
8
DEFAULT_255_1_388
10
20.5557274
20
-0.0630844
40
0.628991
50
333.0706936
51
348.7181455
0
ARC
8
DEFAULT_255_1_388
10
20.6644902
20
-0.1221551
40
0.5052808
50
299.2531435
51
333.4571133
0
ARC
8
DEFAULT_255_1_388
10
20.6238933
20
-0.0450371
40
0.5924066
50
278.1072193
51
299.0340218
0
ARC
8
DEFAULT_255_1_388
10
20.5950982
20
0.1245979
40
0.7644209
50
270.4446841
51
278.4508355
0
ARC
8
DEFAULT_255_1_388
10
20.5974465
20
0.02003
40
0.5179903
50
269.4969684
51
284.0204874
0
ARC
8
DEFAULT_255_1_388
10
20.6374184
20
-0.1335585
40
0.3592968
50
283.7699076
51
318.1557121
0
ARC
8
DEFAULT_255_1_388
10
20.5994729
20
-0.1051601
40
0.4065308
50
318.7417595
51
343.687252
0
ARC
8
DEFAULT_255_1_388
10
20.3965308
20
-0.0417725
40
0.6191194
50
343.3324891
51
355.8548594
0
ARC
8
DEFAULT_255_1_388
10
20.1604345
20
-0.0193281
40
0.856237
50
355.4988754
51
0.0789913
0
ARC
8
DEFAULT_255_1_388
10
20.2485145
20
0.063408
40
0.7681709
50
359.6455047
51
9.8607559
0
ARC
8
DEFAULT_255_1_388
10
20.5140868
20
0.1113664
40
0.498312
50
9.6573037
51
26.1931522
0
ARC
8
DEFAULT_255_1_388
10
20.6184943
20
0.1598587
40
0.3832303
50
26.5777895
51
40.1533752
0
ARC
8
DEFAULT_255_1_388
10
20.6472608
20
0.182302
40
0.3467742
50
40.3839958
51
80.1430923
0
ARC
8
DEFAULT_255_1_388
10
20.6104863
20
0.0192486
40
0.5137832
50
79.2153636
51
89.7445174
0
ARC
8
DEFAULT_255_2_778
10
20.2534188
20
128.5491525
40
0.3580657
50
89.9945037
51
180.0054963
0
ARC
8
DEFAULT_255_2_778
10
20.2534875
20
128.5491525
40
0.3580657
50
359.9945037
51
90.0054963
0
ARC
8
DEFAULT_255_2_778
10
20.2534875
20
128.5490838
40
0.3580657
50
269.9945037
51
0.0054963
0
ARC
8
DEFAULT_255_2_778
10
20.2534188
20
128.5490838
40
0.3580657
50
179.9945037
51
270.0054963
0
ARC
8
DEFAULT_255_2_778
10
22.9622406
20
128.280782
40
2.3282817
50
111.9150345
51
128.7655504
0
ARC
8
DEFAULT_255_2_778
10
22.8791007
20
128.412852
40
2.1733214
50
129.2366206
51
154.7721516
0
ARC
8
DEFAULT_255_2_778
10
23.480657
20
128.1170583
40
2.8435961
50
154.5467617
51
165.9285636
0
ARC
8
DEFAULT_255_2_778
10
23.9646902
20
127.9796212
40
3.3465569
50
165.6609748
51
166.525375
0
ARC
8
DEFAULT_255_2_778
10
21.5282291
20
129.1978171
40
1.414623
50
156.0627036
51
175.7189082
0
ARC
8
DEFAULT_255_2_778
10
22.1164502
20
128.944283
40
2.0551309
50
144.7505594
51
156.2560535
0
ARC
8
DEFAULT_255_2_778
10
22.8861799
20
128.4089863
40
2.9926766
50
137.345293
51
144.8863205
0
ARC
8
DEFAULT_255_2_778
10
23.8131446
20
127.5598407
40
4.2497776
50
131.6389266
51
137.393651
0
ARC
8
DEFAULT_255_2_778
10
24.5393492
20
126.7631248
40
5.3277326
50
130.1334351
51
131.7826198
0
LINE
8
DEFAULT_255_2_778
10
19.8953532
20
128.5491182
11
19.8953532
21
128.5491182
0
LINE
8
DEFAULT_255_2_778
10
21.1052532
20
130.8364182
11
22.0932532
21
130.4408182
0
LINE
8
DEFAULT_255_2_778
10
20.7102532
20
128.7594182
11
20.1175532
21
129.3034182
0
LINE
8
DEFAULT_255_2_778
10
21.1052532
20
130.8364182
11
21.1052532
21
130.8364182
0
ARC
8
DEFAULT_255_2_778
10
13.7594907
20
129.3726437
40
0.8717226
50
88.9281645
51
133.9885749
0
ARC
8
DEFAULT_255_2_778
10
13.7757454
20
129.1475604
40
1.0966534
50
88.9487005
51
89.9972984
0
ARC
8
DEFAULT_255_2_778
10
13.7953
20
129.4430011
40
0.8010283
50
72.1310318
51
89.9594908
0
ARC
8
DEFAULT_255_2_778
10
13.8705373
20
129.7000083
40
0.5333823
50
60.6505783
51
71.3519493
0
ARC
8
DEFAULT_255_2_778
10
13.9543387
20
129.8271349
40
0.3816498
50
20.3938858
51
62.2625554
0
ARC
8
DEFAULT_255_2_778
10
14.9704645
20
129.3391628
40
0.9050345
50
89.7568633
51
136.6758865
0
ARC
8
DEFAULT_255_2_778
10
14.9742773
20
129.2215709
40
1.0226182
50
88.9864436
51
89.9984426
0
ARC
8
DEFAULT_255_2_778
10
14.992248
20
129.460692
40
0.7833372
50
71.373585
51
89.9913488
0
ARC
8
DEFAULT_255_2_778
10
15.0841803
20
129.739542
40
0.489734
50
42.2193789
51
71.1458349
0
ARC
8
DEFAULT_255_2_778
10
15.0590908
20
129.7320658
40
0.5134635
50
8.5226311
51
40.9558105
0
ARC
8
DEFAULT_255_2_778
10
14.7367896
20
129.6668045
40
0.8420446
50
359.6942069
51
9.6641803
0
ARC
8
DEFAULT_255_2_778
10
14.4472507
20
129.6638277
40
1.1315727
50
355.5855084
51
359.923173
0
ARC
8
DEFAULT_255_2_778
10
14.2502845
20
129.6361289
40
0.7547163
50
352.4548626
51
359.7652122
0
ARC
8
DEFAULT_255_2_778
10
14.4078893
20
129.6332192
40
0.5971052
50
359.9824407
51
2.1700815
0
ARC
8
DEFAULT_255_2_778
10
14.8167551
20
129.6490752
40
0.1879327
50
2.0595693
51
88.944897
0
ARC
8
DEFAULT_255_2_778
10
14.7529878
20
129.3617725
40
0.4799353
50
81.9476992
51
88.9638763
0
ARC
8
DEFAULT_255_2_778
10
14.7641352
20
129.3556844
40
0.4859511
50
90.2910974
51
140.7094043
0
ARC
8
DEFAULT_255_2_778
10
14.950423
20
129.1628111
40
0.7529164
50
138.3264016
51
141.8088804
0
ARC
8
DEFAULT_255_2_778
10
13.0111845
20
129.6327289
40
0.7547163
50
352.4548626
51
359.7652122
0
ARC
8
DEFAULT_255_2_778
10
13.1687893
20
129.6298192
40
0.5971052
50
359.9824407
51
2.1700815
0
ARC
8
DEFAULT_255_2_778
10
13.5767327
20
129.6466775
40
0.1888212
50
1.7455696
51
88.6065628
0
ARC
8
DEFAULT_255_2_778
10
13.5151974
20
129.3703897
40
0.469731
50
81.9072271
51
88.8693446
0
ARC
8
DEFAULT_255_2_778
10
13.5126914
20
129.3303568
40
0.5098084
50
88.6765396
51
89.9981553
0
ARC
8
DEFAULT_255_2_778
10
13.5179114
20
129.3339569
40
0.5062351
50
90.5889431
51
134.9317856
0
ARC
8
DEFAULT_255_2_778
10
13.6708307
20
129.1435835
40
0.749469
50
132.9288129
51
135.7848647
0
LINE
8
DEFAULT_255_2_778
10
12.6682663
20
130.2099292
11
13.2005663
21
130.2115292
0
LINE
8
DEFAULT_255_2_778
10
13.2005663
20
130.2115292
11
13.1540663
21
129.9998292
0
LINE
8
DEFAULT_255_2_778
10
15.5754663
20
129.5767292
11
15.5715663
21
129.5339292
0
LINE
8
DEFAULT_255_2_778
10
15.5715663
20
129.5339292
11
15.3386663
21
128.3485292
0
LINE
8
DEFAULT_255_2_778
10
15.3386663
20
128.3485292
11
14.7655663
21
128.3485292
0
LINE
8
DEFAULT_255_2_778
10
14.7655663
20
128.3485292
11
14.9984663
21
129.5370292
0
LINE
8
DEFAULT_255_2_778
10
14.3586663
20
129.6283292
11
14.3525663
21
129.5889292
0
LINE
8
DEFAULT_255_2_778
10
14.3525663
20
129.5889292
11
14.0975663
21
128.3485292
0
LINE
8
DEFAULT_255_2_778
10
14.0975663
20
128.3485292
11
13.5265663
21
128.3485292
0
LINE
8
DEFAULT_255_2_778
10
13.5265663
20
128.3485292
11
13.7593663
21
129.5336292
0
LINE
8
DEFAULT_255_2_778
10
13.1336663
20
129.6662292
11
12.8603663
21
128.3485292
0
LINE
8
DEFAULT_255_2_778
10
12.8603663
20
128.3485292
11
12.2893663
21
128.3485292
0
LINE
8
DEFAULT_255_2_778
10
12.2893663
20
128.3485292
11
12.6679663
21
130.2096292
0
LINE
8
DEFAULT_255_2_778
10
12.6679663
20
130.2096292
11
12.6682663
21
130.2099292
0
ARC
8
DEFAULT_255_2_778
10
16.6200314
20
129.0593402
40
1.1831221
50
72.5008211
51
90.0103536
0
ARC
8
DEFAULT_255_2_778
10
16.6947546
20
129.3223399
40
0.9098586
50
60.3242318
51
72.0085714
0
ARC
8
DEFAULT_255_2_778
10
16.7751051
20
129.4428126
40
0.7654736
50
24.9543019
51
61.0852427
0
ARC
8
DEFAULT_255_2_778
10
16.6805787
20
129.4009465
40
0.8688408
50
359.4872778
51
24.8275177
0
ARC
8
DEFAULT_255_2_778
10
16.4736992
20
129.3945476
40
1.0756863
50
353.6171666
51
359.9267064
0
ARC
8
DEFAULT_255_2_778
10
16.4716416
20
129.3645267
40
1.0748142
50
309.833105
51
355.2199932
0
ARC
8
DEFAULT_255_2_778
10
16.4131023
20
129.4311469
40
1.1634726
50
274.0073872
51
309.9453537
0
ARC
8
DEFAULT_255_2_778
10
16.3618881
20
129.7996028
40
1.5348158
50
269.9462811
51
274.9533663
0
ARC
8
DEFAULT_255_2_778
10
16.3604833
20
129.9233871
40
1.6585995
50
269.1686307
51
269.9988202
0
ARC
8
DEFAULT_255_2_778
10
16.3366284
20
129.4358137
40
1.1708514
50
252.109196
51
269.9896888
0
ARC
8
DEFAULT_255_2_778
10
16.2647024
20
129.1864636
40
0.9114995
50
240.54759
51
251.5966758
0
ARC
8
DEFAULT_255_2_778
10
16.185195
20
129.0637089
40
0.7655666
50
205.2400495
51
241.211713
0
ARC
8
DEFAULT_255_2_778
10
16.2656131
20
129.1010634
40
0.8542357
50
179.5359208
51
205.2063167
0
ARC
8
DEFAULT_255_2_778
10
16.4526722
20
129.1066956
40
1.0412677
50
173.5392122
51
179.9291923
0
ARC
8
DEFAULT_255_2_778
10
16.6391822
20
129.0951758
40
1.2279263
50
153.4099026
51
173.9843619
0
ARC
8
DEFAULT_255_2_778
10
16.4795759
20
129.1629448
40
1.0549233
50
129.6863931
51
152.8211827
0
ARC
8
DEFAULT_255_2_778
10
16.5417015
20
129.0923495
40
1.1489256
50
92.7623759
51
129.8224215
0
ARC
8
DEFAULT_255_2_778
10
16.5842324
20
128.7489549
40
1.494196
50
89.9700369
51
93.7568045
0
ARC
8
DEFAULT_255_2_778
10
16.5849025
20
128.6473597
40
1.5957911
50
88.7355209
51
89.9960014
0
ARC
8
DEFAULT_255_2_778
10
16.440941
20
129.0393885
40
0.4286317
50
179.6425826
51
209.446387
0
ARC
8
DEFAULT_255_2_778
10
16.3397227
20
128.9922221
40
0.3174207
50
211.0145463
51
223.1431724
0
ARC
8
DEFAULT_255_2_778
10
16.3473644
20
129.0101914
40
0.3353769
50
224.4904912
51
268.822899
0
ARC
8
DEFAULT_255_2_778
10
16.3773318
20
129.2221578
40
0.5485121
50
266.1471365
51
268.8180779
0
ARC
8
DEFAULT_255_2_778
10
16.3834553
20
129.3517665
40
0.6782284
50
268.5267288
51
269.9955114
0
ARC
8
DEFAULT_255_2_778
10
16.3990244
20
129.1612446
40
0.4879566
50
268.1653241
51
325.4286401
0
ARC
8
DEFAULT_255_2_778
10
16.1704714
20
129.3278589
40
0.7707306
50
324.8706977
51
351.0886768
0
ARC
8
DEFAULT_255_2_778
10
15.7623203
20
129.406759
40
1.1862684
50
350.3775551
51
0.2885744
0
ARC
8
DEFAULT_255_2_778
10
15.4717207
20
129.4124545
40
1.4768528
50
0.0108339
51
1.7075744
0
ARC
8
DEFAULT_255_2_778
10
16.4937051
20
129.4473496
40
0.454304
50
1.1493477
51
31.2464652
0
ARC
8
DEFAULT_255_2_778
10
16.5878645
20
129.4940769
40
0.3496776
50
32.703807
51
41.7810929
0
ARC
8
DEFAULT_255_2_778
10
16.6096538
20
129.5034534
40
0.3272685
50
43.0987922
51
88.7571407
0
ARC
8
DEFAULT_255_2_778
10
16.5789566
20
129.2911359
40
0.5408314
50
85.992647
51
88.8704975
0
ARC
8
DEFAULT_255_2_778
10
16.5725658
20
129.1892668
40
0.6428217
50
88.4799611
51
89.9943311
0
ARC
8
DEFAULT_255_2_778
10
16.5615546
20
129.3425787
40
0.4896349
50
88.7039519
51
145.0513377
0
ARC
8
DEFAULT_255_2_778
10
16.7596375
20
129.1892936
40
0.7399051
50
144.1087108
51
170.2824956
0
ARC
8
DEFAULT_255_2_778
10
17.1861971
20
129.1021764
40
1.1751307
50
169.6063184
51
180.3528002
0
ARC
8
DEFAULT_255_2_778
10
17.5222698
20
129.0953441
40
1.5111813
50
180.0153016
51
182.009194
0
LINE
8
DEFAULT_255_2_778
10
16.6201176
20
130.2427623
11
16.6198176
21
130.2424623
0
LINE
8
DEFAULT_255_2_778
10
16.0120176
20
129.0423623
11
16.0123176
21
129.0420623
0
ARC
8
DEFAULT_255_2_778
10
18.587937
20
128.1205854
40
1.642039
50
81.2830361
51
86.628458
0
ARC
8
DEFAULT_255_2_778
10
18.6429757
20
128.9590313
40
0.8018272
50
87.0310432
51
89.8986713
0
ARC
8
DEFAULT_255_2_778
10
18.6242064
20
128.8703997
40
0.8906863
50
88.7012797
51
89.9954117
0
ARC
8
DEFAULT_255_2_778
10
18.6103452
20
129.1146623
40
0.6465738
50
88.765285
51
116.6201427
0
ARC
8
DEFAULT_255_2_778
10
18.5802548
20
129.1986694
40
0.5580924
50
117.7228833
51
138.7756782
0
ARC
8
DEFAULT_255_2_778
10
18.7590475
20
129.5648707
40
0.6980151
50
116.489914
51
143.0810972
0
ARC
8
DEFAULT_255_2_778
10
18.7053938
20
129.6449223
40
0.6025621
50
89.4580016
51
115.3188873
0
ARC
8
DEFAULT_255_2_778
10
18.6965205
20
129.3101885
40
0.9373821
50
77.9674605
51
89.1092017
0
ARC
8
DEFAULT_255_2_778
10
18.6028478
20
128.7796466
40
1.4759175
50
78.008513
51
78.7045202
0
LINE
8
DEFAULT_255_2_778
10
18.9094938
20
130.2236573
11
18.8367938
21
129.7436573
0
LINE
8
DEFAULT_255_2_778
10
18.1604938
20
129.5664573
11
17.9072938
21
128.3485573
0
LINE
8
DEFAULT_255_2_778
10
17.9072938
20
128.3485573
11
17.3362938
21
128.3485573
0
LINE
8
DEFAULT_255_2_778
10
17.3362938
20
128.3485573
11
17.7169938
21
130.2096573
0
LINE
8
DEFAULT_255_2_778
10
17.7169938
20
130.2096573
11
18.2535938
21
130.2112573
0
LINE
8
DEFAULT_255_2_778
10
18.2535938
20
130.2112573
11
18.2009938
21
129.9841573
0
LINE
8
DEFAULT_255_2_778
10
18.9094938
20
130.2233573
11
18.9094938
21
130.2236573
0
ARC
8
DEFAULT_255_2_778
10
19.1571667
20
129.435175
40
1.1701724
50
250.1393411
51
270.3226852
0
ARC
8
DEFAULT_255_2_778
10
19.1022051
20
129.2553343
40
0.9824012
50
242.0502734
51
249.5907868
0
ARC
8
DEFAULT_255_2_778
10
19.001531
20
129.0958015
40
0.794417
50
208.3292132
51
243.0715083
0
ARC
8
DEFAULT_255_2_778
10
18.9937252
20
129.0867929
40
0.7832826
50
179.5739013
51
208.0201199
0
ARC
8
DEFAULT_255_2_778
10
19.1404713
20
129.0918153
40
0.9300073
50
174.3657638
51
179.9505495
0
ARC
8
DEFAULT_255_2_778
10
19.3222378
20
129.13368
40
1.1074063
50
145.2485417
51
173.7769976
0
ARC
8
DEFAULT_255_2_778
10
19.3043239
20
129.1581177
40
1.0788028
50
116.4826416
51
145.7726174
0
ARC
8
DEFAULT_255_2_778
10
19.3348976
20
129.0884316
40
1.1548163
50
89.3335424
51
116.2986099
0
ARC
8
DEFAULT_255_2_778
10
19.3482483
20
128.8460133
40
1.3971563
50
88.7200635
51
89.9966493
0
ARC
8
DEFAULT_255_2_778
10
19.3739264
20
129.1304187
40
1.1124162
50
73.6937809
51
89.7151452
0
ARC
8
DEFAULT_255_2_778
10
19.4851962
20
129.5023827
40
0.7241771
50
40.439997
51
73.880282
0
ARC
8
DEFAULT_255_2_778
10
19.4514712
20
129.4804387
40
0.7640962
50
0.3370816
51
40.0519836
0
ARC
8
DEFAULT_255_2_778
10
19.2137457
20
129.456813
40
1.0022031
50
359.994028
51
1.6078833
0
ARC
8
DEFAULT_255_2_778
10
19.0846833
20
129.4589808
40
1.1312679
50
353.167063
51
359.8849147
0
ARC
8
DEFAULT_255_2_778
10
18.9406155
20
129.4737227
40
1.2760687
50
352.3939633
51
353.279462
0
ARC
8
DEFAULT_255_2_778
10
19.1535012
20
129.0351797
40
0.3608489
50
171.5634883
51
179.9015639
0
ARC
8
DEFAULT_255_2_778
10
19.1262943
20
129.0393702
40
0.3336607
50
180.6131262
51
227.843893
0
ARC
8
DEFAULT_255_2_778
10
19.2043051
20
129.3010151
40
0.5918171
50
239.3225098
51
268.8255118
0
ARC
8
DEFAULT_255_2_778
10
19.2271512
20
129.5344016
40
0.8258202
50
267.5725716
51
270.0162941
0
ARC
8
DEFAULT_255_2_778
10
19.2268973
20
129.6181346
40
0.9095533
50
270.0307885
51
273.2244191
0
ARC
8
DEFAULT_255_2_778
10
19.2542379
20
128.9577649
40
0.2488861
50
275.4917641
51
302.3582203
0
ARC
8
DEFAULT_255_2_778
10
19.3200418
20
128.8418063
40
0.115896
50
305.561706
51
314.7657745
0
ARC
8
DEFAULT_255_2_778
10
19.3095773
20
128.8746064
40
0.1473882
50
308.6632861
51
359.3837416
0
ARC
8
DEFAULT_255_2_778
10
17.807225
20
130.5972828
40
2.962762
50
318.8021847
51
324.4102292
0
ARC
8
DEFAULT_255_2_778
10
18.7925821
20
129.7289505
40
1.6494092
50
310.4033061
51
318.953359
0
ARC
8
DEFAULT_255_2_778
10
19.3188808
20
129.1023187
40
0.831118
50
295.9312381
51
310.7744109
0
ARC
8
DEFAULT_255_2_778
10
19.4407027
20
128.8734771
40
0.5721233
50
294.3678437
51
294.9811966
0
ARC
8
DEFAULT_255_2_778
10
19.1940828
20
129.6404614
40
1.3756016
50
269.5724547
51
290.5412856
0
ARC
8
DEFAULT_255_2_778
10
19.1838577
20
129.8587488
40
1.5938505
50
269.2881822
51
269.9985732
0
ARC
8
DEFAULT_255_2_778
10
19.3390649
20
129.2721819
40
0.5598634
50
88.7931239
51
89.9984438
0
ARC
8
DEFAULT_255_2_778
10
19.3326983
20
129.3690553
40
0.463034
50
89.2102909
51
125.5845733
0
ARC
8
DEFAULT_255_2_778
10
19.4008068
20
129.2973825
40
0.5611219
50
126.9818839
51
147.669232
0
ARC
8
DEFAULT_255_2_778
10
19.876359
20
128.9776894
40
1.1340353
50
146.870707
51
156.2884785
0
ARC
8
DEFAULT_255_2_778
10
19.2333366
20
129.5558392
40
0.4293753
50
349.7481736
51
359.8266598
0
ARC
8
DEFAULT_255_2_778
10
19.2961469
20
129.5550983
40
0.3665636
50
359.9127606
51
9.1392387
0
ARC
8
DEFAULT_255_2_778
10
19.4131569
20
129.5695587
40
0.2487794
50
10.1315408
51
54.8294252
0
ARC
8
DEFAULT_255_2_778
10
19.3593417
20
129.4737413
40
0.3582778
50
56.6210187
51
91.3472693
0
LINE
8
DEFAULT_255_2_778
10
18.2149569
20
129.1831211
11
18.2213569
21
129.2537211
0
LINE
8
DEFAULT_255_2_778
10
20.2054569
20
129.3048211
11
20.1723569
21
129.0881211
0
LINE
8
DEFAULT_255_2_778
10
20.1723569
20
129.0881211
11
18.7965569
21
129.0881211
0
LINE
8
DEFAULT_255_2_778
10
19.4569569
20
128.8730211
11
20.2165569
21
128.8730211
0
LINE
8
DEFAULT_255_2_778
10
18.8380569
20
129.4337211
11
19.6434569
21
129.4337211
0
LINE
8
DEFAULT_255_2_778
10
19.6434569
20
129.4337211
11
19.6558569
21
129.4794211
0
LINE
8
DEFAULT_255_2_778
10
11.4252281
20
130.0205177
11
12.8081281
21
129.2045177
0
LINE
8
DEFAULT_255_2_778
10
12.8081281
20
129.2045177
11
11.2770281
21
128.6111177
0
LINE
8
DEFAULT_255_2_778
10
11.2770281
20
128.6111177
11
11.5979281
21
129.3281177
0
LINE
8
DEFAULT_255_2_778
10
11.5979281
20
129.3281177
11
11.4252281
21
130.0205177
0
ARC
8
DEFAULT_255_2_778
10
7.8633492
20
129.7401349
40
1.734445
50
345.0500681
51
0.450213
0
ARC
8
DEFAULT_255_2_778
10
8.1424128
20
129.6759315
40
1.4482985
50
339.8011311
51
344.6559926
0
ARC
8
DEFAULT_255_2_778
10
8.2241959
20
129.6304595
40
1.3559213
50
318.9869254
51
340.4112117
0
ARC
8
DEFAULT_255_2_778
10
8.3403786
20
129.5425223
40
1.2105876
50
317.7755753
51
318.5188915
0
ARC
8
DEFAULT_255_2_778
10
8.3677776
20
129.5166224
40
1.1728926
50
293.4453171
51
317.8130059
0
ARC
8
DEFAULT_255_2_778
10
8.3381728
20
129.5948502
40
1.2564472
50
269.4376299
51
293.2645473
0
ARC
8
DEFAULT_255_2_778
10
8.6390116
20
129.8029305
40
1.0182316
50
68.112945
51
90.7974227
0
ARC
8
DEFAULT_255_2_778
10
8.6827218
20
129.9382759
40
0.8764035
50
66.6600337
51
67.4660887
0
ARC
8
DEFAULT_255_2_778
10
8.6950616
20
129.9500129
40
0.860764
50
41.8199578
51
67.1046866
0
ARC
8
DEFAULT_255_2_778
10
8.5939144
20
129.8737866
40
0.9870277
50
18.4442061
51
41.2024761
0
ARC
8
DEFAULT_255_2_778
10
8.2913394
20
129.7701986
40
1.3068358
50
359.9236227
51
18.5554774
0
ARC
8
DEFAULT_255_2_778
10
7.9767371
20
129.7537824
40
1.6215036
50
359.9993331
51
0.5185192
0
ARC
8
DEFAULT_255_2_778
10
8.1161265
20
129.7599191
40
1.1556879
50
359.3527282
51
15.3461488
0
ARC
8
DEFAULT_255_2_778
10
8.3555709
20
129.8150091
40
0.9102591
50
15.9909101
51
17.2384514
0
ARC
8
DEFAULT_255_2_778
10
8.5215656
20
129.8784942
40
0.7329962
50
16.3441173
51
39.0583428
0
ARC
8
DEFAULT_255_2_778
10
8.6385861
20
129.9640513
40
0.5882641
50
39.7694118
51
66.0014919
0
ARC
8
DEFAULT_255_2_778
10
8.6052911
20
129.8710083
40
0.6868457
50
66.6208799
51
90.9301944
0
ARC
8
DEFAULT_255_2_778
10
8.3674619
20
129.4660777
40
0.865983
50
269.2774049
51
294.6427005
0
ARC
8
DEFAULT_255_2_778
10
8.3809787
20
129.4180801
40
0.8167574
50
295.184769
51
321.1699914
0
ARC
8
DEFAULT_255_2_778
10
8.188821
20
129.5645326
40
1.0582969
50
321.5163412
51
341.7776814
0
ARC
8
DEFAULT_255_2_778
10
7.8940618
20
129.6800931
40
1.374523
50
341.044332
51
342.4824039
0
ARC
8
DEFAULT_255_2_778
10
7.7898077
20
129.7017334
40
1.4804949
50
342.8981919
51
356.6952858
0
ARC
8
DEFAULT_255_2_778
10
7.2862441
20
129.7454849
40
1.9857973
50
356.2725814
51
0.0484329
0
LINE
8
DEFAULT_255_2_778
10
8.3258407
20
128.3384635
11
7.2765407
21
128.3141635
0
LINE
8
DEFAULT_255_2_778
10
7.2765407
20
128.3141635
11
7.7858407
21
130.8210635
0
LINE
8
DEFAULT_255_2_778
10
7.7858407
20
130.8210635
11
8.6248407
21
130.8210635
0
LINE
8
DEFAULT_255_2_778
10
9.5982407
20
129.7537635
11
9.5977407
21
129.7537635
0
LINE
8
DEFAULT_255_2_778
10
8.5941407
20
130.5577635
11
7.9962407
21
130.5397635
0
LINE
8
DEFAULT_255_2_778
10
7.9962407
20
130.5397635
11
7.6363407
21
128.5615635
0
LINE
8
DEFAULT_255_2_778
10
7.6363407
20
128.5615635
11
8.3565407
21
128.6001635
0
LINE
8
DEFAULT_255_2_778
10
9.2720407
20
129.7471635
11
9.2717407
21
129.7468635
0
ARC
8
DEFAULT_255_2_778
10
10.302374
20
129.142419
40
0.5777251
50
269.3131992
51
298.9193317
0
ARC
8
DEFAULT_255_2_778
10
10.2422898
20
129.2470114
40
0.6983333
50
299.0845099
51
323.1838183
0
ARC
8
DEFAULT_255_2_778
10
10.0730419
20
129.3709915
40
0.9081244
50
323.3206017
51
342.9705556
0
ARC
8
DEFAULT_255_2_778
10
9.9076255
20
129.4284416
40
1.0831324
50
342.6274164
51
0.2324268
0
ARC
8
DEFAULT_255_2_778
10
10.2433391
20
129.4455185
40
0.7475175
50
359.0278167
51
16.1300251
0
ARC
8
DEFAULT_255_2_778
10
10.5672449
20
129.5386392
40
0.4104922
50
16.2042834
51
41.9480466
0
ARC
8
DEFAULT_255_2_778
10
10.5796118
20
129.5304262
40
0.4070383
50
43.9719544
51
85.3997935
0
ARC
8
DEFAULT_255_2_778
10
10.5322186
20
129.2547297
40
0.686108
50
83.300847
51
90.1477804
0
ARC
8
DEFAULT_255_2_778
10
10.5219616
20
129.3594474
40
0.58145
50
89.163628
51
118.6648078
0
ARC
8
DEFAULT_255_2_778
10
10.581079
20
129.2624564
40
0.6949321
50
119.1056578
51
143.2104754
0
ARC
8
DEFAULT_255_2_778
10
10.7542438
20
129.1354766
40
0.9096571
50
143.3373192
51
162.9538381
0
ARC
8
DEFAULT_255_2_778
10
10.9180519
20
129.0784321
40
1.0830106
50
162.6089297
51
180.2167337
0
ARC
8
DEFAULT_255_2_778
10
10.590132
20
129.0616465
40
0.7551896
50
179.037255
51
196.0102976
0
ARC
8
DEFAULT_255_2_778
10
10.2623689
20
128.9681213
40
0.4143448
50
196.0798237
51
221.5429745
0
ARC
8
DEFAULT_255_2_778
10
10.2435386
20
128.9697741
40
0.4015819
50
223.501568
51
264.945498
0
ARC
8
DEFAULT_255_2_778
10
10.2934062
20
129.249923
40
0.6854906
50
262.8561454
51
270.170743
0
ARC
8
DEFAULT_255_2_778
10
10.2496801
20
129.3076733
40
0.993603
50
251.4783364
51
270.6555979
0
ARC
8
DEFAULT_255_2_778
10
10.1671823
20
129.0619369
40
0.7343883
50
228.2272369
51
251.4910714
0
ARC
8
DEFAULT_255_2_778
10
10.1298392
20
129.0112077
40
0.671704
50
202.6960886
51
227.720176
0
ARC
8
DEFAULT_255_2_778
10
10.2495562
20
129.0565656
40
0.7996635
50
179.6456167
51
202.3846702
0
ARC
8
DEFAULT_255_2_778
10
10.5173927
20
129.0727351
40
1.0675438
50
179.9999853
51
180.6023814
0
ARC
8
DEFAULT_255_2_778
10
10.5536721
20
129.079723
40
1.1038452
50
157.230675
51
180.3627006
0
ARC
8
DEFAULT_255_2_778
10
10.5843324
20
129.0701196
40
1.135837
50
135.6908415
51
157.3825693
0
ARC
8
DEFAULT_255_2_778
10
10.5546282
20
129.096815
40
1.0959349
50
113.1058727
51
135.604761
0
ARC
8
DEFAULT_255_2_778
10
10.5551078
20
129.1010049
40
1.0922713
50
89.5047522
51
113.2152626
0
ARC
8
DEFAULT_255_2_778
10
10.5759287
20
129.1979295
40
0.9953709
50
71.5130801
51
90.6550541
0
ARC
8
DEFAULT_255_2_778
10
10.6573575
20
129.4437115
40
0.7364524
50
48.2602918
51
71.4580165
0
ARC
8
DEFAULT_255_2_778
10
10.6956984
20
129.4971961
40
0.6710546
50
22.5497085
51
47.6627683
0
ARC
8
DEFAULT_255_2_778
10
10.5670556
20
129.4478328
40
0.8088011
50
359.0650515
51
22.2845409
0
ARC
8
DEFAULT_255_2_778
10
10.2767028
20
129.4285709
40
1.0990629
50
337.1812514
51
0.316152
0
ARC
8
DEFAULT_255_2_778
10
10.2412655
20
129.4391512
40
1.135837
50
315.6908415
51
337.3825693
0
ARC
8
DEFAULT_255_2_778
10
10.2631229
20
129.4211107
40
1.1075969
50
293.2336194
51
315.5688359
0
ARC
8
DEFAULT_255_2_778
10
10.268874
20
129.4004991
40
1.0863919
50
269.5873092
51
293.383724
0
LINE
8
DEFAULT_255_2_778
10
10.295449
20
128.5644354
11
10.295449
21
128.5647354
0
LINE
8
DEFAULT_255_2_778
10
10.261049
20
128.3141354
11
10.261049
21
128.3141354
0
LINE
8
DEFAULT_255_1_388
10
10.2723024
20
125.6988
11
9.8160024
21
125.6988
0
LINE
8
DEFAULT_255_1_388
10
9.8160024
20
125.6988
11
9.8160024
21
127.0143898
0
LINE
8
DEFAULT_255_1_388
10
9.8160024
20
127.0143898
11
10.2460991
21
127.0143898
0
LINE
8
DEFAULT_255_1_388
10
10.2786274
20
126.3141274
11
9.9894868
21
126.3141274
0
LINE
8
DEFAULT_255_1_388
10
9.9894868
20
126.3141274
11
9.9894868
21
125.8406596
0
LINE
8
DEFAULT_255_1_388
10
9.9894868
20
125.8406596
11
10.2759167
21
125.8406596
0
LINE
8
DEFAULT_255_1_388
10
9.9894868
20
126.8716267
11
9.9894868
21
126.4532763
0
LINE
8
DEFAULT_255_1_388
10
9.9894868
20
126.4532763
11
10.2515205
21
126.4532763
0
LINE
8
DEFAULT_255_1_388
10
10.2460991
20
126.8716267
11
9.9894868
21
126.8716267
0
ARC
8
DEFAULT_255_1_388
10
10.2503411
20
126.1855824
40
0.8288183
50
82.1256322
51
90.2932506
0
ARC
8
DEFAULT_255_1_388
10
10.2940986
20
126.491359
40
0.5199321
50
69.9044202
51
82.2857574
0
ARC
8
DEFAULT_255_1_388
10
10.3582979
20
126.6648993
40
0.3348993
50
51.1840204
51
70.018125
0
ARC
8
DEFAULT_255_1_388
10
10.3869811
20
126.7065945
40
0.2844579
50
12.1018086
51
50.421322
0
ARC
8
DEFAULT_255_1_388
10
10.2312682
20
126.6674937
40
0.4449429
50
359.5252354
51
12.8212369
0
ARC
8
DEFAULT_255_1_388
10
10.4090112
20
126.6596943
40
0.2672162
50
323.4907456
51
0.8818258
0
ARC
8
DEFAULT_255_1_388
10
10.3619525
20
126.6960523
40
0.3266736
50
298.6824053
51
323.2758285
0
ARC
8
DEFAULT_255_1_388
10
10.3212816
20
126.7636509
40
0.4055105
50
293.1994739
51
299.139634
0
ARC
8
DEFAULT_255_1_388
10
10.3969766
20
126.0790651
40
0.3229926
50
54.0009997
51
74.9168635
0
ARC
8
DEFAULT_255_1_388
10
10.4100693
20
126.1012511
40
0.2973581
50
36.3578854
51
53.5293172
0
ARC
8
DEFAULT_255_1_388
10
10.3958061
20
126.091085
40
0.3148715
50
4.8189348
51
36.3090187
0
ARC
8
DEFAULT_255_1_388
10
10.3081085
20
126.0787383
40
0.4033265
50
359.9373213
51
5.5201284
0
ARC
8
DEFAULT_255_1_388
10
10.2716415
20
126.0741733
40
0.4398126
50
344.7479357
51
0.5372278
0
ARC
8
DEFAULT_255_1_388
10
10.3831314
20
126.0441205
40
0.3243441
50
311.1785587
51
344.6887681
0
ARC
8
DEFAULT_255_1_388
10
10.3502857
20
126.0850084
40
0.3767511
50
286.0417804
51
310.8440924
0
ARC
8
DEFAULT_255_1_388
10
10.2932266
20
126.2702885
40
0.5705957
50
274.1044074
51
286.4070149
0
ARC
8
DEFAULT_255_1_388
10
10.2733482
20
126.4820901
40
0.7832907
50
269.9235077
51
274.4458593
0
ARC
8
DEFAULT_255_1_388
10
10.27852
20
126.2189462
40
0.3782955
50
269.6057074
51
281.3740795
0
ARC
8
DEFAULT_255_1_388
10
10.3044698
20
126.0959569
40
0.2526069
50
281.105298
51
302.5134029
0
ARC
8
DEFAULT_255_1_388
10
10.3210086
20
126.0662944
40
0.2187131
50
303.0365425
51
311.8818034
0
ARC
8
DEFAULT_255_1_388
10
10.3290263
20
126.0567602
40
0.2062624
50
311.9916937
51
351.7143773
0
ARC
8
DEFAULT_255_1_388
10
10.2371288
20
126.0753271
40
0.2999202
50
350.7343295
51
0.2221526
0
ARC
8
DEFAULT_255_1_388
10
10.2250376
20
126.081687
40
0.3120525
50
359.045729
51
17.2295312
0
ARC
8
DEFAULT_255_1_388
10
10.3419406
20
126.1164155
40
0.1901144
50
17.6685208
51
78.9940245
0
ARC
8
DEFAULT_255_1_388
10
10.2837767
20
125.9076011
40
0.4065575
50
76.565218
51
90.7103392
0
LINE
8
DEFAULT_255_1_388
10
10.2787364
20
126.3141274
11
10.2786274
21
126.3141274
0
ARC
8
DEFAULT_255_1_388
10
10.2540593
20
126.8228949
40
0.3696273
50
269.6064514
51
281.4533785
0
ARC
8
DEFAULT_255_1_388
10
10.2791234
20
126.7046283
40
0.2487412
50
281.2044438
51
302.5143998
0
ARC
8
DEFAULT_255_1_388
10
10.2945488
20
126.6768576
40
0.2170405
50
303.0211308
51
309.8378766
0
ARC
8
DEFAULT_255_1_388
10
10.3151605
20
126.6537486
40
0.1860946
50
309.5229446
51
356.9509628
0
ARC
8
DEFAULT_255_1_388
10
10.2405731
20
126.6644831
40
0.2612347
50
355.4699226
51
0.0498632
0
ARC
8
DEFAULT_255_1_388
10
10.2091404
20
126.6669789
40
0.2926762
50
359.5558955
51
11.2092924
0
ARC
8
DEFAULT_255_1_388
10
10.3168372
20
126.6892667
40
0.1827036
50
10.9185717
51
31.322519
0
ARC
8
DEFAULT_255_1_388
10
10.348992
20
126.7071571
40
0.1459418
50
31.8850633
51
52.1415586
0
ARC
8
DEFAULT_255_1_388
10
10.3181349
20
126.6635674
40
0.1993088
50
52.8283418
51
71.9850132
0
ARC
8
DEFAULT_255_1_388
10
10.275851
20
126.5391158
40
0.3307407
50
71.686634
51
82.8453416
0
ARC
8
DEFAULT_255_1_388
10
10.2489157
20
126.3355892
40
0.536039
50
82.6981895
51
90.1730083
0
ARC
8
DEFAULT_255_1_388
10
10.2463989
20
126.4234836
40
0.4481429
50
89.8851568
51
90.0383283
0
LINE
8
DEFAULT_255_1_388
10
11.7360769
20
125.6988
11
11.4505505
21
126.2309995
0
LINE
8
DEFAULT_255_1_388
10
11.4505505
20
126.2309995
11
11.1415314
21
126.2309995
0
LINE
8
DEFAULT_255_1_388
10
11.1415314
20
126.2309995
11
11.1415314
21
125.6988
0
LINE
8
DEFAULT_255_1_388
10
11.1415314
20
125.6988
11
10.9671435
21
125.6988
0
LINE
8
DEFAULT_255_1_388
10
10.9671435
20
125.6988
11
10.9671435
21
127.0143898
0
LINE
8
DEFAULT_255_1_388
10
10.9671435
20
127.0143898
11
11.4026616
21
127.0143898
0
LINE
8
DEFAULT_255_1_388
10
11.6131921
20
126.2680456
11
11.9222111
21
125.7096428
0
LINE
8
DEFAULT_255_1_388
10
11.9222111
20
125.7096428
11
11.9222111
21
125.6988
0
LINE
8
DEFAULT_255_1_388
10
11.9222111
20
125.6988
11
11.7360769
21
125.6988
0
LINE
8
DEFAULT_255_1_388
10
11.1415314
20
126.8716267
11
11.1415314
21
126.3728591
0
LINE
8
DEFAULT_255_1_388
10
11.1415314
20
126.3728591
11
11.408083
21
126.3728591
0
LINE
8
DEFAULT_255_1_388
10
11.4071794
20
126.8716267
11
11.1415314
21
126.8716267
0
ARC
8
DEFAULT_255_1_388
10
11.4073461
20
126.2312346
40
0.7831693
50
80.6535681
51
90.3427203
0
ARC
8
DEFAULT_255_1_388
10
11.4545372
20
126.5082722
40
0.5021479
50
65.6987674
51
80.8330164
0
ARC
8
DEFAULT_255_1_388
10
11.5082666
20
126.6314479
40
0.3677787
50
50.0019152
51
65.4304412
0
ARC
8
DEFAULT_255_1_388
10
11.5328482
20
126.6646603
40
0.3265454
50
11.6284215
51
49.5603681
0
ARC
8
DEFAULT_255_1_388
10
11.3600968
20
126.6224524
40
0.5043009
50
359.5655533
51
12.3693319
0
ARC
8
DEFAULT_255_1_388
10
11.4812304
20
126.6154038
40
0.3831661
50
341.998418
51
0.4822212
0
ARC
8
DEFAULT_255_1_388
10
11.5256491
20
126.6033479
40
0.3372036
50
323.8610842
51
341.6141514
0
ARC
8
DEFAULT_255_1_388
10
11.4917037
20
126.6295615
40
0.3800784
50
296.7019299
51
323.6876213
0
ARC
8
DEFAULT_255_1_388
10
11.4420995
20
126.7182532
40
0.4816219
50
290.808313
51
297.2325929
0
ARC
8
DEFAULT_255_1_388
10
11.4109789
20
126.7771377
40
0.404289
50
269.5895908
51
281.8058892
0
ARC
8
DEFAULT_255_1_388
10
11.4392055
20
126.648036
40
0.2721459
50
281.5499321
51
303.9358954
0
ARC
8
DEFAULT_255_1_388
10
11.4546589
20
126.6212588
40
0.2413121
50
304.4410786
51
311.211123
0
ARC
8
DEFAULT_255_1_388
10
11.4694995
20
126.6056152
40
0.2197678
50
310.9874923
51
356.2715203
0
ARC
8
DEFAULT_255_1_388
10
11.3844741
20
126.6182992
40
0.3055212
50
354.9346315
51
0.0617816
0
ARC
8
DEFAULT_255_1_388
10
11.3633582
20
126.6213427
40
0.3266482
50
359.5239293
51
12.8808621
0
ARC
8
DEFAULT_255_1_388
10
11.4733344
20
126.6482638
40
0.2134449
50
12.417206
51
43.1023141
0
ARC
8
DEFAULT_255_1_388
10
11.4802675
20
126.6524253
40
0.2055463
50
43.575886
51
48.2047245
0
ARC
8
DEFAULT_255_1_388
10
11.4611936
20
126.6275151
40
0.2368418
50
48.7809155
51
72.6968768
0
ARC
8
DEFAULT_255_1_388
10
11.4213299
20
126.5065385
40
0.364206
50
72.3699892
51
84.8793749
0
ARC
8
DEFAULT_255_1_388
10
11.4047305
20
126.3555651
40
0.5160674
50
84.5398226
51
89.7281165
0
LINE
8
DEFAULT_255_1_388
10
12.2194838
20
127.0143898
11
12.536635
21
126.5102009
0
LINE
8
DEFAULT_255_1_388
10
12.536635
20
126.5102009
11
12.851979
21
127.0143898
0
LINE
8
DEFAULT_255_1_388
10
12.851979
20
127.0143898
11
13.0561845
21
127.0143898
0
LINE
8
DEFAULT_255_1_388
10
13.0561845
20
127.0143898
11
12.6405449
21
126.3620163
0
LINE
8
DEFAULT_255_1_388
10
12.6405449
20
126.3620163
11
13.0661237
21
125.6988
0
LINE
8
DEFAULT_255_1_388
10
13.0661237
20
125.6988
11
12.860111
21
125.6988
0
LINE
8
DEFAULT_255_1_388
10
12.860111
20
125.6988
11
12.536635
21
126.2120246
0
LINE
8
DEFAULT_255_1_388
10
12.536635
20
126.2120246
11
12.2113518
21
125.6988
0
LINE
8
DEFAULT_255_1_388
10
12.2113518
20
125.6988
11
12.0062426
21
125.6988
0
LINE
8
DEFAULT_255_1_388
10
12.0062426
20
125.6988
11
12.432725
21
126.3620163
0
LINE
8
DEFAULT_255_1_388
10
12.432725
20
126.3620163
11
12.0161818
21
127.0143898
0
LINE
8
DEFAULT_255_1_388
10
12.0161818
20
127.0143898
11
12.2194838
21
127.0143898
0
LINE
8
DEFAULT_255_1_388
10
14.598569
20
126.6339892
11
14.4241811
21
126.6339892
0
LINE
8
DEFAULT_255_1_388
10
13.6453085
20
126.0801042
11
13.8196965
21
126.0801042
0
ARC
8
DEFAULT_255_1_388
10
14.4982538
20
127.6403821
40
1.4087688
50
248.9196578
51
254.1442424
0
ARC
8
DEFAULT_255_1_388
10
14.3092418
20
127.1537805
40
0.8867498
50
241.6337352
51
249.0064643
0
ARC
8
DEFAULT_255_1_388
10
14.1372731
20
126.8386764
40
0.5277799
50
230.4982261
51
241.8087583
0
ARC
8
DEFAULT_255_1_388
10
14.0490503
20
126.7262686
40
0.3849419
50
227.4062979
51
229.9877433
0
ARC
8
DEFAULT_255_1_388
10
13.9941849
20
126.6727155
40
0.3084129
50
200.6782127
51
228.1765252
0
ARC
8
DEFAULT_255_1_388
10
14.0023218
20
126.6710277
40
0.315461
50
179.506278
51
199.8695278
0
ARC
8
DEFAULT_255_1_388
10
14.0012807
20
126.6793671
40
0.3144584
50
132.4834401
51
181.0242352
0
ARC
8
DEFAULT_255_1_388
10
14.0682011
20
126.6161788
40
0.4063094
50
129.2526113
51
133.4249077
0
ARC
8
DEFAULT_255_1_388
10
14.0847604
20
126.5913619
40
0.436014
50
101.9878945
51
128.8741833
0
ARC
8
DEFAULT_255_1_388
10
14.1296019
20
126.397736
40
0.6347415
50
89.5906376
51
102.3170567
0
ARC
8
DEFAULT_255_1_388
10
14.137533
20
126.4335586
40
0.5989122
50
77.2359491
51
90.3248968
0
ARC
8
DEFAULT_255_1_388
10
14.1608261
20
126.5423554
40
0.4876594
50
63.8379856
51
77.0808925
0
ARC
8
DEFAULT_255_1_388
10
14.1920795
20
126.6005882
40
0.4216191
50
45.9863127
51
64.1608798
0
ARC
8
DEFAULT_255_1_388
10
14.2214189
20
126.634099
40
0.3771394
50
32.2747934
51
45.6544796
0
ARC
8
DEFAULT_255_1_388
10
14.2288995
20
126.6362426
40
0.3696765
50
359.6507495
51
32.6129943
0
ARC
8
DEFAULT_255_1_388
10
14.1228178
20
126.6367788
40
0.3013762
50
359.469654
51
14.983205
0
ARC
8
DEFAULT_255_1_388
10
14.202143
20
126.6580288
40
0.2192542
50
14.9781954
51
48.2004799
0
ARC
8
DEFAULT_255_1_388
10
14.1836541
20
126.6347937
40
0.2489048
50
48.5926661
51
74.1242559
0
ARC
8
DEFAULT_255_1_388
10
14.1461343
20
126.5109607
40
0.3782845
50
73.7889321
51
86.6653996
0
ARC
8
DEFAULT_255_1_388
10
14.1346158
20
126.3751955
40
0.5145025
50
86.2642725
51
90.0533288
0
ARC
8
DEFAULT_255_1_388
10
14.1314251
20
126.4196376
40
0.4700681
50
89.669455
51
99.2313411
0
ARC
8
DEFAULT_255_1_388
10
14.104141
20
126.5821401
40
0.3052945
50
99.0695987
51
113.7659242
0
ARC
8
DEFAULT_255_1_388
10
14.0733405
20
126.6547772
40
0.226407
50
114.0402885
51
127.9848946
0
ARC
8
DEFAULT_255_1_388
10
14.0462881
20
126.6880884
40
0.1835045
50
127.7287217
51
176.7106493
0
ARC
8
DEFAULT_255_1_388
10
14.1226546
20
126.676721
40
0.2604907
50
175.1780759
51
180.0581213
0
ARC
8
DEFAULT_255_1_388
10
14.027789
20
126.6753411
40
0.1656287
50
179.6140658
51
228.124674
0
ARC
8
DEFAULT_255_1_388
10
14.0775247
20
126.721394
40
0.2332038
50
226.5785315
51
230.8792476
0
ARC
8
DEFAULT_255_1_388
10
14.1304734
20
126.7916908
40
0.3211664
50
231.4636401
51
241.9261664
0
ARC
8
DEFAULT_255_1_388
10
14.2651517
20
127.0395349
40
0.6032345
50
241.7177136
51
248.3259138
0
ARC
8
DEFAULT_255_1_388
10
14.4210112
20
127.4256771
40
1.0196417
50
248.2007377
51
252.4527713
0
ARC
8
DEFAULT_255_1_388
10
14.5563638
20
127.8441092
40
1.4594143
50
252.3388938
51
254.347037
0
ARC
8
DEFAULT_255_1_388
10
13.7078939
20
124.8093095
40
1.6917621
50
71.0197462
51
74.4085467
0
ARC
8
DEFAULT_255_1_388
10
13.8986027
20
125.3598144
40
1.1091618
50
66.1845203
51
71.086519
0
ARC
8
DEFAULT_255_1_388
10
14.0736576
20
125.7539439
40
0.6779073
50
59.3537334
51
66.269255
0
ARC
8
DEFAULT_255_1_388
10
14.1736302
20
125.9230777
40
0.4814366
50
49.1021732
51
59.3294421
0
ARC
8
DEFAULT_255_1_388
10
14.265729
20
126.0280575
40
0.3417875
50
32.7924183
51
49.2503526
0
ARC
8
DEFAULT_255_1_388
10
14.3006904
20
126.0530311
40
0.2988789
50
31.121225
51
32.3977355
0
ARC
8
DEFAULT_255_1_388
10
14.2919082
20
126.0497728
40
0.3080861
50
8.1116803
51
30.7958224
0
ARC
8
DEFAULT_255_1_388
10
14.2007428
20
126.0342437
40
0.4005385
50
359.8390945
51
8.4707348
0
ARC
8
DEFAULT_255_1_388
10
14.2711475
20
126.0287751
40
0.3301608
50
337.4732479
51
0.7538283
0
ARC
8
DEFAULT_255_1_388
10
14.2912501
20
126.0265554
40
0.3107929
50
307.5917028
51
336.4313755
0
ARC
8
DEFAULT_255_1_388
10
14.2401558
20
126.0833509
40
0.3870096
50
307.6560665
51
308.4561779
0
ARC
8
DEFAULT_255_1_388
10
14.2135775
20
126.1241832
40
0.435591
50
284.3733666
51
307.1426212
0
ARC
8
DEFAULT_255_1_388
10
14.1578669
20
126.3291391
40
0.6479685
50
272.4384566
51
284.6464689
0
ARC
8
DEFAULT_255_1_388
10
14.1436054
20
126.5315434
40
0.8508149
50
269.9708517
51
272.8180721
0
ARC
8
DEFAULT_255_1_388
10
14.1387737
20
126.3023283
40
0.6216151
50
248.2707343
51
270.4054609
0
ARC
8
DEFAULT_255_1_388
10
14.1326608
20
126.2808673
40
0.5994203
50
246.1380358
51
248.054058
0
ARC
8
DEFAULT_255_1_388
10
14.0855751
20
126.1819705
40
0.4899388
50
233.1671897
51
246.4951656
0
ARC
8
DEFAULT_255_1_388
10
14.0232386
20
126.0978137
40
0.3852115
50
215.3403381
51
233.084328
0
ARC
8
DEFAULT_255_1_388
10
13.992575
20
126.0755093
40
0.3472969
50
179.2419235
51
215.2648426
0
ARC
8
DEFAULT_255_1_388
10
14.0789301
20
126.0770979
40
0.259251
50
179.3355796
51
199.1045873
0
ARC
8
DEFAULT_255_1_388
10
14.0415443
20
126.0673223
40
0.2207454
50
199.8830064
51
232.7061328
0
ARC
8
DEFAULT_255_1_388
10
14.0946717
20
126.1341456
40
0.306101
50
232.3736206
51
255.5136621
0
ARC
8
DEFAULT_255_1_388
10
14.1330223
20
126.2741177
40
0.4512213
50
255.2447928
51
267.5318292
0
ARC
8
DEFAULT_255_1_388
10
14.142869
20
126.4127709
40
0.5901825
50
267.1564563
51
270.0294721
0
ARC
8
DEFAULT_255_1_388
10
14.1460015
20
126.3628623
40
0.5402814
50
269.6999944
51
278.1662446
0
ARC
8
DEFAULT_255_1_388
10
14.1748043
20
126.1681974
40
0.3435003
50
278.0229022
51
290.6255326
0
ARC
8
DEFAULT_255_1_388
10
14.2139209
20
126.0638547
40
0.2320666
50
290.6616368
51
307.0374127
0
ARC
8
DEFAULT_255_1_388
10
14.2477109
20
126.022404
40
0.1786372
50
306.3942078
51
355.303191
0
ARC
8
DEFAULT_255_1_388
10
14.1901402
20
126.0310186
40
0.2367516
50
354.3662092
51
0.0709489
0
ARC
8
DEFAULT_255_1_388
10
14.2061271
20
126.0335561
40
0.2207761
50
359.4175379
51
16.1975911
0
ARC
8
DEFAULT_255_1_388
10
14.2573389
20
126.0475954
40
0.1676828
50
16.4721294
51
52.6261798
0
ARC
8
DEFAULT_255_1_388
10
14.1649896
20
125.9256606
40
0.3206412
50
52.7381828
51
62.4979144
0
ARC
8
DEFAULT_255_1_388
10
14.0091649
20
125.6324236
40
0.6527035
50
62.2517425
51
68.1219454
0
ARC
8
DEFAULT_255_1_388
10
13.8157137
20
125.1569951
40
1.1659797
50
68.006043
51
71.8055127
0
ARC
8
DEFAULT_255_1_388
10
13.6137045
20
124.5511723
40
1.8045908
50
71.718361
51
73.9260743
0
LINE
8
DEFAULT_255_1_388
10
14.7548857
20
126.1605214
11
14.7548857
21
126.1912426
0
LINE
8
DEFAULT_255_1_388
10
15.5843579
20
126.2093139
11
15.5843579
21
126.1397395
0
LINE
8
DEFAULT_255_1_388
10
15.5843579
20
126.1397395
11
14.9220451
21
126.1397395
0
LINE
8
DEFAULT_255_1_388
10
15.4696052
20
125.9490874
11
15.571708
21
125.8695737
0
LINE
8
DEFAULT_255_1_388
10
14.9274665
20
126.2770813
11
15.4171984
21
126.2770813
0
LINE
8
DEFAULT_255_1_388
10
15.4171984
20
126.2770813
11
15.4171984
21
126.2897312
0
ARC
8
DEFAULT_255_1_388
10
15.1980618
20
126.173021
40
0.4923176
50
252.326534
51
270.5809615
0
ARC
8
DEFAULT_255_1_388
10
15.1750082
20
126.089694
40
0.4059384
50
223.3000488
51
251.8562489
0
ARC
8
DEFAULT_255_1_388
10
15.1987862
20
126.1127898
40
0.4390832
50
190.9374369
51
223.3654369
0
ARC
8
DEFAULT_255_1_388
10
15.392854
20
126.1566598
40
0.63798
50
179.6531919
51
191.4988561
0
ARC
8
DEFAULT_255_1_388
10
15.4065567
20
126.1948571
40
0.6516811
50
167.4005523
51
180.3177836
0
ARC
8
DEFAULT_255_1_388
10
15.2882239
20
126.2198853
40
0.5307402
50
154.1835149
51
167.2508278
0
ARC
8
DEFAULT_255_1_388
10
15.217183
20
126.2572925
40
0.4505076
50
134.3150225
51
154.5315008
0
ARC
8
DEFAULT_255_1_388
10
15.1927165
20
126.278755
40
0.4180662
50
122.8617482
51
133.9707159
0
ARC
8
DEFAULT_255_1_388
10
15.1810772
20
126.3037882
40
0.3907416
50
89.8248474
51
123.4199325
0
ARC
8
DEFAULT_255_1_388
10
15.186707
20
126.2310352
40
0.4635141
50
74.7874349
51
90.5482648
0
ARC
8
DEFAULT_255_1_388
10
15.2197534
20
126.3530987
40
0.3370565
50
39.8178888
51
74.7634383
0
ARC
8
DEFAULT_255_1_388
10
15.1620776
20
126.3081356
40
0.4101553
50
16.8990848
51
39.4830125
0
ARC
8
DEFAULT_255_1_388
10
14.948939
20
126.2398711
40
0.6339427
50
4.9634768
51
17.2027767
0
ARC
8
DEFAULT_255_1_388
10
14.6768795
20
126.21116
40
0.9074803
50
359.8834402
51
5.2832409
0
ARC
8
DEFAULT_255_1_388
10
15.3561153
20
126.1471981
40
0.4341343
50
180.9844233
51
194.9402766
0
ARC
8
DEFAULT_255_1_388
10
15.2380319
20
126.114917
40
0.3117211
50
194.8030557
51
222.0412897
0
ARC
8
DEFAULT_255_1_388
10
15.2038191
20
126.0809715
40
0.2635903
50
221.541578
51
268.8616004
0
ARC
8
DEFAULT_255_1_388
10
15.2120311
20
126.157028
40
0.3398611
50
267.7321071
51
270.009808
0
ARC
8
DEFAULT_255_1_388
10
15.2140375
20
126.1797178
40
0.3625561
50
269.6921218
51
280.4122297
0
ARC
8
DEFAULT_255_1_388
10
15.2338786
20
126.0763767
40
0.2573323
50
280.2257165
51
298.633539
0
ARC
8
DEFAULT_255_1_388
10
15.24642
20
126.0499578
40
0.2281403
50
299.0485543
51
300.4624141
0
ARC
8
DEFAULT_255_1_388
10
15.170518
20
126.1764796
40
0.3756797
50
300.6578578
51
322.037749
0
ARC
8
DEFAULT_255_1_388
10
15.1334702
20
126.2088266
40
0.4247956
50
321.671786
51
322.3059078
0
ARC
8
DEFAULT_255_1_388
10
15.2358265
20
126.0794267
40
0.3960488
50
276.9729088
51
328.0035579
0
ARC
8
DEFAULT_255_1_388
10
15.2046735
20
126.2459609
40
0.5652345
50
269.8358003
51
278.0581296
0
ARC
8
DEFAULT_255_1_388
10
15.1791034
20
126.329782
40
0.2274263
50
89.2017936
51
117.2852353
0
ARC
8
DEFAULT_255_1_388
10
15.1850785
20
126.3250637
40
0.2343798
50
118.0546404
51
137.4544511
0
ARC
8
DEFAULT_255_1_388
10
15.2272429
20
126.2867556
40
0.2913471
50
137.5109688
51
158.8516701
0
ARC
8
DEFAULT_255_1_388
10
15.3552529
20
126.2350902
40
0.4293804
50
158.5845496
51
170.1719753
0
ARC
8
DEFAULT_255_1_388
10
15.4868865
20
126.2089519
40
0.5635533
50
169.8378964
51
173.0563877
0
ARC
8
DEFAULT_255_1_388
10
14.9584149
20
126.2664187
40
0.4593755
50
2.9089079
51
12.88469
0
ARC
8
DEFAULT_255_1_388
10
15.1126068
20
126.3027082
40
0.3009753
50
12.6957404
51
28.6405841
0
ARC
8
DEFAULT_255_1_388
10
15.1735565
20
126.3342577
40
0.232366
50
29.016559
51
41.1492981
0
ARC
8
DEFAULT_255_1_388
10
15.1963544
20
126.354108
40
0.2021373
50
41.1646967
51
85.001362
0
ARC
8
DEFAULT_255_1_388
10
15.1827548
20
126.2714775
40
0.2857091
50
83.728216
51
90.0968824
0
LINE
8
DEFAULT_255_1_388
10
16.2502849
20
126.6818781
11
16.2502849
21
126.526465
0
LINE
8
DEFAULT_255_1_388
10
15.9448801
20
126.3927375
11
15.9448801
21
125.6988
0
LINE
8
DEFAULT_255_1_388
10
15.9448801
20
125.6988
11
15.7777207
21
125.6988
0
LINE
8
DEFAULT_255_1_388
10
15.7777207
20
125.6988
11
15.7777207
21
126.6764567
0
LINE
8
DEFAULT_255_1_388
10
15.7777207
20
126.6764567
11
15.9403623
21
126.6764567
0
LINE
8
DEFAULT_255_1_388
10
15.9403623
20
126.6764567
11
15.9430729
21
126.5635112
0
ARC
8
DEFAULT_255_1_388
10
16.1753008
20
126.0698068
40
0.4627735
50
80.6751522
51
86.893806
0
ARC
8
DEFAULT_255_1_388
10
16.1684838
20
125.9606103
40
0.5721798
50
86.8046851
51
90.0423898
0
ARC
8
DEFAULT_255_1_388
10
16.1643258
20
126.2373197
40
0.2954939
50
89.2758283
51
106.6212906
0
ARC
8
DEFAULT_255_1_388
10
16.1413282
20
126.3209009
40
0.2088351
50
107.1347109
51
157.6456887
0
ARC
8
DEFAULT_255_1_388
10
16.2181345
20
126.2781908
40
0.296292
50
155.6557383
51
157.256838
0
ARC
8
DEFAULT_255_1_388
10
16.1960959
20
126.4092472
40
0.296341
50
127.8167201
51
148.6300223
0
ARC
8
DEFAULT_255_1_388
10
16.1675706
20
126.4385066
40
0.2557782
50
91.3329934
51
126.7875218
0
ARC
8
DEFAULT_255_1_388
10
16.1761094
20
126.3581718
40
0.3363561
50
89.9858247
51
92.4688453
0
ARC
8
DEFAULT_255_1_388
10
16.1770587
20
126.3890114
40
0.3055179
50
85.3587643
51
90.1624243
0
ARC
8
DEFAULT_255_1_388
10
16.1865652
20
126.5019458
40
0.1921848
50
78.4019195
51
85.4592653
0
ARC
8
DEFAULT_255_1_388
10
16.2028712
20
126.5797142
40
0.1127267
50
67.7849217
51
78.573798
0
ARC
8
DEFAULT_255_1_388
10
16.2150347
20
126.6112374
40
0.0789473
50
63.4805074
51
67.3074739
0
LINE
8
DEFAULT_255_1_388
10
16.5855073
20
126.6764567
11
16.5855073
21
125.6988
0
LINE
8
DEFAULT_255_1_388
10
16.5855073
20
125.6988
11
16.4183479
21
125.6988
0
LINE
8
DEFAULT_255_1_388
10
16.4183479
20
125.6988
11
16.4183479
21
126.6764567
0
LINE
8
DEFAULT_255_1_388
10
16.4183479
20
126.6764567
11
16.5855073
21
126.6764567
0
ARC
8
DEFAULT_255_1_388
10
16.5148841
20
126.9368428
40
0.1100948
50
161.4148232
51
180.5532607
0
ARC
8
DEFAULT_255_1_388
10
16.5009151
20
126.9406875
40
0.0956324
50
138.1830164
51
160.9307633
0
ARC
8
DEFAULT_255_1_388
10
16.4885338
20
126.9514313
40
0.0792417
50
104.6371663
51
138.0036136
0
ARC
8
DEFAULT_255_1_388
10
16.5005877
20
126.9101963
40
0.1221906
50
92.0601206
51
105.2198859
0
ARC
8
DEFAULT_255_1_388
10
16.5032241
20
126.8713583
40
0.161103
50
89.9790681
51
92.5006086
0
ARC
8
DEFAULT_255_1_388
10
16.5043417
20
126.8969998
40
0.1354654
50
78.0234649
51
90.4478111
0
ARC
8
DEFAULT_255_1_388
10
16.5147001
20
126.9435203
40
0.0878096
50
55.0521508
51
78.336297
0
ARC
8
DEFAULT_255_1_388
10
16.5203535
20
126.9530168
40
0.0767913
50
42.0506198
51
54.4508489
0
ARC
8
DEFAULT_255_1_388
10
16.5051568
20
126.9390821
40
0.0974091
50
1.7493657
51
42.1498724
0
ARC
8
DEFAULT_255_1_388
10
16.4765474
20
126.9358166
40
0.1261276
50
359.9832635
51
2.8353994
0
ARC
8
DEFAULT_255_1_388
10
16.4951884
20
126.9347412
40
0.1074916
50
342.1062453
51
0.5535864
0
ARC
8
DEFAULT_255_1_388
10
16.5112308
20
126.9303197
40
0.0908695
50
316.7110111
51
341.6513114
0
ARC
8
DEFAULT_255_1_388
10
16.518774
20
126.9235607
40
0.0807447
50
285.4398289
51
316.5320129
0
ARC
8
DEFAULT_255_1_388
10
16.5063911
20
126.9647023
40
0.1237022
50
272.3543902
51
285.8951677
0
ARC
8
DEFAULT_255_1_388
10
16.5033621
20
127.0062742
40
0.1653687
50
269.9725761
51
272.8112722
0
ARC
8
DEFAULT_255_1_388
10
16.5022673
20
126.9811727
40
0.1402709
50
258.8433431
51
270.4148607
0
ARC
8
DEFAULT_255_1_388
10
16.4921453
20
126.9321739
40
0.0902407
50
238.54281
51
259.1289544
0
ARC
8
DEFAULT_255_1_388
10
16.4844774
20
126.9182694
40
0.0743817
50
222.5056676
51
237.9918132
0
ARC
8
DEFAULT_255_1_388
10
16.4988368
20
126.9313295
40
0.0937918
50
184.1070774
51
222.4604165
0
ARC
8
DEFAULT_255_1_388
10
16.5290781
20
126.9356538
40
0.1242838
50
179.9419581
51
185.0970785
0
LINE
8
DEFAULT_255_1_388
10
16.8104948
20
126.1605214
11
16.8104948
21
126.1912426
0
LINE
8
DEFAULT_255_1_388
10
17.639967
20
126.2093139
11
17.639967
21
126.1397395
0
LINE
8
DEFAULT_255_1_388
10
17.639967
20
126.1397395
11
16.9776542
21
126.1397395
0
LINE
8
DEFAULT_255_1_388
10
17.5252143
20
125.9490874
11
17.6273171
21
125.8695737
0
LINE
8
DEFAULT_255_1_388
10
16.9830756
20
126.2770813
11
17.4728076
21
126.2770813
0
LINE
8
DEFAULT_255_1_388
10
17.4728076
20
126.2770813
11
17.4728076
21
126.2897312
0
ARC
8
DEFAULT_255_1_388
10
17.2536709
20
126.173021
40
0.4923176
50
252.326534
51
270.5809615
0
ARC
8
DEFAULT_255_1_388
10
17.2306174
20
126.089694
40
0.4059384
50
223.3000488
51
251.8562489
0
ARC
8
DEFAULT_255_1_388
10
17.2543954
20
126.1127898
40
0.4390832
50
190.9374369
51
223.3654369
0
ARC
8
DEFAULT_255_1_388
10
17.4484632
20
126.1566598
40
0.63798
50
179.6531919
51
191.4988561
0
ARC
8
DEFAULT_255_1_388
10
17.4621659
20
126.1948571
40
0.6516811
50
167.4005523
51
180.3177836
0
ARC
8
DEFAULT_255_1_388
10
17.343833
20
126.2198853
40
0.5307402
50
154.1835149
51
167.2508278
0
ARC
8
DEFAULT_255_1_388
10
17.2727921
20
126.2572925
40
0.4505076
50
134.3150225
51
154.5315008
0
ARC
8
DEFAULT_255_1_388
10
17.2483256
20
126.278755
40
0.4180662
50
122.8617482
51
133.9707159
0
ARC
8
DEFAULT_255_1_388
10
17.2366863
20
126.3037882
40
0.3907416
50
89.8248474
51
123.4199325
0
ARC
8
DEFAULT_255_1_388
10
17.2423161
20
126.2310352
40
0.4635141
50
74.7874349
51
90.5482648
0
ARC
8
DEFAULT_255_1_388
10
17.2753625
20
126.3530987
40
0.3370565
50
39.8178888
51
74.7634383
0
ARC
8
DEFAULT_255_1_388
10
17.2176867
20
126.3081356
40
0.4101553
50
16.8990848
51
39.4830125
0
ARC
8
DEFAULT_255_1_388
10
17.0045481
20
126.2398711
40
0.6339427
50
4.9634768
51
17.2027767
0
ARC
8
DEFAULT_255_1_388
10
16.7324886
20
126.21116
40
0.9074803
50
359.8834402
51
5.2832409
0
ARC
8
DEFAULT_255_1_388
10
17.4117244
20
126.1471981
40
0.4341343
50
180.9844233
51
194.9402766
0
ARC
8
DEFAULT_255_1_388
10
17.293641
20
126.114917
40
0.3117211
50
194.8030557
51
222.0412897
0
ARC
8
DEFAULT_255_1_388
10
17.2594282
20
126.0809715
40
0.2635903
50
221.541578
51
268.8616004
0
ARC
8
DEFAULT_255_1_388
10
17.2676403
20
126.157028
40
0.3398611
50
267.7321071
51
270.009808
0
ARC
8
DEFAULT_255_1_388
10
17.2696466
20
126.1797178
40
0.3625561
50
269.6921218
51
280.4122297
0
ARC
8
DEFAULT_255_1_388
10
17.2894878
20
126.0763767
40
0.2573323
50
280.2257165
51
298.633539
0
ARC
8
DEFAULT_255_1_388
10
17.3020291
20
126.0499578
40
0.2281403
50
299.0485543
51
300.4624141
0
ARC
8
DEFAULT_255_1_388
10
17.2261272
20
126.1764796
40
0.3756797
50
300.6578578
51
322.037749
0
ARC
8
DEFAULT_255_1_388
10
17.1890793
20
126.2088266
40
0.4247956
50
321.671786
51
322.3059078
0
ARC
8
DEFAULT_255_1_388
10
17.2914356
20
126.0794267
40
0.3960488
50
276.9729088
51
328.0035579
0
ARC
8
DEFAULT_255_1_388
10
17.2602827
20
126.2459609
40
0.5652345
50
269.8358003
51
278.0581296
0
ARC
8
DEFAULT_255_1_388
10
17.2347126
20
126.329782
40
0.2274263
50
89.2017936
51
117.2852353
0
ARC
8
DEFAULT_255_1_388
10
17.2406876
20
126.3250637
40
0.2343798
50
118.0546404
51
137.4544511
0
ARC
8
DEFAULT_255_1_388
10
17.282852
20
126.2867556
40
0.2913471
50
137.5109688
51
158.8516701
0
ARC
8
DEFAULT_255_1_388
10
17.410862
20
126.2350902
40
0.4293804
50
158.5845496
51
170.1719753
0
ARC
8
DEFAULT_255_1_388
10
17.5424956
20
126.2089519
40
0.5635533
50
169.8378964
51
173.0563877
0
ARC
8
DEFAULT_255_1_388
10
17.014024
20
126.2664187
40
0.4593755
50
2.9089079
51
12.88469
0
ARC
8
DEFAULT_255_1_388
10
17.1682159
20
126.3027082
40
0.3009753
50
12.6957404
51
28.6405841
0
ARC
8
DEFAULT_255_1_388
10
17.2291656
20
126.3342577
40
0.232366
50
29.016559
51
41.1492981
0
ARC
8
DEFAULT_255_1_388
10
17.2519635
20
126.354108
40
0.2021373
50
41.1646967
51
85.001362
0
ARC
8
DEFAULT_255_1_388
10
17.2383639
20
126.2714775
40
0.2857091
50
83.728216
51
90.0968824
0
LINE
8
DEFAULT_255_1_388
10
18.5606992
20
126.3891232
11
18.3926362
21
126.3891232
0
LINE
8
DEFAULT_255_1_388
10
17.7926694
20
125.999687
11
17.9598288
21
125.999687
0
ARC
8
DEFAULT_255_1_388
10
18.2589653
20
125.9597935
40
0.1436198
50
359.3335374
51
18.5869869
0
ARC
8
DEFAULT_255_1_388
10
18.2824392
20
125.9660015
40
0.1194022
50
19.3538149
51
54.6486387
0
ARC
8
DEFAULT_255_1_388
10
18.2257379
20
125.8878077
40
0.2159877
50
54.3821575
51
65.0627557
0
ARC
8
DEFAULT_255_1_388
10
18.1392727
20
125.7059032
40
0.4173927
50
64.8282172
51
71.4204388
0
ARC
8
DEFAULT_255_1_388
10
18.0377622
20
125.4080782
40
0.7320403
50
71.3166092
51
75.8005927
0
ARC
8
DEFAULT_255_1_388
10
17.9431508
20
125.0435881
40
1.108605
50
75.6810806
51
78.0063886
0
ARC
8
DEFAULT_255_1_388
10
18.4436097
20
127.403753
40
1.3040363
50
254.69024
51
258.0465557
0
ARC
8
DEFAULT_255_1_388
10
18.3267965
20
126.9807742
40
0.8652254
50
249.9010634
51
254.7555005
0
ARC
8
DEFAULT_255_1_388
10
18.2139018
20
126.674168
40
0.5384962
50
243.3097375
51
249.970939
0
ARC
8
DEFAULT_255_1_388
10
18.1431432
20
126.5330721
40
0.380652
50
234.4047808
51
243.2861752
0
ARC
8
DEFAULT_255_1_388
10
18.0731068
20
126.4363645
40
0.2612502
50
220.8665526
51
234.5497192
0
ARC
8
DEFAULT_255_1_388
10
18.0346066
20
126.4013203
40
0.2092097
50
214.3063391
51
220.5075055
0
ARC
8
DEFAULT_255_1_388
10
18.031718
20
126.3978577
40
0.2048755
50
186.9131438
51
213.9617385
0
ARC
8
DEFAULT_255_1_388
10
18.091557
20
126.4075431
40
0.2654563
50
179.8802037
51
187.4338578
0
ARC
8
DEFAULT_255_1_388
10
18.0741535
20
126.4098049
40
0.2480581
50
132.0053393
51
180.3942351
0
ARC
8
DEFAULT_255_1_388
10
18.1480448
20
126.3415997
40
0.3483116
50
129.2317021
51
133.5294826
0
ARC
8
DEFAULT_255_1_388
10
18.1540416
20
126.3310383
40
0.360291
50
100.440976
51
128.9081567
0
ARC
8
DEFAULT_255_1_388
10
18.1848534
20
126.1864357
40
0.5080996
50
89.6985063
51
100.9029043
0
ARC
8
DEFAULT_255_1_388
10
18.1912689
20
126.1683739
40
0.5261675
50
77.6967144
51
90.4074623
0
ARC
8
DEFAULT_255_1_388
10
18.2285041
20
126.3289503
40
0.3613511
50
50.7278431
51
78.0397473
0
ARC
8
DEFAULT_255_1_388
10
18.2785084
20
126.3872173
40
0.2845966
50
25.754382
51
51.0957456
0
ARC
8
DEFAULT_255_1_388
10
18.2786451
20
126.3928311
40
0.2820785
50
359.2468358
51
24.7393861
0
ARC
8
DEFAULT_255_1_388
10
18.2466338
20
126.3896204
40
0.1460032
50
359.8048924
51
45.1543866
0
ARC
8
DEFAULT_255_1_388
10
18.2008072
20
126.3504291
40
0.2061641
50
43.8053172
51
49.625485
0
ARC
8
DEFAULT_255_1_388
10
18.2017515
20
126.3505849
40
0.2054344
50
49.7979696
51
82.121802
0
ARC
8
DEFAULT_255_1_388
10
18.1883597
20
126.2778473
40
0.2793404
50
81.4458692
51
90.1707936
0
ARC
8
DEFAULT_255_1_388
10
18.1856174
20
126.2186478
40
0.3385438
50
89.6768097
51
99.1267111
0
ARC
8
DEFAULT_255_1_388
10
18.1663156
20
126.3349405
40
0.2206627
50
98.9679878
51
113.4573418
0
ARC
8
DEFAULT_255_1_388
10
18.1442836
20
126.3876193
40
0.1635691
50
113.7230234
51
127.4758155
0
ARC
8
DEFAULT_255_1_388
10
18.1253419
20
126.4101433
40
0.1341757
50
126.9086647
51
150.3160891
0
ARC
8
DEFAULT_255_1_388
10
18.119975
20
126.415868
40
0.1266992
50
151.363328
51
180.0701537
0
ARC
8
DEFAULT_255_1_388
10
18.1509971
20
126.413523
40
0.1577364
50
179.2045432
51
180.0012892
0
ARC
8
DEFAULT_255_1_388
10
18.1141082
20
126.4120515
40
0.1208564
50
179.3040542
51
198.4225767
0
ARC
8
DEFAULT_255_1_388
10
18.0925223
20
126.4064337
40
0.0986126
50
199.2893055
51
238.6036855
0
ARC
8
DEFAULT_255_1_388
10
18.1603317
20
126.5128752
40
0.2248082
50
237.9844191
51
246.8751643
0
ARC
8
DEFAULT_255_1_388
10
18.2568176
20
126.7335861
40
0.4656832
50
246.6226408
51
251.8174794
0
ARC
8
DEFAULT_255_1_388
10
18.3728644
20
127.0820909
40
0.8329993
50
251.7140983
51
255.0775146
0
ARC
8
DEFAULT_255_1_388
10
18.5078168
20
127.5847708
40
1.3534786
50
255.0370864
51
257.4701577
0
ARC
8
DEFAULT_255_1_388
10
17.9330713
20
124.9953535
40
1.298957
50
73.6835762
51
77.5015749
0
ARC
8
DEFAULT_255_1_388
10
18.0555627
20
125.4115699
40
0.8650912
50
68.7042835
51
73.7249997
0
ARC
8
DEFAULT_255_1_388
10
18.1571191
20
125.6732853
40
0.584363
50
63.5907059
51
68.6622978
0
ARC
8
DEFAULT_255_1_388
10
18.2438932
20
125.8463157
40
0.3907955
50
54.7106507
51
63.7018033
0
ARC
8
DEFAULT_255_1_388
10
18.314132
20
125.9444287
40
0.2701345
50
41.0624597
51
54.8488532
0
ARC
8
DEFAULT_255_1_388
10
18.3525098
20
125.9796439
40
0.2180695
50
34.4952722
51
40.7097584
0
ARC
8
DEFAULT_255_1_388
10
18.3578064
20
125.9851204
40
0.2106083
50
9.3761233
51
34.0834046
0
ARC
8
DEFAULT_255_1_388
10
18.2843192
20
125.9710174
40
0.2854177
50
359.7695264
51
9.7660556
0
ARC
8
DEFAULT_255_1_388
10
18.3065485
20
125.9661841
40
0.2632121
50
335.8653103
51
0.8022272
0
ARC
8
DEFAULT_255_1_388
10
18.3149891
20
125.9676951
40
0.2561728
50
307.7357819
51
334.7849324
0
ARC
8
DEFAULT_255_1_388
10
18.2704532
20
126.0176553
40
0.3229737
50
307.0217048
51
308.5596894
0
ARC
8
DEFAULT_255_1_388
10
18.2409116
20
126.0618063
40
0.3760237
50
282.9361285
51
306.5649033
0
ARC
8
DEFAULT_255_1_388
10
18.2002178
20
126.2268871
40
0.5460314
50
271.1026197
51
283.2199962
0
ARC
8
DEFAULT_255_1_388
10
18.1930367
20
126.3669744
40
0.6862456
50
269.9926344
51
271.4770056
0
ARC
8
DEFAULT_255_1_388
10
18.1900937
20
126.2452633
40
0.5645418
50
259.0723633
51
270.2897324
0
ARC
8
DEFAULT_255_1_388
10
18.1662161
20
126.1195887
40
0.4366198
50
245.4965026
51
259.0225745
0
ARC
8
DEFAULT_255_1_388
10
18.1349378
20
126.0541491
40
0.3641037
50
228.9686619
51
245.7042678
0
ARC
8
DEFAULT_255_1_388
10
18.1050653
20
126.0173573
40
0.3167435
50
214.4015391
51
228.6759028
0
ARC
8
DEFAULT_255_1_388
10
18.072515
20
125.9995429
40
0.2798456
50
179.9704983
51
215.1574389
0
ARC
8
DEFAULT_255_1_388
10
18.1513362
20
126.0078148
40
0.1916798
50
182.430239
51
203.0329751
0
ARC
8
DEFAULT_255_1_388
10
18.1305958
20
126.0014675
40
0.1701248
50
203.7987464
51
232.5483345
0
ARC
8
DEFAULT_255_1_388
10
18.1617043
20
126.0410049
40
0.2204299
50
232.3784541
51
256.3934343
0
ARC
8
DEFAULT_255_1_388
10
18.187619
20
126.1411359
40
0.3238512
50
256.1048329
51
268.4627478
0
ARC
8
DEFAULT_255_1_388
10
18.1928609
20
126.2315297
40
0.4143627
50
268.0734924
51
270.0121004
0
ARC
8
DEFAULT_255_1_388
10
18.1949327
20
126.2001191
40
0.3829573
50
269.7031202
51
278.8338867
0
ARC
8
DEFAULT_255_1_388
10
18.2154192
20
126.0729553
40
0.2541568
50
278.6727378
51
292.82331
0
ARC
8
DEFAULT_255_1_388
10
18.2379738
20
126.0165546
40
0.1934264
50
293.1457581
51
303.6656964
0
ARC
8
DEFAULT_255_1_388
10
18.2677811
20
125.9742159
40
0.1416713
50
303.1245849
51
321.7434683
0
ARC
8
DEFAULT_255_1_388
10
18.2886893
20
125.955878
40
0.1139081
50
322.4747616
51
1.1293039
0
LINE
8
DEFAULT_255_2_778
10
9.3932417
20
116.2843985
11
10.7161417
21
116.2843985
0
LINE
8
DEFAULT_255_2_778
10
10.7161417
20
116.2843985
11
10.7161417
21
63.3676985
0
LINE
8
DEFAULT_255_2_778
10
10.7161417
20
58.0760985
11
10.7161417
21
5.1593985
0
LINE
8
DEFAULT_255_2_778
10
10.7161417
20
5.1593985
11
9.3932417
21
5.1593985
0
LINE
8
DEFAULT_255_2_778
10
9.3932834
20
63.3677333
11
12.0390834
21
63.3677333
0
LINE
8
DEFAULT_255_2_778
10
12.0390834
20
63.3677333
11
12.0390834
21
58.0760333
0
LINE
8
DEFAULT_255_2_778
10
12.0390834
20
58.0760333
11
9.3932834
21
58.0760333
0
LINE
8
DEFAULT_255_2_778
10
9.3932834
20
58.0760333
11
9.3932834
21
63.3677333
0
LINE
8
DEFAULT_255_2_778
10
10.187
20
58.6052666
11
10.187
21
62.8385666
0
LINE
8
DEFAULT_255_2_778
10
9.9224167
20
62.044875
11
10.1870167
21
62.838575
0
LINE
8
DEFAULT_255_2_778
10
10.1870167
20
62.838575
11
10.4516167
21
62.044875
0
LINE
8
DEFAULT_255_2_778
10
10.4516167
20
62.044875
11
9.9224167
21
62.044875
0
LINE
8
DEFAULT_255_2_778
10
11.2453
20
62.8385666
11
11.2453
21
58.6052666
0
LINE
8
DEFAULT_255_2_778
10
10.9807167
20
59.398975
11
11.2453167
21
58.605275
0
LINE
8
DEFAULT_255_2_778
10
11.2453167
20
58.605275
11
11.5099167
21
59.398975
0
LINE
8
DEFAULT_255_2_778
10
11.5099167
20
59.398975
11
10.9807167
21
59.398975
0
LINE
8
DEFAULT_255_2_778
10
19.9765417
20
116.2843987
11
18.6536417
21
116.2843987
0
LINE
8
DEFAULT_255_2_778
10
18.6536417
20
116.2843987
11
18.6536417
21
71.3051987
0
LINE
8
DEFAULT_255_2_778
10
18.6536417
20
66.0135987
11
18.6536417
21
21.0343987
0
LINE
8
DEFAULT_255_2_778
10
18.6536417
20
21.0343987
11
19.9765417
21
21.0343987
0
LINE
8
DEFAULT_255_2_778
10
17.3307834
20
71.3052333
11
19.9765834
21
71.3052333
0
LINE
8
DEFAULT_255_2_778
10
19.9765834
20
71.3052333
11
19.9765834
21
66.0135333
0
LINE
8
DEFAULT_255_2_778
10
19.9765834
20
66.0135333
11
17.3307834
21
66.0135333
0
LINE
8
DEFAULT_255_2_778
10
17.3307834
20
66.0135333
11
17.3307834
21
71.3052333
0
LINE
8
DEFAULT_255_2_778
10
18.1245
20
66.5427666
11
18.1245
21
70.7760666
0
LINE
8
DEFAULT_255_2_778
10
17.8599167
20
69.982375
11
18.1245167
21
70.776075
0
LINE
8
DEFAULT_255_2_778
10
18.1245167
20
70.776075
11
18.3891167
21
69.982375
0
LINE
8
DEFAULT_255_2_778
10
18.3891167
20
69.982375
11
17.8599167
21
69.982375
0
LINE
8
DEFAULT_255_2_778
10
19.1828
20
70.7760666
11
19.1828
21
66.5427666
0
LINE
8
DEFAULT_255_2_778
10
18.9182167
20
67.336475
11
19.1828167
21
66.542775
0
LINE
8
DEFAULT_255_2_778
10
19.1828167
20
66.542775
11
19.4474167
21
67.336475
0
LINE
8
DEFAULT_255_2_778
10
19.4474167
20
67.336475
11
18.9182167
21
67.336475
0
LINE
8
DEFAULT_255_1_388
10
4.4795094
20
124.2294317
11
4.1695868
21
124.2294317
0
LINE
8
DEFAULT_255_1_388
10
4.1695868
20
124.2294317
11
4.1695868
21
123.7144
0
LINE
8
DEFAULT_255_1_388
10
4.1695868
20
123.7144
11
3.9961024
21
123.7144
0
LINE
8
DEFAULT_255_1_388
10
3.9961024
20
123.7144
11
3.9961024
21
125.0299898
0
LINE
8
DEFAULT_255_1_388
10
3.9961024
20
125.0299898
11
4.4813165
21
125.0299898
0
LINE
8
DEFAULT_255_1_388
10
4.1695868
20
124.8872267
11
4.1695868
21
124.3712914
0
LINE
8
DEFAULT_255_1_388
10
4.1695868
20
124.3712914
11
4.4813165
21
124.3712914
0
LINE
8
DEFAULT_255_1_388
10
4.4912557
20
124.8872267
11
4.1695868
21
124.8872267
0
ARC
8
DEFAULT_255_1_388
10
4.4860538
20
124.3483334
40
0.6816729
50
78.8380084
51
90.398184
0
ARC
8
DEFAULT_255_1_388
10
4.5328569
20
124.5756796
40
0.449571
50
58.9633273
51
79.0810717
0
ARC
8
DEFAULT_255_1_388
10
4.5667953
20
124.6386823
40
0.3781049
50
48.0194715
51
58.4475592
0
ARC
8
DEFAULT_255_1_388
10
4.5767773
20
124.6482818
40
0.3642936
50
3.3374546
51
48.1766642
0
ARC
8
DEFAULT_255_1_388
10
4.438258
20
124.6283581
40
0.5038766
50
359.9483251
51
4.6822857
0
ARC
8
DEFAULT_255_1_388
10
4.4522503
20
124.6235779
40
0.4899031
50
346.1879032
51
0.5059221
0
ARC
8
DEFAULT_255_1_388
10
4.6051295
20
124.5838763
40
0.3319729
50
310.8832219
51
346.5426612
0
ARC
8
DEFAULT_255_1_388
10
4.5704143
20
124.6307853
40
0.3901853
50
286.6925305
51
310.228778
0
ARC
8
DEFAULT_255_1_388
10
4.5063873
20
124.8321585
40
0.6014737
50
274.6848219
51
287.0247342
0
ARC
8
DEFAULT_255_1_388
10
4.4810422
20
125.0806088
40
0.8511785
50
269.8968222
51
275.0192639
0
ARC
8
DEFAULT_255_1_388
10
4.4841415
20
124.8468144
40
0.4755314
50
269.6596206
51
279.4150542
0
ARC
8
DEFAULT_255_1_388
10
4.5130873
20
124.6790945
40
0.3053379
50
279.2050006
51
294.9901776
0
ARC
8
DEFAULT_255_1_388
10
4.5457508
20
124.6062353
40
0.2255036
50
295.2886769
51
311.2912669
0
ARC
8
DEFAULT_255_1_388
10
4.5537249
20
124.5943938
40
0.2113522
50
311.7853512
51
347.2860549
0
ARC
8
DEFAULT_255_1_388
10
4.443041
20
124.622843
40
0.3256011
50
346.6891629
51
0.1057086
0
ARC
8
DEFAULT_255_1_388
10
4.350787
20
124.6261247
40
0.417863
50
359.63239
51
359.9961329
0
ARC
8
DEFAULT_255_1_388
10
4.4672475
20
124.6288987
40
0.3014155
50
359.4673371
51
15.5931159
0
ARC
8
DEFAULT_255_1_388
10
4.5375538
20
124.6478937
40
0.2285918
50
15.7441779
51
46.620186
0
ARC
8
DEFAULT_255_1_388
10
4.5209298
20
124.6287361
40
0.2539359
50
46.8628482
51
75.6676625
0
ARC
8
DEFAULT_255_1_388
10
4.4878354
20
124.5096243
40
0.3775415
50
75.2763152
51
88.2916439
0
ARC
8
DEFAULT_255_1_388
10
4.4812354
20
124.4094097
40
0.4779221
50
87.8589087
51
88.7986197
0
LINE
8
DEFAULT_255_1_388
10
5.2394071
20
125.0299898
11
5.4472269
21
124.1291361
0
LINE
8
DEFAULT_255_1_388
10
5.4472269
20
124.1291361
11
5.4725267
21
123.9556517
0
LINE
8
DEFAULT_255_1_388
10
5.4725267
20
123.9556517
11
5.5095729
21
124.1119684
0
LINE
8
DEFAULT_255_1_388
10
5.5095729
20
124.1119684
11
5.7697994
21
125.0299898
0
LINE
8
DEFAULT_255_1_388
10
5.7697994
20
125.0299898
11
5.9161769
21
125.0299898
0
LINE
8
DEFAULT_255_1_388
10
5.9161769
20
125.0299898
11
6.1700785
21
124.1119684
0
LINE
8
DEFAULT_255_1_388
10
6.1700785
20
124.1119684
11
6.206221
21
123.952941
0
LINE
8
DEFAULT_255_1_388
10
6.206221
20
123.952941
11
6.2342315
21
124.1300396
0
LINE
8
DEFAULT_255_1_388
10
6.2342315
20
124.1300396
11
6.4384371
21
125.0299898
0
LINE
8
DEFAULT_255_1_388
10
6.4384371
20
125.0299898
11
6.612825
21
125.0299898
0
LINE
8
DEFAULT_255_1_388
10
6.612825
20
125.0299898
11
6.2938668
21
123.7144
0
LINE
8
DEFAULT_255_1_388
10
6.2938668
20
123.7144
11
6.135743
21
123.7144
0
LINE
8
DEFAULT_255_1_388
10
6.135743
20
123.7144
11
5.8646737
21
124.6730819
0
LINE
8
DEFAULT_255_1_388
10
5.8646737
20
124.6730819
11
5.8438917
21
124.7733775
0
LINE
8
DEFAULT_255_1_388
10
5.8438917
20
124.7733775
11
5.8231097
21
124.6730819
0
LINE
8
DEFAULT_255_1_388
10
5.8231097
20
124.6730819
11
5.5421012
21
123.7144
0
LINE
8
DEFAULT_255_1_388
10
5.5421012
20
123.7144
11
5.3839774
21
123.7144
0
LINE
8
DEFAULT_255_1_388
10
5.3839774
20
123.7144
11
5.0659227
21
125.0299898
0
LINE
8
DEFAULT_255_1_388
10
5.0659227
20
125.0299898
11
5.2394071
21
125.0299898
0
LINE
8
DEFAULT_255_1_388
10
7.5733141
20
123.7144
11
7.2877877
21
124.2465995
0
LINE
8
DEFAULT_255_1_388
10
7.2877877
20
124.2465995
11
6.9787687
21
124.2465995
0
LINE
8
DEFAULT_255_1_388
10
6.9787687
20
124.2465995
11
6.9787687
21
123.7144
0
LINE
8
DEFAULT_255_1_388
10
6.9787687
20
123.7144
11
6.8043807
21
123.7144
0
LINE
8
DEFAULT_255_1_388
10
6.8043807
20
123.7144
11
6.8043807
21
125.0299898
0
LINE
8
DEFAULT_255_1_388
10
6.8043807
20
125.0299898
11
7.2398988
21
125.0299898
0
LINE
8
DEFAULT_255_1_388
10
7.4504293
20
124.2836456
11
7.7594483
21
123.7252428
0
LINE
8
DEFAULT_255_1_388
10
7.7594483
20
123.7252428
11
7.7594483
21
123.7144
0
LINE
8
DEFAULT_255_1_388
10
7.7594483
20
123.7144
11
7.5733141
21
123.7144
0
LINE
8
DEFAULT_255_1_388
10
6.9787687
20
124.8872267
11
6.9787687
21
124.3884591
0
LINE
8
DEFAULT_255_1_388
10
6.9787687
20
124.3884591
11
7.2453202
21
124.3884591
0
LINE
8
DEFAULT_255_1_388
10
7.2444166
20
124.8872267
11
6.9787687
21
124.8872267
0
ARC
8
DEFAULT_255_1_388
10
7.2445834
20
124.2468346
40
0.7831693
50
80.6535681
51
90.3427203
0
ARC
8
DEFAULT_255_1_388
10
7.2917744
20
124.5238722
40
0.5021479
50
65.6987674
51
80.8330164
0
ARC
8
DEFAULT_255_1_388
10
7.3455038
20
124.6470479
40
0.3677787
50
50.0019152
51
65.4304412
0
ARC
8
DEFAULT_255_1_388
10
7.3700854
20
124.6802603
40
0.3265454
50
11.6284215
51
49.5603681
0
ARC
8
DEFAULT_255_1_388
10
7.197334
20
124.6380524
40
0.5043009
50
359.5655533
51
12.3693319
0
ARC
8
DEFAULT_255_1_388
10
7.3184676
20
124.6310038
40
0.3831661
50
341.998418
51
0.4822212
0
ARC
8
DEFAULT_255_1_388
10
7.3628863
20
124.6189479
40
0.3372036
50
323.8610842
51
341.6141514
0
ARC
8
DEFAULT_255_1_388
10
7.3289409
20
124.6451615
40
0.3800784
50
296.7019299
51
323.6876213
0
ARC
8
DEFAULT_255_1_388
10
7.2793367
20
124.7338532
40
0.4816219
50
290.808313
51
297.2325929
0
ARC
8
DEFAULT_255_1_388
10
7.2482161
20
124.7927377
40
0.404289
50
269.5895908
51
281.8058892
0
ARC
8
DEFAULT_255_1_388
10
7.2764427
20
124.663636
40
0.2721459
50
281.5499321
51
303.9358954
0
ARC
8
DEFAULT_255_1_388
10
7.2918961
20
124.6368588
40
0.2413121
50
304.4410786
51
311.211123
0
ARC
8
DEFAULT_255_1_388
10
7.3067367
20
124.6212152
40
0.2197678
50
310.9874923
51
356.2715203
0
ARC
8
DEFAULT_255_1_388
10
7.2217113
20
124.6338992
40
0.3055212
50
354.9346315
51
0.0617816
0
ARC
8
DEFAULT_255_1_388
10
7.2005954
20
124.6369427
40
0.3266482
50
359.5239293
51
12.8808621
0
ARC
8
DEFAULT_255_1_388
10
7.3105716
20
124.6638638
40
0.2134449
50
12.417206
51
43.1023141
0
ARC
8
DEFAULT_255_1_388
10
7.3175047
20
124.6680253
40
0.2055463
50
43.575886
51
48.2047245
0
ARC
8
DEFAULT_255_1_388
10
7.2984308
20
124.6431151
40
0.2368418
50
48.7809155
51
72.6968768
0
ARC
8
DEFAULT_255_1_388
10
7.2585671
20
124.5221385
40
0.364206
50
72.3699892
51
84.8793749
0
ARC
8
DEFAULT_255_1_388
10
7.2419677
20
124.3711651
40
0.5160674
50
84.5398226
51
89.7281165
0
LINE
8
DEFAULT_255_1_388
10
8.3973648
20
124.8040987
11
8.3973648
21
124.4200838
0
LINE
8
DEFAULT_255_1_388
10
8.3973648
20
124.4200838
11
8.764212
21
124.4200838
0
LINE
8
DEFAULT_255_1_388
10
8.764212
20
124.4200838
11
8.764212
21
124.2619601
0
LINE
8
DEFAULT_255_1_388
10
8.764212
20
124.2619601
11
8.3973648
21
124.2619601
0
LINE
8
DEFAULT_255_1_388
10
8.3973648
20
124.2619601
11
8.3973648
21
123.8463204
0
LINE
8
DEFAULT_255_1_388
10
8.3973648
20
123.8463204
11
8.2293019
21
123.8463204
0
LINE
8
DEFAULT_255_1_388
10
8.2293019
20
123.8463204
11
8.2293019
21
124.2619601
0
LINE
8
DEFAULT_255_1_388
10
8.2293019
20
124.2619601
11
7.8624547
21
124.2619601
0
LINE
8
DEFAULT_255_1_388
10
7.8624547
20
124.2619601
11
7.8624547
21
124.4200838
0
LINE
8
DEFAULT_255_1_388
10
7.8624547
20
124.4200838
11
8.2293019
21
124.4200838
0
LINE
8
DEFAULT_255_1_388
10
8.2293019
20
124.4200838
11
8.2293019
21
124.8040987
0
LINE
8
DEFAULT_255_1_388
10
8.2293019
20
124.8040987
11
8.3973648
21
124.8040987
0
LINE
8
DEFAULT_255_1_388
10
4.2092018
20
5.9674898
11
4.4170216
21
5.0666361
0
LINE
8
DEFAULT_255_1_388
10
4.4170216
20
5.0666361
11
4.4423214
21
4.8931517
0
LINE
8
DEFAULT_255_1_388
10
4.4423214
20
4.8931517
11
4.4793676
21
5.0494684
0
LINE
8
DEFAULT_255_1_388
10
4.4793676
20
5.0494684
11
4.7395941
21
5.9674898
0
LINE
8
DEFAULT_255_1_388
10
4.7395941
20
5.9674898
11
4.8859716
21
5.9674898
0
LINE
8
DEFAULT_255_1_388
10
4.8859716
20
5.9674898
11
5.1398732
21
5.0494684
0
LINE
8
DEFAULT_255_1_388
10
5.1398732
20
5.0494684
11
5.1760158
21
4.890441
0
LINE
8
DEFAULT_255_1_388
10
5.1760158
20
4.890441
11
5.2040263
21
5.0675396
0
LINE
8
DEFAULT_255_1_388
10
5.2040263
20
5.0675396
11
5.4082318
21
5.9674898
0
LINE
8
DEFAULT_255_1_388
10
5.4082318
20
5.9674898
11
5.5826198
21
5.9674898
0
LINE
8
DEFAULT_255_1_388
10
5.5826198
20
5.9674898
11
5.2636615
21
4.6519
0
LINE
8
DEFAULT_255_1_388
10
5.2636615
20
4.6519
11
5.1055377
21
4.6519
0
LINE
8
DEFAULT_255_1_388
10
5.1055377
20
4.6519
11
4.8344684
21
5.6105819
0
LINE
8
DEFAULT_255_1_388
10
4.8344684
20
5.6105819
11
4.8136864
21
5.7108775
0
LINE
8
DEFAULT_255_1_388
10
4.8136864
20
5.7108775
11
4.7929044
21
5.6105819
0
LINE
8
DEFAULT_255_1_388
10
4.7929044
20
5.6105819
11
4.5118959
21
4.6519
0
LINE
8
DEFAULT_255_1_388
10
4.5118959
20
4.6519
11
4.3537721
21
4.6519
0
LINE
8
DEFAULT_255_1_388
10
4.3537721
20
4.6519
11
4.0357174
21
5.9674898
0
LINE
8
DEFAULT_255_1_388
10
4.0357174
20
5.9674898
11
4.2092018
21
5.9674898
0
LINE
8
DEFAULT_255_1_388
10
5.887121
20
5.9674898
11
6.2042721
21
5.4633009
0
LINE
8
DEFAULT_255_1_388
10
6.2042721
20
5.4633009
11
6.5196161
21
5.9674898
0
LINE
8
DEFAULT_255_1_388
10
6.5196161
20
5.9674898
11
6.7238217
21
5.9674898
0
LINE
8
DEFAULT_255_1_388
10
6.7238217
20
5.9674898
11
6.308182
21
5.3151163
0
LINE
8
DEFAULT_255_1_388
10
6.308182
20
5.3151163
11
6.7337609
21
4.6519
0
LINE
8
DEFAULT_255_1_388
10
6.7337609
20
4.6519
11
6.5277482
21
4.6519
0
LINE
8
DEFAULT_255_1_388
10
6.5277482
20
4.6519
11
6.2042721
21
5.1651246
0
LINE
8
DEFAULT_255_1_388
10
6.2042721
20
5.1651246
11
5.8789889
21
4.6519
0
LINE
8
DEFAULT_255_1_388
10
5.8789889
20
4.6519
11
5.6738798
21
4.6519
0
LINE
8
DEFAULT_255_1_388
10
5.6738798
20
4.6519
11
6.1003622
21
5.3151163
0
LINE
8
DEFAULT_255_1_388
10
6.1003622
20
5.3151163
11
5.683819
21
5.9674898
0
LINE
8
DEFAULT_255_1_388
10
5.683819
20
5.9674898
11
5.887121
21
5.9674898
0
LINE
8
DEFAULT_255_1_388
10
7.716839
20
5.429869
11
7.716839
21
5.2130135
0
LINE
8
DEFAULT_255_1_388
10
6.8864633
20
5.1904244
11
6.8864633
21
5.4136048
0
LINE
8
DEFAULT_255_1_388
10
7.5496796
20
5.1678353
11
7.5496796
21
5.4416153
0
LINE
8
DEFAULT_255_1_388
10
7.0536227
20
5.4542652
11
7.0536227
21
5.1868102
0
ARC
8
DEFAULT_255_1_388
10
6.3390724
20
5.2075118
40
1.3777776
50
353.8440855
51
0.2287917
0
ARC
8
DEFAULT_255_1_388
10
6.8609741
20
5.1492414
40
0.852639
50
344.4934746
51
353.9763743
0
ARC
8
DEFAULT_255_1_388
10
7.1976549
20
5.0535191
40
0.5026273
50
329.2803599
51
344.7473406
0
ARC
8
DEFAULT_255_1_388
10
7.3092044
20
4.9923038
40
0.3754848
50
324.9361395
51
328.6153007
0
ARC
8
DEFAULT_255_1_388
10
7.3517694
20
4.9625586
40
0.3235566
50
280.5801797
51
324.9173226
0
ARC
8
DEFAULT_255_1_388
10
7.3066323
20
5.1505236
40
0.5167077
50
269.5979457
51
281.6732777
0
ARC
8
DEFAULT_255_1_388
10
7.2985226
20
5.1370113
40
0.5032026
50
256.6228565
51
270.5105488
0
ARC
8
DEFAULT_255_1_388
10
7.2532969
20
4.9628345
40
0.3233092
50
215.8618351
51
257.2787793
0
ARC
8
DEFAULT_255_1_388
10
7.3681676
20
5.0399106
40
0.4615831
50
197.9695203
51
215.2622745
0
ARC
8
DEFAULT_255_1_388
10
7.6477352
20
5.1342641
40
0.7566307
50
187.8816486
51
198.2346584
0
ARC
8
DEFAULT_255_1_388
10
8.093059
20
5.1985453
40
1.2065653
50
180.8977266
51
188.0054894
0
ARC
8
DEFAULT_255_1_388
10
8.3980804
20
5.21004
40
1.5117443
50
180.7434591
51
181.152202
0
ARC
8
DEFAULT_255_1_388
10
8.23058
20
5.4190371
40
1.3441277
50
173.7674302
51
180.2315596
0
ARC
8
DEFAULT_255_1_388
10
7.7223669
20
5.4764779
40
0.8326847
50
164.3058537
51
173.9000553
0
ARC
8
DEFAULT_255_1_388
10
7.3947669
20
5.5708652
40
0.4917711
50
148.7922028
51
164.5682288
0
ARC
8
DEFAULT_255_1_388
10
7.2878406
20
5.6305457
40
0.3694204
50
144.5883979
51
148.1161588
0
ARC
8
DEFAULT_255_1_388
10
7.2491151
20
5.6575667
40
0.322202
50
101.6440149
51
144.5142619
0
ARC
8
DEFAULT_255_1_388
10
7.2969344
20
5.4675337
40
0.5180451
50
89.528284
51
102.5820197
0
ARC
8
DEFAULT_255_1_388
10
7.3058335
20
5.4631376
40
0.5224441
50
77.0437914
51
90.508231
0
ARC
8
DEFAULT_255_1_388
10
7.3510589
20
5.6479272
40
0.3322297
50
48.2777708
51
77.4996087
0
ARC
8
DEFAULT_255_1_388
10
7.3592329
20
5.6624557
40
0.315966
50
36.3141586
51
47.6307332
0
ARC
8
DEFAULT_255_1_388
10
7.2615051
20
5.5966159
40
0.4337313
50
18.2931065
51
35.6770203
0
ARC
8
DEFAULT_255_1_388
10
6.9753892
20
5.4984107
40
0.7362203
50
8.0246996
51
18.5605636
0
ARC
8
DEFAULT_255_1_388
10
6.5070248
20
5.4292432
40
1.2096583
50
1.127539
51
8.1718423
0
ARC
8
DEFAULT_255_1_388
10
6.1421381
20
5.4149374
40
1.5747719
50
0.5432713
51
1.38669
0
ARC
8
DEFAULT_255_1_388
10
6.347876
20
5.4456163
40
1.2018103
50
359.8092569
51
4.9408001
0
ARC
8
DEFAULT_255_1_388
10
6.8215341
20
5.48789
40
0.7262727
50
4.8364937
51
12.2906017
0
ARC
8
DEFAULT_255_1_388
10
7.1314806
20
5.5569485
40
0.4087324
50
12.0806994
51
23.8171225
0
ARC
8
DEFAULT_255_1_388
10
7.2635202
20
5.6128508
40
0.2653719
50
24.2874621
51
31.3934353
0
ARC
8
DEFAULT_255_1_388
10
7.3225638
20
5.6514822
40
0.1948607
50
30.7407708
51
82.4658033
0
ARC
8
DEFAULT_255_1_388
10
7.3023299
20
5.5521017
40
0.2961198
50
81.1057101
51
90.2187368
0
ARC
8
DEFAULT_255_1_388
10
7.298311
20
5.5811421
40
0.2670929
50
89.380395
51
105.6763916
0
ARC
8
DEFAULT_255_1_388
10
7.2776832
20
5.656132
40
0.1893189
50
105.7980655
51
149.7387869
0
ARC
8
DEFAULT_255_1_388
10
7.3973972
20
5.5841719
40
0.3289892
50
149.4208441
51
163.628295
0
ARC
8
DEFAULT_255_1_388
10
7.6326202
20
5.5124345
40
0.5749004
50
163.3764549
51
172.141138
0
ARC
8
DEFAULT_255_1_388
10
8.0038924
20
5.4592582
40
0.9499585
50
172.0258462
51
178.0705453
0
ARC
8
DEFAULT_255_1_388
10
8.3460476
20
5.4430682
40
1.2924734
50
177.8639301
51
179.5036263
0
ARC
8
DEFAULT_255_1_388
10
8.2241495
20
5.1827151
40
1.170534
50
179.7995545
51
185.246089
0
ARC
8
DEFAULT_255_1_388
10
7.7693088
20
5.1396404
40
0.7136613
50
185.1411911
51
193.0082205
0
ARC
8
DEFAULT_255_1_388
10
7.4719349
20
5.0693441
40
0.4080987
50
192.7897338
51
205.2507384
0
ARC
8
DEFAULT_255_1_388
10
7.3541559
20
5.0167538
40
0.2791522
50
205.8001921
51
211.2545876
0
ARC
8
DEFAULT_255_1_388
10
7.2953098
20
4.9773132
40
0.2084074
50
210.3789935
51
238.4007996
0
ARC
8
DEFAULT_255_1_388
10
7.2931184
20
4.9825786
40
0.2117943
50
239.6521916
51
265.9793852
0
ARC
8
DEFAULT_255_1_388
10
7.3027033
20
5.0582358
40
0.2879689
50
265.1324455
51
270.0603288
0
ARC
8
DEFAULT_255_1_388
10
7.305941
20
5.0217418
40
0.2514919
50
269.3314378
51
287.2180039
0
ARC
8
DEFAULT_255_1_388
10
7.3214492
20
4.9651291
40
0.1928357
50
287.7957942
51
329.0808983
0
ARC
8
DEFAULT_255_1_388
10
7.2137249
20
5.0323651
40
0.319808
50
328.6635261
51
343.3325043
0
ARC
8
DEFAULT_255_1_388
10
6.9692708
20
5.1085195
40
0.5758408
50
343.0498092
51
351.9392499
0
ARC
8
DEFAULT_255_1_388
10
6.5792029
20
5.1660205
40
0.9701202
50
351.8071632
51
357.7957897
0
ARC
8
DEFAULT_255_1_388
10
6.2157506
20
5.1848724
40
1.3340376
50
357.5870923
51
359.2682493
0
LINE
8
DEFAULT_255_1_388
10
4.5529985
20
13.9113148
11
4.5529985
21
12.5894
0
LINE
8
DEFAULT_255_1_388
10
4.5529985
20
12.5894
11
4.3849355
21
12.5894
0
LINE
8
DEFAULT_255_1_388
10
4.3849355
20
12.5894
11
4.3849355
21
13.703495
0
LINE
8
DEFAULT_255_1_388
10
4.3849355
20
13.703495
11
4.047906
21
13.5797066
0
LINE
8
DEFAULT_255_1_388
10
4.047906
20
13.5797066
11
4.047906
21
13.7315055
0
LINE
8
DEFAULT_255_1_388
10
4.047906
20
13.7315055
11
4.5267951
21
13.9113148
0
LINE
8
DEFAULT_255_1_388
10
4.5267951
20
13.9113148
11
4.5529985
21
13.9113148
0
LINE
8
DEFAULT_255_1_388
10
5.8794311
20
13.0068468
11
6.053819
21
13.0068468
0
LINE
8
DEFAULT_255_1_388
10
5.0409233
20
13.1857525
11
5.0409233
21
13.3122516
0
LINE
8
DEFAULT_255_1_388
10
6.053819
20
13.4821217
11
5.8794311
21
13.4821217
0
LINE
8
DEFAULT_255_1_388
10
5.2153112
20
13.3077337
11
5.2153112
21
13.1803312
0
ARC
8
DEFAULT_255_1_388
10
5.4372424
20
13.0740329
40
0.6202263
50
340.1774904
51
353.7812217
0
ARC
8
DEFAULT_255_1_388
10
5.6140277
20
13.0081893
40
0.4315926
50
311.4560052
51
340.4420756
0
ARC
8
DEFAULT_255_1_388
10
5.6102817
20
13.0206665
40
0.4434573
50
282.4332229
51
310.7514507
0
ARC
8
DEFAULT_255_1_388
10
5.5608635
20
13.2248703
40
0.6535262
50
269.9358869
51
282.8096729
0
ARC
8
DEFAULT_255_1_388
10
5.5550574
20
13.3761329
40
0.8048043
50
269.9995752
51
270.3612856
0
ARC
8
DEFAULT_255_1_388
10
5.5491064
20
13.0962781
40
0.5249831
50
250.7885263
51
270.6488451
0
ARC
8
DEFAULT_255_1_388
10
5.5301889
20
13.0245853
40
0.4510942
50
219.3628377
51
250.0611024
0
ARC
8
DEFAULT_255_1_388
10
5.6234763
20
13.1038653
40
0.5735046
50
193.5480293
51
219.5755675
0
ARC
8
DEFAULT_255_1_388
10
5.8902972
20
13.173152
40
0.849146
50
181.1220183
51
193.8754971
0
ARC
8
DEFAULT_255_1_388
10
6.1226206
20
13.1855914
40
1.0816971
50
179.9914644
51
181.5398227
0
ARC
8
DEFAULT_255_1_388
10
5.9149516
20
13.3164586
40
0.8740384
50
169.5837606
51
180.275782
0
ARC
8
DEFAULT_255_1_388
10
5.7082864
20
13.3546439
40
0.6638751
50
155.0367033
51
169.6002779
0
ARC
8
DEFAULT_255_1_388
10
5.5805322
20
13.4162336
40
0.5220662
50
136.7831557
51
155.2472983
0
ARC
8
DEFAULT_255_1_388
10
5.5367113
20
13.4534577
40
0.4646502
50
121.7633063
51
136.4281161
0
ARC
8
DEFAULT_255_1_388
10
5.5518953
20
13.4254049
40
0.4964979
50
95.6460018
51
121.5489589
0
ARC
8
DEFAULT_255_1_388
10
5.5695927
20
13.3006704
40
0.6223912
50
89.9245727
51
96.1375919
0
ARC
8
DEFAULT_255_1_388
10
5.5752632
20
13.3140721
40
0.6090084
50
76.6779212
51
90.456405
0
ARC
8
DEFAULT_255_1_388
10
5.6195445
20
13.493006
40
0.42469
50
47.4858803
51
76.9287069
0
ARC
8
DEFAULT_255_1_388
10
5.6030059
20
13.4817623
40
0.4441778
50
16.5424081
51
46.8934505
0
ARC
8
DEFAULT_255_1_388
10
5.4221109
20
13.4223265
40
0.6345318
50
5.4072971
51
17.0363711
0
ARC
8
DEFAULT_255_1_388
10
5.2602834
20
13.3963304
40
0.6250632
50
7.8888693
51
15.9242022
0
ARC
8
DEFAULT_255_1_388
10
5.4837819
20
13.4612309
40
0.3923364
50
15.7650676
51
27.9410069
0
ARC
8
DEFAULT_255_1_388
10
5.6079989
20
13.5277317
40
0.2514401
50
27.8167196
51
46.4007942
0
ARC
8
DEFAULT_255_1_388
10
5.613583
20
13.5270882
40
0.2480958
50
47.4372362
51
75.0695672
0
ARC
8
DEFAULT_255_1_388
10
5.5788666
20
13.4062277
40
0.3738281
50
74.7009379
51
87.8124314
0
ARC
8
DEFAULT_255_1_388
10
5.5706283
20
13.2878659
40
0.4924321
50
87.3802571
51
90.0251599
0
ARC
8
DEFAULT_255_1_388
10
5.566293
20
13.4198997
40
0.3604218
50
89.3451886
51
108.5744412
0
ARC
8
DEFAULT_255_1_388
10
5.5508922
20
13.4776836
40
0.3007661
50
109.2998307
51
143.3037387
0
ARC
8
DEFAULT_255_1_388
10
5.6366212
20
13.4117584
40
0.4089031
50
143.075267
51
163.1918576
0
ARC
8
DEFAULT_255_1_388
10
5.8562047
20
13.3424652
40
0.6391492
50
162.9375929
51
174.6208776
0
ARC
8
DEFAULT_255_1_388
10
6.1516428
20
13.3100711
40
0.9363344
50
174.342123
51
180.1430283
0
ARC
8
DEFAULT_255_1_388
10
6.046897
20
13.1757117
40
0.8315986
50
179.6817261
51
189.150555
0
ARC
8
DEFAULT_255_1_388
10
5.7655719
20
13.1288559
40
0.5464044
50
188.9911061
51
203.5772363
0
ARC
8
DEFAULT_255_1_388
10
5.644101
20
13.0784539
40
0.4149206
50
203.9075402
51
215.1312435
0
ARC
8
DEFAULT_255_1_388
10
5.5402808
20
12.9979907
40
0.2837747
50
213.9071511
51
263.8848919
0
ARC
8
DEFAULT_255_1_388
10
5.5543801
20
13.0862519
40
0.3730641
50
263.1757928
51
270.1031044
0
ARC
8
DEFAULT_255_1_388
10
5.5579881
20
13.2265511
40
0.5133712
50
269.6722503
51
279.0606936
0
ARC
8
DEFAULT_255_1_388
10
5.5880036
20
13.045115
40
0.3294739
50
278.8749101
51
293.6349581
0
ARC
8
DEFAULT_255_1_388
10
5.624024
20
12.9605251
40
0.2375405
50
293.8553806
51
310.0518171
0
ARC
8
DEFAULT_255_1_388
10
5.6245749
20
12.9535021
40
0.2318463
50
311.0644687
51
332.0111037
0
ARC
8
DEFAULT_255_1_388
10
5.4904422
20
13.0274702
40
0.3850112
50
331.6586806
51
343.2877423
0
ARC
8
DEFAULT_255_1_388
10
5.2583888
20
13.0987806
40
0.6277712
50
343.1446576
51
351.0103568
0
ARC
8
DEFAULT_255_1_388
10
5.0951211
20
13.1287873
40
0.7937327
50
350.71248
51
351.1626997
0
LINE
8
DEFAULT_255_1_388
10
4.2437444
20
21.8424898
11
4.5608955
21
21.3383009
0
LINE
8
DEFAULT_255_1_388
10
4.5608955
20
21.3383009
11
4.8762395
21
21.8424898
0
LINE
8
DEFAULT_255_1_388
10
4.8762395
20
21.8424898
11
5.0804451
21
21.8424898
0
LINE
8
DEFAULT_255_1_388
10
5.0804451
20
21.8424898
11
4.6648054
21
21.1901163
0
LINE
8
DEFAULT_255_1_388
10
4.6648054
20
21.1901163
11
5.0903843
21
20.5269
0
LINE
8
DEFAULT_255_1_388
10
5.0903843
20
20.5269
11
4.8843716
21
20.5269
0
LINE
8
DEFAULT_255_1_388
10
4.8843716
20
20.5269
11
4.5608955
21
21.0401246
0
LINE
8
DEFAULT_255_1_388
10
4.5608955
20
21.0401246
11
4.2356123
21
20.5269
0
LINE
8
DEFAULT_255_1_388
10
4.2356123
20
20.5269
11
4.0305032
21
20.5269
0
LINE
8
DEFAULT_255_1_388
10
4.0305032
20
20.5269
11
4.4569856
21
21.1901163
0
LINE
8
DEFAULT_255_1_388
10
4.4569856
20
21.1901163
11
4.0404424
21
21.8424898
0
LINE
8
DEFAULT_255_1_388
10
4.0404424
20
21.8424898
11
4.2437444
21
21.8424898
0
LINE
8
DEFAULT_255_1_388
10
6.0571982
20
21.3166153
11
6.0571982
21
21.2678229
0
LINE
8
DEFAULT_255_1_388
10
5.4472922
20
20.5259964
11
5.4147639
21
20.5259964
0
LINE
8
DEFAULT_255_1_388
10
5.4147639
20
20.5259964
11
5.4147639
21
20.6669525
0
LINE
8
DEFAULT_255_1_388
10
5.4147639
20
20.6669525
11
5.4500029
21
20.6669525
0
LINE
8
DEFAULT_255_1_388
10
5.8900388
20
21.284087
11
5.8900388
21
21.3509508
0
ARC
8
DEFAULT_255_1_388
10
5.575748
20
21.3679877
40
0.4089973
50
297.4036461
51
320.0168133
0
ARC
8
DEFAULT_255_1_388
10
5.608366
20
21.3053072
40
0.3383378
50
270.2631886
51
297.3852322
0
ARC
8
DEFAULT_255_1_388
10
5.6045336
20
21.3590343
40
0.3920983
50
269.9969069
51
270.7871389
0
ARC
8
DEFAULT_255_1_388
10
5.601666
20
21.3572737
40
0.3903482
50
254.5997295
51
270.4178147
0
ARC
8
DEFAULT_255_1_388
10
5.5856191
20
21.2937693
40
0.3248657
50
236.4717231
51
254.3539376
0
ARC
8
DEFAULT_255_1_388
10
5.6031923
20
21.3173999
40
0.3542746
50
208.4727261
51
236.2134628
0
ARC
8
DEFAULT_255_1_388
10
5.6750686
20
21.3613676
40
0.4384402
50
204.3450776
51
209.0455365
0
ARC
8
DEFAULT_255_1_388
10
5.7515062
20
21.39378
40
0.5214459
50
183.9375459
51
204.1275509
0
ARC
8
DEFAULT_255_1_388
10
5.8537368
20
21.4047863
40
0.6242037
50
179.9652726
51
184.3010611
0
ARC
8
DEFAULT_255_1_388
10
5.8266914
20
21.4085004
40
0.5971675
50
166.7585952
51
180.3200491
0
ARC
8
DEFAULT_255_1_388
10
5.7314722
20
21.4291979
40
0.4997418
50
154.6954866
51
166.5679151
0
ARC
8
DEFAULT_255_1_388
10
5.6354962
20
21.4775411
40
0.3923208
50
136.3325251
51
155.0871367
0
ARC
8
DEFAULT_255_1_388
10
5.6038881
20
21.5046271
40
0.3507618
50
121.2365985
51
135.9680081
0
ARC
8
DEFAULT_255_1_388
10
5.6196946
20
21.4753541
40
0.3839917
50
96.8454764
51
120.9881329
0
ARC
8
DEFAULT_255_1_388
10
5.6360752
20
21.3700942
40
0.4904679
50
89.887204
51
97.2797758
0
ARC
8
DEFAULT_255_1_388
10
5.6419725
20
21.4418652
40
0.418725
50
70.6505767
51
90.6748382
0
ARC
8
DEFAULT_255_1_388
10
5.6567422
20
21.4996091
40
0.3593866
50
36.7493297
51
69.8220487
0
ARC
8
DEFAULT_255_1_388
10
5.5443769
20
21.4120446
40
0.5018201
50
15.3958155
51
37.0841102
0
ARC
8
DEFAULT_255_1_388
10
5.3048053
20
21.3422111
40
0.7513436
50
3.9487796
51
15.6798517
0
ARC
8
DEFAULT_255_1_388
10
5.0346696
20
21.317881
40
1.0225293
50
359.9290791
51
4.266464
0
ARC
8
DEFAULT_255_1_388
10
4.5165613
20
21.2603372
40
1.5406551
50
352.8365702
51
0.2783851
0
ARC
8
DEFAULT_255_1_388
10
5.1113844
20
21.1830664
40
0.9408425
50
341.8359339
51
352.9884057
0
ARC
8
DEFAULT_255_1_388
10
5.4734831
20
21.0610144
40
0.5587481
50
322.8579243
51
342.1527461
0
ARC
8
DEFAULT_255_1_388
10
5.5706523
20
20.994735
40
0.4413099
50
319.3348471
51
322.100194
0
ARC
8
DEFAULT_255_1_388
10
5.5358454
20
21.0296814
40
0.4904992
50
285.954114
51
318.8878716
0
ARC
8
DEFAULT_255_1_388
10
5.4540891
20
21.2895865
40
0.7628991
50
272.9280841
51
286.4924389
0
ARC
8
DEFAULT_255_1_388
10
5.4327196
20
21.543024
40
1.017132
50
270.8209173
51
273.4010121
0
ARC
8
DEFAULT_255_1_388
10
5.4427219
20
21.3382073
40
0.6712943
50
270.6214576
51
281.4062333
0
ARC
8
DEFAULT_255_1_388
10
5.4910943
20
21.106925
40
0.4350167
50
281.1852583
51
299.0622058
0
ARC
8
DEFAULT_255_1_388
10
5.5331188
20
21.0258138
40
0.3437146
50
299.5068171
51
313.1200142
0
ARC
8
DEFAULT_255_1_388
10
5.5355926
20
21.0168959
40
0.3355418
50
313.8525725
51
338.5989631
0
ARC
8
DEFAULT_255_1_388
10
5.3529054
20
21.0919576
40
0.5330317
50
338.2523315
51
351.2431701
0
ARC
8
DEFAULT_255_1_388
10
5.0816805
20
21.1380494
40
0.8081235
50
350.940933
51
357.6690137
0
ARC
8
DEFAULT_255_1_388
10
5.6318685
20
21.3633048
40
0.2581236
50
269.9447107
51
306.8249644
0
ARC
8
DEFAULT_255_1_388
10
5.6051987
20
21.410906
40
0.3122948
50
305.5071046
51
327.0773808
0
ARC
8
DEFAULT_255_1_388
10
5.6185038
20
21.4002445
40
0.2953369
50
327.4106457
51
336.8396801
0
ARC
8
DEFAULT_255_1_388
10
5.2704752
20
21.3545932
40
0.6195743
50
359.663158
51
10.1176387
0
ARC
8
DEFAULT_255_1_388
10
5.4677515
20
21.3910922
40
0.4189561
50
9.9431549
51
26.7699242
0
ARC
8
DEFAULT_255_1_388
10
5.5349501
20
21.4220796
40
0.3450125
50
27.2018067
51
34.6833639
0
ARC
8
DEFAULT_255_1_388
10
5.5900114
20
21.463456
40
0.2762035
50
34.124913
51
50.30709
0
ARC
8
DEFAULT_255_1_388
10
5.6402596
20
21.5235741
40
0.1978518
50
50.3850304
51
90.6705051
0
ARC
8
DEFAULT_255_1_388
10
5.634999
20
21.4893074
40
0.2321235
50
89.2729817
51
111.9140267
0
ARC
8
DEFAULT_255_1_388
10
5.6328078
20
21.5051308
40
0.2166604
50
112.9381864
51
142.5320936
0
ARC
8
DEFAULT_255_1_388
10
5.6942567
20
21.4552392
40
0.2957902
50
142.1024021
51
166.3835244
0
ARC
8
DEFAULT_255_1_388
10
5.8271536
20
21.4209213
40
0.4330361
50
166.1100968
51
178.6653563
0
ARC
8
DEFAULT_255_1_388
10
5.9453462
20
21.4143061
40
0.5513642
50
178.2641888
51
180.010994
0
ARC
8
DEFAULT_255_1_388
10
5.8547964
20
21.4111136
40
0.4608248
50
179.6162225
51
191.8786013
0
ARC
8
DEFAULT_255_1_388
10
5.7175274
20
21.380759
40
0.3202502
50
191.6192934
51
215.2970746
0
ARC
8
DEFAULT_255_1_388
10
5.6935929
20
21.3664963
40
0.2924827
50
215.7258926
51
216.5355437
0
ARC
8
DEFAULT_255_1_388
10
5.6347549
20
21.3191919
40
0.2170661
50
215.7486606
51
239.9728403
0
ARC
8
DEFAULT_255_1_388
10
5.6268715
20
21.3134838
40
0.208217
50
241.065081
51
269.280972
0
ARC
8
DEFAULT_255_1_388
10
5.6315873
20
21.3690327
40
0.2638514
50
268.4083352
51
270.0069622
0
LINE
8
DEFAULT_255_1_388
10
4.2437444
20
29.7799898
11
4.5608955
21
29.2758009
0
LINE
8
DEFAULT_255_1_388
10
4.5608955
20
29.2758009
11
4.8762395
21
29.7799898
0
LINE
8
DEFAULT_255_1_388
10
4.8762395
20
29.7799898
11
5.0804451
21
29.7799898
0
LINE
8
DEFAULT_255_1_388
10
5.0804451
20
29.7799898
11
4.6648054
21
29.1276163
0
LINE
8
DEFAULT_255_1_388
10
4.6648054
20
29.1276163
11
5.0903843
21
28.4644
0
LINE
8
DEFAULT_255_1_388
10
5.0903843
20
28.4644
11
4.8843716
21
28.4644
0
LINE
8
DEFAULT_255_1_388
10
4.8843716
20
28.4644
11
4.5608955
21
28.9776246
0
LINE
8
DEFAULT_255_1_388
10
4.5608955
20
28.9776246
11
4.2356123
21
28.4644
0
LINE
8
DEFAULT_255_1_388
10
4.2356123
20
28.4644
11
4.0305032
21
28.4644
0
LINE
8
DEFAULT_255_1_388
10
4.0305032
20
28.4644
11
4.4569856
21
29.1276163
0
LINE
8
DEFAULT_255_1_388
10
4.4569856
20
29.1276163
11
4.0404424
21
29.7799898
0
LINE
8
DEFAULT_255_1_388
10
4.0404424
20
29.7799898
11
4.2437444
21
29.7799898
0
ARC
8
DEFAULT_255_1_388
10
5.7288586
20
29.433772
40
0.3175098
50
338.8762533
51
0.5167111
0
ARC
8
DEFAULT_255_1_388
10
5.747818
20
29.42866
40
0.2979894
50
325.8415285
51
338.4793574
0
ARC
8
DEFAULT_255_1_388
10
5.7038813
20
29.4591242
40
0.351452
50
296.7587686
51
325.7536481
0
ARC
8
DEFAULT_255_1_388
10
5.6710441
20
29.5145363
40
0.4157374
50
296.0927901
51
297.3613472
0
ARC
8
DEFAULT_255_1_388
10
5.7004636
20
28.7762593
40
0.395855
50
47.9007294
51
67.1948823
0
ARC
8
DEFAULT_255_1_388
10
5.7225279
20
28.8039599
40
0.360516
50
35.2363914
51
47.551141
0
ARC
8
DEFAULT_255_1_388
10
5.7519682
20
28.8236093
40
0.3251343
50
359.2759765
51
35.4014143
0
ARC
8
DEFAULT_255_1_388
10
5.6681609
20
28.8153787
40
0.4089365
50
343.1293083
51
0.5775513
0
ARC
8
DEFAULT_255_1_388
10
5.7496722
20
28.7929336
40
0.3244269
50
310.8496669
51
342.7449331
0
ARC
8
DEFAULT_255_1_388
10
5.7026597
20
28.8465913
40
0.3957651
50
281.5472888
51
310.9170406
0
ARC
8
DEFAULT_255_1_388
10
5.6625472
20
29.0212814
40
0.5749654
50
269.619248
51
281.9789564
0
ARC
8
DEFAULT_255_1_388
10
5.6544249
20
29.0213776
40
0.5750649
50
257.4585678
51
270.4285689
0
ARC
8
DEFAULT_255_1_388
10
5.6115769
20
28.8409741
40
0.389671
50
228.7554326
51
257.8484789
0
ARC
8
DEFAULT_255_1_388
10
5.5767255
20
28.7990228
40
0.335154
50
184.0104975
51
228.5071184
0
ARC
8
DEFAULT_255_1_388
10
5.7075647
20
28.818943
40
0.4671891
50
179.9315832
51
185.3253753
0
ARC
8
DEFAULT_255_1_388
10
5.575216
20
28.8231592
40
0.33486
50
145.6796023
51
180.6259786
0
ARC
8
DEFAULT_255_1_388
10
5.5935926
20
28.8103271
40
0.3572723
50
115.5537685
51
145.6415986
0
ARC
8
DEFAULT_255_1_388
10
5.631897
20
28.7417087
40
0.4357296
50
113.243307
51
116.2057839
0
ARC
8
DEFAULT_255_1_388
10
5.6147621
20
29.4614379
40
0.3549126
50
222.9549744
51
244.1370481
0
ARC
8
DEFAULT_255_1_388
10
5.6010265
20
29.4460378
40
0.3343711
50
213.3436887
51
222.6274467
0
ARC
8
DEFAULT_255_1_388
10
5.5794334
20
29.4313653
40
0.3082678
50
180.431584
51
213.271499
0
ARC
8
DEFAULT_255_1_388
10
5.6429333
20
29.4366296
40
0.3718363
50
179.9991191
51
181.1690594
0
ARC
8
DEFAULT_255_1_388
10
5.6901789
20
29.4405072
40
0.4190996
50
164.6186169
51
180.529336
0
ARC
8
DEFAULT_255_1_388
10
5.5891438
20
29.467678
40
0.3144772
50
132.2455553
51
164.5090724
0
ARC
8
DEFAULT_255_1_388
10
5.6214416
20
29.431107
40
0.3632644
50
100.7053914
51
132.1386381
0
ARC
8
DEFAULT_255_1_388
10
5.6557477
20
29.2761118
40
0.5219578
50
89.6730358
51
101.2451698
0
ARC
8
DEFAULT_255_1_388
10
5.6627468
20
29.2957648
40
0.5023124
50
76.287748
51
90.4586006
0
ARC
8
DEFAULT_255_1_388
10
5.697197
20
29.4332671
40
0.3605639
50
47.8240511
51
76.4266241
0
ARC
8
DEFAULT_255_1_388
10
5.7222355
20
29.4625599
40
0.3220463
50
6.9168387
51
47.6262497
0
ARC
8
DEFAULT_255_1_388
10
5.5887808
20
29.4379004
40
0.4575765
50
359.8415968
51
7.9697453
0
ARC
8
DEFAULT_255_1_388
10
5.6272077
20
28.8258519
40
0.2827228
50
359.445363
51
16.9256873
0
ARC
8
DEFAULT_255_1_388
10
5.6799511
20
28.8403781
40
0.2280396
50
17.2920767
51
45.4630727
0
ARC
8
DEFAULT_255_1_388
10
5.6738647
20
28.8351324
40
0.2360485
50
45.30305
51
83.1920945
0
ARC
8
DEFAULT_255_1_388
10
5.6577391
20
28.7449473
40
0.3275527
50
82.2612665
51
90.1434275
0
ARC
8
DEFAULT_255_1_388
10
5.6542668
20
28.7711869
40
0.3013237
50
89.4956434
51
104.8580688
0
ARC
8
DEFAULT_255_1_388
10
5.6343857
20
28.8465455
40
0.2233867
50
104.8856641
51
135.244616
0
ARC
8
DEFAULT_255_1_388
10
5.6399846
20
28.8415352
40
0.2308906
50
135.3399546
51
172.1044062
0
ARC
8
DEFAULT_255_1_388
10
5.7307371
20
28.8241667
40
0.3232034
50
171.2645637
51
180.186429
0
ARC
8
DEFAULT_255_1_388
10
5.7117375
20
28.8205426
40
0.304213
50
179.5154935
51
193.6464289
0
ARC
8
DEFAULT_255_1_388
10
5.6199051
20
28.7971473
40
0.209456
50
193.3540274
51
225.8258581
0
ARC
8
DEFAULT_255_1_388
10
5.6244924
20
28.8051076
40
0.2183738
50
226.4180634
51
255.8552336
0
ARC
8
DEFAULT_255_1_388
10
5.653339
20
28.9104521
40
0.3275812
50
255.4654104
51
268.7987425
0
ARC
8
DEFAULT_255_1_388
10
5.6586567
20
29.0046545
40
0.4218877
50
268.3449238
51
270.0094605
0
ARC
8
DEFAULT_255_1_388
10
5.66128
20
28.9278094
40
0.3450519
50
269.5759586
51
282.0820163
0
ARC
8
DEFAULT_255_1_388
10
5.6865836
20
28.8159363
40
0.2303642
50
281.752014
51
306.6056188
0
ARC
8
DEFAULT_255_1_388
10
5.6976644
20
28.7977802
40
0.2091906
50
307.1346085
51
314.027845
0
ARC
8
DEFAULT_255_1_388
10
5.6936156
20
28.8007459
40
0.2141385
50
314.2552483
51
350.1694025
0
ARC
8
DEFAULT_255_1_388
10
5.5978393
20
28.8215175
40
0.312082
50
349.4140529
51
0.2933014
0
ARC
8
DEFAULT_255_1_388
10
5.656367
20
29.4018924
40
0.2588377
50
89.477747
51
105.729729
0
ARC
8
DEFAULT_255_1_388
10
5.641059
20
29.4587367
40
0.1999733
50
105.9233417
51
135.1660906
0
ARC
8
DEFAULT_255_1_388
10
5.6433621
20
29.4571412
40
0.2027322
50
135.3052302
51
168.9883645
0
ARC
8
DEFAULT_255_1_388
10
5.7364638
20
29.4357996
40
0.2982129
50
168.3801673
51
180.3602268
0
ARC
8
DEFAULT_255_1_388
10
5.7107754
20
29.4315622
40
0.2725291
50
179.5033122
51
194.9125571
0
ARC
8
DEFAULT_255_1_388
10
5.6449161
20
29.4142427
40
0.204431
50
194.9720816
51
224.194444
0
ARC
8
DEFAULT_255_1_388
10
5.6417527
20
29.4116635
40
0.2003651
50
224.2962453
51
262.015664
0
ARC
8
DEFAULT_255_1_388
10
5.657753
20
29.4939315
40
0.2840925
50
261.1245923
51
270.1962896
0
ARC
8
DEFAULT_255_1_388
10
5.6611012
20
29.4728859
40
0.2630559
50
269.4827276
51
285.0987215
0
ARC
8
DEFAULT_255_1_388
10
5.6784448
20
29.4078175
40
0.1957162
50
285.1585357
51
315.9484501
0
ARC
8
DEFAULT_255_1_388
10
5.6684322
20
29.4170315
40
0.2093195
50
316.0413965
51
351.916092
0
ARC
8
DEFAULT_255_1_388
10
5.5859696
20
29.4329323
40
0.2932279
50
351.105835
51
0.1939062
0
ARC
8
DEFAULT_255_1_388
10
5.615533
20
29.4363224
40
0.2636739
50
359.4789618
51
16.0678224
0
ARC
8
DEFAULT_255_1_388
10
5.6690802
20
29.4507721
40
0.2082215
50
16.3252067
51
44.7913869
0
ARC
8
DEFAULT_255_1_388
10
5.6670864
20
29.450832
40
0.2095992
50
44.3957814
51
88.2499162
0
ARC
8
DEFAULT_255_1_388
10
5.6588198
20
29.3820006
40
0.2787189
50
86.9833854
51
90.0192215
0
LINE
8
DEFAULT_255_1_388
10
4.2437444
20
37.7174898
11
4.5608955
21
37.2133009
0
LINE
8
DEFAULT_255_1_388
10
4.5608955
20
37.2133009
11
4.8762395
21
37.7174898
0
LINE
8
DEFAULT_255_1_388
10
4.8762395
20
37.7174898
11
5.0804451
21
37.7174898
0
LINE
8
DEFAULT_255_1_388
10
5.0804451
20
37.7174898
11
4.6648054
21
37.0651163
0
LINE
8
DEFAULT_255_1_388
10
4.6648054
20
37.0651163
11
5.0903843
21
36.4019
0
LINE
8
DEFAULT_255_1_388
10
5.0903843
20
36.4019
11
4.8843716
21
36.4019
0
LINE
8
DEFAULT_255_1_388
10
4.8843716
20
36.4019
11
4.5608955
21
36.9151246
0
LINE
8
DEFAULT_255_1_388
10
4.5608955
20
36.9151246
11
4.2356123
21
36.4019
0
LINE
8
DEFAULT_255_1_388
10
4.2356123
20
36.4019
11
4.0305032
21
36.4019
0
LINE
8
DEFAULT_255_1_388
10
4.0305032
20
36.4019
11
4.4569856
21
37.0651163
0
LINE
8
DEFAULT_255_1_388
10
4.4569856
20
37.0651163
11
4.0404424
21
37.7174898
0
LINE
8
DEFAULT_255_1_388
10
4.0404424
20
37.7174898
11
4.2437444
21
37.7174898
0
LINE
8
DEFAULT_255_1_388
10
6.0978586
20
37.7174898
11
6.0978586
21
37.6235191
0
LINE
8
DEFAULT_255_1_388
10
6.0978586
20
37.6235191
11
5.5530093
21
36.4019
0
LINE
8
DEFAULT_255_1_388
10
5.5530093
20
36.4019
11
5.3777178
21
36.4019
0
LINE
8
DEFAULT_255_1_388
10
5.3777178
20
36.4019
11
5.92076
21
37.580148
0
LINE
8
DEFAULT_255_1_388
10
5.92076
20
37.580148
11
5.2087512
21
37.580148
0
LINE
8
DEFAULT_255_1_388
10
5.2087512
20
37.580148
11
5.2087512
21
37.7174898
0
LINE
8
DEFAULT_255_1_388
10
5.2087512
20
37.7174898
11
6.0978586
21
37.7174898
0
LINE
8
DEFAULT_255_1_388
10
4.2437444
20
45.6549898
11
4.5608955
21
45.1508009
0
LINE
8
DEFAULT_255_1_388
10
4.5608955
20
45.1508009
11
4.8762395
21
45.6549898
0
LINE
8
DEFAULT_255_1_388
10
4.8762395
20
45.6549898
11
5.0804451
21
45.6549898
0
LINE
8
DEFAULT_255_1_388
10
5.0804451
20
45.6549898
11
4.6648054
21
45.0026163
0
LINE
8
DEFAULT_255_1_388
10
4.6648054
20
45.0026163
11
5.0903843
21
44.3394
0
LINE
8
DEFAULT_255_1_388
10
5.0903843
20
44.3394
11
4.8843716
21
44.3394
0
LINE
8
DEFAULT_255_1_388
10
4.8843716
20
44.3394
11
4.5608955
21
44.8526246
0
LINE
8
DEFAULT_255_1_388
10
4.5608955
20
44.8526246
11
4.2356123
21
44.3394
0
LINE
8
DEFAULT_255_1_388
10
4.2356123
20
44.3394
11
4.0305032
21
44.3394
0
LINE
8
DEFAULT_255_1_388
10
4.0305032
20
44.3394
11
4.4569856
21
45.0026163
0
LINE
8
DEFAULT_255_1_388
10
4.4569856
20
45.0026163
11
4.0404424
21
45.6549898
0
LINE
8
DEFAULT_255_1_388
10
4.0404424
20
45.6549898
11
4.2437444
21
45.6549898
0
LINE
8
DEFAULT_255_1_388
10
5.8746782
20
45.6558934
11
5.9044958
21
45.6558934
0
LINE
8
DEFAULT_255_1_388
10
5.9044958
20
45.6558934
11
5.9044958
21
45.5140338
0
LINE
8
DEFAULT_255_1_388
10
5.9044958
20
45.5140338
11
5.8737747
21
45.5140338
0
LINE
8
DEFAULT_255_1_388
10
5.2584473
20
44.8399747
11
5.2584473
21
44.9041278
0
LINE
8
DEFAULT_255_1_388
10
5.4265103
20
44.8824422
11
5.4265103
21
44.8209999
0
ARC
8
DEFAULT_255_1_388
10
5.8796638
20
44.9517826
40
0.562282
50
90.6001079
51
104.5146616
0
ARC
8
DEFAULT_255_1_388
10
5.8359598
20
45.11431
40
0.3939917
50
104.2855758
51
133.8630124
0
ARC
8
DEFAULT_255_1_388
10
5.854385
20
45.1021243
40
0.4155734
50
134.5304124
51
161.6210222
0
ARC
8
DEFAULT_255_1_388
10
6.0403782
20
45.0365421
40
0.6127682
50
161.2850533
51
174.2074364
0
ARC
8
DEFAULT_255_1_388
10
6.1993349
20
45.0146437
40
0.7731446
50
173.7817938
51
174.9251711
0
ARC
8
DEFAULT_255_1_388
10
5.6867543
20
44.859127
40
0.3412588
50
95.8332067
51
138.995412
0
ARC
8
DEFAULT_255_1_388
10
5.7118823
20
44.7152695
40
0.4870358
50
89.8755506
51
97.0540979
0
ARC
8
DEFAULT_255_1_388
10
5.7172212
20
44.8092841
40
0.3930432
50
71.6407016
51
90.6240821
0
ARC
8
DEFAULT_255_1_388
10
5.7341606
20
44.8716433
40
0.3285421
50
39.6368051
51
71.0190743
0
ARC
8
DEFAULT_255_1_388
10
5.6625513
20
44.8097586
40
0.4231706
50
10.6588054
51
39.9044509
0
ARC
8
DEFAULT_255_1_388
10
5.4884059
20
44.7719223
40
0.60133
50
359.6827842
51
11.1326896
0
ARC
8
DEFAULT_255_1_388
10
5.4839395
20
44.7639715
40
0.6058047
50
347.2485908
51
0.4371098
0
ARC
8
DEFAULT_255_1_388
10
5.671518
20
44.7188379
40
0.4128987
50
318.1408565
51
347.6118497
0
ARC
8
DEFAULT_255_1_388
10
5.7080777
20
44.6887903
40
0.3656244
50
275.6342406
51
317.824739
0
ARC
8
DEFAULT_255_1_388
10
5.6832298
20
44.8349827
40
0.513655
50
269.8872513
51
276.7916069
0
ARC
8
DEFAULT_255_1_388
10
5.677049
20
44.7196181
40
0.398323
50
246.9139443
51
270.7436787
0
ARC
8
DEFAULT_255_1_388
10
5.6777686
20
44.7036044
40
0.3839368
50
218.1665534
51
245.8780431
0
ARC
8
DEFAULT_255_1_388
10
5.7767059
20
44.7863903
40
0.5128958
50
191.4115343
51
218.6077624
0
ARC
8
DEFAULT_255_1_388
10
5.9947375
20
44.8352777
40
0.7363054
50
179.6344971
51
191.7836758
0
ARC
8
DEFAULT_255_1_388
10
6.6227249
20
44.9116495
40
1.3642984
50
171.4523743
51
180.3158856
0
ARC
8
DEFAULT_255_1_388
10
6.1282976
20
44.9885895
40
0.8639311
50
157.9802296
51
171.6246761
0
ARC
8
DEFAULT_255_1_388
10
5.8792327
20
45.0879038
40
0.5958004
50
141.4299236
51
157.8541251
0
ARC
8
DEFAULT_255_1_388
10
5.807041
20
45.1389746
40
0.5075416
50
102.871586
51
140.8564533
0
ARC
8
DEFAULT_255_1_388
10
5.8798963
20
44.8644943
40
0.7914163
50
90.377773
51
103.5868422
0
ARC
8
DEFAULT_255_1_388
10
5.6843484
20
44.7964543
40
0.2667015
50
89.8751238
51
126.2072139
0
ARC
8
DEFAULT_255_1_388
10
5.6894955
20
44.7790847
40
0.2838229
50
124.9742447
51
144.8960197
0
ARC
8
DEFAULT_255_1_388
10
5.66972
20
44.7951981
40
0.2583845
50
145.2974778
51
160.2660922
0
ARC
8
DEFAULT_255_1_388
10
6.0153689
20
44.8174151
40
0.5888695
50
179.6512124
51
190.285571
0
ARC
8
DEFAULT_255_1_388
10
5.8248168
20
44.7814968
40
0.3949683
50
190.0944895
51
207.5099647
0
ARC
8
DEFAULT_255_1_388
10
5.761175
20
44.7512177
40
0.3245464
50
207.9585471
51
216.325377
0
ARC
8
DEFAULT_255_1_388
10
5.7229387
20
44.7197712
40
0.2751259
50
215.7661336
51
232.5457193
0
ARC
8
DEFAULT_255_1_388
10
5.6798503
20
44.6650273
40
0.2054668
50
232.8005815
51
270.6605497
0
ARC
8
DEFAULT_255_1_388
10
5.6849927
20
44.7059853
40
0.2464268
50
269.3550767
51
288.474612
0
ARC
8
DEFAULT_255_1_388
10
5.6954434
20
44.6666721
40
0.2058436
50
289.1831976
51
322.9685307
0
ARC
8
DEFAULT_255_1_388
10
5.6266536
20
44.7209279
40
0.2934408
50
322.6007085
51
346.5183319
0
ARC
8
DEFAULT_255_1_388
10
5.4964292
20
44.7541434
40
0.4278249
50
346.2584622
51
358.7739592
0
ARC
8
DEFAULT_255_1_388
10
5.3812867
20
44.7603829
40
0.5430876
50
358.3757628
51
0.0082477
0
ARC
8
DEFAULT_255_1_388
10
5.4669686
20
44.7634856
40
0.4574157
50
359.6211417
51
11.28403
0
ARC
8
DEFAULT_255_1_388
10
5.6106292
20
44.7934535
40
0.3106708
50
11.0483152
51
31.8145585
0
ARC
8
DEFAULT_255_1_388
10
5.6453997
20
44.8123045
40
0.2711963
50
32.3028554
51
38.0820598
0
ARC
8
DEFAULT_255_1_388
10
5.692723
20
44.8551717
40
0.2075566
50
36.8249851
51
85.741667
0
ARC
8
DEFAULT_255_1_388
10
5.6851643
20
44.7988065
40
0.2643487
50
85.0150021
51
90.050843
0
LINE
8
DEFAULT_255_1_388
10
4.2437444
20
53.5924898
11
4.5608955
21
53.0883009
0
LINE
8
DEFAULT_255_1_388
10
4.5608955
20
53.0883009
11
4.8762395
21
53.5924898
0
LINE
8
DEFAULT_255_1_388
10
4.8762395
20
53.5924898
11
5.0804451
21
53.5924898
0
LINE
8
DEFAULT_255_1_388
10
5.0804451
20
53.5924898
11
4.6648054
21
52.9401163
0
LINE
8
DEFAULT_255_1_388
10
4.6648054
20
52.9401163
11
5.0903843
21
52.2769
0
LINE
8
DEFAULT_255_1_388
10
5.0903843
20
52.2769
11
4.8843716
21
52.2769
0
LINE
8
DEFAULT_255_1_388
10
4.8843716
20
52.2769
11
4.5608955
21
52.7901246
0
LINE
8
DEFAULT_255_1_388
10
4.5608955
20
52.7901246
11
4.2356123
21
52.2769
0
LINE
8
DEFAULT_255_1_388
10
4.2356123
20
52.2769
11
4.0305032
21
52.2769
0
LINE
8
DEFAULT_255_1_388
10
4.0305032
20
52.2769
11
4.4569856
21
52.9401163
0
LINE
8
DEFAULT_255_1_388
10
4.4569856
20
52.9401163
11
4.0404424
21
53.5924898
0
LINE
8
DEFAULT_255_1_388
10
4.0404424
20
53.5924898
11
4.2437444
21
53.5924898
0
LINE
8
DEFAULT_255_1_388
10
5.4590386
20
52.9021666
11
5.325311
21
52.9365021
0
LINE
8
DEFAULT_255_1_388
10
5.325311
20
52.9365021
11
5.3921748
21
53.5924898
0
LINE
8
DEFAULT_255_1_388
10
5.3921748
20
53.5924898
11
6.0662339
21
53.5924898
0
LINE
8
DEFAULT_255_1_388
10
6.0662339
20
53.5924898
11
6.0662339
21
53.4379803
0
LINE
8
DEFAULT_255_1_388
10
6.0662339
20
53.4379803
11
5.5340344
21
53.4379803
0
LINE
8
DEFAULT_255_1_388
10
5.5340344
20
53.4379803
11
5.4942776
21
53.0792652
0
LINE
8
DEFAULT_255_1_388
10
5.2783257
20
52.6229652
11
5.4364495
21
52.6229652
0
LINE
8
DEFAULT_255_1_388
10
5.5033132
20
52.9383092
11
5.4590386
21
52.9021666
0
ARC
8
DEFAULT_255_1_388
10
5.7029389
20
52.7215241
40
0.4141476
50
93.7181681
51
120.253934
0
ARC
8
DEFAULT_255_1_388
10
5.7135442
20
52.6306284
40
0.5055616
50
89.9660471
51
94.2495185
0
ARC
8
DEFAULT_255_1_388
10
5.7181263
20
52.6969154
40
0.4392953
50
73.8045384
51
90.5585736
0
ARC
8
DEFAULT_255_1_388
10
5.7445521
20
52.793452
40
0.3392225
50
41.3071072
51
73.543002
0
ARC
8
DEFAULT_255_1_388
10
5.6977341
20
52.7531461
40
0.4009977
50
13.5075837
51
41.2174839
0
ARC
8
DEFAULT_255_1_388
10
5.5130439
20
52.7047907
40
0.5918864
50
1.1330171
51
13.8830737
0
ARC
8
DEFAULT_255_1_388
10
5.3534084
20
52.6962522
40
0.7516787
50
359.9925091
51
1.5431298
0
ARC
8
DEFAULT_255_1_388
10
5.4978699
20
52.6916027
40
0.6072343
50
347.8572712
51
0.4294349
0
ARC
8
DEFAULT_255_1_388
10
5.6947834
20
52.6469898
40
0.4053482
50
323.6727442
51
348.1674594
0
ARC
8
DEFAULT_255_1_388
10
5.7278799
20
52.6268175
40
0.3667495
50
316.8171818
51
323.1486802
0
ARC
8
DEFAULT_255_1_388
10
5.7347922
20
52.6226612
40
0.358869
50
281.839603
51
316.5458142
0
ARC
8
DEFAULT_255_1_388
10
5.692521
20
52.7976363
40
0.5388223
50
269.5770964
51
282.4214641
0
ARC
8
DEFAULT_255_1_388
10
5.6845131
20
52.773593
40
0.5147801
50
256.2425863
51
270.4486481
0
ARC
8
DEFAULT_255_1_388
10
5.6508658
20
52.6386124
40
0.3756708
50
228.9024379
51
256.33135
0
ARC
8
DEFAULT_255_1_388
10
5.6425639
20
52.6255054
40
0.360344
50
193.7536029
51
228.5272638
0
ARC
8
DEFAULT_255_1_388
10
5.7818204
20
52.6663463
40
0.5053599
50
184.9244437
51
194.4976052
0
ARC
8
DEFAULT_255_1_388
10
5.8034845
20
52.6703722
40
0.3700839
50
187.3596909
51
198.6733728
0
ARC
8
DEFAULT_255_1_388
10
5.6854088
20
52.6294373
40
0.2451195
50
198.4453795
51
217.7945479
0
ARC
8
DEFAULT_255_1_388
10
5.6521261
20
52.6058563
40
0.2043754
50
218.2887146
51
228.5613203
0
ARC
8
DEFAULT_255_1_388
10
5.6631268
20
52.6206902
40
0.2227819
50
228.9652423
51
258.1237049
0
ARC
8
DEFAULT_255_1_388
10
5.6862705
20
52.7197964
40
0.3245374
50
257.7260585
51
270.4013717
0
ARC
8
DEFAULT_255_1_388
10
5.6913203
20
52.6697255
40
0.2744726
50
269.4204315
51
286.420998
0
ARC
8
DEFAULT_255_1_388
10
5.7080259
20
52.6090705
40
0.2115721
50
286.7250065
51
320.6004665
0
ARC
8
DEFAULT_255_1_388
10
5.6649174
20
52.6440527
40
0.2670878
50
320.6712228
51
344.5440474
0
ARC
8
DEFAULT_255_1_388
10
5.5347888
20
52.6822394
40
0.4026927
50
344.241448
51
356.735803
0
ARC
8
DEFAULT_255_1_388
10
5.3944195
20
52.6938656
40
0.5435085
50
356.3547471
51
0.0507222
0
ARC
8
DEFAULT_255_1_388
10
5.544646
20
52.6973812
40
0.3932934
50
359.5579289
51
12.9534322
0
ARC
8
DEFAULT_255_1_388
10
5.66333
20
52.7261586
40
0.2711827
50
12.6489751
51
41.608121
0
ARC
8
DEFAULT_255_1_388
10
5.689246
20
52.7481946
40
0.2371737
50
41.7851122
51
85.9892156
0
ARC
8
DEFAULT_255_1_388
10
5.675377
20
52.6566738
40
0.3295244
50
84.6965848
51
90.0672125
0
ARC
8
DEFAULT_255_1_388
10
5.6727338
20
52.5815118
40
0.4046926
50
89.6804991
51
99.161352
0
ARC
8
DEFAULT_255_1_388
10
5.6496347
20
52.7195848
40
0.2647044
50
98.9836248
51
113.8905702
0
ARC
8
DEFAULT_255_1_388
10
5.6238022
20
52.7805118
40
0.1985386
50
114.195234
51
127.3641866
0
LINE
8
DEFAULT_255_1_388
10
4.8656318
20
60.3508382
11
4.8656318
21
60.2144
0
LINE
8
DEFAULT_255_1_388
10
4.8656318
20
60.2144
11
4.0036313
21
60.2144
0
LINE
8
DEFAULT_255_1_388
10
4.0036313
20
60.2144
11
4.0036313
21
60.3345741
0
LINE
8
DEFAULT_255_1_388
10
4.0036313
20
60.3345741
11
4.4590278
21
60.8405702
0
LINE
8
DEFAULT_255_1_388
10
4.1454909
20
61.1423607
11
3.9783315
21
61.1423607
0
LINE
8
DEFAULT_255_1_388
10
4.5575163
20
60.733046
11
4.2051262
21
60.3508382
0
LINE
8
DEFAULT_255_1_388
10
4.2051262
20
60.3508382
11
4.8656318
21
60.3508382
0
ARC
8
DEFAULT_255_1_388
10
2.9414337
20
62.1825983
40
2.0258655
50
318.5132526
51
320.7829045
0
ARC
8
DEFAULT_255_1_388
10
3.5362294
20
61.6984929
40
1.2589638
50
320.7372878
51
323.9739031
0
ARC
8
DEFAULT_255_1_388
10
3.9771226
20
61.3790554
40
0.7145141
50
323.8962701
51
328.64194
0
ARC
8
DEFAULT_255_1_388
10
4.2073484
20
61.2370545
40
0.4440242
50
328.8294576
51
331.7891185
0
ARC
8
DEFAULT_255_1_388
10
4.3195804
20
61.1791374
40
0.3177517
50
331.4254512
51
352.9365785
0
ARC
8
DEFAULT_255_1_388
10
4.3348804
20
61.175705
40
0.3021496
50
353.2257659
51
0.0166158
0
ARC
8
DEFAULT_255_1_388
10
4.3585564
20
61.1782894
40
0.2784847
50
359.486299
51
15.9343185
0
ARC
8
DEFAULT_255_1_388
10
4.4155831
20
61.1936269
40
0.2194403
50
16.1712913
51
43.5286088
0
ARC
8
DEFAULT_255_1_388
10
4.4242776
20
61.2023191
40
0.2071504
50
43.4417391
51
83.1661095
0
ARC
8
DEFAULT_255_1_388
10
4.4091937
20
61.1194316
40
0.2912888
50
82.160179
51
90.1505708
0
ARC
8
DEFAULT_255_1_388
10
4.4056418
20
61.0590279
40
0.3517025
50
89.5460741
51
102.5418361
0
ARC
8
DEFAULT_255_1_388
10
4.3783138
20
61.1749933
40
0.2325748
50
102.1738499
51
129.206123
0
ARC
8
DEFAULT_255_1_388
10
4.3694592
20
61.1889664
40
0.2161591
50
129.72865
51
135.753947
0
ARC
8
DEFAULT_255_1_388
10
4.3831074
20
61.1780728
40
0.2335433
50
136.1757367
51
166.3673339
0
ARC
8
DEFAULT_255_1_388
10
4.4963762
20
61.1477148
40
0.3507873
50
165.9090694
51
178.8684636
0
ARC
8
DEFAULT_255_1_388
10
4.5939534
20
61.1424263
40
0.4484624
50
178.4391136
51
180.0083808
0
ARC
8
DEFAULT_255_1_388
10
4.4360235
20
61.1468197
40
0.4577138
50
163.2878482
51
180.5581842
0
ARC
8
DEFAULT_255_1_388
10
4.3458276
20
61.1716393
40
0.3641968
50
133.4540601
51
162.947111
0
ARC
8
DEFAULT_255_1_388
10
4.3659158
20
61.1502789
40
0.3935189
50
100.7869829
51
133.4382499
0
ARC
8
DEFAULT_255_1_388
10
4.4050403
20
60.9760399
40
0.5720313
50
89.660664
51
101.3702276
0
ARC
8
DEFAULT_255_1_388
10
4.4125012
20
60.9829263
40
0.5651495
50
78.2172678
51
90.412935
0
ARC
8
DEFAULT_255_1_388
10
4.4524478
20
61.1656511
40
0.378122
50
55.9269121
51
78.4888449
0
ARC
8
DEFAULT_255_1_388
10
4.4745193
20
61.2037187
40
0.3342379
50
47.929771
51
55.4049217
0
ARC
8
DEFAULT_255_1_388
10
4.4859723
20
61.2153618
40
0.3179217
50
4.334829
51
48.0560205
0
ARC
8
DEFAULT_255_1_388
10
4.3627525
20
61.1962487
40
0.442341
50
359.9251713
51
5.5971671
0
ARC
8
DEFAULT_255_1_388
10
4.410968
20
61.2025728
40
0.3941854
50
337.8914027
51
358.9967534
0
ARC
8
DEFAULT_255_1_388
10
4.105725
20
61.3203295
40
0.7213271
50
326.9132501
51
338.3508308
0
ARC
8
DEFAULT_255_1_388
10
3.6573362
20
61.6077105
40
1.2538973
50
319.6471833
51
327.0959558
0
ARC
8
DEFAULT_255_1_388
10
3.226002
20
61.963505
40
1.8129975
50
317.2588228
51
319.9045804
0
LINE
8
DEFAULT_255_1_388
10
5.8794311
20
60.6318468
11
6.053819
21
60.6318468
0
LINE
8
DEFAULT_255_1_388
10
5.0409233
20
60.8107525
11
5.0409233
21
60.9372516
0
LINE
8
DEFAULT_255_1_388
10
6.053819
20
61.1071217
11
5.8794311
21
61.1071217
0
LINE
8
DEFAULT_255_1_388
10
5.2153112
20
60.9327337
11
5.2153112
21
60.8053312
0
ARC
8
DEFAULT_255_1_388
10
5.4372424
20
60.6990329
40
0.6202263
50
340.1774904
51
353.7812217
0
ARC
8
DEFAULT_255_1_388
10
5.6140277
20
60.6331893
40
0.4315926
50
311.4560052
51
340.4420756
0
ARC
8
DEFAULT_255_1_388
10
5.6102817
20
60.6456665
40
0.4434573
50
282.4332229
51
310.7514507
0
ARC
8
DEFAULT_255_1_388
10
5.5608635
20
60.8498703
40
0.6535262
50
269.9358869
51
282.8096729
0
ARC
8
DEFAULT_255_1_388
10
5.5550574
20
61.0011329
40
0.8048043
50
269.9995752
51
270.3612856
0
ARC
8
DEFAULT_255_1_388
10
5.5491064
20
60.7212781
40
0.5249831
50
250.7885263
51
270.6488451
0
ARC
8
DEFAULT_255_1_388
10
5.5301889
20
60.6495853
40
0.4510942
50
219.3628377
51
250.0611024
0
ARC
8
DEFAULT_255_1_388
10
5.6234763
20
60.7288653
40
0.5735046
50
193.5480293
51
219.5755675
0
ARC
8
DEFAULT_255_1_388
10
5.8902972
20
60.798152
40
0.849146
50
181.1220183
51
193.8754971
0
ARC
8
DEFAULT_255_1_388
10
6.1226206
20
60.8105914
40
1.0816971
50
179.9914644
51
181.5398227
0
ARC
8
DEFAULT_255_1_388
10
5.9149516
20
60.9414586
40
0.8740384
50
169.5837606
51
180.275782
0
ARC
8
DEFAULT_255_1_388
10
5.7082864
20
60.9796439
40
0.6638751
50
155.0367033
51
169.6002779
0
ARC
8
DEFAULT_255_1_388
10
5.5805322
20
61.0412336
40
0.5220662
50
136.7831557
51
155.2472983
0
ARC
8
DEFAULT_255_1_388
10
5.5367113
20
61.0784577
40
0.4646502
50
121.7633063
51
136.4281161
0
ARC
8
DEFAULT_255_1_388
10
5.5518953
20
61.0504049
40
0.4964979
50
95.6460018
51
121.5489589
0
ARC
8
DEFAULT_255_1_388
10
5.5695927
20
60.9256704
40
0.6223912
50
89.9245727
51
96.1375919
0
ARC
8
DEFAULT_255_1_388
10
5.5752632
20
60.9390721
40
0.6090084
50
76.6779212
51
90.456405
0
ARC
8
DEFAULT_255_1_388
10
5.6195445
20
61.118006
40
0.42469
50
47.4858803
51
76.9287069
0
ARC
8
DEFAULT_255_1_388
10
5.6030059
20
61.1067623
40
0.4441778
50
16.5424081
51
46.8934505
0
ARC
8
DEFAULT_255_1_388
10
5.4221109
20
61.0473265
40
0.6345318
50
5.4072971
51
17.0363711
0
ARC
8
DEFAULT_255_1_388
10
5.2602834
20
61.0213304
40
0.6250632
50
7.8888693
51
15.9242022
0
ARC
8
DEFAULT_255_1_388
10
5.4837819
20
61.0862309
40
0.3923364
50
15.7650676
51
27.9410069
0
ARC
8
DEFAULT_255_1_388
10
5.6079989
20
61.1527317
40
0.2514401
50
27.8167196
51
46.4007942
0
ARC
8
DEFAULT_255_1_388
10
5.613583
20
61.1520882
40
0.2480958
50
47.4372362
51
75.0695672
0
ARC
8
DEFAULT_255_1_388
10
5.5788666
20
61.0312277
40
0.3738281
50
74.7009379
51
87.8124314
0
ARC
8
DEFAULT_255_1_388
10
5.5706283
20
60.9128659
40
0.4924321
50
87.3802571
51
90.0251599
0
ARC
8
DEFAULT_255_1_388
10
5.566293
20
61.0448997
40
0.3604218
50
89.3451886
51
108.5744412
0
ARC
8
DEFAULT_255_1_388
10
5.5508922
20
61.1026836
40
0.3007661
50
109.2998307
51
143.3037387
0
ARC
8
DEFAULT_255_1_388
10
5.6366212
20
61.0367584
40
0.4089031
50
143.075267
51
163.1918576
0
ARC
8
DEFAULT_255_1_388
10
5.8562047
20
60.9674652
40
0.6391492
50
162.9375929
51
174.6208776
0
ARC
8
DEFAULT_255_1_388
10
6.1516428
20
60.9350711
40
0.9363344
50
174.342123
51
180.1430283
0
ARC
8
DEFAULT_255_1_388
10
6.046897
20
60.8007117
40
0.8315986
50
179.6817261
51
189.150555
0
ARC
8
DEFAULT_255_1_388
10
5.7655719
20
60.7538559
40
0.5464044
50
188.9911061
51
203.5772363
0
ARC
8
DEFAULT_255_1_388
10
5.644101
20
60.7034539
40
0.4149206
50
203.9075402
51
215.1312435
0
ARC
8
DEFAULT_255_1_388
10
5.5402808
20
60.6229907
40
0.2837747
50
213.9071511
51
263.8848919
0
ARC
8
DEFAULT_255_1_388
10
5.5543801
20
60.7112519
40
0.3730641
50
263.1757928
51
270.1031044
0
ARC
8
DEFAULT_255_1_388
10
5.5579881
20
60.8515511
40
0.5133712
50
269.6722503
51
279.0606936
0
ARC
8
DEFAULT_255_1_388
10
5.5880036
20
60.670115
40
0.3294739
50
278.8749101
51
293.6349581
0
ARC
8
DEFAULT_255_1_388
10
5.624024
20
60.5855251
40
0.2375405
50
293.8553806
51
310.0518171
0
ARC
8
DEFAULT_255_1_388
10
5.6245749
20
60.5785021
40
0.2318463
50
311.0644687
51
332.0111037
0
ARC
8
DEFAULT_255_1_388
10
5.4904422
20
60.6524702
40
0.3850112
50
331.6586806
51
343.2877423
0
ARC
8
DEFAULT_255_1_388
10
5.2583888
20
60.7237806
40
0.6277712
50
343.1446576
51
351.0103568
0
ARC
8
DEFAULT_255_1_388
10
5.0951211
20
60.7537873
40
0.7937327
50
350.71248
51
351.1626997
0
LINE
8
DEFAULT_255_1_388
10
4.3760444
20
69.4674898
11
4.6931955
21
68.9633009
0
LINE
8
DEFAULT_255_1_388
10
4.6931955
20
68.9633009
11
5.0085395
21
69.4674898
0
LINE
8
DEFAULT_255_1_388
10
5.0085395
20
69.4674898
11
5.2127451
21
69.4674898
0
LINE
8
DEFAULT_255_1_388
10
5.2127451
20
69.4674898
11
4.7971054
21
68.8151163
0
LINE
8
DEFAULT_255_1_388
10
4.7971054
20
68.8151163
11
5.2226843
21
68.1519
0
LINE
8
DEFAULT_255_1_388
10
5.2226843
20
68.1519
11
5.0166716
21
68.1519
0
LINE
8
DEFAULT_255_1_388
10
5.0166716
20
68.1519
11
4.6931955
21
68.6651246
0
LINE
8
DEFAULT_255_1_388
10
4.6931955
20
68.6651246
11
4.3679123
21
68.1519
0
LINE
8
DEFAULT_255_1_388
10
4.3679123
20
68.1519
11
4.1628032
21
68.1519
0
LINE
8
DEFAULT_255_1_388
10
4.1628032
20
68.1519
11
4.5892856
21
68.8151163
0
LINE
8
DEFAULT_255_1_388
10
4.5892856
20
68.8151163
11
4.1727424
21
69.4674898
0
LINE
8
DEFAULT_255_1_388
10
4.1727424
20
69.4674898
11
4.3760444
21
69.4674898
0
LINE
8
DEFAULT_255_1_388
10
6.0864919
20
69.4674898
11
6.0864919
21
68.593743
0
LINE
8
DEFAULT_255_1_388
10
6.0864919
20
68.593743
11
6.2690119
21
68.593743
0
LINE
8
DEFAULT_255_1_388
10
6.2690119
20
68.593743
11
6.2690119
21
68.4573048
0
LINE
8
DEFAULT_255_1_388
10
6.2690119
20
68.4573048
11
6.0864919
21
68.4573048
0
LINE
8
DEFAULT_255_1_388
10
6.0864919
20
68.4573048
11
6.0864919
21
68.1519
0
LINE
8
DEFAULT_255_1_388
10
6.0864919
20
68.1519
11
5.9184289
21
68.1519
0
LINE
8
DEFAULT_255_1_388
10
5.9184289
20
68.1519
11
5.9184289
21
68.4573048
0
LINE
8
DEFAULT_255_1_388
10
5.9184289
20
68.4573048
11
5.3193657
21
68.4573048
0
LINE
8
DEFAULT_255_1_388
10
5.3193657
20
68.4573048
11
5.3193657
21
68.5557933
0
LINE
8
DEFAULT_255_1_388
10
5.3193657
20
68.5557933
11
5.9084897
21
69.4674898
0
LINE
8
DEFAULT_255_1_388
10
5.9084897
20
69.4674898
11
6.0864919
21
69.4674898
0
LINE
8
DEFAULT_255_1_388
10
5.8985505
20
69.2027455
11
5.5091142
21
68.593743
0
LINE
8
DEFAULT_255_1_388
10
5.5091142
20
68.593743
11
5.9184289
21
68.593743
0
LINE
8
DEFAULT_255_1_388
10
5.9184289
20
68.593743
11
5.9184289
21
69.238888
0
LINE
8
DEFAULT_255_1_388
10
5.9184289
20
69.238888
11
5.8985505
21
69.2027455
0
LINE
8
DEFAULT_255_1_388
10
4.2437444
20
77.4049898
11
4.5608955
21
76.9008009
0
LINE
8
DEFAULT_255_1_388
10
4.5608955
20
76.9008009
11
4.8762395
21
77.4049898
0
LINE
8
DEFAULT_255_1_388
10
4.8762395
20
77.4049898
11
5.0804451
21
77.4049898
0
LINE
8
DEFAULT_255_1_388
10
5.0804451
20
77.4049898
11
4.6648054
21
76.7526163
0
LINE
8
DEFAULT_255_1_388
10
4.6648054
20
76.7526163
11
5.0903843
21
76.0894
0
LINE
8
DEFAULT_255_1_388
10
5.0903843
20
76.0894
11
4.8843716
21
76.0894
0
LINE
8
DEFAULT_255_1_388
10
4.8843716
20
76.0894
11
4.5608955
21
76.6026246
0
LINE
8
DEFAULT_255_1_388
10
4.5608955
20
76.6026246
11
4.2356123
21
76.0894
0
LINE
8
DEFAULT_255_1_388
10
4.2356123
20
76.0894
11
4.0305032
21
76.0894
0
LINE
8
DEFAULT_255_1_388
10
4.0305032
20
76.0894
11
4.4569856
21
76.7526163
0
LINE
8
DEFAULT_255_1_388
10
4.4569856
20
76.7526163
11
4.0404424
21
77.4049898
0
LINE
8
DEFAULT_255_1_388
10
4.0404424
20
77.4049898
11
4.2437444
21
77.4049898
0
LINE
8
DEFAULT_255_1_388
10
5.4915669
20
76.6920775
11
5.4915669
21
76.8285157
0
LINE
8
DEFAULT_255_1_388
10
5.4915669
20
76.8285157
11
5.6171624
21
76.8285157
0
LINE
8
DEFAULT_255_1_388
10
5.4030176
20
77.0598282
11
5.2358582
21
77.0598282
0
LINE
8
DEFAULT_255_1_388
10
5.2241118
20
76.4363688
11
5.3921748
21
76.4363688
0
LINE
8
DEFAULT_255_1_388
10
5.6171624
20
76.6920775
11
5.4915669
21
76.6920775
0
ARC
8
DEFAULT_255_1_388
10
5.613885
20
77.2101922
40
0.3816905
50
270.491971
51
281.8953028
0
ARC
8
DEFAULT_255_1_388
10
5.6410277
20
77.0862199
40
0.2547877
50
281.6690378
51
301.2943765
0
ARC
8
DEFAULT_255_1_388
10
5.6601728
20
77.0511926
40
0.2149197
50
301.7834992
51
311.754567
0
ARC
8
DEFAULT_255_1_388
10
5.670477
20
77.039765
40
0.1995326
50
311.7325027
51
354.2803031
0
ARC
8
DEFAULT_255_1_388
10
5.5887186
20
77.053828
40
0.2823461
50
353.0941646
51
0.1174696
0
ARC
8
DEFAULT_255_1_388
10
5.5368744
20
77.0591874
40
0.3342238
50
359.1804452
51
15.0452323
0
ARC
8
DEFAULT_255_1_388
10
5.6882802
20
77.1033546
40
0.1765747
50
13.957816
51
77.6713812
0
ARC
8
DEFAULT_255_1_388
10
5.6448038
20
76.9475464
40
0.3381982
50
76.111571
51
90.7028736
0
ARC
8
DEFAULT_255_1_388
10
5.638145
20
76.978325
40
0.3074046
50
89.5321574
51
103.5319393
0
ARC
8
DEFAULT_255_1_388
10
5.6155833
20
77.0682443
40
0.2147041
50
103.2930114
51
133.5619756
0
ARC
8
DEFAULT_255_1_388
10
5.6105775
20
77.0749351
40
0.2064084
50
133.8349761
51
173.5343225
0
ARC
8
DEFAULT_255_1_388
10
5.6919432
20
77.0605144
40
0.2889266
50
172.5097183
51
180.1360699
0
ARC
8
DEFAULT_255_1_388
10
5.5849196
20
77.064388
40
0.3490913
50
155.3483706
51
180.7484035
0
ARC
8
DEFAULT_255_1_388
10
5.5794172
20
77.0611519
40
0.3454798
50
131.5745177
51
154.4799474
0
ARC
8
DEFAULT_255_1_388
10
5.6146455
20
77.0255422
40
0.3955058
50
96.9874487
51
131.9690874
0
ARC
8
DEFAULT_255_1_388
10
5.6393347
20
76.8854407
40
0.537622
50
89.8592909
51
97.7827481
0
ARC
8
DEFAULT_255_1_388
10
5.6447456
20
76.855936
40
0.5671399
50
78.3654493
51
90.4132586
0
ARC
8
DEFAULT_255_1_388
10
5.6850097
20
77.0425918
40
0.3762034
50
56.6229818
51
78.6387103
0
ARC
8
DEFAULT_255_1_388
10
5.7091927
20
77.0848846
40
0.3275964
50
47.0254604
51
56.085558
0
ARC
8
DEFAULT_255_1_388
10
5.7114178
20
77.0893189
40
0.3228382
50
10.9207523
51
46.777927
0
ARC
8
DEFAULT_255_1_388
10
5.5579772
20
77.0538401
40
0.4802559
50
359.6364235
51
11.6087615
0
ARC
8
DEFAULT_255_1_388
10
5.7643937
20
77.0521404
40
0.273833
50
332.3549969
51
359.7179765
0
ARC
8
DEFAULT_255_1_388
10
5.6912338
20
77.0868285
40
0.3547505
50
325.2332381
51
332.8746682
0
ARC
8
DEFAULT_255_1_388
10
5.7083921
20
77.0748763
40
0.3338396
50
292.9803892
51
325.2391113
0
ARC
8
DEFAULT_255_1_388
10
5.6773117
20
77.1353679
40
0.4016959
50
292.542178
51
293.6931461
0
ARC
8
DEFAULT_255_1_388
10
5.7216688
20
76.4088036
40
0.372079
50
57.643292
51
72.8626085
0
ARC
8
DEFAULT_255_1_388
10
5.7615523
20
76.4734273
40
0.2961455
50
36.7246661
51
57.4701329
0
ARC
8
DEFAULT_255_1_388
10
5.760268
20
76.474847
40
0.2963321
50
8.054535
51
36.3561529
0
ARC
8
DEFAULT_255_1_388
10
5.6632352
20
76.4574073
40
0.3948682
50
359.8316595
51
8.5873361
0
ARC
8
DEFAULT_255_1_388
10
5.6209827
20
76.451997
40
0.4371398
50
343.9831631
51
0.557075
0
ARC
8
DEFAULT_255_1_388
10
5.7206876
20
76.4246963
40
0.3337749
50
311.6358204
51
343.7652116
0
ARC
8
DEFAULT_255_1_388
10
5.678113
20
76.4726955
40
0.3979351
50
279.7829743
51
311.625622
0
ARC
8
DEFAULT_255_1_388
10
5.6442265
20
76.6343642
40
0.5630417
50
269.7285092
51
280.3857694
0
ARC
8
DEFAULT_255_1_388
10
5.6372578
20
76.6297241
40
0.5584119
50
256.6827433
51
270.4412869
0
ARC
8
DEFAULT_255_1_388
10
5.5991565
20
76.4739698
40
0.3980715
50
229.4223821
51
256.8554507
0
ARC
8
DEFAULT_255_1_388
10
5.5525118
20
76.4214683
40
0.3278564
50
181.8183354
51
229.6455015
0
ARC
8
DEFAULT_255_1_388
10
5.6694727
20
76.4361825
40
0.4453611
50
179.9760419
51
183.2330638
0
ARC
8
DEFAULT_255_1_388
10
5.650128
20
76.4338781
40
0.2579652
50
179.4467996
51
196.2871626
0
ARC
8
DEFAULT_255_1_388
10
5.5952733
20
76.4188709
40
0.2011057
50
196.5661293
51
227.7059371
0
ARC
8
DEFAULT_255_1_388
10
5.6137341
20
76.4395155
40
0.2287994
50
227.7653015
51
257.8763321
0
ARC
8
DEFAULT_255_1_388
10
5.6390424
20
76.5455961
40
0.3378385
50
257.4583525
51
270.4267406
0
ARC
8
DEFAULT_255_1_388
10
5.6441673
20
76.578223
40
0.3704652
50
269.5965319
51
280.8788143
0
ARC
8
DEFAULT_255_1_388
10
5.6699901
20
76.4492529
40
0.2389415
50
280.6347277
51
299.8594068
0
ARC
8
DEFAULT_255_1_388
10
5.6914671
20
76.4084736
40
0.19289
50
300.3575552
51
314.5515667
0
ARC
8
DEFAULT_255_1_388
10
5.6821347
20
76.4153025
40
0.204312
50
315.0730962
51
345.0429362
0
ARC
8
DEFAULT_255_1_388
10
5.5782854
20
76.4455539
40
0.31246
50
344.598526
51
357.9270698
0
ARC
8
DEFAULT_255_1_388
10
5.4773159
20
76.4524705
40
0.4136265
50
357.4755098
51
0.0224936
0
ARC
8
DEFAULT_255_1_388
10
5.5926037
20
76.4552099
40
0.2983498
50
359.5051035
51
13.4236939
0
ARC
8
DEFAULT_255_1_388
10
5.6901127
20
76.4801637
40
0.1977186
50
12.9497905
51
48.7550905
0
ARC
8
DEFAULT_255_1_388
10
5.6696048
20
76.4521373
40
0.2323321
50
49.509109
51
72.1832965
0
ARC
8
DEFAULT_255_1_388
10
5.6293517
20
76.3326632
40
0.358397
50
71.9008458
51
84.3555134
0
ARC
8
DEFAULT_255_1_388
10
5.6111911
20
76.1794712
40
0.512641
50
84.019632
51
89.3326067
0
LINE
8
DEFAULT_255_1_388
10
4.2437444
20
85.3424898
11
4.5608955
21
84.8383009
0
LINE
8
DEFAULT_255_1_388
10
4.5608955
20
84.8383009
11
4.8762395
21
85.3424898
0
LINE
8
DEFAULT_255_1_388
10
4.8762395
20
85.3424898
11
5.0804451
21
85.3424898
0
LINE
8
DEFAULT_255_1_388
10
5.0804451
20
85.3424898
11
4.6648054
21
84.6901163
0
LINE
8
DEFAULT_255_1_388
10
4.6648054
20
84.6901163
11
5.0903843
21
84.0269
0
LINE
8
DEFAULT_255_1_388
10
5.0903843
20
84.0269
11
4.8843716
21
84.0269
0
LINE
8
DEFAULT_255_1_388
10
4.8843716
20
84.0269
11
4.5608955
21
84.5401246
0
LINE
8
DEFAULT_255_1_388
10
4.5608955
20
84.5401246
11
4.2356123
21
84.0269
0
LINE
8
DEFAULT_255_1_388
10
4.2356123
20
84.0269
11
4.0305032
21
84.0269
0
LINE
8
DEFAULT_255_1_388
10
4.0305032
20
84.0269
11
4.4569856
21
84.6901163
0
LINE
8
DEFAULT_255_1_388
10
4.4569856
20
84.6901163
11
4.0404424
21
85.3424898
0
LINE
8
DEFAULT_255_1_388
10
4.0404424
20
85.3424898
11
4.2437444
21
85.3424898
0
LINE
8
DEFAULT_255_1_388
10
6.1105085
20
84.1633382
11
6.1105085
21
84.0269
0
LINE
8
DEFAULT_255_1_388
10
6.1105085
20
84.0269
11
5.2485081
21
84.0269
0
LINE
8
DEFAULT_255_1_388
10
5.2485081
20
84.0269
11
5.2485081
21
84.1470741
0
LINE
8
DEFAULT_255_1_388
10
5.2485081
20
84.1470741
11
5.7039045
21
84.6530702
0
LINE
8
DEFAULT_255_1_388
10
5.3903677
20
84.9548607
11
5.2232083
21
84.9548607
0
LINE
8
DEFAULT_255_1_388
10
5.8023931
20
84.545546
11
5.4500029
21
84.1633382
0
LINE
8
DEFAULT_255_1_388
10
5.4500029
20
84.1633382
11
6.1105085
21
84.1633382
0
ARC
8
DEFAULT_255_1_388
10
4.1863105
20
85.9950983
40
2.0258655
50
318.5132526
51
320.7829045
0
ARC
8
DEFAULT_255_1_388
10
4.7811062
20
85.5109929
40
1.2589638
50
320.7372878
51
323.9739031
0
ARC
8
DEFAULT_255_1_388
10
5.2219994
20
85.1915554
40
0.7145141
50
323.8962701
51
328.64194
0
ARC
8
DEFAULT_255_1_388
10
5.4522251
20
85.0495545
40
0.4440242
50
328.8294576
51
331.7891185
0
ARC
8
DEFAULT_255_1_388
10
5.5644571
20
84.9916374
40
0.3177517
50
331.4254512
51
352.9365785
0
ARC
8
DEFAULT_255_1_388
10
5.5797571
20
84.988205
40
0.3021496
50
353.2257659
51
0.0166158
0
ARC
8
DEFAULT_255_1_388
10
5.6034332
20
84.9907894
40
0.2784847
50
359.486299
51
15.9343185
0
ARC
8
DEFAULT_255_1_388
10
5.6604599
20
85.0061269
40
0.2194403
50
16.1712913
51
43.5286088
0
ARC
8
DEFAULT_255_1_388
10
5.6691543
20
85.0148191
40
0.2071504
50
43.4417391
51
83.1661095
0
ARC
8
DEFAULT_255_1_388
10
5.6540704
20
84.9319316
40
0.2912888
50
82.160179
51
90.1505708
0
ARC
8
DEFAULT_255_1_388
10
5.6505186
20
84.8715279
40
0.3517025
50
89.5460741
51
102.5418361
0
ARC
8
DEFAULT_255_1_388
10
5.6231906
20
84.9874933
40
0.2325748
50
102.1738499
51
129.206123
0
ARC
8
DEFAULT_255_1_388
10
5.6143359
20
85.0014664
40
0.2161591
50
129.72865
51
135.753947
0
ARC
8
DEFAULT_255_1_388
10
5.6279841
20
84.9905728
40
0.2335433
50
136.1757367
51
166.3673339
0
ARC
8
DEFAULT_255_1_388
10
5.741253
20
84.9602148
40
0.3507873
50
165.9090694
51
178.8684636
0
ARC
8
DEFAULT_255_1_388
10
5.8388301
20
84.9549263
40
0.4484624
50
178.4391136
51
180.0083808
0
ARC
8
DEFAULT_255_1_388
10
5.6809003
20
84.9593197
40
0.4577138
50
163.2878482
51
180.5581842
0
ARC
8
DEFAULT_255_1_388
10
5.5907044
20
84.9841393
40
0.3641968
50
133.4540601
51
162.947111
0
ARC
8
DEFAULT_255_1_388
10
5.6107926
20
84.9627789
40
0.3935189
50
100.7869829
51
133.4382499
0
ARC
8
DEFAULT_255_1_388
10
5.6499171
20
84.7885399
40
0.5720313
50
89.660664
51
101.3702276
0
ARC
8
DEFAULT_255_1_388
10
5.657378
20
84.7954263
40
0.5651495
50
78.2172678
51
90.412935
0
ARC
8
DEFAULT_255_1_388
10
5.6973245
20
84.9781511
40
0.378122
50
55.9269121
51
78.4888449
0
ARC
8
DEFAULT_255_1_388
10
5.7193961
20
85.0162187
40
0.3342379
50
47.929771
51
55.4049217
0
ARC
8
DEFAULT_255_1_388
10
5.7308491
20
85.0278618
40
0.3179217
50
4.334829
51
48.0560205
0
ARC
8
DEFAULT_255_1_388
10
5.6076293
20
85.0087487
40
0.442341
50
359.9251713
51
5.5971671
0
ARC
8
DEFAULT_255_1_388
10
5.6558447
20
85.0150728
40
0.3941854
50
337.8914027
51
358.9967534
0
ARC
8
DEFAULT_255_1_388
10
5.3506017
20
85.1328295
40
0.7213271
50
326.9132501
51
338.3508308
0
ARC
8
DEFAULT_255_1_388
10
4.9022129
20
85.4202105
40
1.2538973
50
319.6471833
51
327.0959558
0
ARC
8
DEFAULT_255_1_388
10
4.4708787
20
85.776005
40
1.8129975
50
317.2588228
51
319.9045804
0
LINE
8
DEFAULT_255_1_388
10
4.2357444
20
93.2799898
11
4.5528955
21
92.7758009
0
LINE
8
DEFAULT_255_1_388
10
4.5528955
20
92.7758009
11
4.8682395
21
93.2799898
0
LINE
8
DEFAULT_255_1_388
10
4.8682395
20
93.2799898
11
5.0724451
21
93.2799898
0
LINE
8
DEFAULT_255_1_388
10
5.0724451
20
93.2799898
11
4.6568054
21
92.6276163
0
LINE
8
DEFAULT_255_1_388
10
4.6568054
20
92.6276163
11
5.0823843
21
91.9644
0
LINE
8
DEFAULT_255_1_388
10
5.0823843
20
91.9644
11
4.8763716
21
91.9644
0
LINE
8
DEFAULT_255_1_388
10
4.8763716
20
91.9644
11
4.5528955
21
92.4776246
0
LINE
8
DEFAULT_255_1_388
10
4.5528955
20
92.4776246
11
4.2276123
21
91.9644
0
LINE
8
DEFAULT_255_1_388
10
4.2276123
20
91.9644
11
4.0225032
21
91.9644
0
LINE
8
DEFAULT_255_1_388
10
4.0225032
20
91.9644
11
4.4489856
21
92.6276163
0
LINE
8
DEFAULT_255_1_388
10
4.4489856
20
92.6276163
11
4.0324424
21
93.2799898
0
LINE
8
DEFAULT_255_1_388
10
4.0324424
20
93.2799898
11
4.2357444
21
93.2799898
0
LINE
8
DEFAULT_255_1_388
10
5.7898752
20
93.2863148
11
5.7898752
21
91.9644
0
LINE
8
DEFAULT_255_1_388
10
5.7898752
20
91.9644
11
5.6218123
21
91.9644
0
LINE
8
DEFAULT_255_1_388
10
5.6218123
20
91.9644
11
5.6218123
21
93.078495
0
LINE
8
DEFAULT_255_1_388
10
5.6218123
20
93.078495
11
5.2847827
21
92.9547066
0
LINE
8
DEFAULT_255_1_388
10
5.2847827
20
92.9547066
11
5.2847827
21
93.1065055
0
LINE
8
DEFAULT_255_1_388
10
5.2847827
20
93.1065055
11
5.7636719
21
93.2863148
0
LINE
8
DEFAULT_255_1_388
10
5.7636719
20
93.2863148
11
5.7898752
21
93.2863148
0
LINE
8
DEFAULT_255_1_388
10
4.2437444
20
101.2174898
11
4.5608955
21
100.7133009
0
LINE
8
DEFAULT_255_1_388
10
4.5608955
20
100.7133009
11
4.8762395
21
101.2174898
0
LINE
8
DEFAULT_255_1_388
10
4.8762395
20
101.2174898
11
5.0804451
21
101.2174898
0
LINE
8
DEFAULT_255_1_388
10
5.0804451
20
101.2174898
11
4.6648054
21
100.5651163
0
LINE
8
DEFAULT_255_1_388
10
4.6648054
20
100.5651163
11
5.0903843
21
99.9019
0
LINE
8
DEFAULT_255_1_388
10
5.0903843
20
99.9019
11
4.8843716
21
99.9019
0
LINE
8
DEFAULT_255_1_388
10
4.8843716
20
99.9019
11
4.5608955
21
100.4151246
0
LINE
8
DEFAULT_255_1_388
10
4.5608955
20
100.4151246
11
4.2356123
21
99.9019
0
LINE
8
DEFAULT_255_1_388
10
4.2356123
20
99.9019
11
4.0305032
21
99.9019
0
LINE
8
DEFAULT_255_1_388
10
4.0305032
20
99.9019
11
4.4569856
21
100.5651163
0
LINE
8
DEFAULT_255_1_388
10
4.4569856
20
100.5651163
11
4.0404424
21
101.2174898
0
LINE
8
DEFAULT_255_1_388
10
4.0404424
20
101.2174898
11
4.2437444
21
101.2174898
0
LINE
8
DEFAULT_255_1_388
10
6.0734624
20
100.679869
11
6.0734624
21
100.4630135
0
LINE
8
DEFAULT_255_1_388
10
5.2430867
20
100.4404244
11
5.2430867
21
100.6636048
0
LINE
8
DEFAULT_255_1_388
10
5.906303
20
100.4178353
11
5.906303
21
100.6916153
0
LINE
8
DEFAULT_255_1_388
10
5.4102461
20
100.7042652
11
5.4102461
21
100.4368102
0
ARC
8
DEFAULT_255_1_388
10
4.6956958
20
100.4575118
40
1.3777776
50
353.8440855
51
0.2287917
0
ARC
8
DEFAULT_255_1_388
10
5.2175975
20
100.3992414
40
0.852639
50
344.4934746
51
353.9763743
0
ARC
8
DEFAULT_255_1_388
10
5.5542783
20
100.3035191
40
0.5026273
50
329.2803599
51
344.7473406
0
ARC
8
DEFAULT_255_1_388
10
5.6658278
20
100.2423038
40
0.3754848
50
324.9361395
51
328.6153007
0
ARC
8
DEFAULT_255_1_388
10
5.7083928
20
100.2125586
40
0.3235566
50
280.5801797
51
324.9173226
0
ARC
8
DEFAULT_255_1_388
10
5.6632557
20
100.4005236
40
0.5167077
50
269.5979457
51
281.6732777
0
ARC
8
DEFAULT_255_1_388
10
5.655146
20
100.3870113
40
0.5032026
50
256.6228565
51
270.5105488
0
ARC
8
DEFAULT_255_1_388
10
5.6099203
20
100.2128345
40
0.3233092
50
215.8618351
51
257.2787793
0
ARC
8
DEFAULT_255_1_388
10
5.724791
20
100.2899106
40
0.4615831
50
197.9695203
51
215.2622745
0
ARC
8
DEFAULT_255_1_388
10
6.0043586
20
100.3842641
40
0.7566307
50
187.8816486
51
198.2346584
0
ARC
8
DEFAULT_255_1_388
10
6.4496824
20
100.4485453
40
1.2065653
50
180.8977266
51
188.0054894
0
ARC
8
DEFAULT_255_1_388
10
6.7547038
20
100.46004
40
1.5117443
50
180.7434591
51
181.152202
0
ARC
8
DEFAULT_255_1_388
10
6.5872034
20
100.6690371
40
1.3441277
50
173.7674302
51
180.2315596
0
ARC
8
DEFAULT_255_1_388
10
6.0789902
20
100.7264779
40
0.8326847
50
164.3058537
51
173.9000553
0
ARC
8
DEFAULT_255_1_388
10
5.7513902
20
100.8208652
40
0.4917711
50
148.7922028
51
164.5682288
0
ARC
8
DEFAULT_255_1_388
10
5.644464
20
100.8805457
40
0.3694204
50
144.5883979
51
148.1161588
0
ARC
8
DEFAULT_255_1_388
10
5.6057385
20
100.9075667
40
0.322202
50
101.6440149
51
144.5142619
0
ARC
8
DEFAULT_255_1_388
10
5.6535577
20
100.7175337
40
0.5180451
50
89.528284
51
102.5820197
0
ARC
8
DEFAULT_255_1_388
10
5.6624569
20
100.7131376
40
0.5224441
50
77.0437914
51
90.508231
0
ARC
8
DEFAULT_255_1_388
10
5.7076823
20
100.8979272
40
0.3322297
50
48.2777708
51
77.4996087
0
ARC
8
DEFAULT_255_1_388
10
5.7158563
20
100.9124557
40
0.315966
50
36.3141586
51
47.6307332
0
ARC
8
DEFAULT_255_1_388
10
5.6181285
20
100.8466159
40
0.4337313
50
18.2931065
51
35.6770203
0
ARC
8
DEFAULT_255_1_388
10
5.3320126
20
100.7484107
40
0.7362203
50
8.0246996
51
18.5605636
0
ARC
8
DEFAULT_255_1_388
10
4.8636481
20
100.6792432
40
1.2096583
50
1.127539
51
8.1718423
0
ARC
8
DEFAULT_255_1_388
10
4.4987615
20
100.6649374
40
1.5747719
50
0.5432713
51
1.38669
0
ARC
8
DEFAULT_255_1_388
10
4.7044994
20
100.6956163
40
1.2018103
50
359.8092569
51
4.9408001
0
ARC
8
DEFAULT_255_1_388
10
5.1781575
20
100.73789
40
0.7262727
50
4.8364937
51
12.2906017
0
ARC
8
DEFAULT_255_1_388
10
5.488104
20
100.8069485
40
0.4087324
50
12.0806994
51
23.8171225
0
ARC
8
DEFAULT_255_1_388
10
5.6201436
20
100.8628508
40
0.2653719
50
24.2874621
51
31.3934353
0
ARC
8
DEFAULT_255_1_388
10
5.6791872
20
100.9014822
40
0.1948607
50
30.7407708
51
82.4658033
0
ARC
8
DEFAULT_255_1_388
10
5.6589532
20
100.8021017
40
0.2961198
50
81.1057101
51
90.2187368
0
ARC
8
DEFAULT_255_1_388
10
5.6549344
20
100.8311421
40
0.2670929
50
89.380395
51
105.6763916
0
ARC
8
DEFAULT_255_1_388
10
5.6343066
20
100.906132
40
0.1893189
50
105.7980655
51
149.7387869
0
ARC
8
DEFAULT_255_1_388
10
5.7540206
20
100.8341719
40
0.3289892
50
149.4208441
51
163.628295
0
ARC
8
DEFAULT_255_1_388
10
5.9892436
20
100.7624345
40
0.5749004
50
163.3764549
51
172.141138
0
ARC
8
DEFAULT_255_1_388
10
6.3605157
20
100.7092582
40
0.9499585
50
172.0258462
51
178.0705453
0
ARC
8
DEFAULT_255_1_388
10
6.702671
20
100.6930682
40
1.2924734
50
177.8639301
51
179.5036263
0
ARC
8
DEFAULT_255_1_388
10
6.5807729
20
100.4327151
40
1.170534
50
179.7995545
51
185.246089
0
ARC
8
DEFAULT_255_1_388
10
6.1259322
20
100.3896404
40
0.7136613
50
185.1411911
51
193.0082205
0
ARC
8
DEFAULT_255_1_388
10
5.8285583
20
100.3193441
40
0.4080987
50
192.7897338
51
205.2507384
0
ARC
8
DEFAULT_255_1_388
10
5.7107793
20
100.2667538
40
0.2791522
50
205.8001921
51
211.2545876
0
ARC
8
DEFAULT_255_1_388
10
5.6519332
20
100.2273132
40
0.2084074
50
210.3789935
51
238.4007996
0
ARC
8
DEFAULT_255_1_388
10
5.6497418
20
100.2325786
40
0.2117943
50
239.6521916
51
265.9793852
0
ARC
8
DEFAULT_255_1_388
10
5.6593267
20
100.3082358
40
0.2879689
50
265.1324455
51
270.0603288
0
ARC
8
DEFAULT_255_1_388
10
5.6625644
20
100.2717418
40
0.2514919
50
269.3314378
51
287.2180039
0
ARC
8
DEFAULT_255_1_388
10
5.6780726
20
100.2151291
40
0.1928357
50
287.7957942
51
329.0808983
0
ARC
8
DEFAULT_255_1_388
10
5.5703483
20
100.2823651
40
0.319808
50
328.6635261
51
343.3325043
0
ARC
8
DEFAULT_255_1_388
10
5.3258942
20
100.3585195
40
0.5758408
50
343.0498092
51
351.9392499
0
ARC
8
DEFAULT_255_1_388
10
4.9358263
20
100.4160205
40
0.9701202
50
351.8071632
51
357.7957897
0
ARC
8
DEFAULT_255_1_388
10
4.572374
20
100.4348724
40
1.3340376
50
357.5870923
51
359.2682493
0
LINE
8
DEFAULT_255_1_388
10
4.5529985
20
109.1613148
11
4.5529985
21
107.8394
0
LINE
8
DEFAULT_255_1_388
10
4.5529985
20
107.8394
11
4.3849355
21
107.8394
0
LINE
8
DEFAULT_255_1_388
10
4.3849355
20
107.8394
11
4.3849355
21
108.953495
0
LINE
8
DEFAULT_255_1_388
10
4.3849355
20
108.953495
11
4.047906
21
108.8297066
0
LINE
8
DEFAULT_255_1_388
10
4.047906
20
108.8297066
11
4.047906
21
108.9815055
0
LINE
8
DEFAULT_255_1_388
10
4.047906
20
108.9815055
11
4.5267951
21
109.1613148
0
LINE
8
DEFAULT_255_1_388
10
4.5267951
20
109.1613148
11
4.5529985
21
109.1613148
0
LINE
8
DEFAULT_255_1_388
10
5.8794311
20
108.2568468
11
6.053819
21
108.2568468
0
LINE
8
DEFAULT_255_1_388
10
5.0409233
20
108.4357525
11
5.0409233
21
108.5622516
0
LINE
8
DEFAULT_255_1_388
10
6.053819
20
108.7321217
11
5.8794311
21
108.7321217
0
LINE
8
DEFAULT_255_1_388
10
5.2153112
20
108.5577337
11
5.2153112
21
108.4303312
0
ARC
8
DEFAULT_255_1_388
10
5.4372424
20
108.3240329
40
0.6202263
50
340.1774904
51
353.7812217
0
ARC
8
DEFAULT_255_1_388
10
5.6140277
20
108.2581893
40
0.4315926
50
311.4560052
51
340.4420756
0
ARC
8
DEFAULT_255_1_388
10
5.6102817
20
108.2706665
40
0.4434573
50
282.4332229
51
310.7514507
0
ARC
8
DEFAULT_255_1_388
10
5.5608635
20
108.4748703
40
0.6535262
50
269.9358869
51
282.8096729
0
ARC
8
DEFAULT_255_1_388
10
5.5550574
20
108.6261329
40
0.8048043
50
269.9995752
51
270.3612856
0
ARC
8
DEFAULT_255_1_388
10
5.5491064
20
108.3462781
40
0.5249831
50
250.7885263
51
270.6488451
0
ARC
8
DEFAULT_255_1_388
10
5.5301889
20
108.2745853
40
0.4510942
50
219.3628377
51
250.0611024
0
ARC
8
DEFAULT_255_1_388
10
5.6234763
20
108.3538653
40
0.5735046
50
193.5480293
51
219.5755675
0
ARC
8
DEFAULT_255_1_388
10
5.8902972
20
108.423152
40
0.849146
50
181.1220183
51
193.8754971
0
ARC
8
DEFAULT_255_1_388
10
6.1226206
20
108.4355914
40
1.0816971
50
179.9914644
51
181.5398227
0
ARC
8
DEFAULT_255_1_388
10
5.9149516
20
108.5664586
40
0.8740384
50
169.5837606
51
180.275782
0
ARC
8
DEFAULT_255_1_388
10
5.7082864
20
108.6046439
40
0.6638751
50
155.0367033
51
169.6002779
0
ARC
8
DEFAULT_255_1_388
10
5.5805322
20
108.6662336
40
0.5220662
50
136.7831557
51
155.2472983
0
ARC
8
DEFAULT_255_1_388
10
5.5367113
20
108.7034577
40
0.4646502
50
121.7633063
51
136.4281161
0
ARC
8
DEFAULT_255_1_388
10
5.5518953
20
108.6754049
40
0.4964979
50
95.6460018
51
121.5489589
0
ARC
8
DEFAULT_255_1_388
10
5.5695927
20
108.5506704
40
0.6223912
50
89.9245727
51
96.1375919
0
ARC
8
DEFAULT_255_1_388
10
5.5752632
20
108.5640721
40
0.6090084
50
76.6779212
51
90.456405
0
ARC
8
DEFAULT_255_1_388
10
5.6195445
20
108.743006
40
0.42469
50
47.4858803
51
76.9287069
0
ARC
8
DEFAULT_255_1_388
10
5.6030059
20
108.7317623
40
0.4441778
50
16.5424081
51
46.8934505
0
ARC
8
DEFAULT_255_1_388
10
5.4221109
20
108.6723265
40
0.6345318
50
5.4072971
51
17.0363711
0
ARC
8
DEFAULT_255_1_388
10
5.2602834
20
108.6463304
40
0.6250632
50
7.8888693
51
15.9242022
0
ARC
8
DEFAULT_255_1_388
10
5.4837819
20
108.7112309
40
0.3923364
50
15.7650676
51
27.9410069
0
ARC
8
DEFAULT_255_1_388
10
5.6079989
20
108.7777317
40
0.2514401
50
27.8167196
51
46.4007942
0
ARC
8
DEFAULT_255_1_388
10
5.613583
20
108.7770882
40
0.2480958
50
47.4372362
51
75.0695672
0
ARC
8
DEFAULT_255_1_388
10
5.5788666
20
108.6562277
40
0.3738281
50
74.7009379
51
87.8124314
0
ARC
8
DEFAULT_255_1_388
10
5.5706283
20
108.5378659
40
0.4924321
50
87.3802571
51
90.0251599
0
ARC
8
DEFAULT_255_1_388
10
5.566293
20
108.6698997
40
0.3604218
50
89.3451886
51
108.5744412
0
ARC
8
DEFAULT_255_1_388
10
5.5508922
20
108.7276836
40
0.3007661
50
109.2998307
51
143.3037387
0
ARC
8
DEFAULT_255_1_388
10
5.6366212
20
108.6617584
40
0.4089031
50
143.075267
51
163.1918576
0
ARC
8
DEFAULT_255_1_388
10
5.8562047
20
108.5924652
40
0.6391492
50
162.9375929
51
174.6208776
0
ARC
8
DEFAULT_255_1_388
10
6.1516428
20
108.5600711
40
0.9363344
50
174.342123
51
180.1430283
0
ARC
8
DEFAULT_255_1_388
10
6.046897
20
108.4257117
40
0.8315986
50
179.6817261
51
189.150555
0
ARC
8
DEFAULT_255_1_388
10
5.7655719
20
108.3788559
40
0.5464044
50
188.9911061
51
203.5772363
0
ARC
8
DEFAULT_255_1_388
10
5.644101
20
108.3284539
40
0.4149206
50
203.9075402
51
215.1312435
0
ARC
8
DEFAULT_255_1_388
10
5.5402808
20
108.2479907
40
0.2837747
50
213.9071511
51
263.8848919
0
ARC
8
DEFAULT_255_1_388
10
5.5543801
20
108.3362519
40
0.3730641
50
263.1757928
51
270.1031044
0
ARC
8
DEFAULT_255_1_388
10
5.5579881
20
108.4765511
40
0.5133712
50
269.6722503
51
279.0606936
0
ARC
8
DEFAULT_255_1_388
10
5.5880036
20
108.295115
40
0.3294739
50
278.8749101
51
293.6349581
0
ARC
8
DEFAULT_255_1_388
10
5.624024
20
108.2105251
40
0.2375405
50
293.8553806
51
310.0518171
0
ARC
8
DEFAULT_255_1_388
10
5.6245749
20
108.2035021
40
0.2318463
50
311.0644687
51
332.0111037
0
ARC
8
DEFAULT_255_1_388
10
5.4904422
20
108.2774702
40
0.3850112
50
331.6586806
51
343.2877423
0
ARC
8
DEFAULT_255_1_388
10
5.2583888
20
108.3487806
40
0.6277712
50
343.1446576
51
351.0103568
0
ARC
8
DEFAULT_255_1_388
10
5.0951211
20
108.3787873
40
0.7937327
50
350.71248
51
351.1626997
0
LINE
8
DEFAULT_255_1_388
10
4.1879448
20
117.0924898
11
4.5620205
21
116.0073089
0
LINE
8
DEFAULT_255_1_388
10
4.5620205
20
116.0073089
11
4.9379033
21
117.0924898
0
LINE
8
DEFAULT_255_1_388
10
4.9379033
20
117.0924898
11
5.1276518
21
117.0924898
0
LINE
8
DEFAULT_255_1_388
10
5.1276518
20
117.0924898
11
4.639727
21
115.7769
0
LINE
8
DEFAULT_255_1_388
10
4.639727
20
115.7769
11
4.486121
21
115.7769
0
LINE
8
DEFAULT_255_1_388
10
4.486121
20
115.7769
11
3.9990998
21
117.0924898
0
LINE
8
DEFAULT_255_1_388
10
3.9990998
20
117.0924898
11
4.1879448
21
117.0924898
0
LINE
8
DEFAULT_255_1_388
10
5.7565327
20
116.8665987
11
5.7565327
21
116.4825838
0
LINE
8
DEFAULT_255_1_388
10
5.7565327
20
116.4825838
11
6.1233798
21
116.4825838
0
LINE
8
DEFAULT_255_1_388
10
6.1233798
20
116.4825838
11
6.1233798
21
116.3244601
0
LINE
8
DEFAULT_255_1_388
10
6.1233798
20
116.3244601
11
5.7565327
21
116.3244601
0
LINE
8
DEFAULT_255_1_388
10
5.7565327
20
116.3244601
11
5.7565327
21
115.9088204
0
LINE
8
DEFAULT_255_1_388
10
5.7565327
20
115.9088204
11
5.5884697
21
115.9088204
0
LINE
8
DEFAULT_255_1_388
10
5.5884697
20
115.9088204
11
5.5884697
21
116.3244601
0
LINE
8
DEFAULT_255_1_388
10
5.5884697
20
116.3244601
11
5.2216225
21
116.3244601
0
LINE
8
DEFAULT_255_1_388
10
5.2216225
20
116.3244601
11
5.2216225
21
116.4825838
0
LINE
8
DEFAULT_255_1_388
10
5.2216225
20
116.4825838
11
5.5884697
21
116.4825838
0
LINE
8
DEFAULT_255_1_388
10
5.5884697
20
116.4825838
11
5.5884697
21
116.8665987
0
LINE
8
DEFAULT_255_1_388
10
5.5884697
20
116.8665987
11
5.7565327
21
116.8665987
0
LINE
8
DEFAULT_255_1_388
10
20.5098094
20
124.2294317
11
20.1998868
21
124.2294317
0
LINE
8
DEFAULT_255_1_388
10
20.1998868
20
124.2294317
11
20.1998868
21
123.7144
0
LINE
8
DEFAULT_255_1_388
10
20.1998868
20
123.7144
11
20.0264024
21
123.7144
0
LINE
8
DEFAULT_255_1_388
10
20.0264024
20
123.7144
11
20.0264024
21
125.0299898
0
LINE
8
DEFAULT_255_1_388
10
20.0264024
20
125.0299898
11
20.5116165
21
125.0299898
0
LINE
8
DEFAULT_255_1_388
10
20.1998868
20
124.8872267
11
20.1998868
21
124.3712914
0
LINE
8
DEFAULT_255_1_388
10
20.1998868
20
124.3712914
11
20.5116165
21
124.3712914
0
LINE
8
DEFAULT_255_1_388
10
20.5215557
20
124.8872267
11
20.1998868
21
124.8872267
0
ARC
8
DEFAULT_255_1_388
10
20.5163538
20
124.3483334
40
0.6816729
50
78.8380084
51
90.398184
0
ARC
8
DEFAULT_255_1_388
10
20.5631569
20
124.5756796
40
0.449571
50
58.9633273
51
79.0810717
0
ARC
8
DEFAULT_255_1_388
10
20.5970953
20
124.6386823
40
0.3781049
50
48.0194715
51
58.4475592
0
ARC
8
DEFAULT_255_1_388
10
20.6070773
20
124.6482818
40
0.3642936
50
3.3374546
51
48.1766642
0
ARC
8
DEFAULT_255_1_388
10
20.468558
20
124.6283581
40
0.5038766
50
359.9483251
51
4.6822857
0
ARC
8
DEFAULT_255_1_388
10
20.4825503
20
124.6235779
40
0.4899031
50
346.1879032
51
0.5059221
0
ARC
8
DEFAULT_255_1_388
10
20.6354295
20
124.5838763
40
0.3319729
50
310.8832219
51
346.5426612
0
ARC
8
DEFAULT_255_1_388
10
20.6007143
20
124.6307853
40
0.3901853
50
286.6925305
51
310.228778
0
ARC
8
DEFAULT_255_1_388
10
20.5366873
20
124.8321585
40
0.6014737
50
274.6848219
51
287.0247342
0
ARC
8
DEFAULT_255_1_388
10
20.5113422
20
125.0806088
40
0.8511785
50
269.8968222
51
275.0192639
0
ARC
8
DEFAULT_255_1_388
10
20.5144415
20
124.8468144
40
0.4755314
50
269.6596206
51
279.4150542
0
ARC
8
DEFAULT_255_1_388
10
20.5433873
20
124.6790945
40
0.3053379
50
279.2050006
51
294.9901776
0
ARC
8
DEFAULT_255_1_388
10
20.5760508
20
124.6062353
40
0.2255036
50
295.2886769
51
311.2912669
0
ARC
8
DEFAULT_255_1_388
10
20.5840249
20
124.5943938
40
0.2113522
50
311.7853512
51
347.2860549
0
ARC
8
DEFAULT_255_1_388
10
20.473341
20
124.622843
40
0.3256011
50
346.6891629
51
0.1057086
0
ARC
8
DEFAULT_255_1_388
10
20.381087
20
124.6261247
40
0.417863
50
359.63239
51
359.9961329
0
ARC
8
DEFAULT_255_1_388
10
20.4975475
20
124.6288987
40
0.3014155
50
359.4673371
51
15.5931159
0
ARC
8
DEFAULT_255_1_388
10
20.5678538
20
124.6478937
40
0.2285918
50
15.7441779
51
46.620186
0
ARC
8
DEFAULT_255_1_388
10
20.5512298
20
124.6287361
40
0.2539359
50
46.8628482
51
75.6676625
0
ARC
8
DEFAULT_255_1_388
10
20.5181354
20
124.5096243
40
0.3775415
50
75.2763152
51
88.2916439
0
ARC
8
DEFAULT_255_1_388
10
20.5115354
20
124.4094097
40
0.4779221
50
87.8589087
51
88.7986197
0
LINE
8
DEFAULT_255_1_388
10
21.2697071
20
125.0299898
11
21.4775269
21
124.1291361
0
LINE
8
DEFAULT_255_1_388
10
21.4775269
20
124.1291361
11
21.5028267
21
123.9556517
0
LINE
8
DEFAULT_255_1_388
10
21.5028267
20
123.9556517
11
21.5398729
21
124.1119684
0
LINE
8
DEFAULT_255_1_388
10
21.5398729
20
124.1119684
11
21.8000994
21
125.0299898
0
LINE
8
DEFAULT_255_1_388
10
21.8000994
20
125.0299898
11
21.9464769
21
125.0299898
0
LINE
8
DEFAULT_255_1_388
10
21.9464769
20
125.0299898
11
22.2003785
21
124.1119684
0
LINE
8
DEFAULT_255_1_388
10
22.2003785
20
124.1119684
11
22.236521
21
123.952941
0
LINE
8
DEFAULT_255_1_388
10
22.236521
20
123.952941
11
22.2645315
21
124.1300396
0
LINE
8
DEFAULT_255_1_388
10
22.2645315
20
124.1300396
11
22.4687371
21
125.0299898
0
LINE
8
DEFAULT_255_1_388
10
22.4687371
20
125.0299898
11
22.643125
21
125.0299898
0
LINE
8
DEFAULT_255_1_388
10
22.643125
20
125.0299898
11
22.3241668
21
123.7144
0
LINE
8
DEFAULT_255_1_388
10
22.3241668
20
123.7144
11
22.166043
21
123.7144
0
LINE
8
DEFAULT_255_1_388
10
22.166043
20
123.7144
11
21.8949737
21
124.6730819
0
LINE
8
DEFAULT_255_1_388
10
21.8949737
20
124.6730819
11
21.8741917
21
124.7733775
0
LINE
8
DEFAULT_255_1_388
10
21.8741917
20
124.7733775
11
21.8534097
21
124.6730819
0
LINE
8
DEFAULT_255_1_388
10
21.8534097
20
124.6730819
11
21.5724012
21
123.7144
0
LINE
8
DEFAULT_255_1_388
10
21.5724012
20
123.7144
11
21.4142774
21
123.7144
0
LINE
8
DEFAULT_255_1_388
10
21.4142774
20
123.7144
11
21.0962227
21
125.0299898
0
LINE
8
DEFAULT_255_1_388
10
21.0962227
20
125.0299898
11
21.2697071
21
125.0299898
0
LINE
8
DEFAULT_255_1_388
10
23.6036141
20
123.7144
11
23.3180877
21
124.2465995
0
LINE
8
DEFAULT_255_1_388
10
23.3180877
20
124.2465995
11
23.0090687
21
124.2465995
0
LINE
8
DEFAULT_255_1_388
10
23.0090687
20
124.2465995
11
23.0090687
21
123.7144
0
LINE
8
DEFAULT_255_1_388
10
23.0090687
20
123.7144
11
22.8346807
21
123.7144
0
LINE
8
DEFAULT_255_1_388
10
22.8346807
20
123.7144
11
22.8346807
21
125.0299898
0
LINE
8
DEFAULT_255_1_388
10
22.8346807
20
125.0299898
11
23.2701988
21
125.0299898
0
LINE
8
DEFAULT_255_1_388
10
23.4807293
20
124.2836456
11
23.7897483
21
123.7252428
0
LINE
8
DEFAULT_255_1_388
10
23.7897483
20
123.7252428
11
23.7897483
21
123.7144
0
LINE
8
DEFAULT_255_1_388
10
23.7897483
20
123.7144
11
23.6036141
21
123.7144
0
LINE
8
DEFAULT_255_1_388
10
23.0090687
20
124.8872267
11
23.0090687
21
124.3884591
0
LINE
8
DEFAULT_255_1_388
10
23.0090687
20
124.3884591
11
23.2756202
21
124.3884591
0
LINE
8
DEFAULT_255_1_388
10
23.2747166
20
124.8872267
11
23.0090687
21
124.8872267
0
ARC
8
DEFAULT_255_1_388
10
23.2748834
20
124.2468346
40
0.7831693
50
80.6535681
51
90.3427203
0
ARC
8
DEFAULT_255_1_388
10
23.3220744
20
124.5238722
40
0.5021479
50
65.6987674
51
80.8330164
0
ARC
8
DEFAULT_255_1_388
10
23.3758038
20
124.6470479
40
0.3677787
50
50.0019152
51
65.4304412
0
ARC
8
DEFAULT_255_1_388
10
23.4003854
20
124.6802603
40
0.3265454
50
11.6284215
51
49.5603681
0
ARC
8
DEFAULT_255_1_388
10
23.227634
20
124.6380524
40
0.5043009
50
359.5655533
51
12.3693319
0
ARC
8
DEFAULT_255_1_388
10
23.3487676
20
124.6310038
40
0.3831661
50
341.998418
51
0.4822212
0
ARC
8
DEFAULT_255_1_388
10
23.3931863
20
124.6189479
40
0.3372036
50
323.8610842
51
341.6141514
0
ARC
8
DEFAULT_255_1_388
10
23.3592409
20
124.6451615
40
0.3800784
50
296.7019299
51
323.6876213
0
ARC
8
DEFAULT_255_1_388
10
23.3096367
20
124.7338532
40
0.4816219
50
290.808313
51
297.2325929
0
ARC
8
DEFAULT_255_1_388
10
23.2785161
20
124.7927377
40
0.404289
50
269.5895908
51
281.8058892
0
ARC
8
DEFAULT_255_1_388
10
23.3067427
20
124.663636
40
0.2721459
50
281.5499321
51
303.9358954
0
ARC
8
DEFAULT_255_1_388
10
23.3221961
20
124.6368588
40
0.2413121
50
304.4410786
51
311.211123
0
ARC
8
DEFAULT_255_1_388
10
23.3370367
20
124.6212152
40
0.2197678
50
310.9874923
51
356.2715203
0
ARC
8
DEFAULT_255_1_388
10
23.2520113
20
124.6338992
40
0.3055212
50
354.9346315
51
0.0617816
0
ARC
8
DEFAULT_255_1_388
10
23.2308954
20
124.6369427
40
0.3266482
50
359.5239293
51
12.8808621
0
ARC
8
DEFAULT_255_1_388
10
23.3408716
20
124.6638638
40
0.2134449
50
12.417206
51
43.1023141
0
ARC
8
DEFAULT_255_1_388
10
23.3478047
20
124.6680253
40
0.2055463
50
43.575886
51
48.2047245
0
ARC
8
DEFAULT_255_1_388
10
23.3287308
20
124.6431151
40
0.2368418
50
48.7809155
51
72.6968768
0
ARC
8
DEFAULT_255_1_388
10
23.2888671
20
124.5221385
40
0.364206
50
72.3699892
51
84.8793749
0
ARC
8
DEFAULT_255_1_388
10
23.2722677
20
124.3711651
40
0.5160674
50
84.5398226
51
89.7281165
0
LINE
8
DEFAULT_255_1_388
10
24.296648
20
124.3414737
11
24.296648
21
124.2050355
0
LINE
8
DEFAULT_255_1_388
10
24.296648
20
124.2050355
11
23.8557085
21
124.2050355
0
LINE
8
DEFAULT_255_1_388
10
23.8557085
20
124.2050355
11
23.8557085
21
124.3414737
0
LINE
8
DEFAULT_255_1_388
10
23.8557085
20
124.3414737
11
24.296648
21
124.3414737
0
LINE
8
DEFAULT_255_1_388
10
24.3076342
20
21.1819842
11
24.3076342
21
20.6994808
0
LINE
8
DEFAULT_255_1_388
10
23.2938349
20
21.1214454
11
23.2938349
21
21.2361981
0
LINE
8
DEFAULT_255_1_388
10
24.3076342
20
21.4566678
11
24.1341498
21
21.4566678
0
LINE
8
DEFAULT_255_1_388
10
23.4682228
20
21.2407159
11
23.4682228
21
21.1331917
0
LINE
8
DEFAULT_255_1_388
10
24.1350534
20
20.7455626
11
24.1350534
21
21.0410282
0
LINE
8
DEFAULT_255_1_388
10
24.1350534
20
21.0410282
11
23.8305521
21
21.0410282
0
LINE
8
DEFAULT_255_1_388
10
23.8305521
20
21.0410282
11
23.8305521
21
21.1819842
0
LINE
8
DEFAULT_255_1_388
10
23.8305521
20
21.1819842
11
24.3076342
21
21.1819842
0
ARC
8
DEFAULT_255_1_388
10
23.9890942
20
20.9237284
40
0.3895571
50
295.8437277
51
324.8549962
0
ARC
8
DEFAULT_255_1_388
10
23.9423325
20
21.0083619
40
0.4861381
50
291.5691164
51
296.4556269
0
ARC
8
DEFAULT_255_1_388
10
23.8848327
20
21.1619801
40
0.6501442
50
278.6622213
51
291.3047061
0
ARC
8
DEFAULT_255_1_388
10
23.8466359
20
21.4036557
40
0.8948168
50
270.0200506
51
278.7494673
0
ARC
8
DEFAULT_255_1_388
10
23.8422563
20
21.5882453
40
1.0794166
50
270.0022372
51
270.2490917
0
ARC
8
DEFAULT_255_1_388
10
23.8380456
20
21.0923827
40
0.5835695
50
253.5785313
51
270.4175629
0
ARC
8
DEFAULT_255_1_388
10
23.8185452
20
21.0168625
40
0.5056241
50
238.8203954
51
253.2788387
0
ARC
8
DEFAULT_255_1_388
10
23.8163367
20
21.0111224
40
0.4995712
50
206.7883476
51
238.696262
0
ARC
8
DEFAULT_255_1_388
10
23.9038763
20
21.0635847
40
0.6014056
50
206.1137778
51
207.4912776
0
ARC
8
DEFAULT_255_1_388
10
23.9705599
20
21.0919284
40
0.6737692
50
188.6922336
51
205.782076
0
ARC
8
DEFAULT_255_1_388
10
24.1793958
20
21.1274455
40
0.8855812
50
180.3881972
51
188.9218085
0
ARC
8
DEFAULT_255_1_388
10
24.3175116
20
21.2425622
40
1.0236965
50
170.2024645
51
180.3561986
0
ARC
8
DEFAULT_255_1_388
10
23.9616266
20
21.3062101
40
0.6621746
50
154.2856519
51
170.3893388
0
ARC
8
DEFAULT_255_1_388
10
23.817423
20
21.3722192
40
0.5036209
50
139.8400879
51
153.9334639
0
ARC
8
DEFAULT_255_1_388
10
23.7770133
20
21.4045716
40
0.4518751
50
98.4190017
51
139.6707015
0
ARC
8
DEFAULT_255_1_388
10
23.8197101
20
21.1969755
40
0.6635912
50
89.7660128
51
99.4415389
0
ARC
8
DEFAULT_255_1_388
10
23.8270497
20
21.2043517
40
0.6562258
50
78.0552044
51
90.4042252
0
ARC
8
DEFAULT_255_1_388
10
23.8725561
20
21.4089661
40
0.4466287
50
54.6380186
51
78.3338577
0
ARC
8
DEFAULT_255_1_388
10
23.8939859
20
21.4450444
40
0.4048184
50
50.0313964
51
54.1562739
0
ARC
8
DEFAULT_255_1_388
10
23.8818753
20
21.4341798
40
0.4209308
50
18.1092229
51
49.7179911
0
ARC
8
DEFAULT_255_1_388
10
23.7179833
20
21.3741399
40
0.5953982
50
7.967396
51
18.698492
0
ARC
8
DEFAULT_255_1_388
10
23.7349094
20
21.3880236
40
0.4050986
50
9.7558763
51
27.3214087
0
ARC
8
DEFAULT_255_1_388
10
23.8617559
20
21.4514087
40
0.2633168
50
27.736147
51
84.5257861
0
ARC
8
DEFAULT_255_1_388
10
23.8248968
20
21.2664988
40
0.4513019
50
82.1064239
51
90.1997295
0
ARC
8
DEFAULT_255_1_388
10
23.8192985
20
21.3236501
40
0.3941684
50
89.4148952
51
105.5824837
0
ARC
8
DEFAULT_255_1_388
10
23.7903865
20
21.4289043
40
0.2850167
50
105.6678541
51
144.2649156
0
ARC
8
DEFAULT_255_1_388
10
23.8908758
20
21.3574024
40
0.4083468
50
144.3560675
51
162.8564185
0
ARC
8
DEFAULT_255_1_388
10
24.12532
20
21.2821083
40
0.6545749
50
162.6076338
51
173.6779811
0
ARC
8
DEFAULT_255_1_388
10
24.4697315
20
21.2402422
40
1.0015089
50
173.4670996
51
179.9729015
0
ARC
8
DEFAULT_255_1_388
10
24.2550186
20
21.1284636
40
0.78681
50
179.6556955
51
190.007958
0
ARC
8
DEFAULT_255_1_388
10
23.9944468
20
21.080666
40
0.5218997
50
189.8117884
51
206.6795375
0
ARC
8
DEFAULT_255_1_388
10
23.8993914
20
21.0363514
40
0.4170788
50
207.1031171
51
217.7074698
0
ARC
8
DEFAULT_255_1_388
10
23.8280344
20
20.9742596
40
0.3226945
50
216.7345117
51
265.6812141
0
ARC
8
DEFAULT_255_1_388
10
23.8427486
20
21.076003
40
0.4253149
50
264.7367524
51
270.0610826
0
ARC
8
DEFAULT_255_1_388
10
23.8453672
20
21.3955173
40
0.7448321
50
269.8334494
51
276.0538364
0
ARC
8
DEFAULT_255_1_388
10
23.8686534
20
21.1815924
40
0.5296446
50
275.9894423
51
284.4615914
0
ARC
8
DEFAULT_255_1_388
10
23.8908047
20
21.088357
40
0.4338353
50
284.7038488
51
286.4938196
0
ARC
8
DEFAULT_255_1_388
10
23.9367196
20
20.9404371
40
0.2789738
50
286.0770429
51
304.2629628
0
ARC
8
DEFAULT_255_1_388
10
23.9517354
20
20.915868
40
0.2502188
50
304.5886247
51
317.1074126
0
LINE
8
DEFAULT_255_1_388
10
20.7701018
20
29.7799898
11
20.9779216
21
28.8791361
0
LINE
8
DEFAULT_255_1_388
10
20.9779216
20
28.8791361
11
21.0032214
21
28.7056517
0
LINE
8
DEFAULT_255_1_388
10
21.0032214
20
28.7056517
11
21.0402676
21
28.8619684
0
LINE
8
DEFAULT_255_1_388
10
21.0402676
20
28.8619684
11
21.3004941
21
29.7799898
0
LINE
8
DEFAULT_255_1_388
10
21.3004941
20
29.7799898
11
21.4468716
21
29.7799898
0
LINE
8
DEFAULT_255_1_388
10
21.4468716
20
29.7799898
11
21.7007732
21
28.8619684
0
LINE
8
DEFAULT_255_1_388
10
21.7007732
20
28.8619684
11
21.7369158
21
28.702941
0
LINE
8
DEFAULT_255_1_388
10
21.7369158
20
28.702941
11
21.7649263
21
28.8800396
0
LINE
8
DEFAULT_255_1_388
10
21.7649263
20
28.8800396
11
21.9691318
21
29.7799898
0
LINE
8
DEFAULT_255_1_388
10
21.9691318
20
29.7799898
11
22.1435198
21
29.7799898
0
LINE
8
DEFAULT_255_1_388
10
22.1435198
20
29.7799898
11
21.8245615
21
28.4644
0
LINE
8
DEFAULT_255_1_388
10
21.8245615
20
28.4644
11
21.6664377
21
28.4644
0
LINE
8
DEFAULT_255_1_388
10
21.6664377
20
28.4644
11
21.3953684
21
29.4230819
0
LINE
8
DEFAULT_255_1_388
10
21.3953684
20
29.4230819
11
21.3745864
21
29.5233775
0
LINE
8
DEFAULT_255_1_388
10
21.3745864
20
29.5233775
11
21.3538044
21
29.4230819
0
LINE
8
DEFAULT_255_1_388
10
21.3538044
20
29.4230819
11
21.0727959
21
28.4644
0
LINE
8
DEFAULT_255_1_388
10
21.0727959
20
28.4644
11
20.9146721
21
28.4644
0
LINE
8
DEFAULT_255_1_388
10
20.9146721
20
28.4644
11
20.5966174
21
29.7799898
0
LINE
8
DEFAULT_255_1_388
10
20.5966174
20
29.7799898
11
20.7701018
21
29.7799898
0
LINE
8
DEFAULT_255_1_388
10
22.3956143
20
29.7799898
11
22.7371616
21
29.1194842
0
LINE
8
DEFAULT_255_1_388
10
22.7371616
20
29.1194842
11
23.0805161
21
29.7799898
0
LINE
8
DEFAULT_255_1_388
10
23.0805161
20
29.7799898
11
23.2774932
21
29.7799898
0
LINE
8
DEFAULT_255_1_388
10
23.2774932
20
29.7799898
11
22.8239038
21
28.9550355
0
LINE
8
DEFAULT_255_1_388
10
22.8239038
20
28.9550355
11
22.8239038
21
28.4644
0
LINE
8
DEFAULT_255_1_388
10
22.8239038
20
28.4644
11
22.6504194
21
28.4644
0
LINE
8
DEFAULT_255_1_388
10
22.6504194
20
28.4644
11
22.6504194
21
28.9550355
0
LINE
8
DEFAULT_255_1_388
10
22.6504194
20
28.9550355
11
22.1968301
21
29.7799898
0
LINE
8
DEFAULT_255_1_388
10
22.1968301
20
29.7799898
11
22.3956143
21
29.7799898
0
LINE
8
DEFAULT_255_1_388
10
24.2289465
20
29.242369
11
24.2289465
21
29.0255135
0
LINE
8
DEFAULT_255_1_388
10
23.3985708
20
29.0029244
11
23.3985708
21
29.2261048
0
LINE
8
DEFAULT_255_1_388
10
24.0617871
20
28.9803353
11
24.0617871
21
29.2541153
0
LINE
8
DEFAULT_255_1_388
10
23.5657302
20
29.2667652
11
23.5657302
21
28.9993102
0
ARC
8
DEFAULT_255_1_388
10
22.8511799
20
29.0200118
40
1.3777776
50
353.8440855
51
0.2287917
0
ARC
8
DEFAULT_255_1_388
10
23.3730817
20
28.9617414
40
0.852639
50
344.4934746
51
353.9763743
0
ARC
8
DEFAULT_255_1_388
10
23.7097624
20
28.8660191
40
0.5026273
50
329.2803599
51
344.7473406
0
ARC
8
DEFAULT_255_1_388
10
23.821312
20
28.8048038
40
0.3754848
50
324.9361395
51
328.6153007
0
ARC
8
DEFAULT_255_1_388
10
23.8638769
20
28.7750586
40
0.3235566
50
280.5801797
51
324.9173226
0
ARC
8
DEFAULT_255_1_388
10
23.8187398
20
28.9630236
40
0.5167077
50
269.5979457
51
281.6732777
0
ARC
8
DEFAULT_255_1_388
10
23.8106302
20
28.9495113
40
0.5032026
50
256.6228565
51
270.5105488
0
ARC
8
DEFAULT_255_1_388
10
23.7654044
20
28.7753345
40
0.3233092
50
215.8618351
51
257.2787793
0
ARC
8
DEFAULT_255_1_388
10
23.8802751
20
28.8524106
40
0.4615831
50
197.9695203
51
215.2622745
0
ARC
8
DEFAULT_255_1_388
10
24.1598427
20
28.9467641
40
0.7566307
50
187.8816486
51
198.2346584
0
ARC
8
DEFAULT_255_1_388
10
24.6051665
20
29.0110453
40
1.2065653
50
180.8977266
51
188.0054894
0
ARC
8
DEFAULT_255_1_388
10
24.9101879
20
29.02254
40
1.5117443
50
180.7434591
51
181.152202
0
ARC
8
DEFAULT_255_1_388
10
24.7426875
20
29.2315371
40
1.3441277
50
173.7674302
51
180.2315596
0
ARC
8
DEFAULT_255_1_388
10
24.2344744
20
29.2889779
40
0.8326847
50
164.3058537
51
173.9000553
0
ARC
8
DEFAULT_255_1_388
10
23.9068744
20
29.3833652
40
0.4917711
50
148.7922028
51
164.5682288
0
ARC
8
DEFAULT_255_1_388
10
23.7999481
20
29.4430457
40
0.3694204
50
144.5883979
51
148.1161588
0
ARC
8
DEFAULT_255_1_388
10
23.7612226
20
29.4700667
40
0.322202
50
101.6440149
51
144.5142619
0
ARC
8
DEFAULT_255_1_388
10
23.8090419
20
29.2800337
40
0.5180451
50
89.528284
51
102.5820197
0
ARC
8
DEFAULT_255_1_388
10
23.8179411
20
29.2756376
40
0.5224441
50
77.0437914
51
90.508231
0
ARC
8
DEFAULT_255_1_388
10
23.8631664
20
29.4604272
40
0.3322297
50
48.2777708
51
77.4996087
0
ARC
8
DEFAULT_255_1_388
10
23.8713404
20
29.4749557
40
0.315966
50
36.3141586
51
47.6307332
0
ARC
8
DEFAULT_255_1_388
10
23.7736126
20
29.4091159
40
0.4337313
50
18.2931065
51
35.6770203
0
ARC
8
DEFAULT_255_1_388
10
23.4874967
20
29.3109107
40
0.7362203
50
8.0246996
51
18.5605636
0
ARC
8
DEFAULT_255_1_388
10
23.0191323
20
29.2417432
40
1.2096583
50
1.127539
51
8.1718423
0
ARC
8
DEFAULT_255_1_388
10
22.6542456
20
29.2274374
40
1.5747719
50
0.5432713
51
1.38669
0
ARC
8
DEFAULT_255_1_388
10
22.8599835
20
29.2581163
40
1.2018103
50
359.8092569
51
4.9408001
0
ARC
8
DEFAULT_255_1_388
10
23.3336416
20
29.30039
40
0.7262727
50
4.8364937
51
12.2906017
0
ARC
8
DEFAULT_255_1_388
10
23.6435881
20
29.3694485
40
0.4087324
50
12.0806994
51
23.8171225
0
ARC
8
DEFAULT_255_1_388
10
23.7756277
20
29.4253508
40
0.2653719
50
24.2874621
51
31.3934353
0
ARC
8
DEFAULT_255_1_388
10
23.8346713
20
29.4639822
40
0.1948607
50
30.7407708
51
82.4658033
0
ARC
8
DEFAULT_255_1_388
10
23.8144374
20
29.3646017
40
0.2961198
50
81.1057101
51
90.2187368
0
ARC
8
DEFAULT_255_1_388
10
23.8104186
20
29.3936421
40
0.2670929
50
89.380395
51
105.6763916
0
ARC
8
DEFAULT_255_1_388
10
23.7897908
20
29.468632
40
0.1893189
50
105.7980655
51
149.7387869
0
ARC
8
DEFAULT_255_1_388
10
23.9095048
20
29.3966719
40
0.3289892
50
149.4208441
51
163.628295
0
ARC
8
DEFAULT_255_1_388
10
24.1447277
20
29.3249345
40
0.5749004
50
163.3764549
51
172.141138
0
ARC
8
DEFAULT_255_1_388
10
24.5159999
20
29.2717582
40
0.9499585
50
172.0258462
51
178.0705453
0
ARC
8
DEFAULT_255_1_388
10
24.8581551
20
29.2555682
40
1.2924734
50
177.8639301
51
179.5036263
0
ARC
8
DEFAULT_255_1_388
10
24.736257
20
28.9952151
40
1.170534
50
179.7995545
51
185.246089
0
ARC
8
DEFAULT_255_1_388
10
24.2814163
20
28.9521404
40
0.7136613
50
185.1411911
51
193.0082205
0
ARC
8
DEFAULT_255_1_388
10
23.9840424
20
28.8818441
40
0.4080987
50
192.7897338
51
205.2507384
0
ARC
8
DEFAULT_255_1_388
10
23.8662634
20
28.8292538
40
0.2791522
50
205.8001921
51
211.2545876
0
ARC
8
DEFAULT_255_1_388
10
23.8074173
20
28.7898132
40
0.2084074
50
210.3789935
51
238.4007996
0
ARC
8
DEFAULT_255_1_388
10
23.8052259
20
28.7950786
40
0.2117943
50
239.6521916
51
265.9793852
0
ARC
8
DEFAULT_255_1_388
10
23.8148108
20
28.8707358
40
0.2879689
50
265.1324455
51
270.0603288
0
ARC
8
DEFAULT_255_1_388
10
23.8180485
20
28.8342418
40
0.2514919
50
269.3314378
51
287.2180039
0
ARC
8
DEFAULT_255_1_388
10
23.8335567
20
28.7776291
40
0.1928357
50
287.7957942
51
329.0808983
0
ARC
8
DEFAULT_255_1_388
10
23.7258324
20
28.8448651
40
0.319808
50
328.6635261
51
343.3325043
0
ARC
8
DEFAULT_255_1_388
10
23.4813783
20
28.9210195
40
0.5758408
50
343.0498092
51
351.9392499
0
ARC
8
DEFAULT_255_1_388
10
23.0913105
20
28.9785205
40
0.9701202
50
351.8071632
51
357.7957897
0
ARC
8
DEFAULT_255_1_388
10
22.7278582
20
28.9973724
40
1.3340376
50
357.5870923
51
359.2682493
0
LINE
8
DEFAULT_255_1_388
10
22.3954376
20
37.7174898
11
22.736985
21
37.0569842
0
LINE
8
DEFAULT_255_1_388
10
22.736985
20
37.0569842
11
23.0803395
21
37.7174898
0
LINE
8
DEFAULT_255_1_388
10
23.0803395
20
37.7174898
11
23.2773166
21
37.7174898
0
LINE
8
DEFAULT_255_1_388
10
23.2773166
20
37.7174898
11
22.8237272
21
36.8925355
0
LINE
8
DEFAULT_255_1_388
10
22.8237272
20
36.8925355
11
22.8237272
21
36.4019
0
LINE
8
DEFAULT_255_1_388
10
22.8237272
20
36.4019
11
22.6502428
21
36.4019
0
LINE
8
DEFAULT_255_1_388
10
22.6502428
20
36.4019
11
22.6502428
21
36.8925355
0
LINE
8
DEFAULT_255_1_388
10
22.6502428
20
36.8925355
11
22.1966535
21
37.7174898
0
LINE
8
DEFAULT_255_1_388
10
22.1966535
20
37.7174898
11
22.3954376
21
37.7174898
0
LINE
8
DEFAULT_255_1_388
10
24.2531662
20
37.7174898
11
24.2531662
21
37.6235191
0
LINE
8
DEFAULT_255_1_388
10
24.2531662
20
37.6235191
11
23.7083168
21
36.4019
0
LINE
8
DEFAULT_255_1_388
10
23.7083168
20
36.4019
11
23.5330253
21
36.4019
0
LINE
8
DEFAULT_255_1_388
10
23.5330253
20
36.4019
11
24.0760675
21
37.580148
0
LINE
8
DEFAULT_255_1_388
10
24.0760675
20
37.580148
11
23.3640587
21
37.580148
0
LINE
8
DEFAULT_255_1_388
10
23.3640587
20
37.580148
11
23.3640587
21
37.7174898
0
LINE
8
DEFAULT_255_1_388
10
23.3640587
20
37.7174898
11
24.2531662
21
37.7174898
0
LINE
8
DEFAULT_255_1_388
10
22.3954376
20
45.6549898
11
22.736985
21
44.9944842
0
LINE
8
DEFAULT_255_1_388
10
22.736985
20
44.9944842
11
23.0803395
21
45.6549898
0
LINE
8
DEFAULT_255_1_388
10
23.0803395
20
45.6549898
11
23.2773166
21
45.6549898
0
LINE
8
DEFAULT_255_1_388
10
23.2773166
20
45.6549898
11
22.8237272
21
44.8300355
0
LINE
8
DEFAULT_255_1_388
10
22.8237272
20
44.8300355
11
22.8237272
21
44.3394
0
LINE
8
DEFAULT_255_1_388
10
22.8237272
20
44.3394
11
22.6502428
21
44.3394
0
LINE
8
DEFAULT_255_1_388
10
22.6502428
20
44.3394
11
22.6502428
21
44.8300355
0
LINE
8
DEFAULT_255_1_388
10
22.6502428
20
44.8300355
11
22.1966535
21
45.6549898
0
LINE
8
DEFAULT_255_1_388
10
22.1966535
20
45.6549898
11
22.3954376
21
45.6549898
0
LINE
8
DEFAULT_255_1_388
10
24.0299857
20
45.6558934
11
24.0598034
21
45.6558934
0
LINE
8
DEFAULT_255_1_388
10
24.0598034
20
45.6558934
11
24.0598034
21
45.5140338
0
LINE
8
DEFAULT_255_1_388
10
24.0598034
20
45.5140338
11
24.0290822
21
45.5140338
0
LINE
8
DEFAULT_255_1_388
10
23.4137548
20
44.8399747
11
23.4137548
21
44.9041278
0
LINE
8
DEFAULT_255_1_388
10
23.5818178
20
44.8824422
11
23.5818178
21
44.8209999
0
ARC
8
DEFAULT_255_1_388
10
24.0349713
20
44.9517826
40
0.562282
50
90.6001079
51
104.5146616
0
ARC
8
DEFAULT_255_1_388
10
23.9912673
20
45.11431
40
0.3939917
50
104.2855758
51
133.8630124
0
ARC
8
DEFAULT_255_1_388
10
24.0096926
20
45.1021243
40
0.4155734
50
134.5304124
51
161.6210222
0
ARC
8
DEFAULT_255_1_388
10
24.1956858
20
45.0365421
40
0.6127682
50
161.2850533
51
174.2074364
0
ARC
8
DEFAULT_255_1_388
10
24.3546425
20
45.0146437
40
0.7731446
50
173.7817938
51
174.9251711
0
ARC
8
DEFAULT_255_1_388
10
23.8420618
20
44.859127
40
0.3412588
50
95.8332067
51
138.995412
0
ARC
8
DEFAULT_255_1_388
10
23.8671898
20
44.7152695
40
0.4870358
50
89.8755506
51
97.0540979
0
ARC
8
DEFAULT_255_1_388
10
23.8725288
20
44.8092841
40
0.3930432
50
71.6407016
51
90.6240821
0
ARC
8
DEFAULT_255_1_388
10
23.8894681
20
44.8716433
40
0.3285421
50
39.6368051
51
71.0190743
0
ARC
8
DEFAULT_255_1_388
10
23.8178589
20
44.8097586
40
0.4231706
50
10.6588054
51
39.9044509
0
ARC
8
DEFAULT_255_1_388
10
23.6437134
20
44.7719223
40
0.60133
50
359.6827842
51
11.1326896
0
ARC
8
DEFAULT_255_1_388
10
23.639247
20
44.7639715
40
0.6058047
50
347.2485908
51
0.4371098
0
ARC
8
DEFAULT_255_1_388
10
23.8268255
20
44.7188379
40
0.4128987
50
318.1408565
51
347.6118497
0
ARC
8
DEFAULT_255_1_388
10
23.8633852
20
44.6887903
40
0.3656244
50
275.6342406
51
317.824739
0
ARC
8
DEFAULT_255_1_388
10
23.8385373
20
44.8349827
40
0.513655
50
269.8872513
51
276.7916069
0
ARC
8
DEFAULT_255_1_388
10
23.8323566
20
44.7196181
40
0.398323
50
246.9139443
51
270.7436787
0
ARC
8
DEFAULT_255_1_388
10
23.8330762
20
44.7036044
40
0.3839368
50
218.1665534
51
245.8780431
0
ARC
8
DEFAULT_255_1_388
10
23.9320134
20
44.7863903
40
0.5128958
50
191.4115343
51
218.6077624
0
ARC
8
DEFAULT_255_1_388
10
24.150045
20
44.8352777
40
0.7363054
50
179.6344971
51
191.7836758
0
ARC
8
DEFAULT_255_1_388
10
24.7780324
20
44.9116495
40
1.3642984
50
171.4523743
51
180.3158856
0
ARC
8
DEFAULT_255_1_388
10
24.2836052
20
44.9885895
40
0.8639311
50
157.9802296
51
171.6246761
0
ARC
8
DEFAULT_255_1_388
10
24.0345402
20
45.0879038
40
0.5958004
50
141.4299236
51
157.8541251
0
ARC
8
DEFAULT_255_1_388
10
23.9623486
20
45.1389746
40
0.5075416
50
102.871586
51
140.8564533
0
ARC
8
DEFAULT_255_1_388
10
24.0352038
20
44.8644943
40
0.7914163
50
90.377773
51
103.5868422
0
ARC
8
DEFAULT_255_1_388
10
23.8396559
20
44.7964543
40
0.2667015
50
89.8751238
51
126.2072139
0
ARC
8
DEFAULT_255_1_388
10
23.844803
20
44.7790847
40
0.2838229
50
124.9742447
51
144.8960197
0
ARC
8
DEFAULT_255_1_388
10
23.8250275
20
44.7951981
40
0.2583845
50
145.2974778
51
160.2660922
0
ARC
8
DEFAULT_255_1_388
10
24.1706764
20
44.8174151
40
0.5888695
50
179.6512124
51
190.285571
0
ARC
8
DEFAULT_255_1_388
10
23.9801243
20
44.7814968
40
0.3949683
50
190.0944895
51
207.5099647
0
ARC
8
DEFAULT_255_1_388
10
23.9164825
20
44.7512177
40
0.3245464
50
207.9585471
51
216.325377
0
ARC
8
DEFAULT_255_1_388
10
23.8782462
20
44.7197712
40
0.2751259
50
215.7661336
51
232.5457193
0
ARC
8
DEFAULT_255_1_388
10
23.8351578
20
44.6650273
40
0.2054668
50
232.8005815
51
270.6605497
0
ARC
8
DEFAULT_255_1_388
10
23.8403002
20
44.7059853
40
0.2464268
50
269.3550767
51
288.474612
0
ARC
8
DEFAULT_255_1_388
10
23.8507509
20
44.6666721
40
0.2058436
50
289.1831976
51
322.9685307
0
ARC
8
DEFAULT_255_1_388
10
23.7819611
20
44.7209279
40
0.2934408
50
322.6007085
51
346.5183319
0
ARC
8
DEFAULT_255_1_388
10
23.6517367
20
44.7541434
40
0.4278249
50
346.2584622
51
358.7739592
0
ARC
8
DEFAULT_255_1_388
10
23.5365942
20
44.7603829
40
0.5430876
50
358.3757628
51
0.0082477
0
ARC
8
DEFAULT_255_1_388
10
23.6222761
20
44.7634856
40
0.4574157
50
359.6211417
51
11.28403
0
ARC
8
DEFAULT_255_1_388
10
23.7659367
20
44.7934535
40
0.3106708
50
11.0483152
51
31.8145585
0
ARC
8
DEFAULT_255_1_388
10
23.8007072
20
44.8123045
40
0.2711963
50
32.3028554
51
38.0820598
0
ARC
8
DEFAULT_255_1_388
10
23.8480305
20
44.8551717
40
0.2075566
50
36.8249851
51
85.741667
0
ARC
8
DEFAULT_255_1_388
10
23.8404718
20
44.7988065
40
0.2643487
50
85.0150021
51
90.050843
0
LINE
8
DEFAULT_255_1_388
10
22.3954376
20
53.5924898
11
22.736985
21
52.9319842
0
LINE
8
DEFAULT_255_1_388
10
22.736985
20
52.9319842
11
23.0803395
21
53.5924898
0
LINE
8
DEFAULT_255_1_388
10
23.0803395
20
53.5924898
11
23.2773166
21
53.5924898
0
LINE
8
DEFAULT_255_1_388
10
23.2773166
20
53.5924898
11
22.8237272
21
52.7675355
0
LINE
8
DEFAULT_255_1_388
10
22.8237272
20
52.7675355
11
22.8237272
21
52.2769
0
LINE
8
DEFAULT_255_1_388
10
22.8237272
20
52.2769
11
22.6502428
21
52.2769
0
LINE
8
DEFAULT_255_1_388
10
22.6502428
20
52.2769
11
22.6502428
21
52.7675355
0
LINE
8
DEFAULT_255_1_388
10
22.6502428
20
52.7675355
11
22.1966535
21
53.5924898
0
LINE
8
DEFAULT_255_1_388
10
22.1966535
20
53.5924898
11
22.3954376
21
53.5924898
0
LINE
8
DEFAULT_255_1_388
10
23.6143461
20
52.9021666
11
23.4806186
21
52.9365021
0
LINE
8
DEFAULT_255_1_388
10
23.4806186
20
52.9365021
11
23.5474823
21
53.5924898
0
LINE
8
DEFAULT_255_1_388
10
23.5474823
20
53.5924898
11
24.2215414
21
53.5924898
0
LINE
8
DEFAULT_255_1_388
10
24.2215414
20
53.5924898
11
24.2215414
21
53.4379803
0
LINE
8
DEFAULT_255_1_388
10
24.2215414
20
53.4379803
11
23.6893419
21
53.4379803
0
LINE
8
DEFAULT_255_1_388
10
23.6893419
20
53.4379803
11
23.6495851
21
53.0792652
0
LINE
8
DEFAULT_255_1_388
10
23.4336332
20
52.6229652
11
23.591757
21
52.6229652
0
LINE
8
DEFAULT_255_1_388
10
23.6586208
20
52.9383092
11
23.6143461
21
52.9021666
0
ARC
8
DEFAULT_255_1_388
10
23.8582465
20
52.7215241
40
0.4141476
50
93.7181681
51
120.253934
0
ARC
8
DEFAULT_255_1_388
10
23.8688517
20
52.6306284
40
0.5055616
50
89.9660471
51
94.2495185
0
ARC
8
DEFAULT_255_1_388
10
23.8734339
20
52.6969154
40
0.4392953
50
73.8045384
51
90.5585736
0
ARC
8
DEFAULT_255_1_388
10
23.8998596
20
52.793452
40
0.3392225
50
41.3071072
51
73.543002
0
ARC
8
DEFAULT_255_1_388
10
23.8530416
20
52.7531461
40
0.4009977
50
13.5075837
51
41.2174839
0
ARC
8
DEFAULT_255_1_388
10
23.6683514
20
52.7047907
40
0.5918864
50
1.1330171
51
13.8830737
0
ARC
8
DEFAULT_255_1_388
10
23.508716
20
52.6962522
40
0.7516787
50
359.9925091
51
1.5431298
0
ARC
8
DEFAULT_255_1_388
10
23.6531774
20
52.6916027
40
0.6072343
50
347.8572712
51
0.4294349
0
ARC
8
DEFAULT_255_1_388
10
23.8500909
20
52.6469898
40
0.4053482
50
323.6727442
51
348.1674594
0
ARC
8
DEFAULT_255_1_388
10
23.8831874
20
52.6268175
40
0.3667495
50
316.8171818
51
323.1486802
0
ARC
8
DEFAULT_255_1_388
10
23.8900997
20
52.6226612
40
0.358869
50
281.839603
51
316.5458142
0
ARC
8
DEFAULT_255_1_388
10
23.8478285
20
52.7976363
40
0.5388223
50
269.5770964
51
282.4214641
0
ARC
8
DEFAULT_255_1_388
10
23.8398206
20
52.773593
40
0.5147801
50
256.2425863
51
270.4486481
0
ARC
8
DEFAULT_255_1_388
10
23.8061733
20
52.6386124
40
0.3756708
50
228.9024379
51
256.33135
0
ARC
8
DEFAULT_255_1_388
10
23.7978714
20
52.6255054
40
0.360344
50
193.7536029
51
228.5272638
0
ARC
8
DEFAULT_255_1_388
10
23.9371279
20
52.6663463
40
0.5053599
50
184.9244437
51
194.4976052
0
ARC
8
DEFAULT_255_1_388
10
23.958792
20
52.6703722
40
0.3700839
50
187.3596909
51
198.6733728
0
ARC
8
DEFAULT_255_1_388
10
23.8407163
20
52.6294373
40
0.2451195
50
198.4453795
51
217.7945479
0
ARC
8
DEFAULT_255_1_388
10
23.8074336
20
52.6058563
40
0.2043754
50
218.2887146
51
228.5613203
0
ARC
8
DEFAULT_255_1_388
10
23.8184343
20
52.6206902
40
0.2227819
50
228.9652423
51
258.1237049
0
ARC
8
DEFAULT_255_1_388
10
23.841578
20
52.7197964
40
0.3245374
50
257.7260585
51
270.4013717
0
ARC
8
DEFAULT_255_1_388
10
23.8466278
20
52.6697255
40
0.2744726
50
269.4204315
51
286.420998
0
ARC
8
DEFAULT_255_1_388
10
23.8633334
20
52.6090705
40
0.2115721
50
286.7250065
51
320.6004665
0
ARC
8
DEFAULT_255_1_388
10
23.8202249
20
52.6440527
40
0.2670878
50
320.6712228
51
344.5440474
0
ARC
8
DEFAULT_255_1_388
10
23.6900963
20
52.6822394
40
0.4026927
50
344.241448
51
356.735803
0
ARC
8
DEFAULT_255_1_388
10
23.549727
20
52.6938656
40
0.5435085
50
356.3547471
51
0.0507222
0
ARC
8
DEFAULT_255_1_388
10
23.6999536
20
52.6973812
40
0.3932934
50
359.5579289
51
12.9534322
0
ARC
8
DEFAULT_255_1_388
10
23.8186375
20
52.7261586
40
0.2711827
50
12.6489751
51
41.608121
0
ARC
8
DEFAULT_255_1_388
10
23.8445535
20
52.7481946
40
0.2371737
50
41.7851122
51
85.9892156
0
ARC
8
DEFAULT_255_1_388
10
23.8306846
20
52.6566738
40
0.3295244
50
84.6965848
51
90.0672125
0
ARC
8
DEFAULT_255_1_388
10
23.8280413
20
52.5815118
40
0.4046926
50
89.6804991
51
99.161352
0
ARC
8
DEFAULT_255_1_388
10
23.8049422
20
52.7195848
40
0.2647044
50
98.9836248
51
113.8905702
0
ARC
8
DEFAULT_255_1_388
10
23.7791097
20
52.7805118
40
0.1985386
50
114.195234
51
127.3641866
0
LINE
8
DEFAULT_255_1_388
10
22.2631376
20
61.5299898
11
22.604685
21
60.8694842
0
LINE
8
DEFAULT_255_1_388
10
22.604685
20
60.8694842
11
22.9480395
21
61.5299898
0
LINE
8
DEFAULT_255_1_388
10
22.9480395
20
61.5299898
11
23.1450166
21
61.5299898
0
LINE
8
DEFAULT_255_1_388
10
23.1450166
20
61.5299898
11
22.6914272
21
60.7050355
0
LINE
8
DEFAULT_255_1_388
10
22.6914272
20
60.7050355
11
22.6914272
21
60.2144
0
LINE
8
DEFAULT_255_1_388
10
22.6914272
20
60.2144
11
22.5179428
21
60.2144
0
LINE
8
DEFAULT_255_1_388
10
22.5179428
20
60.2144
11
22.5179428
21
60.7050355
0
LINE
8
DEFAULT_255_1_388
10
22.5179428
20
60.7050355
11
22.0643535
21
61.5299898
0
LINE
8
DEFAULT_255_1_388
10
22.0643535
20
61.5299898
11
22.2631376
21
61.5299898
0
LINE
8
DEFAULT_255_1_388
10
23.9771994
20
61.5299898
11
23.9771994
21
60.656243
0
LINE
8
DEFAULT_255_1_388
10
23.9771994
20
60.656243
11
24.1597194
21
60.656243
0
LINE
8
DEFAULT_255_1_388
10
24.1597194
20
60.656243
11
24.1597194
21
60.5198048
0
LINE
8
DEFAULT_255_1_388
10
24.1597194
20
60.5198048
11
23.9771994
21
60.5198048
0
LINE
8
DEFAULT_255_1_388
10
23.9771994
20
60.5198048
11
23.9771994
21
60.2144
0
LINE
8
DEFAULT_255_1_388
10
23.9771994
20
60.2144
11
23.8091364
21
60.2144
0
LINE
8
DEFAULT_255_1_388
10
23.8091364
20
60.2144
11
23.8091364
21
60.5198048
0
LINE
8
DEFAULT_255_1_388
10
23.8091364
20
60.5198048
11
23.2100732
21
60.5198048
0
LINE
8
DEFAULT_255_1_388
10
23.2100732
20
60.5198048
11
23.2100732
21
60.6182933
0
LINE
8
DEFAULT_255_1_388
10
23.2100732
20
60.6182933
11
23.7991972
21
61.5299898
0
LINE
8
DEFAULT_255_1_388
10
23.7991972
20
61.5299898
11
23.9771994
21
61.5299898
0
LINE
8
DEFAULT_255_1_388
10
23.789258
20
61.2652455
11
23.3998217
21
60.656243
0
LINE
8
DEFAULT_255_1_388
10
23.3998217
20
60.656243
11
23.8091364
21
60.656243
0
LINE
8
DEFAULT_255_1_388
10
23.8091364
20
60.656243
11
23.8091364
21
61.301388
0
LINE
8
DEFAULT_255_1_388
10
23.8091364
20
61.301388
11
23.789258
21
61.2652455
0
LINE
8
DEFAULT_255_1_388
10
23.1423318
20
68.2883382
11
23.1423318
21
68.1519
0
LINE
8
DEFAULT_255_1_388
10
23.1423318
20
68.1519
11
22.2803313
21
68.1519
0
LINE
8
DEFAULT_255_1_388
10
22.2803313
20
68.1519
11
22.2803313
21
68.2720741
0
LINE
8
DEFAULT_255_1_388
10
22.2803313
20
68.2720741
11
22.7357278
21
68.7780702
0
LINE
8
DEFAULT_255_1_388
10
22.4221909
20
69.0798607
11
22.2550315
21
69.0798607
0
LINE
8
DEFAULT_255_1_388
10
22.8342163
20
68.670546
11
22.4818262
21
68.2883382
0
LINE
8
DEFAULT_255_1_388
10
22.4818262
20
68.2883382
11
23.1423318
21
68.2883382
0
ARC
8
DEFAULT_255_1_388
10
21.2181337
20
70.1200983
40
2.0258655
50
318.5132526
51
320.7829045
0
ARC
8
DEFAULT_255_1_388
10
21.8129294
20
69.6359929
40
1.2589638
50
320.7372878
51
323.9739031
0
ARC
8
DEFAULT_255_1_388
10
22.2538226
20
69.3165554
40
0.7145141
50
323.8962701
51
328.64194
0
ARC
8
DEFAULT_255_1_388
10
22.4840484
20
69.1745545
40
0.4440242
50
328.8294576
51
331.7891185
0
ARC
8
DEFAULT_255_1_388
10
22.5962804
20
69.1166374
40
0.3177517
50
331.4254512
51
352.9365785
0
ARC
8
DEFAULT_255_1_388
10
22.6115804
20
69.113205
40
0.3021496
50
353.2257659
51
0.0166158
0
ARC
8
DEFAULT_255_1_388
10
22.6352564
20
69.1157894
40
0.2784847
50
359.486299
51
15.9343185
0
ARC
8
DEFAULT_255_1_388
10
22.6922831
20
69.1311269
40
0.2194403
50
16.1712913
51
43.5286088
0
ARC
8
DEFAULT_255_1_388
10
22.7009776
20
69.1398191
40
0.2071504
50
43.4417391
51
83.1661095
0
ARC
8
DEFAULT_255_1_388
10
22.6858937
20
69.0569316
40
0.2912888
50
82.160179
51
90.1505708
0
ARC
8
DEFAULT_255_1_388
10
22.6823418
20
68.9965279
40
0.3517025
50
89.5460741
51
102.5418361
0
ARC
8
DEFAULT_255_1_388
10
22.6550138
20
69.1124933
40
0.2325748
50
102.1738499
51
129.206123
0
ARC
8
DEFAULT_255_1_388
10
22.6461592
20
69.1264664
40
0.2161591
50
129.72865
51
135.753947
0
ARC
8
DEFAULT_255_1_388
10
22.6598074
20
69.1155728
40
0.2335433
50
136.1757367
51
166.3673339
0
ARC
8
DEFAULT_255_1_388
10
22.7730762
20
69.0852148
40
0.3507873
50
165.9090694
51
178.8684636
0
ARC
8
DEFAULT_255_1_388
10
22.8706534
20
69.0799263
40
0.4484624
50
178.4391136
51
180.0083808
0
ARC
8
DEFAULT_255_1_388
10
22.7127235
20
69.0843197
40
0.4577138
50
163.2878482
51
180.5581842
0
ARC
8
DEFAULT_255_1_388
10
22.6225276
20
69.1091393
40
0.3641968
50
133.4540601
51
162.947111
0
ARC
8
DEFAULT_255_1_388
10
22.6426158
20
69.0877789
40
0.3935189
50
100.7869829
51
133.4382499
0
ARC
8
DEFAULT_255_1_388
10
22.6817403
20
68.9135399
40
0.5720313
50
89.660664
51
101.3702276
0
ARC
8
DEFAULT_255_1_388
10
22.6892012
20
68.9204263
40
0.5651495
50
78.2172678
51
90.412935
0
ARC
8
DEFAULT_255_1_388
10
22.7291478
20
69.1031511
40
0.378122
50
55.9269121
51
78.4888449
0
ARC
8
DEFAULT_255_1_388
10
22.7512193
20
69.1412187
40
0.3342379
50
47.929771
51
55.4049217
0
ARC
8
DEFAULT_255_1_388
10
22.7626723
20
69.1528618
40
0.3179217
50
4.334829
51
48.0560205
0
ARC
8
DEFAULT_255_1_388
10
22.6394525
20
69.1337487
40
0.442341
50
359.9251713
51
5.5971671
0
ARC
8
DEFAULT_255_1_388
10
22.687668
20
69.1400728
40
0.3941854
50
337.8914027
51
358.9967534
0
ARC
8
DEFAULT_255_1_388
10
22.382425
20
69.2578295
40
0.7213271
50
326.9132501
51
338.3508308
0
ARC
8
DEFAULT_255_1_388
10
21.9340362
20
69.5452105
40
1.2538973
50
319.6471833
51
327.0959558
0
ARC
8
DEFAULT_255_1_388
10
21.502702
20
69.901005
40
1.8129975
50
317.2588228
51
319.9045804
0
LINE
8
DEFAULT_255_1_388
10
24.1561311
20
68.5693468
11
24.330519
21
68.5693468
0
LINE
8
DEFAULT_255_1_388
10
23.3176233
20
68.7482525
11
23.3176233
21
68.8747516
0
LINE
8
DEFAULT_255_1_388
10
24.330519
20
69.0446217
11
24.1561311
21
69.0446217
0
LINE
8
DEFAULT_255_1_388
10
23.4920112
20
68.8702337
11
23.4920112
21
68.7428312
0
ARC
8
DEFAULT_255_1_388
10
23.7139424
20
68.6365329
40
0.6202263
50
340.1774904
51
353.7812217
0
ARC
8
DEFAULT_255_1_388
10
23.8907277
20
68.5706893
40
0.4315926
50
311.4560052
51
340.4420756
0
ARC
8
DEFAULT_255_1_388
10
23.8869817
20
68.5831665
40
0.4434573
50
282.4332229
51
310.7514507
0
ARC
8
DEFAULT_255_1_388
10
23.8375635
20
68.7873703
40
0.6535262
50
269.9358869
51
282.8096729
0
ARC
8
DEFAULT_255_1_388
10
23.8317574
20
68.9386329
40
0.8048043
50
269.9995752
51
270.3612856
0
ARC
8
DEFAULT_255_1_388
10
23.8258064
20
68.6587781
40
0.5249831
50
250.7885263
51
270.6488451
0
ARC
8
DEFAULT_255_1_388
10
23.8068889
20
68.5870853
40
0.4510942
50
219.3628377
51
250.0611024
0
ARC
8
DEFAULT_255_1_388
10
23.9001763
20
68.6663653
40
0.5735046
50
193.5480293
51
219.5755675
0
ARC
8
DEFAULT_255_1_388
10
24.1669972
20
68.735652
40
0.849146
50
181.1220183
51
193.8754971
0
ARC
8
DEFAULT_255_1_388
10
24.3993206
20
68.7480914
40
1.0816971
50
179.9914644
51
181.5398227
0
ARC
8
DEFAULT_255_1_388
10
24.1916516
20
68.8789586
40
0.8740384
50
169.5837606
51
180.275782
0
ARC
8
DEFAULT_255_1_388
10
23.9849864
20
68.9171439
40
0.6638751
50
155.0367033
51
169.6002779
0
ARC
8
DEFAULT_255_1_388
10
23.8572322
20
68.9787336
40
0.5220662
50
136.7831557
51
155.2472983
0
ARC
8
DEFAULT_255_1_388
10
23.8134113
20
69.0159577
40
0.4646502
50
121.7633063
51
136.4281161
0
ARC
8
DEFAULT_255_1_388
10
23.8285953
20
68.9879049
40
0.4964979
50
95.6460018
51
121.5489589
0
ARC
8
DEFAULT_255_1_388
10
23.8462927
20
68.8631704
40
0.6223912
50
89.9245727
51
96.1375919
0
ARC
8
DEFAULT_255_1_388
10
23.8519632
20
68.8765721
40
0.6090084
50
76.6779212
51
90.456405
0
ARC
8
DEFAULT_255_1_388
10
23.8962445
20
69.055506
40
0.42469
50
47.4858803
51
76.9287069
0
ARC
8
DEFAULT_255_1_388
10
23.8797059
20
69.0442623
40
0.4441778
50
16.5424081
51
46.8934505
0
ARC
8
DEFAULT_255_1_388
10
23.6988109
20
68.9848265
40
0.6345318
50
5.4072971
51
17.0363711
0
ARC
8
DEFAULT_255_1_388
10
23.5369834
20
68.9588304
40
0.6250632
50
7.8888693
51
15.9242022
0
ARC
8
DEFAULT_255_1_388
10
23.7604819
20
69.0237309
40
0.3923364
50
15.7650676
51
27.9410069
0
ARC
8
DEFAULT_255_1_388
10
23.8846989
20
69.0902317
40
0.2514401
50
27.8167196
51
46.4007942
0
ARC
8
DEFAULT_255_1_388
10
23.890283
20
69.0895882
40
0.2480958
50
47.4372362
51
75.0695672
0
ARC
8
DEFAULT_255_1_388
10
23.8555666
20
68.9687277
40
0.3738281
50
74.7009379
51
87.8124314
0
ARC
8
DEFAULT_255_1_388
10
23.8473283
20
68.8503659
40
0.4924321
50
87.3802571
51
90.0251599
0
ARC
8
DEFAULT_255_1_388
10
23.842993
20
68.9823997
40
0.3604218
50
89.3451886
51
108.5744412
0
ARC
8
DEFAULT_255_1_388
10
23.8275922
20
69.0401836
40
0.3007661
50
109.2998307
51
143.3037387
0
ARC
8
DEFAULT_255_1_388
10
23.9133212
20
68.9742584
40
0.4089031
50
143.075267
51
163.1918576
0
ARC
8
DEFAULT_255_1_388
10
24.1329047
20
68.9049652
40
0.6391492
50
162.9375929
51
174.6208776
0
ARC
8
DEFAULT_255_1_388
10
24.4283428
20
68.8725711
40
0.9363344
50
174.342123
51
180.1430283
0
ARC
8
DEFAULT_255_1_388
10
24.323597
20
68.7382117
40
0.8315986
50
179.6817261
51
189.150555
0
ARC
8
DEFAULT_255_1_388
10
24.0422719
20
68.6913559
40
0.5464044
50
188.9911061
51
203.5772363
0
ARC
8
DEFAULT_255_1_388
10
23.920801
20
68.6409539
40
0.4149206
50
203.9075402
51
215.1312435
0
ARC
8
DEFAULT_255_1_388
10
23.8169808
20
68.5604907
40
0.2837747
50
213.9071511
51
263.8848919
0
ARC
8
DEFAULT_255_1_388
10
23.8310801
20
68.6487519
40
0.3730641
50
263.1757928
51
270.1031044
0
ARC
8
DEFAULT_255_1_388
10
23.8346881
20
68.7890511
40
0.5133712
50
269.6722503
51
279.0606936
0
ARC
8
DEFAULT_255_1_388
10
23.8647036
20
68.607615
40
0.3294739
50
278.8749101
51
293.6349581
0
ARC
8
DEFAULT_255_1_388
10
23.900724
20
68.5230251
40
0.2375405
50
293.8553806
51
310.0518171
0
ARC
8
DEFAULT_255_1_388
10
23.9012749
20
68.5160021
40
0.2318463
50
311.0644687
51
332.0111037
0
ARC
8
DEFAULT_255_1_388
10
23.7671422
20
68.5899702
40
0.3850112
50
331.6586806
51
343.2877423
0
ARC
8
DEFAULT_255_1_388
10
23.5350888
20
68.6612806
40
0.6277712
50
343.1446576
51
351.0103568
0
ARC
8
DEFAULT_255_1_388
10
23.3718211
20
68.6912873
40
0.7937327
50
350.71248
51
351.1626997
0
LINE
8
DEFAULT_255_1_388
10
22.3954376
20
77.4049898
11
22.736985
21
76.7444842
0
LINE
8
DEFAULT_255_1_388
10
22.736985
20
76.7444842
11
23.0803395
21
77.4049898
0
LINE
8
DEFAULT_255_1_388
10
23.0803395
20
77.4049898
11
23.2773166
21
77.4049898
0
LINE
8
DEFAULT_255_1_388
10
23.2773166
20
77.4049898
11
22.8237272
21
76.5800355
0
LINE
8
DEFAULT_255_1_388
10
22.8237272
20
76.5800355
11
22.8237272
21
76.0894
0
LINE
8
DEFAULT_255_1_388
10
22.8237272
20
76.0894
11
22.6502428
21
76.0894
0
LINE
8
DEFAULT_255_1_388
10
22.6502428
20
76.0894
11
22.6502428
21
76.5800355
0
LINE
8
DEFAULT_255_1_388
10
22.6502428
20
76.5800355
11
22.1966535
21
77.4049898
0
LINE
8
DEFAULT_255_1_388
10
22.1966535
20
77.4049898
11
22.3954376
21
77.4049898
0
LINE
8
DEFAULT_255_1_388
10
23.6468744
20
76.6920775
11
23.6468744
21
76.8285157
0
LINE
8
DEFAULT_255_1_388
10
23.6468744
20
76.8285157
11
23.7724699
21
76.8285157
0
LINE
8
DEFAULT_255_1_388
10
23.5583251
20
77.0598282
11
23.3911657
21
77.0598282
0
LINE
8
DEFAULT_255_1_388
10
23.3794193
20
76.4363688
11
23.5474823
21
76.4363688
0
LINE
8
DEFAULT_255_1_388
10
23.7724699
20
76.6920775
11
23.6468744
21
76.6920775
0
ARC
8
DEFAULT_255_1_388
10
23.7691925
20
77.2101922
40
0.3816905
50
270.491971
51
281.8953028
0
ARC
8
DEFAULT_255_1_388
10
23.7963352
20
77.0862199
40
0.2547877
50
281.6690378
51
301.2943765
0
ARC
8
DEFAULT_255_1_388
10
23.8154803
20
77.0511926
40
0.2149197
50
301.7834992
51
311.754567
0
ARC
8
DEFAULT_255_1_388
10
23.8257845
20
77.039765
40
0.1995326
50
311.7325027
51
354.2803031
0
ARC
8
DEFAULT_255_1_388
10
23.7440261
20
77.053828
40
0.2823461
50
353.0941646
51
0.1174696
0
ARC
8
DEFAULT_255_1_388
10
23.6921819
20
77.0591874
40
0.3342238
50
359.1804452
51
15.0452323
0
ARC
8
DEFAULT_255_1_388
10
23.8435877
20
77.1033546
40
0.1765747
50
13.957816
51
77.6713812
0
ARC
8
DEFAULT_255_1_388
10
23.8001113
20
76.9475464
40
0.3381982
50
76.111571
51
90.7028736
0
ARC
8
DEFAULT_255_1_388
10
23.7934525
20
76.978325
40
0.3074046
50
89.5321574
51
103.5319393
0
ARC
8
DEFAULT_255_1_388
10
23.7708909
20
77.0682443
40
0.2147041
50
103.2930114
51
133.5619756
0
ARC
8
DEFAULT_255_1_388
10
23.765885
20
77.0749351
40
0.2064084
50
133.8349761
51
173.5343225
0
ARC
8
DEFAULT_255_1_388
10
23.8472508
20
77.0605144
40
0.2889266
50
172.5097183
51
180.1360699
0
ARC
8
DEFAULT_255_1_388
10
23.7402272
20
77.064388
40
0.3490913
50
155.3483706
51
180.7484035
0
ARC
8
DEFAULT_255_1_388
10
23.7347247
20
77.0611519
40
0.3454798
50
131.5745177
51
154.4799474
0
ARC
8
DEFAULT_255_1_388
10
23.769953
20
77.0255422
40
0.3955058
50
96.9874487
51
131.9690874
0
ARC
8
DEFAULT_255_1_388
10
23.7946422
20
76.8854407
40
0.537622
50
89.8592909
51
97.7827481
0
ARC
8
DEFAULT_255_1_388
10
23.8000531
20
76.855936
40
0.5671399
50
78.3654493
51
90.4132586
0
ARC
8
DEFAULT_255_1_388
10
23.8403173
20
77.0425918
40
0.3762034
50
56.6229818
51
78.6387103
0
ARC
8
DEFAULT_255_1_388
10
23.8645002
20
77.0848846
40
0.3275964
50
47.0254604
51
56.085558
0
ARC
8
DEFAULT_255_1_388
10
23.8667253
20
77.0893189
40
0.3228382
50
10.9207523
51
46.777927
0
ARC
8
DEFAULT_255_1_388
10
23.7132847
20
77.0538401
40
0.4802559
50
359.6364235
51
11.6087615
0
ARC
8
DEFAULT_255_1_388
10
23.9197012
20
77.0521404
40
0.273833
50
332.3549969
51
359.7179765
0
ARC
8
DEFAULT_255_1_388
10
23.8465413
20
77.0868285
40
0.3547505
50
325.2332381
51
332.8746682
0
ARC
8
DEFAULT_255_1_388
10
23.8636996
20
77.0748763
40
0.3338396
50
292.9803892
51
325.2391113
0
ARC
8
DEFAULT_255_1_388
10
23.8326192
20
77.1353679
40
0.4016959
50
292.542178
51
293.6931461
0
ARC
8
DEFAULT_255_1_388
10
23.8769764
20
76.4088036
40
0.372079
50
57.643292
51
72.8626085
0
ARC
8
DEFAULT_255_1_388
10
23.9168598
20
76.4734273
40
0.2961455
50
36.7246661
51
57.4701329
0
ARC
8
DEFAULT_255_1_388
10
23.9155755
20
76.474847
40
0.2963321
50
8.054535
51
36.3561529
0
ARC
8
DEFAULT_255_1_388
10
23.8185428
20
76.4574073
40
0.3948682
50
359.8316595
51
8.5873361
0
ARC
8
DEFAULT_255_1_388
10
23.7762902
20
76.451997
40
0.4371398
50
343.9831631
51
0.557075
0
ARC
8
DEFAULT_255_1_388
10
23.8759951
20
76.4246963
40
0.3337749
50
311.6358204
51
343.7652116
0
ARC
8
DEFAULT_255_1_388
10
23.8334205
20
76.4726955
40
0.3979351
50
279.7829743
51
311.625622
0
ARC
8
DEFAULT_255_1_388
10
23.799534
20
76.6343642
40
0.5630417
50
269.7285092
51
280.3857694
0
ARC
8
DEFAULT_255_1_388
10
23.7925653
20
76.6297241
40
0.5584119
50
256.6827433
51
270.4412869
0
ARC
8
DEFAULT_255_1_388
10
23.754464
20
76.4739698
40
0.3980715
50
229.4223821
51
256.8554507
0
ARC
8
DEFAULT_255_1_388
10
23.7078193
20
76.4214683
40
0.3278564
50
181.8183354
51
229.6455015
0
ARC
8
DEFAULT_255_1_388
10
23.8247803
20
76.4361825
40
0.4453611
50
179.9760419
51
183.2330638
0
ARC
8
DEFAULT_255_1_388
10
23.8054355
20
76.4338781
40
0.2579652
50
179.4467996
51
196.2871626
0
ARC
8
DEFAULT_255_1_388
10
23.7505809
20
76.4188709
40
0.2011057
50
196.5661293
51
227.7059371
0
ARC
8
DEFAULT_255_1_388
10
23.7690416
20
76.4395155
40
0.2287994
50
227.7653015
51
257.8763321
0
ARC
8
DEFAULT_255_1_388
10
23.7943499
20
76.5455961
40
0.3378385
50
257.4583525
51
270.4267406
0
ARC
8
DEFAULT_255_1_388
10
23.7994749
20
76.578223
40
0.3704652
50
269.5965319
51
280.8788143
0
ARC
8
DEFAULT_255_1_388
10
23.8252977
20
76.4492529
40
0.2389415
50
280.6347277
51
299.8594068
0
ARC
8
DEFAULT_255_1_388
10
23.8467746
20
76.4084736
40
0.19289
50
300.3575552
51
314.5515667
0
ARC
8
DEFAULT_255_1_388
10
23.8374422
20
76.4153025
40
0.204312
50
315.0730962
51
345.0429362
0
ARC
8
DEFAULT_255_1_388
10
23.7335929
20
76.4455539
40
0.31246
50
344.598526
51
357.9270698
0
ARC
8
DEFAULT_255_1_388
10
23.6326234
20
76.4524705
40
0.4136265
50
357.4755098
51
0.0224936
0
ARC
8
DEFAULT_255_1_388
10
23.7479112
20
76.4552099
40
0.2983498
50
359.5051035
51
13.4236939
0
ARC
8
DEFAULT_255_1_388
10
23.8454202
20
76.4801637
40
0.1977186
50
12.9497905
51
48.7550905
0
ARC
8
DEFAULT_255_1_388
10
23.8249124
20
76.4521373
40
0.2323321
50
49.509109
51
72.1832965
0
ARC
8
DEFAULT_255_1_388
10
23.7846592
20
76.3326632
40
0.358397
50
71.9008458
51
84.3555134
0
ARC
8
DEFAULT_255_1_388
10
23.7664987
20
76.1794712
40
0.512641
50
84.019632
51
89.3326067
0
LINE
8
DEFAULT_255_1_388
10
22.3954376
20
85.3424898
11
22.736985
21
84.6819842
0
LINE
8
DEFAULT_255_1_388
10
22.736985
20
84.6819842
11
23.0803395
21
85.3424898
0
LINE
8
DEFAULT_255_1_388
10
23.0803395
20
85.3424898
11
23.2773166
21
85.3424898
0
LINE
8
DEFAULT_255_1_388
10
23.2773166
20
85.3424898
11
22.8237272
21
84.5175355
0
LINE
8
DEFAULT_255_1_388
10
22.8237272
20
84.5175355
11
22.8237272
21
84.0269
0
LINE
8
DEFAULT_255_1_388
10
22.8237272
20
84.0269
11
22.6502428
21
84.0269
0
LINE
8
DEFAULT_255_1_388
10
22.6502428
20
84.0269
11
22.6502428
21
84.5175355
0
LINE
8
DEFAULT_255_1_388
10
22.6502428
20
84.5175355
11
22.1966535
21
85.3424898
0
LINE
8
DEFAULT_255_1_388
10
22.1966535
20
85.3424898
11
22.3954376
21
85.3424898
0
LINE
8
DEFAULT_255_1_388
10
24.2658161
20
84.1633382
11
24.2658161
21
84.0269
0
LINE
8
DEFAULT_255_1_388
10
24.2658161
20
84.0269
11
23.4038156
21
84.0269
0
LINE
8
DEFAULT_255_1_388
10
23.4038156
20
84.0269
11
23.4038156
21
84.1470741
0
LINE
8
DEFAULT_255_1_388
10
23.4038156
20
84.1470741
11
23.8592121
21
84.6530702
0
LINE
8
DEFAULT_255_1_388
10
23.5456752
20
84.9548607
11
23.3785158
21
84.9548607
0
LINE
8
DEFAULT_255_1_388
10
23.9577006
20
84.545546
11
23.6053104
21
84.1633382
0
LINE
8
DEFAULT_255_1_388
10
23.6053104
20
84.1633382
11
24.2658161
21
84.1633382
0
ARC
8
DEFAULT_255_1_388
10
22.341618
20
85.9950983
40
2.0258655
50
318.5132526
51
320.7829045
0
ARC
8
DEFAULT_255_1_388
10
22.9364137
20
85.5109929
40
1.2589638
50
320.7372878
51
323.9739031
0
ARC
8
DEFAULT_255_1_388
10
23.3773069
20
85.1915554
40
0.7145141
50
323.8962701
51
328.64194
0
ARC
8
DEFAULT_255_1_388
10
23.6075326
20
85.0495545
40
0.4440242
50
328.8294576
51
331.7891185
0
ARC
8
DEFAULT_255_1_388
10
23.7197646
20
84.9916374
40
0.3177517
50
331.4254512
51
352.9365785
0
ARC
8
DEFAULT_255_1_388
10
23.7350646
20
84.988205
40
0.3021496
50
353.2257659
51
0.0166158
0
ARC
8
DEFAULT_255_1_388
10
23.7587407
20
84.9907894
40
0.2784847
50
359.486299
51
15.9343185
0
ARC
8
DEFAULT_255_1_388
10
23.8157674
20
85.0061269
40
0.2194403
50
16.1712913
51
43.5286088
0
ARC
8
DEFAULT_255_1_388
10
23.8244618
20
85.0148191
40
0.2071504
50
43.4417391
51
83.1661095
0
ARC
8
DEFAULT_255_1_388
10
23.8093779
20
84.9319316
40
0.2912888
50
82.160179
51
90.1505708
0
ARC
8
DEFAULT_255_1_388
10
23.8058261
20
84.8715279
40
0.3517025
50
89.5460741
51
102.5418361
0
ARC
8
DEFAULT_255_1_388
10
23.7784981
20
84.9874933
40
0.2325748
50
102.1738499
51
129.206123
0
ARC
8
DEFAULT_255_1_388
10
23.7696434
20
85.0014664
40
0.2161591
50
129.72865
51
135.753947
0
ARC
8
DEFAULT_255_1_388
10
23.7832917
20
84.9905728
40
0.2335433
50
136.1757367
51
166.3673339
0
ARC
8
DEFAULT_255_1_388
10
23.8965605
20
84.9602148
40
0.3507873
50
165.9090694
51
178.8684636
0
ARC
8
DEFAULT_255_1_388
10
23.9941377
20
84.9549263
40
0.4484624
50
178.4391136
51
180.0083808
0
ARC
8
DEFAULT_255_1_388
10
23.8362078
20
84.9593197
40
0.4577138
50
163.2878482
51
180.5581842
0
ARC
8
DEFAULT_255_1_388
10
23.7460119
20
84.9841393
40
0.3641968
50
133.4540601
51
162.947111
0
ARC
8
DEFAULT_255_1_388
10
23.7661001
20
84.9627789
40
0.3935189
50
100.7869829
51
133.4382499
0
ARC
8
DEFAULT_255_1_388
10
23.8052246
20
84.7885399
40
0.5720313
50
89.660664
51
101.3702276
0
ARC
8
DEFAULT_255_1_388
10
23.8126855
20
84.7954263
40
0.5651495
50
78.2172678
51
90.412935
0
ARC
8
DEFAULT_255_1_388
10
23.8526321
20
84.9781511
40
0.378122
50
55.9269121
51
78.4888449
0
ARC
8
DEFAULT_255_1_388
10
23.8747036
20
85.0162187
40
0.3342379
50
47.929771
51
55.4049217
0
ARC
8
DEFAULT_255_1_388
10
23.8861566
20
85.0278618
40
0.3179217
50
4.334829
51
48.0560205
0
ARC
8
DEFAULT_255_1_388
10
23.7629368
20
85.0087487
40
0.442341
50
359.9251713
51
5.5971671
0
ARC
8
DEFAULT_255_1_388
10
23.8111522
20
85.0150728
40
0.3941854
50
337.8914027
51
358.9967534
0
ARC
8
DEFAULT_255_1_388
10
23.5059093
20
85.1328295
40
0.7213271
50
326.9132501
51
338.3508308
0
ARC
8
DEFAULT_255_1_388
10
23.0575204
20
85.4202105
40
1.2538973
50
319.6471833
51
327.0959558
0
ARC
8
DEFAULT_255_1_388
10
22.6261863
20
85.776005
40
1.8129975
50
317.2588228
51
319.9045804
0
LINE
8
DEFAULT_255_1_388
10
22.4038376
20
93.2799898
11
22.745385
21
92.6194842
0
LINE
8
DEFAULT_255_1_388
10
22.745385
20
92.6194842
11
23.0887395
21
93.2799898
0
LINE
8
DEFAULT_255_1_388
10
23.0887395
20
93.2799898
11
23.2857166
21
93.2799898
0
LINE
8
DEFAULT_255_1_388
10
23.2857166
20
93.2799898
11
22.8321272
21
92.4550355
0
LINE
8
DEFAULT_255_1_388
10
22.8321272
20
92.4550355
11
22.8321272
21
91.9644
0
LINE
8
DEFAULT_255_1_388
10
22.8321272
20
91.9644
11
22.6586428
21
91.9644
0
LINE
8
DEFAULT_255_1_388
10
22.6586428
20
91.9644
11
22.6586428
21
92.4550355
0
LINE
8
DEFAULT_255_1_388
10
22.6586428
20
92.4550355
11
22.2050535
21
93.2799898
0
LINE
8
DEFAULT_255_1_388
10
22.2050535
20
93.2799898
11
22.4038376
21
93.2799898
0
LINE
8
DEFAULT_255_1_388
10
23.9615828
20
93.2863148
11
23.9615828
21
91.9644
0
LINE
8
DEFAULT_255_1_388
10
23.9615828
20
91.9644
11
23.7935198
21
91.9644
0
LINE
8
DEFAULT_255_1_388
10
23.7935198
20
91.9644
11
23.7935198
21
93.078495
0
LINE
8
DEFAULT_255_1_388
10
23.7935198
20
93.078495
11
23.4564902
21
92.9547066
0
LINE
8
DEFAULT_255_1_388
10
23.4564902
20
92.9547066
11
23.4564902
21
93.1065055
0
LINE
8
DEFAULT_255_1_388
10
23.4564902
20
93.1065055
11
23.9353794
21
93.2863148
0
LINE
8
DEFAULT_255_1_388
10
23.9353794
20
93.2863148
11
23.9615828
21
93.2863148
0
LINE
8
DEFAULT_255_1_388
10
22.3954376
20
101.2174898
11
22.736985
21
100.5569842
0
LINE
8
DEFAULT_255_1_388
10
22.736985
20
100.5569842
11
23.0803395
21
101.2174898
0
LINE
8
DEFAULT_255_1_388
10
23.0803395
20
101.2174898
11
23.2773166
21
101.2174898
0
LINE
8
DEFAULT_255_1_388
10
23.2773166
20
101.2174898
11
22.8237272
21
100.3925355
0
LINE
8
DEFAULT_255_1_388
10
22.8237272
20
100.3925355
11
22.8237272
21
99.9019
0
LINE
8
DEFAULT_255_1_388
10
22.8237272
20
99.9019
11
22.6502428
21
99.9019
0
LINE
8
DEFAULT_255_1_388
10
22.6502428
20
99.9019
11
22.6502428
21
100.3925355
0
LINE
8
DEFAULT_255_1_388
10
22.6502428
20
100.3925355
11
22.1966535
21
101.2174898
0
LINE
8
DEFAULT_255_1_388
10
22.1966535
20
101.2174898
11
22.3954376
21
101.2174898
0
LINE
8
DEFAULT_255_1_388
10
24.2287699
20
100.679869
11
24.2287699
21
100.4630135
0
LINE
8
DEFAULT_255_1_388
10
23.3983942
20
100.4404244
11
23.3983942
21
100.6636048
0
LINE
8
DEFAULT_255_1_388
10
24.0616105
20
100.4178353
11
24.0616105
21
100.6916153
0
LINE
8
DEFAULT_255_1_388
10
23.5655536
20
100.7042652
11
23.5655536
21
100.4368102
0
ARC
8
DEFAULT_255_1_388
10
22.8510033
20
100.4575118
40
1.3777776
50
353.8440855
51
0.2287917
0
ARC
8
DEFAULT_255_1_388
10
23.3729051
20
100.3992414
40
0.852639
50
344.4934746
51
353.9763743
0
ARC
8
DEFAULT_255_1_388
10
23.7095858
20
100.3035191
40
0.5026273
50
329.2803599
51
344.7473406
0
ARC
8
DEFAULT_255_1_388
10
23.8211354
20
100.2423038
40
0.3754848
50
324.9361395
51
328.6153007
0
ARC
8
DEFAULT_255_1_388
10
23.8637003
20
100.2125586
40
0.3235566
50
280.5801797
51
324.9173226
0
ARC
8
DEFAULT_255_1_388
10
23.8185632
20
100.4005236
40
0.5167077
50
269.5979457
51
281.6732777
0
ARC
8
DEFAULT_255_1_388
10
23.8104535
20
100.3870113
40
0.5032026
50
256.6228565
51
270.5105488
0
ARC
8
DEFAULT_255_1_388
10
23.7652278
20
100.2128345
40
0.3233092
50
215.8618351
51
257.2787793
0
ARC
8
DEFAULT_255_1_388
10
23.8800985
20
100.2899106
40
0.4615831
50
197.9695203
51
215.2622745
0
ARC
8
DEFAULT_255_1_388
10
24.1596661
20
100.3842641
40
0.7566307
50
187.8816486
51
198.2346584
0
ARC
8
DEFAULT_255_1_388
10
24.6049899
20
100.4485453
40
1.2065653
50
180.8977266
51
188.0054894
0
ARC
8
DEFAULT_255_1_388
10
24.9100113
20
100.46004
40
1.5117443
50
180.7434591
51
181.152202
0
ARC
8
DEFAULT_255_1_388
10
24.7425109
20
100.6690371
40
1.3441277
50
173.7674302
51
180.2315596
0
ARC
8
DEFAULT_255_1_388
10
24.2342978
20
100.7264779
40
0.8326847
50
164.3058537
51
173.9000553
0
ARC
8
DEFAULT_255_1_388
10
23.9066978
20
100.8208652
40
0.4917711
50
148.7922028
51
164.5682288
0
ARC
8
DEFAULT_255_1_388
10
23.7997715
20
100.8805457
40
0.3694204
50
144.5883979
51
148.1161588
0
ARC
8
DEFAULT_255_1_388
10
23.761046
20
100.9075667
40
0.322202
50
101.6440149
51
144.5142619
0
ARC
8
DEFAULT_255_1_388
10
23.8088653
20
100.7175337
40
0.5180451
50
89.528284
51
102.5820197
0
ARC
8
DEFAULT_255_1_388
10
23.8177645
20
100.7131376
40
0.5224441
50
77.0437914
51
90.508231
0
ARC
8
DEFAULT_255_1_388
10
23.8629898
20
100.8979272
40
0.3322297
50
48.2777708
51
77.4996087
0
ARC
8
DEFAULT_255_1_388
10
23.8711638
20
100.9124557
40
0.315966
50
36.3141586
51
47.6307332
0
ARC
8
DEFAULT_255_1_388
10
23.773436
20
100.8466159
40
0.4337313
50
18.2931065
51
35.6770203
0
ARC
8
DEFAULT_255_1_388
10
23.4873201
20
100.7484107
40
0.7362203
50
8.0246996
51
18.5605636
0
ARC
8
DEFAULT_255_1_388
10
23.0189557
20
100.6792432
40
1.2096583
50
1.127539
51
8.1718423
0
ARC
8
DEFAULT_255_1_388
10
22.654069
20
100.6649374
40
1.5747719
50
0.5432713
51
1.38669
0
ARC
8
DEFAULT_255_1_388
10
22.8598069
20
100.6956163
40
1.2018103
50
359.8092569
51
4.9408001
0
ARC
8
DEFAULT_255_1_388
10
23.333465
20
100.73789
40
0.7262727
50
4.8364937
51
12.2906017
0
ARC
8
DEFAULT_255_1_388
10
23.6434115
20
100.8069485
40
0.4087324
50
12.0806994
51
23.8171225
0
ARC
8
DEFAULT_255_1_388
10
23.7754511
20
100.8628508
40
0.2653719
50
24.2874621
51
31.3934353
0
ARC
8
DEFAULT_255_1_388
10
23.8344947
20
100.9014822
40
0.1948607
50
30.7407708
51
82.4658033
0
ARC
8
DEFAULT_255_1_388
10
23.8142608
20
100.8021017
40
0.2961198
50
81.1057101
51
90.2187368
0
ARC
8
DEFAULT_255_1_388
10
23.8102419
20
100.8311421
40
0.2670929
50
89.380395
51
105.6763916
0
ARC
8
DEFAULT_255_1_388
10
23.7896141
20
100.906132
40
0.1893189
50
105.7980655
51
149.7387869
0
ARC
8
DEFAULT_255_1_388
10
23.9093282
20
100.8341719
40
0.3289892
50
149.4208441
51
163.628295
0
ARC
8
DEFAULT_255_1_388
10
24.1445511
20
100.7624345
40
0.5749004
50
163.3764549
51
172.141138
0
ARC
8
DEFAULT_255_1_388
10
24.5158233
20
100.7092582
40
0.9499585
50
172.0258462
51
178.0705453
0
ARC
8
DEFAULT_255_1_388
10
24.8579785
20
100.6930682
40
1.2924734
50
177.8639301
51
179.5036263
0
ARC
8
DEFAULT_255_1_388
10
24.7360804
20
100.4327151
40
1.170534
50
179.7995545
51
185.246089
0
ARC
8
DEFAULT_255_1_388
10
24.2812397
20
100.3896404
40
0.7136613
50
185.1411911
51
193.0082205
0
ARC
8
DEFAULT_255_1_388
10
23.9838658
20
100.3193441
40
0.4080987
50
192.7897338
51
205.2507384
0
ARC
8
DEFAULT_255_1_388
10
23.8660868
20
100.2667538
40
0.2791522
50
205.8001921
51
211.2545876
0
ARC
8
DEFAULT_255_1_388
10
23.8072407
20
100.2273132
40
0.2084074
50
210.3789935
51
238.4007996
0
ARC
8
DEFAULT_255_1_388
10
23.8050493
20
100.2325786
40
0.2117943
50
239.6521916
51
265.9793852
0
ARC
8
DEFAULT_255_1_388
10
23.8146342
20
100.3082358
40
0.2879689
50
265.1324455
51
270.0603288
0
ARC
8
DEFAULT_255_1_388
10
23.8178719
20
100.2717418
40
0.2514919
50
269.3314378
51
287.2180039
0
ARC
8
DEFAULT_255_1_388
10
23.8333801
20
100.2151291
40
0.1928357
50
287.7957942
51
329.0808983
0
ARC
8
DEFAULT_255_1_388
10
23.7256558
20
100.2823651
40
0.319808
50
328.6635261
51
343.3325043
0
ARC
8
DEFAULT_255_1_388
10
23.4812017
20
100.3585195
40
0.5758408
50
343.0498092
51
351.9392499
0
ARC
8
DEFAULT_255_1_388
10
23.0911338
20
100.4160205
40
0.9701202
50
351.8071632
51
357.7957897
0
ARC
8
DEFAULT_255_1_388
10
22.7276815
20
100.4348724
40
1.3340376
50
357.5870923
51
359.2682493
0
LINE
8
DEFAULT_255_1_388
10
22.8296985
20
109.1613148
11
22.8296985
21
107.8394
0
LINE
8
DEFAULT_255_1_388
10
22.8296985
20
107.8394
11
22.6616355
21
107.8394
0
LINE
8
DEFAULT_255_1_388
10
22.6616355
20
107.8394
11
22.6616355
21
108.953495
0
LINE
8
DEFAULT_255_1_388
10
22.6616355
20
108.953495
11
22.324606
21
108.8297066
0
LINE
8
DEFAULT_255_1_388
10
22.324606
20
108.8297066
11
22.324606
21
108.9815055
0
LINE
8
DEFAULT_255_1_388
10
22.324606
20
108.9815055
11
22.8034951
21
109.1613148
0
LINE
8
DEFAULT_255_1_388
10
22.8034951
20
109.1613148
11
22.8296985
21
109.1613148
0
LINE
8
DEFAULT_255_1_388
10
24.1561311
20
108.2568468
11
24.330519
21
108.2568468
0
LINE
8
DEFAULT_255_1_388
10
23.3176233
20
108.4357525
11
23.3176233
21
108.5622516
0
LINE
8
DEFAULT_255_1_388
10
24.330519
20
108.7321217
11
24.1561311
21
108.7321217
0
LINE
8
DEFAULT_255_1_388
10
23.4920112
20
108.5577337
11
23.4920112
21
108.4303312
0
ARC
8
DEFAULT_255_1_388
10
23.7139424
20
108.3240329
40
0.6202263
50
340.1774904
51
353.7812217
0
ARC
8
DEFAULT_255_1_388
10
23.8907277
20
108.2581893
40
0.4315926
50
311.4560052
51
340.4420756
0
ARC
8
DEFAULT_255_1_388
10
23.8869817
20
108.2706665
40
0.4434573
50
282.4332229
51
310.7514507
0
ARC
8
DEFAULT_255_1_388
10
23.8375635
20
108.4748703
40
0.6535262
50
269.9358869
51
282.8096729
0
ARC
8
DEFAULT_255_1_388
10
23.8317574
20
108.6261329
40
0.8048043
50
269.9995752
51
270.3612856
0
ARC
8
DEFAULT_255_1_388
10
23.8258064
20
108.3462781
40
0.5249831
50
250.7885263
51
270.6488451
0
ARC
8
DEFAULT_255_1_388
10
23.8068889
20
108.2745853
40
0.4510942
50
219.3628377
51
250.0611024
0
ARC
8
DEFAULT_255_1_388
10
23.9001763
20
108.3538653
40
0.5735046
50
193.5480293
51
219.5755675
0
ARC
8
DEFAULT_255_1_388
10
24.1669972
20
108.423152
40
0.849146
50
181.1220183
51
193.8754971
0
ARC
8
DEFAULT_255_1_388
10
24.3993206
20
108.4355914
40
1.0816971
50
179.9914644
51
181.5398227
0
ARC
8
DEFAULT_255_1_388
10
24.1916516
20
108.5664586
40
0.8740384
50
169.5837606
51
180.275782
0
ARC
8
DEFAULT_255_1_388
10
23.9849864
20
108.6046439
40
0.6638751
50
155.0367033
51
169.6002779
0
ARC
8
DEFAULT_255_1_388
10
23.8572322
20
108.6662336
40
0.5220662
50
136.7831557
51
155.2472983
0
ARC
8
DEFAULT_255_1_388
10
23.8134113
20
108.7034577
40
0.4646502
50
121.7633063
51
136.4281161
0
ARC
8
DEFAULT_255_1_388
10
23.8285953
20
108.6754049
40
0.4964979
50
95.6460018
51
121.5489589
0
ARC
8
DEFAULT_255_1_388
10
23.8462927
20
108.5506704
40
0.6223912
50
89.9245727
51
96.1375919
0
ARC
8
DEFAULT_255_1_388
10
23.8519632
20
108.5640721
40
0.6090084
50
76.6779212
51
90.456405
0
ARC
8
DEFAULT_255_1_388
10
23.8962445
20
108.743006
40
0.42469
50
47.4858803
51
76.9287069
0
ARC
8
DEFAULT_255_1_388
10
23.8797059
20
108.7317623
40
0.4441778
50
16.5424081
51
46.8934505
0
ARC
8
DEFAULT_255_1_388
10
23.6988109
20
108.6723265
40
0.6345318
50
5.4072971
51
17.0363711
0
ARC
8
DEFAULT_255_1_388
10
23.5369834
20
108.6463304
40
0.6250632
50
7.8888693
51
15.9242022
0
ARC
8
DEFAULT_255_1_388
10
23.7604819
20
108.7112309
40
0.3923364
50
15.7650676
51
27.9410069
0
ARC
8
DEFAULT_255_1_388
10
23.8846989
20
108.7777317
40
0.2514401
50
27.8167196
51
46.4007942
0
ARC
8
DEFAULT_255_1_388
10
23.890283
20
108.7770882
40
0.2480958
50
47.4372362
51
75.0695672
0
ARC
8
DEFAULT_255_1_388
10
23.8555666
20
108.6562277
40
0.3738281
50
74.7009379
51
87.8124314
0
ARC
8
DEFAULT_255_1_388
10
23.8473283
20
108.5378659
40
0.4924321
50
87.3802571
51
90.0251599
0
ARC
8
DEFAULT_255_1_388
10
23.842993
20
108.6698997
40
0.3604218
50
89.3451886
51
108.5744412
0
ARC
8
DEFAULT_255_1_388
10
23.8275922
20
108.7276836
40
0.3007661
50
109.2998307
51
143.3037387
0
ARC
8
DEFAULT_255_1_388
10
23.9133212
20
108.6617584
40
0.4089031
50
143.075267
51
163.1918576
0
ARC
8
DEFAULT_255_1_388
10
24.1329047
20
108.5924652
40
0.6391492
50
162.9375929
51
174.6208776
0
ARC
8
DEFAULT_255_1_388
10
24.4283428
20
108.5600711
40
0.9363344
50
174.342123
51
180.1430283
0
ARC
8
DEFAULT_255_1_388
10
24.323597
20
108.4257117
40
0.8315986
50
179.6817261
51
189.150555
0
ARC
8
DEFAULT_255_1_388
10
24.0422719
20
108.3788559
40
0.5464044
50
188.9911061
51
203.5772363
0
ARC
8
DEFAULT_255_1_388
10
23.920801
20
108.3284539
40
0.4149206
50
203.9075402
51
215.1312435
0
ARC
8
DEFAULT_255_1_388
10
23.8169808
20
108.2479907
40
0.2837747
50
213.9071511
51
263.8848919
0
ARC
8
DEFAULT_255_1_388
10
23.8310801
20
108.3362519
40
0.3730641
50
263.1757928
51
270.1031044
0
ARC
8
DEFAULT_255_1_388
10
23.8346881
20
108.4765511
40
0.5133712
50
269.6722503
51
279.0606936
0
ARC
8
DEFAULT_255_1_388
10
23.8647036
20
108.295115
40
0.3294739
50
278.8749101
51
293.6349581
0
ARC
8
DEFAULT_255_1_388
10
23.900724
20
108.2105251
40
0.2375405
50
293.8553806
51
310.0518171
0
ARC
8
DEFAULT_255_1_388
10
23.9012749
20
108.2035021
40
0.2318463
50
311.0644687
51
332.0111037
0
ARC
8
DEFAULT_255_1_388
10
23.7671422
20
108.2774702
40
0.3850112
50
331.6586806
51
343.2877423
0
ARC
8
DEFAULT_255_1_388
10
23.5350888
20
108.3487806
40
0.6277712
50
343.1446576
51
351.0103568
0
ARC
8
DEFAULT_255_1_388
10
23.3718211
20
108.3787873
40
0.7937327
50
350.71248
51
351.1626997
0
LINE
8
DEFAULT_255_1_388
10
22.7612448
20
117.0924898
11
23.1353205
21
116.0073089
0
LINE
8
DEFAULT_255_1_388
10
23.1353205
20
116.0073089
11
23.5112033
21
117.0924898
0
LINE
8
DEFAULT_255_1_388
10
23.5112033
20
117.0924898
11
23.7009518
21
117.0924898
0
LINE
8
DEFAULT_255_1_388
10
23.7009518
20
117.0924898
11
23.213027
21
115.7769
0
LINE
8
DEFAULT_255_1_388
10
23.213027
20
115.7769
11
23.059421
21
115.7769
0
LINE
8
DEFAULT_255_1_388
10
23.059421
20
115.7769
11
22.5723998
21
117.0924898
0
LINE
8
DEFAULT_255_1_388
10
22.5723998
20
117.0924898
11
22.7612448
21
117.0924898
0
LINE
8
DEFAULT_255_1_388
10
24.1653839
20
116.4039737
11
24.1653839
21
116.2675355
0
LINE
8
DEFAULT_255_1_388
10
24.1653839
20
116.2675355
11
23.7244445
21
116.2675355
0
LINE
8
DEFAULT_255_1_388
10
23.7244445
20
116.2675355
11
23.7244445
21
116.4039737
0
LINE
8
DEFAULT_255_1_388
10
23.7244445
20
116.4039737
11
24.1653839
21
116.4039737
0
ENDSEC
0
EOF