0
SECTION
2
HEADER
9
$MEASUREMENT
70
1
0
ENDSEC
0
SECTION
2
TABLES
0
TABLE
2
LTYPE
0
LTYPE
72
65
70
64
2
CONTINUOUS
3
______
73
0
40
0
0
ENDTAB
0
TABLE
2
LAYER
0
LAYER
2
DEFAULT_255_2_778
70
0
62
255
6
CONTINUOUS
0
ENDTAB
0
ENDSEC
0
SECTION
2
ENTITIES
0
ARC
8
DEFAULT_255_2_778
10
24.2859081
20
2.3608042
40
1.245478
50
297.4711959
51
314.7982086
0
ARC
8
DEFAULT_255_2_778
10
24.1782487
20
2.5680004
40
1.4789749
50
283.2085351
51
297.468868
0
ARC
8
DEFAULT_255_2_778
10
24.0941316
20
2.9212355
40
1.8420859
50
272.1750875
51
283.2452079
0
ARC
8
DEFAULT_255_2_778
10
24.074846
20
3.2243139
40
2.1456919
50
269.9877393
51
272.3825359
0
ARC
8
DEFAULT_255_2_778
10
24.0684377
20
3.002517
40
1.9239042
50
257.9341605
51
270.1771718
0
ARC
8
DEFAULT_255_2_778
10
23.9992493
20
2.6855529
40
1.5994803
50
244.0867175
51
257.9844242
0
ARC
8
DEFAULT_255_2_778
10
23.8461231
20
2.3767959
40
1.2548523
50
227.9778649
51
244.2145769
0
ARC
8
DEFAULT_255_2_778
10
23.7099395
20
2.2144209
40
1.0430896
50
224.9862584
51
227.5643727
0
ARC
8
DEFAULT_255_2_778
10
23.8094672
20
2.3222272
40
1.1897101
50
204.6128661
51
225.269873
0
ARC
8
DEFAULT_255_2_778
10
24.3643021
20
2.521326
40
1.7777609
50
182.673656
51
202.9988984
0
ARC
8
DEFAULT_255_2_778
10
26.2508239
20
2.722103
40
3.6733197
50
184.0960581
51
184.4295826
0
ARC
8
DEFAULT_255_2_778
10
24.4271128
20
2.5754791
40
1.1159459
50
185.9539977
51
201.7584885
0
ARC
8
DEFAULT_255_2_778
10
23.9791731
20
2.3849772
40
0.6293958
50
200.7679553
51
258.9731948
0
ARC
8
DEFAULT_255_2_778
10
24.06658
20
2.7417416
40
0.9964464
50
257.9637039
51
270.4201533
0
ARC
8
DEFAULT_255_2_778
10
24.089157
20
2.547415
40
0.8022382
50
268.909346
51
297.389936
0
ARC
8
DEFAULT_255_2_778
10
24.1588179
20
2.3906904
40
0.631119
50
298.3203826
51
315.0128832
0
ARC
8
DEFAULT_255_2_778
10
24.0061604
20
2.4949181
40
0.8134916
50
317.4226587
51
352.6313305
0
ARC
8
DEFAULT_255_2_778
10
22.1999784
20
2.7982734
40
2.644569
50
351.1318856
51
1.0692238
0
ARC
8
DEFAULT_255_2_778
10
22.4395391
20
2.8701065
40
2.4046529
50
359.4642541
51
8.8922625
0
ARC
8
DEFAULT_255_2_778
10
23.6814384
20
3.0711511
40
1.1466228
50
8.5595073
51
25.4854147
0
ARC
8
DEFAULT_255_2_778
10
24.1686124
20
3.3105625
40
0.603874
50
24.8692938
51
78.0066344
0
ARC
8
DEFAULT_255_2_778
10
24.0947237
20
3.0045357
40
0.9186158
50
77.4649943
51
90.4576168
0
ARC
8
DEFAULT_255_2_778
10
24.0786618
20
2.9390411
40
0.9841196
50
89.4920148
51
105.6811241
0
ARC
8
DEFAULT_255_2_778
10
24.0019357
20
3.2070297
40
0.705369
50
105.5643541
51
130.4217609
0
ARC
8
DEFAULT_255_2_778
10
23.9525764
20
3.2719801
40
0.6239341
50
130.8384519
51
162.6326991
0
ARC
8
DEFAULT_255_2_778
10
23.9263215
20
3.6999899
40
0.8041836
50
112.0385804
51
136.1286934
0
ARC
8
DEFAULT_255_2_778
10
24.1228819
20
3.2397356
40
1.3045979
50
97.0989926
51
112.4556509
0
ARC
8
DEFAULT_255_2_778
10
24.1925923
20
2.775168
40
1.7742582
50
89.8774611
51
97.4788509
0
ARC
8
DEFAULT_255_2_778
10
24.2069831
20
2.8702372
40
1.6792183
50
77.2591874
51
90.3615519
0
ARC
8
DEFAULT_255_2_778
10
24.3157918
20
3.3340468
40
1.2028381
50
56.8755954
51
77.4421256
0
ARC
8
DEFAULT_255_2_778
10
24.4085899
20
3.4901819
40
1.0213951
50
45.3904381
51
56.4490241
0
ARC
8
DEFAULT_255_2_778
10
24.1485004
20
3.23767
40
1.3838362
50
26.4674882
51
45.0663292
0
ARC
8
DEFAULT_255_2_778
10
23.6355695
20
3.0317136
40
1.9353037
50
2.3682539
51
25.1576659
0
ARC
8
DEFAULT_255_2_778
10
21.6553736
20
2.860051
40
3.9219275
50
359.8447214
51
3.6786603
0
ARC
8
DEFAULT_255_2_778
10
21.2490955
20
2.6358338
40
4.3334583
50
0.8354674
51
2.8251497
0
ARC
8
DEFAULT_255_2_778
10
22.0021827
20
2.6496065
40
3.5802514
50
0.0056841
51
0.7908114
0
ARC
8
DEFAULT_255_2_778
10
23.2974823
20
2.6221298
40
2.2851213
50
348.717153
51
0.6978572
0
ARC
8
DEFAULT_255_2_778
10
24.2232537
20
2.435638
40
1.3407558
50
318.7993233
51
348.7922804
0
ARC
8
DEFAULT_255_2_778
10
24.1290604
20
2.5189075
40
1.4664772
50
314.9762689
51
318.7755832
0
ARC
8
DEFAULT_255_2_778
10
27.9164665
20
2.3406138
40
1.2091269
50
255.0679398
51
270.4369236
0
ARC
8
DEFAULT_255_2_778
10
27.8382799
20
2.0515426
40
0.9096711
50
230.2724995
51
255.1347262
0
ARC
8
DEFAULT_255_2_778
10
27.9347917
20
2.1106618
40
1.0174764
50
180.0133562
51
228.2199927
0
ARC
8
DEFAULT_255_2_778
10
28.2233914
20
2.1540566
40
1.3068047
50
179.9971286
51
181.9133638
0
ARC
8
DEFAULT_255_2_778
10
28.1957841
20
2.1674919
40
0.5491471
50
178.6612277
51
201.7459005
0
ARC
8
DEFAULT_255_2_778
10
27.993287
20
2.0931928
40
0.3335877
50
202.7785069
51
265.0128131
0
ARC
8
DEFAULT_255_2_778
10
28.0434316
20
2.3329341
40
0.5775149
50
262.1232335
51
270.1840694
0
LINE
8
DEFAULT_255_2_778
10
17.5706869
20
1.1315221
11
16.1366869
21
3.6545221
0
LINE
8
DEFAULT_255_2_778
10
16.1366869
20
3.6545221
11
15.2600869
21
2.6187221
0
LINE
8
DEFAULT_255_2_778
10
15.2600869
20
2.6187221
11
15.2600869
21
1.1317221
0
LINE
8
DEFAULT_255_2_778
10
15.2600869
20
1.1317221
11
14.4927869
21
1.1317221
0
LINE
8
DEFAULT_255_2_778
10
14.4927869
20
1.1317221
11
14.4927869
21
6.2572221
0
LINE
8
DEFAULT_255_2_778
10
14.4927869
20
6.2572221
11
15.2600869
21
6.2572221
0
LINE
8
DEFAULT_255_2_778
10
15.2600869
20
6.2572221
11
15.2600869
21
3.6810221
0
LINE
8
DEFAULT_255_2_778
10
15.2600869
20
3.6810221
11
17.3714869
21
6.2572221
0
LINE
8
DEFAULT_255_2_778
10
17.3714869
20
6.2572221
11
18.3141869
21
6.2572221
0
LINE
8
DEFAULT_255_2_778
10
18.3141869
20
6.2572221
11
16.6541869
21
4.2517221
0
LINE
8
DEFAULT_255_2_778
10
16.6541869
20
4.2517221
11
18.4866869
21
1.1309221
0
LINE
8
DEFAULT_255_2_778
10
18.4866869
20
1.1309221
11
17.5703869
21
1.1309221
0
LINE
8
DEFAULT_255_2_778
10
20.3855869
20
1.1315221
11
20.3855869
21
5.4606221
0
LINE
8
DEFAULT_255_2_778
10
20.3855869
20
5.4606221
11
19.3896869
21
4.5840221
0
LINE
8
DEFAULT_255_2_778
10
19.3896869
20
4.5840221
11
19.3896869
21
5.3942221
0
LINE
8
DEFAULT_255_2_778
10
19.3896869
20
5.3942221
11
20.3855869
21
6.2572221
0
LINE
8
DEFAULT_255_2_778
10
20.3855869
20
6.2572221
11
21.1263869
21
6.2572221
0
LINE
8
DEFAULT_255_2_778
10
21.1263869
20
6.2572221
11
21.1263869
21
1.1315221
0
LINE
8
DEFAULT_255_2_778
10
21.1263869
20
1.1315221
11
20.3855869
21
1.1315221
0
LINE
8
DEFAULT_255_2_778
10
22.5868869
20
2.4597221
11
23.3171869
21
2.4597221
0
LINE
8
DEFAULT_255_2_778
10
23.3570869
20
3.4582221
11
22.6797869
21
3.4582221
0
LINE
8
DEFAULT_255_2_778
10
22.6797869
20
3.4582221
11
22.6797869
21
6.2628221
0
LINE
8
DEFAULT_255_2_778
10
22.6797869
20
6.2628221
11
25.4578869
21
6.2628221
0
LINE
8
DEFAULT_255_2_778
10
25.4578869
20
6.2628221
11
25.4578869
21
5.6119221
0
LINE
8
DEFAULT_255_2_778
10
25.4578869
20
5.6119221
11
23.3465869
21
5.6119221
0
LINE
8
DEFAULT_255_2_778
10
23.3465869
20
5.6119221
11
23.3465869
21
4.2573221
0
LINE
8
DEFAULT_255_2_778
10
26.9165869
20
2.1541221
11
26.9165869
21
4.1596221
0
LINE
8
DEFAULT_255_2_778
10
26.9165869
20
4.1596221
11
26.4916869
21
4.1596221
0
LINE
8
DEFAULT_255_2_778
10
26.4916869
20
4.1596221
11
26.4916869
21
4.7174221
0
LINE
8
DEFAULT_255_2_778
10
26.4916869
20
4.7174221
11
26.9165869
21
4.7174221
0
LINE
8
DEFAULT_255_2_778
10
26.9165869
20
4.7174221
11
26.9165869
21
5.8321221
0
LINE
8
DEFAULT_255_2_778
10
26.9165869
20
5.8321221
11
27.6467869
21
5.8321221
0
LINE
8
DEFAULT_255_2_778
10
27.6467869
20
5.8321221
11
27.6467869
21
4.7166221
0
LINE
8
DEFAULT_255_2_778
10
27.6467869
20
4.7166221
11
28.3505869
21
4.7166221
0
LINE
8
DEFAULT_255_2_778
10
28.3505869
20
4.7166221
11
28.3505869
21
4.1588221
0
LINE
8
DEFAULT_255_2_778
10
28.3505869
20
4.1588221
11
27.6467869
21
4.1588221
0
LINE
8
DEFAULT_255_2_778
10
27.6467869
20
4.1588221
11
27.6467869
21
2.1803221
0
LINE
8
DEFAULT_255_2_778
10
28.0452869
20
1.7554221
11
28.3505869
21
1.7554221
0
LINE
8
DEFAULT_255_2_778
10
28.3505869
20
1.7554221
11
28.3505869
21
1.1309221
0
LINE
8
DEFAULT_255_2_778
10
28.3505869
20
1.1309221
11
27.9256869
21
1.1309221
0
ARC
8
DEFAULT_255_2_778
10
0.6162548
20
0.5488262
40
0.3908557
50
162.2560521
51
177.9580538
0
ARC
8
DEFAULT_255_2_778
10
1.5362306
20
0.5042216
40
1.3118897
50
177.4428422
51
180.5099786
0
ARC
8
DEFAULT_255_2_778
10
0.7273089
20
0.4717345
40
0.5033465
50
177.6304857
51
254.7358158
0
ARC
8
DEFAULT_255_2_778
10
1.0321461
20
0.2915627
40
0.4219609
50
252.6754347
51
269.9417773
0
ARC
8
DEFAULT_255_2_778
10
1.0735412
20
1.7060745
40
1.8369487
50
268.6953706
51
270.2604953
0
ARC
8
DEFAULT_255_2_778
10
1.0927652
20
0.4123881
40
0.543352
50
268.8534504
51
341.4516132
0
ARC
8
DEFAULT_255_2_778
10
3.3787309
20
6.8065635
40
0.3908557
50
342.2560521
51
357.9580538
0
ARC
8
DEFAULT_255_2_778
10
2.4587551
20
6.8511682
40
1.3118897
50
357.4428422
51
0.5099786
0
ARC
8
DEFAULT_255_2_778
10
3.2675907
20
6.8836884
40
0.5034338
50
357.6271269
51
74.7283738
0
ARC
8
DEFAULT_255_2_778
10
2.9628396
20
7.063827
40
0.4219609
50
72.6754347
51
89.9417773
0
ARC
8
DEFAULT_255_2_778
10
2.9214445
20
5.6493153
40
1.8369487
50
88.6953706
51
90.2604953
0
ARC
8
DEFAULT_255_2_778
10
2.9022843
20
6.9429111
40
0.5434413
50
88.860367
51
161.4446994
0
LINE
8
DEFAULT_255_2_778
10
2.3870928
20
7.1158449
11
0.2439928
21
0.6679449
0
LINE
8
DEFAULT_255_2_778
10
0.5947928
20
-0.0138551
11
0.9064928
21
-0.1112551
0
LINE
8
DEFAULT_255_2_778
10
1.6078928
20
0.2395449
11
3.7509928
21
6.6874449
0
LINE
8
DEFAULT_255_2_778
10
3.4001928
20
7.3693449
11
3.0884928
21
7.4666449
0
ARC
8
DEFAULT_255_2_778
10
4.9019116
20
0.5488262
40
0.3908557
50
162.2560521
51
177.9580538
0
ARC
8
DEFAULT_255_2_778
10
5.8218873
20
0.5042216
40
1.3118897
50
177.4428422
51
180.5099786
0
ARC
8
DEFAULT_255_2_778
10
5.0129657
20
0.4717345
40
0.5033465
50
177.6304857
51
254.7358158
0
ARC
8
DEFAULT_255_2_778
10
5.3178029
20
0.2915627
40
0.4219609
50
252.6754347
51
269.9417773
0
ARC
8
DEFAULT_255_2_778
10
5.359198
20
1.7060745
40
1.8369487
50
268.6953706
51
270.2604953
0
ARC
8
DEFAULT_255_2_778
10
5.3784219
20
0.4123881
40
0.543352
50
268.8534504
51
341.4516132
0
ARC
8
DEFAULT_255_2_778
10
7.6643877
20
6.8065635
40
0.3908557
50
342.2560521
51
357.9580538
0
ARC
8
DEFAULT_255_2_778
10
6.7444119
20
6.8511682
40
1.3118897
50
357.4428422
51
0.5099786
0
ARC
8
DEFAULT_255_2_778
10
7.5338404
20
6.8722802
40
0.5224944
50
358.9652807
51
0.0015872
0
ARC
8
DEFAULT_255_2_778
10
7.5377316
20
6.8723434
40
0.5186032
50
359.9946168
51
73.4047204
0
ARC
8
DEFAULT_255_2_778
10
7.2484963
20
7.063827
40
0.4219609
50
72.6754347
51
89.9417773
0
ARC
8
DEFAULT_255_2_778
10
7.2071013
20
5.6493153
40
1.8369487
50
88.6953706
51
90.2604953
0
ARC
8
DEFAULT_255_2_778
10
7.1879411
20
6.9429111
40
0.5434413
50
88.860367
51
161.4446994
0
LINE
8
DEFAULT_255_2_778
10
6.6727496
20
7.1158449
11
4.5296496
21
0.6679449
0
LINE
8
DEFAULT_255_2_778
10
4.8804496
20
-0.0138551
11
5.1921496
21
-0.1112551
0
LINE
8
DEFAULT_255_2_778
10
5.8935496
20
0.2395449
11
8.0366496
21
6.6874449
0
LINE
8
DEFAULT_255_2_778
10
7.6858496
20
7.3693449
11
7.3741496
21
7.4666449
0
ARC
8
DEFAULT_255_2_778
10
9.2182107
20
0.54232
40
0.4219609
50
162.6754347
51
179.9417773
0
ARC
8
DEFAULT_255_2_778
10
10.6327225
20
0.500925
40
1.8369487
50
178.6953706
51
180.2604953
0
ARC
8
DEFAULT_255_2_778
10
9.3391263
20
0.4817646
40
0.543441
50
178.860346
51
251.4447225
0
ARC
8
DEFAULT_255_2_778
10
9.6035354
20
0.2740826
40
0.4239547
50
252.7609916
51
269.9435047
0
ARC
8
DEFAULT_255_2_778
10
9.6449314
20
1.6952136
40
1.8455592
50
268.7017626
51
270.2595841
0
ARC
8
DEFAULT_255_2_778
10
9.6642562
20
0.3927872
40
0.5432245
50
268.8435783
51
341.4614902
0
ARC
8
DEFAULT_255_2_778
10
11.919575
20
6.7936266
40
0.4219609
50
342.6754347
51
359.9417773
0
ARC
8
DEFAULT_255_2_778
10
10.5050632
20
6.8350216
40
1.8369487
50
358.6953706
51
0.2604953
0
ARC
8
DEFAULT_255_2_778
10
11.8391061
20
6.8642053
40
0.5033181
50
357.627894
51
74.7383881
0
ARC
8
DEFAULT_255_2_778
10
11.5342503
20
7.042264
40
0.4239547
50
72.7609916
51
89.9435047
0
ARC
8
DEFAULT_255_2_778
10
11.4928543
20
5.6211331
40
1.8455592
50
88.7017626
51
90.2595841
0
ARC
8
DEFAULT_255_2_778
10
11.4400962
20
6.9379212
40
0.5306127
50
85.2004258
51
89.9914612
0
ARC
8
DEFAULT_255_2_778
10
11.4388832
20
6.9648861
40
0.5036495
50
89.8530068
51
162.5194493
0
LINE
8
DEFAULT_255_2_778
10
10.9584928
20
7.1158733
11
8.8153928
21
0.6679733
0
LINE
8
DEFAULT_255_2_778
10
9.1661928
20
-0.0334267
11
9.4778928
21
-0.1308267
0
LINE
8
DEFAULT_255_2_778
10
10.1792928
20
0.2200733
11
12.3223928
21
6.6679733
0
LINE
8
DEFAULT_255_2_778
10
11.9715928
20
7.3497733
11
11.6598928
21
7.4471733
0
ENDSEC
0
EOF