0
SECTION
2
HEADER
9
$MEASUREMENT
70
1
0
ENDSEC
0
SECTION
2
TABLES
0
TABLE
2
LTYPE
0
LTYPE
72
65
70
64
2
CONTINUOUS
3
______
73
0
40
0
0
ENDTAB
0
TABLE
2
LAYER
0
LAYER
2
DEFAULT_255_2_778
70
0
62
255
6
CONTINUOUS
0
ENDTAB
0
ENDSEC
0
SECTION
2
ENTITIES
0
LINE
8
DEFAULT_255_2_778
10
1.7105171
20
11.9197332
11
30.8147171
21
11.9197332
0
LINE
8
DEFAULT_255_2_778
10
30.8147171
20
11.9197332
11
30.8147171
21
3.4530332
0
LINE
8
DEFAULT_255_2_778
10
30.8147171
20
3.4530332
11
1.7105171
21
3.4530332
0
LINE
8
DEFAULT_255_2_778
10
1.7105171
20
3.4530332
11
1.7105171
21
11.9197332
0
ARC
8
DEFAULT_255_2_778
10
15.4897756
20
14.5503842
40
1.5778113
50
61.493138
51
90.0877994
0
ARC
8
DEFAULT_255_2_778
10
15.4863153
20
14.5426904
40
1.5862238
50
8.3019864
51
61.5159378
0
ARC
8
DEFAULT_255_2_778
10
15.4741629
20
14.5437726
40
1.598095
50
359.982827
51
8.2006829
0
ARC
8
DEFAULT_255_2_778
10
15.4946641
20
14.5408884
40
1.5775955
50
331.4911524
51
0.0873559
0
ARC
8
DEFAULT_255_2_778
10
15.4867522
20
14.5444695
40
1.5862573
50
278.3018953
51
331.513885
0
ARC
8
DEFAULT_255_2_778
10
15.4878354
20
14.5566274
40
1.5981338
50
269.9828774
51
278.2005331
0
ARC
8
DEFAULT_255_2_778
10
15.4903055
20
14.5679796
40
1.6094887
50
251.9966923
51
269.8950645
0
ARC
8
DEFAULT_255_2_778
10
8.6132646
20
7.9715619
40
5.180526
50
37.1276975
51
43.5502285
0
ARC
8
DEFAULT_255_2_778
10
8.5253356
20
7.9208649
40
5.279097
50
49.9477844
51
88.517029
0
ARC
8
DEFAULT_255_2_778
10
8.5283894
20
7.7035262
40
5.4962906
50
88.607487
51
89.9994401
0
ARC
8
DEFAULT_255_2_778
10
8.5066156
20
7.9873386
40
5.2125241
50
89.7600723
51
120.7977239
0
ARC
8
DEFAULT_255_2_778
10
8.5114854
20
7.9928473
40
6.1862193
50
89.8153077
51
122.9157908
0
ARC
8
DEFAULT_255_2_778
10
8.531357
20
7.7279163
40
6.4511182
50
88.6312193
51
89.9993815
0
ARC
8
DEFAULT_255_2_778
10
8.5403787
20
7.9771779
40
6.2017129
50
49.8382615
51
88.6595349
0
ARC
8
DEFAULT_255_2_778
10
15.4866616
20
14.5426233
40
1.5820043
50
180.0112324
51
197.4131257
0
ARC
8
DEFAULT_255_2_778
10
15.1062773
20
14.5425582
40
1.2016199
50
179.9649352
51
180.0116882
0
ARC
8
DEFAULT_255_2_778
10
15.4895299
20
14.5433181
40
1.5848721
50
134.9999132
51
180.0008844
0
ARC
8
DEFAULT_255_2_778
10
15.4895092
20
14.5433796
40
1.584814
50
90.0018605
51
135.0009578
0
ARC
8
DEFAULT_255_2_778
10
1.7426498
20
1.4845972
40
1.5046043
50
70.7518547
51
89.0476449
0
ARC
8
DEFAULT_255_2_778
10
8.4419967
20
7.8271335
40
5.1542151
50
216.8686583
51
222.5649057
0
ARC
8
DEFAULT_255_2_778
10
8.5193367
20
7.88946
40
5.2653366
50
229.5884316
51
268.6007041
0
ARC
8
DEFAULT_255_2_778
10
8.5244533
20
7.9376813
40
5.3136699
50
268.5582478
51
270.0000161
0
ARC
8
DEFAULT_255_2_778
10
8.5244204
20
7.937473
40
5.3134615
50
270.0003703
51
300.4968948
0
ARC
8
DEFAULT_255_2_778
10
8.5363008
20
7.8784129
40
6.2303797
50
269.8569712
51
302.7410415
0
ARC
8
DEFAULT_255_2_778
10
8.5208116
20
8.1028995
40
6.4548469
50
268.6315398
51
269.9994335
0
ARC
8
DEFAULT_255_2_778
10
8.5160172
20
7.8793337
40
6.2312303
50
230.0191812
51
268.6265176
0
ARC
8
DEFAULT_255_2_778
10
1.7497246
20
1.4078733
40
1.564736
50
359.9944245
51
16.9286318
0
ARC
8
DEFAULT_255_2_778
10
1.6775669
20
1.4078294
40
1.6368938
50
359.8902396
51
359.9962086
0
ARC
8
DEFAULT_255_2_778
10
1.7295856
20
1.4046692
40
1.5848721
50
314.9999132
51
0.0008844
0
ARC
8
DEFAULT_255_2_778
10
1.7295822
20
1.4046658
40
1.5848721
50
269.9991156
51
315.0000868
0
LINE
8
DEFAULT_255_2_778
10
1.7295578
20
-0.1802064
11
1.7290022
21
-0.1802065
0
ARC
8
DEFAULT_255_2_778
10
1.7265937
20
1.4001122
40
1.5803205
50
241.5301171
51
270.0873211
0
ARC
8
DEFAULT_255_2_778
10
1.7301277
20
1.407895
40
1.588847
50
188.4059926
51
241.5518766
0
ARC
8
DEFAULT_255_2_778
10
1.74247
20
1.4069069
40
1.6009147
50
180.1006869
51
188.3064348
0
ARC
8
DEFAULT_255_2_778
10
1.7264299
20
1.4041181
40
1.5848721
50
134.9999132
51
180.0008844
0
ARC
8
DEFAULT_255_2_778
10
1.7264333
20
1.4041215
40
1.5848721
50
89.9991156
51
135.0000868
0
ARC
8
DEFAULT_255_2_778
10
8.5665604
20
7.9322016
40
6.2241539
50
359.8871412
51
31.2873437
0
ARC
8
DEFAULT_255_2_778
10
8.4207433
20
7.9199669
40
6.3699588
50
358.5483432
51
359.9997721
0
ARC
8
DEFAULT_255_2_778
10
8.5804472
20
7.9103183
40
6.2100643
50
318.4936981
51
358.6000067
0
ARC
8
DEFAULT_255_2_778
10
14.1537005
20
1.9492017
40
1.0183456
50
90.0131815
51
97.6034073
0
ARC
8
DEFAULT_255_2_778
10
14.1563145
20
1.9878906
40
0.9796608
50
43.4555934
51
90.1665806
0
ARC
8
DEFAULT_255_2_778
10
14.1552764
20
1.9873156
40
0.9808099
50
19.4634956
51
43.4382683
0
ARC
8
DEFAULT_255_2_778
10
14.1504381
20
1.9863918
40
0.9856798
50
0.3220135
51
19.4204105
0
ARC
8
DEFAULT_255_2_778
10
14.1351305
20
1.9860294
40
1.0009892
50
0.001963
51
0.3378334
0
ARC
8
DEFAULT_255_2_778
10
14.1538412
20
1.9849718
40
0.9822791
50
322.6454327
51
0.0636915
0
ARC
8
DEFAULT_255_2_778
10
14.1470654
20
1.9913192
40
0.9915168
50
313.6337605
51
322.5914407
0
ARC
8
DEFAULT_255_2_778
10
14.1569936
20
1.9861411
40
0.9809249
50
289.4570438
51
313.422753
0
ARC
8
DEFAULT_255_2_778
10
14.1560645
20
1.9909855
40
0.9858023
50
270.3226711
51
289.4141708
0
ARC
8
DEFAULT_255_2_778
10
14.1557021
20
2.0102495
40
1.005068
50
270.0019502
51
270.3371469
0
ARC
8
DEFAULT_255_2_778
10
14.1546438
20
1.9875807
40
0.9823998
50
232.6573256
51
270.0637136
0
ARC
8
DEFAULT_255_2_778
10
14.1609574
20
1.9943155
40
0.9915841
50
223.6483785
51
232.6033429
0
ARC
8
DEFAULT_255_2_778
10
14.1524445
20
1.9805601
40
0.9759384
50
179.9232075
51
223.4090049
0
ARC
8
DEFAULT_255_2_778
10
14.1610937
20
1.9818654
40
0.9845867
50
175.5301791
51
179.9998374
0
ARC
8
DEFAULT_255_2_778
10
14.1622454
20
1.9817642
40
0.9857428
50
168.9561314
51
175.5295352
0
ARC
8
DEFAULT_255_2_778
10
8.7943803
20
7.6293352
40
4.8963791
50
308.3343687
51
318.932862
0
ARC
8
DEFAULT_255_2_778
10
8.5678518
20
7.902419
40
5.2468789
50
318.3096182
51
358.6892115
0
ARC
8
DEFAULT_255_2_778
10
8.5576645
20
7.9295378
40
5.2577527
50
358.3963038
51
0.0000145
0
ARC
8
DEFAULT_255_2_778
10
8.5605749
20
7.9296576
40
5.2548424
50
359.9987075
51
28.950617
0
ARC
8
DEFAULT_255_2_778
10
2.8577113
20
13.8716706
40
0.9980442
50
89.9988819
51
90.8929342
0
ARC
8
DEFAULT_255_2_778
10
2.8576502
20
13.8697917
40
0.9999232
50
44.0475712
51
89.995382
0
ARC
8
DEFAULT_255_2_778
10
2.8678318
20
13.8944543
40
0.9755163
50
359.9243732
51
43.4221733
0
ARC
8
DEFAULT_255_2_778
10
2.8593588
20
13.8931667
40
0.9839884
50
355.4684265
51
0.0000029
0
ARC
8
DEFAULT_255_2_778
10
2.8579855
20
13.8932899
40
0.9853672
50
348.9419821
51
355.4675919
0
ARC
8
DEFAULT_255_2_778
10
8.1721278
20
8.3237001
40
4.7480086
50
128.1855927
51
139.1179035
0
ARC
8
DEFAULT_255_2_778
10
8.5324492
20
7.9194092
40
5.2855042
50
138.3608538
51
178.4585103
0
ARC
8
DEFAULT_255_2_778
10
8.6419421
20
7.9223602
40
5.3948813
50
178.5211212
51
179.9995418
0
ARC
8
DEFAULT_255_2_778
10
8.5328739
20
7.915663
40
5.2858173
50
179.9269377
51
208.8557702
0
ARC
8
DEFAULT_255_2_778
10
8.4561139
20
7.8946756
40
6.1860153
50
180.001042
51
211.5086676
0
ARC
8
DEFAULT_255_2_778
10
8.456585
20
7.8945684
40
6.1864864
50
178.2277705
51
180.0000491
0
ARC
8
DEFAULT_255_2_778
10
8.5591953
20
7.9099026
40
6.2886006
50
138.7944764
51
178.3963266
0
ARC
8
DEFAULT_255_2_778
10
2.865615
20
13.9257856
40
1.0183456
50
270.0131815
51
277.6034073
0
ARC
8
DEFAULT_255_2_778
10
2.8630011
20
13.8870967
40
0.9796608
50
223.4555934
51
270.1665806
0
ARC
8
DEFAULT_255_2_778
10
2.8823773
20
13.8958849
40
0.9997948
50
199.9300294
51
223.0574509
0
ARC
8
DEFAULT_255_2_778
10
2.8722063
20
13.8912828
40
0.9886644
50
180.608106
51
199.8802232
0
ARC
8
DEFAULT_255_2_778
10
2.8728846
20
13.8912217
40
0.9893421
50
180.0011172
51
180.6041544
0
ARC
8
DEFAULT_255_2_778
10
2.8605607
20
13.8922168
40
0.9770187
50
143.6996043
51
180.0594833
0
ARC
8
DEFAULT_255_2_778
10
2.8773066
20
13.8793468
40
0.998134
50
133.6726687
51
143.6732927
0
ARC
8
DEFAULT_255_2_778
10
2.8683515
20
13.8744862
40
0.9955142
50
96.9461358
51
133.1066969
0
ARC
8
DEFAULT_255_2_778
10
2.8568605
20
13.8534831
40
1.0150693
50
92.4917752
51
96.1588892
0
ARC
8
DEFAULT_255_2_778
10
2.6930122
20
17.1679149
40
2.3034353
50
272.9791936
51
273.7049742
0
LINE
8
DEFAULT_255_2_778
10
14.9928578
20
13.0372936
11
14.9923578
21
13.0354936
0
LINE
8
DEFAULT_255_2_778
10
14.9923578
20
13.0354936
11
14.9680578
21
13.0438936
0
LINE
8
DEFAULT_255_2_778
10
14.9680578
20
13.0438936
11
12.8164578
21
11.0013936
0
LINE
8
DEFAULT_255_2_778
10
12.8164578
20
11.0013936
11
12.7436578
21
11.0984936
0
LINE
8
DEFAULT_255_2_778
10
12.3679578
20
11.5408936
11
12.3436578
21
11.5709936
0
LINE
8
DEFAULT_255_2_778
10
12.3436578
20
11.5709936
11
12.1583578
21
11.7561936
0
LINE
8
DEFAULT_255_2_778
10
12.1583578
20
11.7561936
11
12.0737578
21
11.8286936
0
LINE
8
DEFAULT_255_2_778
10
12.0737578
20
11.8286936
11
12.0192578
21
11.8770936
0
LINE
8
DEFAULT_255_2_778
10
12.0192578
20
11.8770936
11
11.9768578
21
11.9133936
0
LINE
8
DEFAULT_255_2_778
10
11.9768578
20
11.9133936
11
11.9223578
21
11.9617936
0
LINE
8
DEFAULT_255_2_778
10
5.8377578
20
12.4647936
11
5.1498578
21
13.1859936
0
LINE
8
DEFAULT_255_2_778
10
12.5401578
20
12.7166936
11
12.5523578
21
12.7166936
0
LINE
8
DEFAULT_255_2_778
10
12.5523578
20
12.7166936
11
13.9771578
21
14.0691936
0
LINE
8
DEFAULT_255_2_778
10
15.4894578
20
16.1281936
11
15.4873578
21
16.1281936
0
LINE
8
DEFAULT_255_2_778
10
2.2386578
20
2.9050936
11
2.2386578
21
2.9063936
0
LINE
8
DEFAULT_255_2_778
10
2.2386578
20
2.9063936
11
2.2613578
21
2.8984936
0
LINE
8
DEFAULT_255_2_778
10
2.2613578
20
2.8984936
11
4.2457578
21
4.8317936
0
LINE
8
DEFAULT_255_2_778
10
4.2457578
20
4.8317936
11
4.3185578
21
4.7346936
0
LINE
8
DEFAULT_255_2_778
10
4.6458578
20
4.3406936
11
4.6881578
21
4.2922936
0
LINE
8
DEFAULT_255_2_778
10
4.6881578
20
4.2922936
11
4.7728578
21
4.2012936
0
LINE
8
DEFAULT_255_2_778
10
4.7728578
20
4.2012936
11
5.0030578
21
3.9710936
0
LINE
8
DEFAULT_255_2_778
10
5.0030578
20
3.9710936
11
5.0575578
21
3.9226936
0
LINE
8
DEFAULT_255_2_778
10
5.0575578
20
3.9226936
11
5.1059578
21
3.8803936
0
LINE
8
DEFAULT_255_2_778
10
11.2209578
20
3.3590936
11
11.3725578
21
3.2014936
0
LINE
8
DEFAULT_255_2_778
10
11.3725578
20
3.2014936
11
11.9059578
21
2.6378936
0
LINE
8
DEFAULT_255_2_778
10
4.5122578
20
3.1045936
11
4.5182578
21
3.1167936
0
LINE
8
DEFAULT_255_2_778
10
4.5182578
20
3.1167936
11
3.2466578
21
1.8634936
0
LINE
8
DEFAULT_255_2_778
10
1.7264578
20
2.9889936
11
1.7676578
21
2.9889936
0
LINE
8
DEFAULT_255_2_778
10
13.2310578
20
3.7948936
11
13.2371578
21
3.7887936
0
LINE
8
DEFAULT_255_2_778
10
13.2371578
20
3.7887936
11
14.0189578
21
2.9585936
0
LINE
8
DEFAULT_255_2_778
10
13.1947578
20
2.1705936
11
11.7403578
21
3.7157936
0
LINE
8
DEFAULT_255_2_778
10
11.7403578
20
3.7157936
11
11.8313578
21
3.7885936
0
LINE
8
DEFAULT_255_2_778
10
13.1587578
20
10.4732936
11
13.8855578
21
11.1645936
0
LINE
8
DEFAULT_255_2_778
10
3.8250578
20
13.7042936
11
5.3279578
21
12.1284936
0
LINE
8
DEFAULT_255_2_778
10
5.3279578
20
12.1284936
11
5.2368578
21
12.0556936
0
LINE
8
DEFAULT_255_2_778
10
3.9033578
20
5.3646936
11
3.1821578
21
4.6616936
0
LINE
8
DEFAULT_255_2_778
10
3.8279578
20
12.0525936
11
3.0003578
21
12.9163936
0
LINE
8
DEFAULT_255_2_778
10
2.8418578
20
14.8692936
11
2.8421578
21
14.8695936
0
ARC
8
DEFAULT_255_2_778
10
8.5308165
20
7.7445206
40
4.8453799
50
83.064854
51
89.4163257
0
ARC
8
DEFAULT_255_2_778
10
8.5309273
20
7.9027821
40
4.6883015
50
69.1754773
51
82.8326613
0
ARC
8
DEFAULT_255_2_778
10
8.5404674
20
7.9366372
40
4.6532676
50
48.5010559
51
69.1370751
0
ARC
8
DEFAULT_255_2_778
10
8.5193877
20
7.9076967
40
4.6889119
50
12.5275221
51
48.5424562
0
ARC
8
DEFAULT_255_2_778
10
8.558832
20
7.9221223
40
4.647281
50
359.9876905
51
12.4593884
0
ARC
8
DEFAULT_255_2_778
10
8.5066573
20
7.9213197
40
4.6994554
50
356.4815613
51
359.9976126
0
ARC
8
DEFAULT_255_2_778
10
8.4585105
20
7.9243455
40
4.7476972
50
352.956255
51
356.4807735
0
ARC
8
DEFAULT_255_2_778
10
8.520111
20
7.9264057
40
4.6868239
50
339.1780278
51
352.8389131
0
ARC
8
DEFAULT_255_2_778
10
8.5529375
20
7.9173325
40
4.6529172
50
318.2330453
51
339.1387703
0
ARC
8
DEFAULT_255_2_778
10
8.5237177
20
7.9387066
40
4.6889497
50
282.458622
51
318.2760731
0
ARC
8
DEFAULT_255_2_778
10
8.5380164
20
7.89943
40
4.6475166
50
269.9878452
51
282.3909566
0
ARC
8
DEFAULT_255_2_778
10
8.537219
20
7.9510564
40
4.6991427
50
266.4815229
51
269.9977013
0
ARC
8
DEFAULT_255_2_778
10
8.5402472
20
7.9992973
40
4.7474785
50
262.9562322
51
266.4807757
0
ARC
8
DEFAULT_255_2_778
10
8.5425648
20
7.9383235
40
4.6872593
50
249.1770116
51
262.8367177
0
ARC
8
DEFAULT_255_2_778
10
8.5334318
20
7.9053574
40
4.6532009
50
228.2333157
51
249.1378268
0
ARC
8
DEFAULT_255_2_778
10
8.5545681
20
7.9343263
40
4.688888
50
192.458896
51
228.2764665
0
ARC
8
DEFAULT_255_2_778
10
8.5152597
20
7.9200084
40
4.6474196
50
179.987825
51
192.3910853
0
ARC
8
DEFAULT_255_2_778
10
8.566954
20
7.9208072
40
4.6991137
50
176.4815132
51
179.9976989
0
ARC
8
DEFAULT_255_2_778
10
8.6152334
20
7.9177767
40
4.747488
50
172.9562346
51
176.4807661
0
ARC
8
DEFAULT_255_2_778
10
8.6073085
20
7.900466
40
4.7417804
50
159.1977957
51
172.7369024
0
ARC
8
DEFAULT_255_2_778
10
8.4945569
20
7.9409505
40
4.6220016
50
137.8638488
51
159.1705542
0
ARC
8
DEFAULT_255_2_778
10
8.5422022
20
7.8915988
40
4.6904452
50
107.7006195
51
137.8072678
0
ARC
8
DEFAULT_255_2_778
10
8.5865997
20
7.7609028
40
4.8284532
50
92.6232436
51
107.7309786
0
ARC
8
DEFAULT_255_2_778
10
8.5964856
20
7.6348303
40
4.9548477
50
90.1955391
51
92.670717
0
ARC
8
DEFAULT_255_2_778
10
8.6681975
20
8.5084463
40
2.0843169
50
94.3535445
51
112.9527562
0
ARC
8
DEFAULT_255_2_778
10
8.5886794
20
8.6954324
40
1.8811253
50
112.9435289
51
166.5680901
0
ARC
8
DEFAULT_255_2_778
10
8.8129255
20
8.6296653
40
2.1145478
50
166.2462383
51
178.6373808
0
ARC
8
DEFAULT_255_2_778
10
8.7598418
20
8.7215483
40
2.0612859
50
181.1563759
51
201.6034625
0
ARC
8
DEFAULT_255_2_778
10
8.5964237
20
8.6668783
40
1.8892418
50
201.886652
51
236.9351007
0
ARC
8
DEFAULT_255_2_778
10
8.7265278
20
8.8447183
40
2.1092987
50
236.6089562
51
242.7420787
0
ARC
8
DEFAULT_255_2_778
10
8.4132646
20
8.9176375
40
2.2093618
50
298.1522072
51
315.1763021
0
ARC
8
DEFAULT_255_2_778
10
8.6734842
20
8.6539773
40
1.8389356
50
315.2876178
51
352.1436053
0
ARC
8
DEFAULT_255_2_778
10
8.3892966
20
8.7047814
40
2.1274312
50
351.8343875
51
359.3150439
0
ARC
8
DEFAULT_255_2_778
10
8.5328358
20
8.6604737
40
1.9838297
50
0.5451566
51
20.0582537
0
ARC
8
DEFAULT_255_2_778
10
8.613874
20
8.6802418
40
1.9009494
50
20.3363027
51
77.3206746
0
ARC
8
DEFAULT_255_2_778
10
8.5578029
20
8.5030812
40
2.086157
50
76.8862337
51
88.6383672
0
LINE
8
DEFAULT_255_2_778
10
8.5795757
20
12.5896491
11
8.5801757
21
12.5896491
0
LINE
8
DEFAULT_255_2_778
10
7.7604757
20
6.9696491
11
7.4003757
21
5.2813491
0
LINE
8
DEFAULT_255_2_778
10
7.4003757
20
5.2813491
11
9.8151757
21
5.2813491
0
LINE
8
DEFAULT_255_2_778
10
9.8151757
20
5.2813491
11
9.4556757
21
6.9696491
0
LINE
8
DEFAULT_255_2_778
10
8.6073757
20
10.5886491
11
8.5099757
21
10.5867491
0
LINE
8
DEFAULT_255_2_778
10
8.5457757
20
10.5970491
11
8.5425757
21
10.5970491
0
LINE
8
DEFAULT_255_2_778
10
8.5425757
20
10.5970491
11
8.5457757
21
10.5970491
0
ENDSEC
0
EOF