0
SECTION
2
HEADER
9
$MEASUREMENT
70
1
0
ENDSEC
0
SECTION
2
TABLES
0
TABLE
2
LTYPE
0
LTYPE
72
65
70
64
2
CONTINUOUS
3
______
73
0
40
0
0
ENDTAB
0
TABLE
2
LAYER
0
LAYER
2
DEFAULT_255_2_778
70
0
62
255
6
CONTINUOUS
0
ENDTAB
0
ENDSEC
0
SECTION
2
ENTITIES
0
ARC
8
DEFAULT_255_2_778
10
11.8139688
20
13.3445369
40
3.6263893
50
136.1224679
51
145.5059998
0
ARC
8
DEFAULT_255_2_778
10
11.2214737
20
13.9194873
40
2.8007985
50
122.0094865
51
136.1995436
0
ARC
8
DEFAULT_255_2_778
10
11.0498246
20
14.168897
40
2.4983604
50
93.1539337
51
121.7033342
0
ARC
8
DEFAULT_255_2_778
10
11.0981455
20
13.721687
40
2.9476465
50
89.9785055
51
93.6135028
0
ARC
8
DEFAULT_255_2_778
10
11.1140911
20
13.8324525
40
2.8369197
50
73.773369
51
90.2997117
0
ARC
8
DEFAULT_255_2_778
10
11.1316262
20
13.9592568
40
2.7103308
50
51.0853801
51
73.3802239
0
ARC
8
DEFAULT_255_2_778
10
10.8300251
20
13.5576346
40
3.2123288
50
45.8446955
51
51.3995298
0
ARC
8
DEFAULT_255_2_778
10
11.0525007
20
13.762923
40
2.9101134
50
32.8446141
51
46.1717441
0
ARC
8
DEFAULT_255_2_778
10
11.3535199
20
13.9705786
40
2.5446138
50
1.2941737
51
32.5924461
0
ARC
8
DEFAULT_255_2_778
10
10.9062165
20
13.931227
40
2.9928348
50
359.9943808
51
1.853943
0
ARC
8
DEFAULT_255_2_778
10
11.1423546
20
13.916856
40
2.7567327
50
346.0525182
51
0.2925863
0
ARC
8
DEFAULT_255_2_778
10
11.4727917
20
13.8430876
40
2.4182708
50
325.2082446
51
345.86173
0
ARC
8
DEFAULT_255_2_778
10
12.2467813
20
2.5878724
40
2.3500451
50
1.6796626
51
38.5350132
0
ARC
8
DEFAULT_255_2_778
10
11.7375473
20
2.5363474
40
2.8608042
50
359.9897065
51
2.4122304
0
ARC
8
DEFAULT_255_2_778
10
11.6983536
20
2.5216438
40
2.9000325
50
345.2617482
51
0.2803456
0
ARC
8
DEFAULT_255_2_778
10
11.9078948
20
2.4836713
40
2.6877765
50
319.8759489
51
344.9082025
0
ARC
8
DEFAULT_255_2_778
10
11.5252986
20
2.7789515
40
3.170689
50
315.6176202
51
320.2513793
0
ARC
8
DEFAULT_255_2_778
10
11.8747695
20
2.3732539
40
2.6375564
50
270.0004404
51
316.6063277
0
ARC
8
DEFAULT_255_2_778
10
11.874795
20
2.3772855
40
2.6415881
50
269.0858688
51
269.9998862
0
ARC
8
DEFAULT_255_2_778
10
11.8200175
20
3.0702009
40
3.3341913
50
261.2034038
51
270.217104
0
ARC
8
DEFAULT_255_2_778
10
11.6887559
20
2.2476034
40
2.5011993
50
247.8760454
51
261.2932041
0
ARC
8
DEFAULT_255_2_778
10
11.5228135
20
1.8338389
40
2.055405
50
218.4603275
51
247.8173897
0
ARC
8
DEFAULT_255_2_778
10
-0.4215771
20
2.8901641
40
6.1413409
50
355.314905
51
0.1154005
0
ARC
8
DEFAULT_255_2_778
10
1.2033704
20
2.7538561
40
4.5106905
50
349.1032368
51
355.354638
0
ARC
8
DEFAULT_255_2_778
10
2.4350325
20
2.5136176
40
3.2558229
50
340.8205276
51
349.1573247
0
ARC
8
DEFAULT_255_2_778
10
3.2912606
20
2.2124726
40
2.348188
50
329.1669036
51
340.8970111
0
ARC
8
DEFAULT_255_2_778
10
3.5867051
20
2.0483985
40
2.0104338
50
328.0000875
51
328.8664538
0
ARC
8
DEFAULT_255_2_778
10
2.7564903
20
2.5568039
40
2.9839227
50
316.3470165
51
328.1689287
0
ARC
8
DEFAULT_255_2_778
10
3.1724165
20
2.1576855
40
2.4074797
50
279.5644284
51
316.3866752
0
ARC
8
DEFAULT_255_2_778
10
3.0266544
20
2.8848763
40
3.1488649
50
269.7852344
51
279.9812659
0
ARC
8
DEFAULT_255_2_778
10
3.0020462
20
3.2231142
40
3.4871042
50
260.8996534
51
270.2103994
0
ARC
8
DEFAULT_255_2_778
10
2.8705436
20
2.4276941
40
2.6809002
50
246.7355505
51
260.9860058
0
ARC
8
DEFAULT_255_2_778
10
2.7543163
20
2.1298601
40
2.3614006
50
218.7210929
51
246.4720445
0
ARC
8
DEFAULT_255_2_778
10
3.1044301
20
2.4400752
40
2.8287017
50
199.5049921
51
219.1874384
0
ARC
8
DEFAULT_255_2_778
10
3.7605803
20
2.6802994
40
3.527413
50
189.3809511
51
199.6244921
0
ARC
8
DEFAULT_255_2_778
10
4.7369784
20
2.8456996
40
4.5177147
50
182.042876
51
189.4321538
0
ARC
8
DEFAULT_255_2_778
10
5.5859906
20
2.8888107
40
5.3677396
50
179.9837463
51
182.1797041
0
ARC
8
DEFAULT_255_2_778
10
4.5477731
20
13.6017177
40
4.3295409
50
171.7940317
51
180.1705065
0
ARC
8
DEFAULT_255_2_778
10
3.6462433
20
13.7350207
40
3.4182165
50
159.8910808
51
171.848692
0
ARC
8
DEFAULT_255_2_778
10
3.1701845
20
13.9071851
40
2.9119876
50
140.3724775
51
159.8516812
0
ARC
8
DEFAULT_255_2_778
10
2.8080067
20
14.228588
40
2.4281034
50
118.6859744
51
140.763055
0
ARC
8
DEFAULT_255_2_778
10
2.825079
20
14.1550922
40
2.5008558
50
100.5032717
51
118.2208467
0
ARC
8
DEFAULT_255_2_778
10
2.9626482
20
13.4483624
40
3.2208282
50
90.3858532
51
100.6177135
0
ARC
8
DEFAULT_255_2_778
10
2.9811837
20
12.9236042
40
3.7457293
50
89.9989659
51
90.6153165
0
ARC
8
DEFAULT_255_2_778
10
2.9950359
20
13.6425737
40
3.0267911
50
77.1642762
51
90.2609371
0
ARC
8
DEFAULT_255_2_778
10
3.0691283
20
14.016359
40
2.6459084
50
45.9520177
51
76.9304523
0
ARC
8
DEFAULT_255_2_778
10
2.7294506
20
13.6240829
40
3.1641537
50
42.565841
51
46.4696914
0
ARC
8
DEFAULT_255_2_778
10
2.8485181
20
13.7013555
40
3.0242826
50
34.5930142
51
43.0135288
0
ARC
8
DEFAULT_255_2_778
10
3.5253375
20
14.1633759
40
2.2048156
50
22.0577474
51
34.6949311
0
ARC
8
DEFAULT_255_2_778
10
3.8804971
20
14.3153543
40
1.8185929
50
13.8189435
51
21.8221623
0
ARC
8
DEFAULT_255_2_778
10
3.9268553
20
14.3670128
40
1.7616713
50
7.0914765
51
12.5474843
0
ARC
8
DEFAULT_255_2_778
10
1.771898
20
14.0875587
40
3.9346598
50
4.0494799
51
7.2557123
0
ARC
8
DEFAULT_255_2_778
10
-1.6695896
20
13.8343301
40
7.3854442
50
2.1042301
51
4.1236896
0
ARC
8
DEFAULT_255_2_778
10
-6.1342516
20
13.6609932
40
11.8534639
50
0.921148
51
2.1491295
0
ARC
8
DEFAULT_255_2_778
10
-11.5088313
20
13.5717089
40
17.2287847
50
359.9731443
51
0.930689
0
LINE
8
DEFAULT_255_2_778
10
5.7197513
20
10.9014335
11
8.8251513
21
15.3982335
0
LINE
8
DEFAULT_255_2_778
10
13.4587513
20
12.4632335
11
10.6613513
21
8.3921335
0
LINE
8
DEFAULT_255_2_778
10
10.6613513
20
8.3921335
11
14.0850513
21
4.0519335
0
LINE
8
DEFAULT_255_2_778
10
9.9133513
20
0.5554335
11
5.7197513
21
5.7878335
0
LINE
8
DEFAULT_255_2_778
10
5.7197513
20
5.7878335
11
5.7197513
21
2.9025335
0
LINE
8
DEFAULT_255_2_778
10
0.2182513
20
2.8903335
11
0.2182513
21
13.5888335
0
LINE
8
DEFAULT_255_2_778
10
5.7199513
20
13.5636335
11
5.7199513
21
10.9014335
0
ENDSEC
0
EOF