0
SECTION
2
HEADER
9
$MEASUREMENT
70
1
0
ENDSEC
0
SECTION
2
TABLES
0
TABLE
2
LTYPE
0
LTYPE
72
65
70
64
2
CONTINUOUS
3
______
73
0
40
0
0
ENDTAB
0
TABLE
2
LAYER
0
LAYER
2
DEFAULT_255_2_778
70
0
62
255
6
CONTINUOUS
0
ENDTAB
0
ENDSEC
0
SECTION
2
ENTITIES
0
ARC
8
DEFAULT_255_2_778
10
13.4368335
20
6.4085069
40
1.9946717
50
64.4472536
51
90.0599091
0
ARC
8
DEFAULT_255_2_778
10
13.4782656
20
6.4668237
40
1.9242264
50
7.8216313
51
64.8112708
0
ARC
8
DEFAULT_255_2_778
10
13.4988159
20
6.4828441
40
1.901732
50
359.982929
51
7.4277101
0
ARC
8
DEFAULT_255_2_778
10
13.5258072
20
6.4794182
40
1.8747428
50
335.3533312
51
0.0873853
0
ARC
8
DEFAULT_255_2_778
10
13.4494781
20
6.5278328
40
1.9643456
50
282.8191079
51
334.9982695
0
ARC
8
DEFAULT_255_2_778
10
13.4356435
20
6.5665656
40
2.0051883
50
269.9744064
51
282.9590049
0
ARC
8
DEFAULT_255_2_778
10
13.4326516
20
6.5562829
40
1.9949065
50
244.4487822
51
270.0602044
0
ARC
8
DEFAULT_255_2_778
10
13.3911022
20
6.4977309
40
1.9241986
50
187.82173
51
244.8129933
0
ARC
8
DEFAULT_255_2_778
10
13.3705797
20
6.4817109
40
1.9017319
50
179.9829291
51
187.4277102
0
ARC
8
DEFAULT_255_2_778
10
13.4257011
20
6.4397482
40
1.9573154
50
112.896338
51
178.7549555
0
ARC
8
DEFAULT_255_2_778
10
13.4359477
20
6.465514
40
1.9376639
50
90.0354783
51
113.4718838
0
LINE
8
DEFAULT_255_2_778
10
13.4347478
20
8.4031775
11
13.4347478
21
8.4031775
0
ARC
8
DEFAULT_255_2_778
10
1.974948
20
1.5090579
40
1.7560199
50
37.5688648
51
89.2862937
0
ARC
8
DEFAULT_255_2_778
10
2.0217409
20
1.5113905
40
1.717716
50
0.3686178
51
38.4588797
0
ARC
8
DEFAULT_255_2_778
10
1.9422558
20
1.5162222
40
1.7971763
50
338.7568364
51
0.1982778
0
ARC
8
DEFAULT_255_2_778
10
2.0339459
20
1.4840776
40
1.7000728
50
280.847789
51
338.6469234
0
ARC
8
DEFAULT_255_2_778
10
1.9988906
20
1.6213599
40
1.8415196
50
269.9356186
51
281.115122
0
ARC
8
DEFAULT_255_2_778
10
2.0187107
20
1.5355342
40
1.7558292
50
217.5632377
51
269.2856951
0
ARC
8
DEFAULT_255_2_778
10
1.9722437
20
1.5334914
40
1.7179578
50
180.368528
51
218.4540363
0
ARC
8
DEFAULT_255_2_778
10
1.9955746
20
1.5209025
40
1.7412539
50
143.6253583
51
179.9493581
0
ARC
8
DEFAULT_255_2_778
10
1.9958136
20
1.5287375
40
1.7368116
50
103.3713016
51
143.8381449
0
ARC
8
DEFAULT_255_2_778
10
1.9950646
20
1.5125278
40
1.7524146
50
89.9425626
51
103.2249135
0
ARC
8
DEFAULT_255_2_778
10
1.9646819
20
14.9001503
40
1.7688832
50
20.3325225
51
88.9589166
0
ARC
8
DEFAULT_255_2_778
10
1.9573065
20
14.8821392
40
1.7821149
50
359.977569
51
20.7931194
0
ARC
8
DEFAULT_255_2_778
10
1.8985974
20
14.8772878
40
1.8408287
50
335.9813903
51
0.1292846
0
ARC
8
DEFAULT_255_2_778
10
1.996107
20
14.8236128
40
1.7299398
50
278.1972521
51
336.2906599
0
ARC
8
DEFAULT_255_2_778
10
1.9976717
20
14.8585798
40
1.7643386
50
269.9723856
51
277.9850507
0
ARC
8
DEFAULT_255_2_778
10
2.0324248
20
14.8682379
40
1.7743536
50
199.2144302
51
268.8502509
0
ARC
8
DEFAULT_255_2_778
10
2.0334205
20
14.8806026
40
1.7793993
50
179.9729863
51
199.5798398
0
ARC
8
DEFAULT_255_2_778
10
2.0943658
20
14.885567
40
1.840349
50
155.9716727
51
180.1284398
0
ARC
8
DEFAULT_255_2_778
10
1.9978431
20
14.9387992
40
1.7305401
50
98.2026592
51
156.2801277
0
ARC
8
DEFAULT_255_2_778
10
1.9959789
20
14.9051476
40
1.7635941
50
89.9726306
51
97.9867333
0
LINE
8
DEFAULT_255_2_778
10
1.9968214
20
3.2649415
11
1.9968214
21
3.2649415
0
LINE
8
DEFAULT_255_2_778
10
1.9968214
20
16.6687415
11
1.9968214
21
16.6687415
0
LINE
8
DEFAULT_255_2_778
10
0.2097966
20
14.8369592
11
3.7392966
21
14.7919592
0
LINE
8
DEFAULT_255_2_778
10
3.7392966
20
14.7919592
11
3.7392966
21
8.3136592
0
LINE
8
DEFAULT_255_2_778
10
3.7392966
20
8.3136592
11
7.0008966
21
11.4886592
0
LINE
8
DEFAULT_255_2_778
10
7.0008966
20
11.4886592
11
9.6368966
21
9.0756592
0
LINE
8
DEFAULT_255_2_778
10
9.6368966
20
9.0756592
11
7.3138966
21
6.8417592
0
LINE
8
DEFAULT_255_2_778
10
7.3138966
20
6.8417592
11
10.5303966
21
2.5055592
0
LINE
8
DEFAULT_255_2_778
10
10.5303966
20
2.5055592
11
7.6710966
21
0.4502592
0
LINE
8
DEFAULT_255_2_778
10
7.6710966
20
0.4502592
11
4.6301966
21
4.5163592
0
LINE
8
DEFAULT_255_2_778
10
4.6301966
20
4.5163592
11
3.7366966
21
3.7120592
0
LINE
8
DEFAULT_255_2_778
10
3.7366966
20
3.7120592
11
3.7366966
21
1.4334592
0
LINE
8
DEFAULT_255_2_778
10
3.7366966
20
1.4334592
11
0.2539966
21
1.5675592
0
LINE
8
DEFAULT_255_2_778
10
0.2539966
20
1.5675592
11
0.2097966
21
14.8369592
0
ARC
8
DEFAULT_255_2_778
10
8.3458418
20
10.3906342
40
1.720947
50
66.2849892
51
90.1545543
0
ARC
8
DEFAULT_255_2_778
10
8.3170034
20
10.3586702
40
1.7618623
50
13.1235817
51
65.8444117
0
ARC
8
DEFAULT_255_2_778
10
8.2199417
20
10.3258865
40
1.8638587
50
359.9504601
51
13.4275868
0
ARC
8
DEFAULT_255_2_778
10
8.2988493
20
10.32395
40
1.7849504
50
332.9594361
51
0.0104314
0
ARC
8
DEFAULT_255_2_778
10
8.313362
20
10.2964825
40
1.7596276
50
270.9064686
51
333.5412235
0
ARC
8
DEFAULT_255_2_778
10
8.3365673
20
10.2578023
40
1.7207335
50
246.2836326
51
270.154243
0
ARC
8
DEFAULT_255_2_778
10
8.3654897
20
10.289968
40
1.7618676
50
193.1251836
51
245.8432287
0
ARC
8
DEFAULT_255_2_778
10
8.4622793
20
10.3226681
40
1.8635804
50
179.950597
51
193.4285426
0
ARC
8
DEFAULT_255_2_778
10
8.3145384
20
10.4029071
40
1.7176396
50
180.0025651
51
182.6238714
0
ARC
8
DEFAULT_255_2_778
10
8.266575
20
10.4047035
40
1.6696771
50
152.2489298
51
180.064282
0
ARC
8
DEFAULT_255_2_778
10
8.3324917
20
10.3631181
40
1.7473861
50
102.8656062
51
152.0486094
0
ARC
8
DEFAULT_255_2_778
10
8.3402735
20
10.3367183
40
1.7748569
50
89.9701029
51
102.9207471
0
ARC
8
DEFAULT_255_2_778
10
9.0608319
20
1.5865476
40
1.7207335
50
66.2836326
51
90.154243
0
ARC
8
DEFAULT_255_2_778
10
9.0319095
20
1.5543819
40
1.7618676
50
13.1251836
51
65.8432287
0
ARC
8
DEFAULT_255_2_778
10
8.93512
20
1.5216818
40
1.8635804
50
359.950597
51
13.4285426
0
ARC
8
DEFAULT_255_2_778
10
9.0171142
20
1.519462
40
1.7815855
50
333.2802999
51
0.0197136
0
ARC
8
DEFAULT_255_2_778
10
9.0294849
20
1.4947934
40
1.7595213
50
270.8699509
51
333.8166968
0
ARC
8
DEFAULT_255_2_778
10
9.0515591
20
1.4564413
40
1.7209726
50
246.2853016
51
270.1544944
0
ARC
8
DEFAULT_255_2_778
10
9.0803954
20
1.488406
40
1.7618876
50
193.0929427
51
245.8447981
0
ARC
8
DEFAULT_255_2_778
10
9.1772416
20
1.5210737
40
1.8636427
50
179.9507724
51
193.3966884
0
ARC
8
DEFAULT_255_2_778
10
9.0290877
20
1.601299
40
1.7172888
50
180.0025593
51
182.6241377
0
ARC
8
DEFAULT_255_2_778
10
8.9813719
20
1.6030784
40
1.669574
50
152.2478228
51
180.0636951
0
ARC
8
DEFAULT_255_2_778
10
9.0474953
20
1.5613921
40
1.7475131
50
102.865993
51
152.0477925
0
ARC
8
DEFAULT_255_2_778
10
9.0552735
20
1.5349901
40
1.774985
50
89.9701062
51
102.9209982
0
LINE
8
DEFAULT_255_2_778
10
8.3411996
20
12.111575
11
8.3411996
21
12.111575
0
LINE
8
DEFAULT_255_2_778
10
9.0561996
20
3.309975
11
9.0561996
21
3.307275
0
ENDSEC
0
EOF