0
SECTION
2
HEADER
9
$MEASUREMENT
70
1
0
ENDSEC
0
SECTION
2
TABLES
0
TABLE
2
LTYPE
0
LTYPE
72
65
70
64
2
CONTINUOUS
3
______
73
0
40
0
0
ENDTAB
0
TABLE
2
LAYER
0
LAYER
2
DEFAULT_255_2_778
70
0
62
255
6
CONTINUOUS
0
ENDTAB
0
ENDSEC
0
SECTION
2
ENTITIES
0
ARC
8
DEFAULT_255_2_778
10
4.3244736
20
7.3939155
40
0.5614301
50
93.4237051
51
116.3198942
0
ARC
8
DEFAULT_255_2_778
10
1.3994207
20
6.0072913
40
0.5529397
50
115.4573745
51
167.003421
0
ARC
8
DEFAULT_255_2_778
10
0.6809103
20
2.8848008
40
0.5482449
50
166.8482427
51
176.7223875
0
ARC
8
DEFAULT_255_2_778
10
0.6805634
20
2.8848352
40
0.5478966
50
176.723909
51
179.9998401
0
ARC
8
DEFAULT_255_2_778
10
0.6804687
20
2.8848065
40
0.5478018
50
179.9968309
51
213.3634878
0
ARC
8
DEFAULT_255_2_778
10
0.685616
20
2.8852224
40
0.5523353
50
213.1058789
51
218.7312793
0
ARC
8
DEFAULT_255_2_778
10
2.703638
20
0.3875589
40
0.5583167
50
219.1791805
51
270.0078597
0
ARC
8
DEFAULT_255_2_778
10
2.7040475
20
0.1980781
40
0.3688363
50
269.9482927
51
270.155012
0
ARC
8
DEFAULT_255_2_778
10
5.9368375
20
0.1938693
40
0.3646271
50
269.8440975
51
270.0520045
0
ARC
8
DEFAULT_255_2_778
10
5.9371008
20
0.3875399
40
0.5582979
50
270.0069422
51
321.0596525
0
ARC
8
DEFAULT_255_2_778
10
7.9605046
20
2.885987
40
0.5464252
50
321.0314426
51
359.9984561
0
ARC
8
DEFAULT_255_2_778
10
7.9616028
20
2.8859778
40
0.5453269
50
359.9994193
51
4.0012157
0
ARC
8
DEFAULT_255_2_778
10
7.9615451
20
2.8859656
40
0.5453853
50
4.0020648
51
13.096291
0
ARC
8
DEFAULT_255_2_778
10
7.2349406
20
6.0103071
40
0.5532047
50
13.0098302
51
64.5293756
0
ARC
8
DEFAULT_255_2_778
10
4.3138711
20
7.3942526
40
0.5594548
50
63.7804046
51
90.0124511
0
ARC
8
DEFAULT_255_2_778
10
4.3137469
20
7.3929837
40
0.5607235
50
89.999729
51
92.3305465
0
LINE
8
DEFAULT_255_2_778
10
4.0755453
20
7.8971436
11
1.1617453
21
6.5065436
0
LINE
8
DEFAULT_255_2_778
10
0.8606453
20
6.1316436
11
0.1470453
21
3.0095436
0
LINE
8
DEFAULT_255_2_778
10
0.2547453
20
2.5396436
11
2.2708453
21
0.0348436
0
LINE
8
DEFAULT_255_2_778
10
2.7050453
20
-0.1707564
11
5.9358453
21
-0.1707564
0
LINE
8
DEFAULT_255_2_778
10
6.3713453
20
0.0366436
11
8.3853453
21
2.5423436
0
LINE
8
DEFAULT_255_2_778
10
8.4927453
20
3.0095436
11
7.7739453
21
6.1348436
0
LINE
8
DEFAULT_255_2_778
10
7.4728453
20
6.5097436
11
4.5610453
21
7.8961436
0
LINE
8
DEFAULT_255_2_778
10
4.2909453
20
7.9532436
11
4.2909453
21
7.9543436
0
ARC
8
DEFAULT_255_2_778
10
4.333645
20
6.7067481
40
0.1852196
50
94.1810932
51
179.991519
0
ARC
8
DEFAULT_255_2_778
10
4.3366635
20
6.7067773
40
0.1882381
50
180.0005483
51
182.741237
0
ARC
8
DEFAULT_255_2_778
10
5.6815942
20
6.7843801
40
1.5389572
50
185.0626537
51
191.2944044
0
ARC
8
DEFAULT_255_2_778
10
2.5846424
20
6.2384958
40
1.6065097
50
359.9601356
51
8.7532925
0
ARC
8
DEFAULT_255_2_778
10
2.521363
20
6.2374899
40
1.6697887
50
357.5625071
51
359.9961612
0
ARC
8
DEFAULT_255_2_778
10
4.0066903
20
6.2191161
40
0.1903733
50
311.3816873
51
343.9475927
0
ARC
8
DEFAULT_255_2_778
10
4.3143992
20
3.7589804
40
2.2508808
50
94.7363854
51
102.8516674
0
ARC
8
DEFAULT_255_2_778
10
4.3061057
20
3.7670074
40
2.241219
50
102.6906026
51
136.7211329
0
ARC
8
DEFAULT_255_2_778
10
2.5723719
20
5.48004
40
0.1378188
50
271.6502332
51
286.4680215
0
ARC
8
DEFAULT_255_2_778
10
2.5723548
20
5.4801614
40
0.1379406
50
270.0002252
51
271.6558477
0
ARC
8
DEFAULT_255_2_778
10
2.5723303
20
5.4801357
40
0.1379148
50
242.1680991
51
270.0104188
0
ARC
8
DEFAULT_255_2_778
10
3.4846523
20
6.6765258
40
1.6407361
50
222.3999406
51
233.4667896
0
ARC
8
DEFAULT_255_2_778
10
1.078422
20
4.5627191
40
1.5627159
50
40.1418787
51
46.2662251
0
ARC
8
DEFAULT_255_2_778
10
1.9875038
20
5.5607422
40
0.2077292
50
51.1741457
51
87.5066433
0
ARC
8
DEFAULT_255_2_778
10
1.9880131
20
5.5997332
40
0.1687572
50
87.1034807
51
89.9987946
0
ARC
8
DEFAULT_255_2_778
10
1.987993
20
5.6001432
40
0.168347
50
89.991956
51
140.742283
0
ARC
8
DEFAULT_255_2_778
10
2.0080474
20
5.5999268
40
0.1844377
50
144.6355573
51
177.6758842
0
ARC
8
DEFAULT_255_2_778
10
2.009187
20
5.5998523
40
0.1855796
50
177.6671839
51
180.0007807
0
ARC
8
DEFAULT_255_2_778
10
2.0085881
20
5.5996203
40
0.184981
50
179.9289306
51
234.2605631
0
ARC
8
DEFAULT_255_2_778
10
2.7501326
20
6.6449856
40
1.4698781
50
236.3871887
51
242.9176724
0
ARC
8
DEFAULT_255_2_778
10
1.2908217
20
3.9142426
40
1.6267955
50
49.7450416
51
60.9422817
0
ARC
8
DEFAULT_255_2_778
10
2.1847026
20
5.0446357
40
0.1926322
50
3.1660377
51
35.23625
0
ARC
8
DEFAULT_255_2_778
10
4.3103033
20
3.7552753
40
2.254603
50
146.3199887
51
179.9997533
0
ARC
8
DEFAULT_255_2_778
10
4.3102985
20
3.7552935
40
2.2545981
50
180.0002152
51
184.3545659
0
ARC
8
DEFAULT_255_2_778
10
4.3122342
20
3.7554547
40
2.2565404
50
184.3549172
51
188.2136485
0
ARC
8
DEFAULT_255_2_778
10
1.797957
20
3.5435781
40
0.2460388
50
302.7176333
51
327.6636493
0
ARC
8
DEFAULT_255_2_778
10
1.5127463
20
4.903437
40
1.6217101
50
273.7368836
51
284.9438618
0
ARC
8
DEFAULT_255_2_778
10
1.6446291
20
1.8835134
40
1.401906
50
91.0703759
51
97.9414281
0
ARC
8
DEFAULT_255_2_778
10
1.4220104
20
3.087493
40
0.1745601
50
97.4619348
51
161.1212495
0
ARC
8
DEFAULT_255_2_778
10
1.4218009
20
3.0874559
40
0.1743738
50
161.0874381
51
175.9118749
0
ARC
8
DEFAULT_255_2_778
10
1.4215058
20
3.0874899
40
0.1740768
50
175.9161298
51
180.0016891
0
ARC
8
DEFAULT_255_2_778
10
1.4219627
20
3.0874786
40
0.1745338
50
179.9979706
51
224.7636679
0
ARC
8
DEFAULT_255_2_778
10
1.4223474
20
3.0871328
40
0.1745641
50
224.5941743
51
270.0211905
0
ARC
8
DEFAULT_255_2_778
10
1.4224119
20
3.0871391
40
0.1745703
50
270.0000112
51
274.0428673
0
ARC
8
DEFAULT_255_2_778
10
1.4224052
20
3.0870692
40
0.174501
50
274.0466865
51
288.2804736
0
ARC
8
DEFAULT_255_2_778
10
1.1121922
20
4.3091846
40
1.4432767
50
286.7542132
51
293.3763974
0
ARC
8
DEFAULT_255_2_778
10
2.2891721
20
1.4863875
40
1.6152964
50
100.7045033
51
111.970572
0
ARC
8
DEFAULT_255_2_778
10
1.9767555
20
2.8800915
40
0.1938793
50
54.5729124
51
86.3373629
0
ARC
8
DEFAULT_255_2_778
10
4.323413
20
3.7468657
40
2.2676899
50
197.8628694
51
239.4345089
0
ARC
8
DEFAULT_255_2_778
10
2.9834884
20
1.6528057
40
0.1719616
50
359.9715818
51
25.6986641
0
ARC
8
DEFAULT_255_2_778
10
2.9827656
20
1.6527139
40
0.1726845
50
357.5057442
51
0.0021424
0
ARC
8
DEFAULT_255_2_778
10
2.9822635
20
1.6527329
40
0.173187
50
352.1819705
51
357.5066924
0
ARC
8
DEFAULT_255_2_778
10
1.5853324
20
2.3085826
40
1.7093313
50
325.6246939
51
336.579893
0
ARC
8
DEFAULT_255_2_778
10
4.2119393
20
0.4256241
40
1.5233568
50
142.9495153
51
149.2732453
0
ARC
8
DEFAULT_255_2_778
10
3.0300798
20
1.0687902
40
0.1743951
50
149.5486635
51
179.6182727
0
ARC
8
DEFAULT_255_2_778
10
3.0226973
20
1.0687674
40
0.1670128
50
179.593583
51
180.0094492
0
ARC
8
DEFAULT_255_2_778
10
3.0300287
20
1.0686749
40
0.1743443
50
179.9786404
51
213.0177943
0
ARC
8
DEFAULT_255_2_778
10
3.0304065
20
1.0688648
40
0.1747646
50
213.002515
51
270.0167616
0
ARC
8
DEFAULT_255_2_778
10
3.0304479
20
1.069623
40
0.1755228
50
270.0031687
51
276.3433349
0
ARC
8
DEFAULT_255_2_778
10
3.0306388
20
1.0689102
40
0.1747933
50
276.3069844
51
339.6673476
0
ARC
8
DEFAULT_255_2_778
10
1.979029
20
1.7262558
40
1.3885798
50
338.2929754
51
340.6331989
0
ARC
8
DEFAULT_255_2_778
10
-2.4830255
20
3.2821891
40
6.1141303
50
340.7436973
51
341.4614488
0
ARC
8
DEFAULT_255_2_778
10
4.0311897
20
1.1255002
40
0.7482302
50
149.5845311
51
163.4810543
0
ARC
8
DEFAULT_255_2_778
10
3.6196813
20
1.3518123
40
0.2790913
50
141.4411784
51
146.8805028
0
ARC
8
DEFAULT_255_2_778
10
3.4977933
20
1.4231535
40
0.1407655
50
98.7659744
51
133.1954775
0
ARC
8
DEFAULT_255_2_778
10
4.3255096
20
3.7396939
40
2.2562262
50
248.9752546
51
270.0024118
0
ARC
8
DEFAULT_255_2_778
10
4.3260768
20
2.9696894
40
1.4862216
50
269.9817935
51
270.054604
0
ARC
8
DEFAULT_255_2_778
10
4.3256701
20
3.7401679
40
2.2567
50
270.0462865
51
290.7375672
0
ARC
8
DEFAULT_255_2_778
10
5.138173
20
1.4272165
40
0.1371703
50
36.638485
51
81.2073458
0
ARC
8
DEFAULT_255_2_778
10
3.8228952
20
0.7592991
40
1.6105196
50
16.4689601
51
27.7457518
0
ARC
8
DEFAULT_255_2_778
10
6.7659067
20
1.5718549
40
1.4431592
50
194.2803871
51
200.9488995
0
ARC
8
DEFAULT_255_2_778
10
5.6037813
20
1.0716988
40
0.1746868
50
200.201729
51
263.6764321
0
ARC
8
DEFAULT_255_2_778
10
5.6038105
20
1.0716738
40
0.1746653
50
263.6660202
51
269.9974427
0
ARC
8
DEFAULT_255_2_778
10
5.6036919
20
1.0716434
40
0.174635
50
270.036353
51
327.1736792
0
ARC
8
DEFAULT_255_2_778
10
5.6042421
20
1.0720038
40
0.1743691
50
326.97617
51
0.0188894
0
ARC
8
DEFAULT_255_2_778
10
5.6070552
20
1.0720613
40
0.171556
50
0.0000021
51
0.3912281
0
ARC
8
DEFAULT_255_2_778
10
5.6040636
20
1.0720952
40
0.1745474
50
0.3733732
51
30.3819955
0
ARC
8
DEFAULT_255_2_778
10
4.490772
20
0.470954
40
1.4430942
50
30.6750331
51
37.3310718
0
ARC
8
DEFAULT_255_2_778
10
6.998745
20
2.2860562
40
1.6536435
50
203.6547184
51
214.6408524
0
ARC
8
DEFAULT_255_2_778
10
5.6154497
20
1.6538545
40
0.1350805
50
182.4503076
51
193.3891367
0
ARC
8
DEFAULT_255_2_778
10
5.6156594
20
1.6538798
40
0.1352909
50
179.9969028
51
182.4572168
0
ARC
8
DEFAULT_255_2_778
10
5.616411
20
1.653874
40
0.1360426
50
147.4475405
51
179.9945125
0
ARC
8
DEFAULT_255_2_778
10
5.7855455
20
1.8740922
40
0.3196236
50
193.8695159
51
207.3852122
0
ARC
8
DEFAULT_255_2_778
10
4.3151019
20
3.7459414
40
2.2676959
50
300.7700423
51
342.3659694
0
ARC
8
DEFAULT_255_2_778
10
6.6432955
20
2.9438028
40
0.1380488
50
89.9850081
51
132.3820854
0
ARC
8
DEFAULT_255_2_778
10
6.6433282
20
2.943301
40
0.1385505
50
88.0921815
51
89.9985688
0
ARC
8
DEFAULT_255_2_778
10
6.3365123
20
1.4563974
40
1.6549438
50
68.1613824
51
79.1533708
0
ARC
8
DEFAULT_255_2_778
10
7.6681969
20
4.6029866
40
1.7624309
50
246.0280791
51
251.4955922
0
ARC
8
DEFAULT_255_2_778
10
7.1714875
20
3.1784396
40
0.2545928
50
255.7551443
51
259.7438815
0
ARC
8
DEFAULT_255_2_778
10
6.3221213
20
-1.3273831
40
4.3305928
50
79.154785
51
79.3001375
0
ARC
8
DEFAULT_255_2_778
10
7.0845617
20
2.6451869
40
0.2855217
50
75.792036
51
79.4272945
0
ARC
8
DEFAULT_255_2_778
10
7.2132696
20
3.0877981
40
0.1747787
50
251.5792459
51
265.6938188
0
ARC
8
DEFAULT_255_2_778
10
7.2132207
20
3.0874156
40
0.1743937
50
265.7004045
51
270.000754
0
ARC
8
DEFAULT_255_2_778
10
7.2132765
20
3.0873673
40
0.1743454
50
269.9824226
51
315.3652558
0
ARC
8
DEFAULT_255_2_778
10
7.213029
20
3.0876155
40
0.174696
50
315.3643409
51
0.0087464
0
ARC
8
DEFAULT_255_2_778
10
7.2131634
20
3.0876406
40
0.1745615
50
0.0005212
51
3.9094712
0
ARC
8
DEFAULT_255_2_778
10
7.2131458
20
3.0876225
40
0.1745803
50
3.9149899
51
19.0744501
0
ARC
8
DEFAULT_255_2_778
10
7.2130322
20
3.088339
40
0.174455
50
18.839849
51
82.6862649
0
ARC
8
DEFAULT_255_2_778
10
6.9852638
20
1.8210217
40
1.4652848
50
82.2073028
51
88.7808232
0
ARC
8
DEFAULT_255_2_778
10
7.1228422
20
4.9107773
40
1.6282827
50
255.0957563
51
266.2532915
0
ARC
8
DEFAULT_255_2_778
10
6.7988508
20
3.5073592
40
0.1947246
50
209.060607
51
240.8634343
0
ARC
8
DEFAULT_255_2_778
10
4.3130834
20
3.7409974
40
2.266134
50
352.1981368
51
355.5665864
0
ARC
8
DEFAULT_255_2_778
10
4.3147049
20
3.740867
40
2.2645071
50
355.5667048
51
359.9998885
0
ARC
8
DEFAULT_255_2_778
10
4.3144794
20
3.7408743
40
2.2647326
50
359.9997047
51
33.8316555
0
ARC
8
DEFAULT_255_2_778
10
6.3951997
20
5.0685451
40
0.1381907
50
180.0023346
51
183.9711958
0
ARC
8
DEFAULT_255_2_778
10
6.3945435
20
5.0685775
40
0.1375346
50
139.5132791
51
180.0158171
0
ARC
8
DEFAULT_255_2_778
10
7.3455471
20
3.9319624
40
1.6177657
50
119.4869957
51
130.7310225
0
ARC
8
DEFAULT_255_2_778
10
5.8792402
20
6.64786
40
1.4693337
50
297.1286127
51
303.6601239
0
ARC
8
DEFAULT_255_2_778
10
6.6392004
20
5.6052175
40
0.1758482
50
301.8675672
51
0.0052884
0
ARC
8
DEFAULT_255_2_778
10
6.6382056
20
5.6052219
40
0.1768429
50
0.0038287
51
6.1198132
0
ARC
8
DEFAULT_255_2_778
10
6.6403745
20
5.6054696
40
0.17466
50
6.1148724
51
70.8602865
0
ARC
8
DEFAULT_255_2_778
10
6.640288
20
5.6041286
40
0.1759556
50
70.9768473
51
87.1017612
0
ARC
8
DEFAULT_255_2_778
10
6.6402157
20
5.6032499
40
0.1768368
50
87.0927509
51
90.0010853
0
ARC
8
DEFAULT_255_2_778
10
6.6399402
20
5.604358
40
0.1757291
50
89.9112846
51
135.2496078
0
ARC
8
DEFAULT_255_2_778
10
7.4815498
20
4.6384695
40
1.4599668
50
133.5180852
51
140.0739045
0
ARC
8
DEFAULT_255_2_778
10
5.1545966
20
6.6278011
40
1.6015838
50
307.6698247
51
318.9244551
0
ARC
8
DEFAULT_255_2_778
10
6.0600265
20
5.5440172
40
0.1980147
50
269.9833895
51
291.7308381
0
ARC
8
DEFAULT_255_2_778
10
6.0599712
20
5.5452239
40
0.1992214
50
267.7794272
51
269.9993939
0
ARC
8
DEFAULT_255_2_778
10
6.0599947
20
5.5455834
40
0.1995815
50
260.6124864
51
267.7766726
0
ARC
8
DEFAULT_255_2_778
10
4.3069504
20
3.7225028
40
2.2866781
50
43.6565648
51
84.8291144
0
ARC
8
DEFAULT_255_2_778
10
3.8787558
20
5.9926973
40
0.6343256
50
0.6483185
51
3.6631899
0
ARC
8
DEFAULT_255_2_778
10
2.4498423
20
5.9137578
40
2.0654011
50
3.3159654
51
3.6685443
0
ARC
8
DEFAULT_255_2_778
10
6.598353
20
6.1916987
40
2.0924268
50
183.1265456
51
183.9952541
0
ARC
8
DEFAULT_255_2_778
10
4.5869555
20
6.1911666
40
0.1377454
50
191.2156599
51
235.5530562
0
ARC
8
DEFAULT_255_2_778
10
6.0466867
20
6.2200586
40
1.5958177
50
179.9991695
51
181.9996613
0
ARC
8
DEFAULT_255_2_778
10
6.076212
20
6.2194027
40
1.6253433
50
170.7639198
51
179.9760632
0
ARC
8
DEFAULT_255_2_778
10
3.0998629
20
6.7627522
40
1.4008538
50
348.366734
51
355.2181817
0
ARC
8
DEFAULT_255_2_778
10
4.3079335
20
6.7046705
40
0.1881225
50
357.2591667
51
359.9981697
0
ARC
8
DEFAULT_255_2_778
10
4.3106871
20
6.7045094
40
0.1853688
50
0.0479179
51
85.7759557
0
ARC
8
DEFAULT_255_2_778
10
3.8931711
20
4.6314872
40
0.1534955
50
295.784949
51
357.6804286
0
ARC
8
DEFAULT_255_2_778
10
3.8931593
20
4.6313187
40
0.153349
50
271.542541
51
295.8162844
0
ARC
8
DEFAULT_255_2_778
10
3.8931428
20
4.6319155
40
0.153946
50
270.0030141
51
271.5427105
0
ARC
8
DEFAULT_255_2_778
10
3.8931237
20
4.6313516
40
0.153382
50
233.8024011
51
270.0101311
0
ARC
8
DEFAULT_255_2_778
10
4.3119712
20
3.7567504
40
1.7968719
50
102.6834944
51
134.4770385
0
ARC
8
DEFAULT_255_2_778
10
4.2965142
20
3.738265
40
1.8116135
50
96.1433876
51
102.0781884
0
ARC
8
DEFAULT_255_2_778
10
4.3154242
20
3.7436984
40
1.8095716
50
45.5722636
51
82.9207106
0
ARC
8
DEFAULT_255_2_778
10
4.7432714
20
4.6271637
40
0.153071
50
269.9775888
51
308.9223486
0
ARC
8
DEFAULT_255_2_778
10
4.743213
20
4.6275899
40
0.1534972
50
267.9070577
51
269.999447
0
ARC
8
DEFAULT_255_2_778
10
4.7432122
20
4.627411
40
0.1533184
50
244.7208333
51
267.9049165
0
ARC
8
DEFAULT_255_2_778
10
4.7430628
20
4.6274951
40
0.1533307
50
180.6054913
51
244.7847096
0
ARC
8
DEFAULT_255_2_778
10
3.3647702
20
3.9634274
40
0.1530738
50
359.9767747
51
49.1262725
0
ARC
8
DEFAULT_255_2_778
10
3.3644287
20
3.9633703
40
0.1534152
50
353.8407289
51
359.998176
0
ARC
8
DEFAULT_255_2_778
10
3.3639167
20
3.9634377
40
0.1539314
50
347.062668
51
353.836213
0
ARC
8
DEFAULT_255_2_778
10
3.3644368
20
3.9632836
40
0.1533901
50
285.0787756
51
347.0752926
0
ARC
8
DEFAULT_255_2_778
10
4.3111547
20
3.7557598
40
1.7975846
50
184.3979877
51
186.2752564
0
ARC
8
DEFAULT_255_2_778
10
4.309511
20
3.7556356
40
1.7959361
50
180.0002751
51
184.398058
0
ARC
8
DEFAULT_255_2_778
10
4.3080914
20
3.7557072
40
1.7945164
50
148.4312509
51
180.002562
0
ARC
8
DEFAULT_255_2_778
10
4.2968464
20
3.7369559
40
1.8290008
50
0.0034912
51
31.5650017
0
ARC
8
DEFAULT_255_2_778
10
4.2982831
20
3.7370671
40
1.8275642
50
355.554342
51
0.0000081
0
ARC
8
DEFAULT_255_2_778
10
4.2965908
20
3.7372019
40
1.8292619
50
354.5031423
51
355.5542407
0
ARC
8
DEFAULT_255_2_778
10
5.2765147
20
3.9677133
40
0.1536823
50
192.9493211
51
254.8463247
0
ARC
8
DEFAULT_255_2_778
10
5.2765732
20
3.9674841
40
0.1536881
50
185.8203229
51
192.8611636
0
ARC
8
DEFAULT_255_2_778
10
5.2762905
20
3.9674511
40
0.1534036
50
179.999158
51
185.8187661
0
ARC
8
DEFAULT_255_2_778
10
5.276646
20
3.9674574
40
0.1537593
50
131.0148739
51
180.001505
0
ARC
8
DEFAULT_255_2_778
10
5.0958962
20
3.142165
40
0.1506597
50
90.002055
51
96.7680982
0
ARC
8
DEFAULT_255_2_778
10
5.0958888
20
3.1422221
40
0.1506026
50
83.2306373
51
89.9992496
0
ARC
8
DEFAULT_255_2_778
10
4.327258
20
3.7384955
40
1.7970487
50
302.5767464
51
340.4914218
0
ARC
8
DEFAULT_255_2_778
10
5.0872628
20
3.132975
40
0.1555931
50
181.8408196
51
203.0020594
0
ARC
8
DEFAULT_255_2_778
10
5.0847553
20
3.1327643
40
0.1530803
50
180.2151525
51
181.7921746
0
ARC
8
DEFAULT_255_2_778
10
5.082688
20
3.1329242
40
0.1510136
50
147.6298983
51
180.2787292
0
ARC
8
DEFAULT_255_2_778
10
5.0864326
20
3.1317152
40
0.1548268
50
93.3665121
51
147.9939512
0
ARC
8
DEFAULT_255_2_778
10
3.5521446
20
3.1344142
40
0.1534735
50
32.9434313
51
89.2547405
0
ARC
8
DEFAULT_255_2_778
10
3.5520216
20
3.1343314
40
0.1536217
50
0.0138227
51
32.9443998
0
ARC
8
DEFAULT_255_2_778
10
3.5519695
20
3.1343772
40
0.153674
50
358.607262
51
359.9967723
0
ARC
8
DEFAULT_255_2_778
10
3.5527912
20
3.1343513
40
0.152852
50
336.5706977
51
358.6094488
0
ARC
8
DEFAULT_255_2_778
10
4.3198192
20
3.7466731
40
1.8046753
50
199.8940515
51
237.2615067
0
ARC
8
DEFAULT_255_2_778
10
3.5374871
20
3.1491799
40
0.1376198
50
89.9984774
51
96.2768483
0
ARC
8
DEFAULT_255_2_778
10
3.5374944
20
3.1491799
40
0.1376198
50
83.7231517
51
90.0015226
0
ARC
8
DEFAULT_255_2_778
10
4.3193206
20
2.7649719
40
0.1538934
50
90.00021
51
91.9661167
0
ARC
8
DEFAULT_255_2_778
10
4.3192222
20
2.7654678
40
0.1533977
50
28.3351662
51
89.9634659
0
ARC
8
DEFAULT_255_2_778
10
4.3216815
20
3.7442748
40
1.8009754
50
270.9531654
51
282.9029813
0
ARC
8
DEFAULT_255_2_778
10
4.321663
20
3.7450996
40
1.8018004
50
270.0004325
51
270.9533148
0
ARC
8
DEFAULT_255_2_778
10
4.3216971
20
3.7448781
40
1.8015787
50
251.1842336
51
269.9993503
0
ARC
8
DEFAULT_255_2_778
10
4.3157628
20
2.7632565
40
0.1534343
50
90.8297782
51
150.2579035
0
LINE
8
DEFAULT_255_2_778
10
4.1486408
20
6.6977748
11
4.1486408
21
6.6485748
0
LINE
8
DEFAULT_255_2_778
10
4.1325408
20
6.0762748
11
4.1285408
21
6.0021748
0
LINE
8
DEFAULT_255_2_778
10
2.6744408
20
5.3034748
11
2.6114408
21
5.3478748
0
LINE
8
DEFAULT_255_2_778
10
2.1587408
20
5.6918748
11
2.1177408
21
5.7225748
0
LINE
8
DEFAULT_255_2_778
10
1.9005408
20
5.4494748
11
1.9364408
21
5.4208748
0
LINE
8
DEFAULT_255_2_778
10
2.3770408
20
5.0552748
11
2.4341408
21
5.0055748
0
LINE
8
DEFAULT_255_2_778
10
2.0788408
20
3.4330748
11
2.0058408
21
3.4119748
0
LINE
8
DEFAULT_255_2_778
10
1.4509408
20
3.2719748
11
1.4052408
21
3.2605748
0
LINE
8
DEFAULT_255_2_778
10
1.4052408
20
3.2605748
11
1.3993408
21
3.2605748
0
LINE
8
DEFAULT_255_2_778
10
1.4771408
20
2.9213748
11
1.4806408
21
2.9213748
0
LINE
8
DEFAULT_255_2_778
10
1.4806408
20
2.9213748
11
1.5282408
21
2.9271748
0
LINE
8
DEFAULT_255_2_778
10
2.0891408
20
3.0380748
11
2.1650408
21
3.0512748
0
LINE
8
DEFAULT_255_2_778
10
3.1702408
20
1.7942748
11
3.1384408
21
1.7273748
0
LINE
8
DEFAULT_255_2_778
10
2.9024408
20
1.2039748
11
2.8797408
21
1.1571748
0
LINE
8
DEFAULT_255_2_778
10
3.1945408
20
1.0081748
11
3.2162408
21
1.0526748
0
LINE
8
DEFAULT_255_2_778
10
3.2162408
20
1.0526748
11
3.2691408
21
1.2126748
0
LINE
8
DEFAULT_255_2_778
10
3.4763408
20
1.5622748
11
3.5160408
21
1.6336748
0
LINE
8
DEFAULT_255_2_778
10
5.1247408
20
1.6296748
11
5.1591408
21
1.5627748
0
LINE
8
DEFAULT_255_2_778
10
5.4181408
20
1.0558748
11
5.4398408
21
1.0113748
0
LINE
8
DEFAULT_255_2_778
10
5.7546408
20
1.1603748
11
5.7319408
21
1.2071748
0
LINE
8
DEFAULT_255_2_778
10
6.4762408
20
3.0589748
11
6.5502408
21
3.0457748
0
LINE
8
DEFAULT_255_2_778
10
7.1546408
20
2.9219748
11
7.1580408
21
2.9219748
0
LINE
8
DEFAULT_255_2_778
10
7.2352408
20
3.2613748
11
7.1839408
21
3.2727748
0
LINE
8
DEFAULT_255_2_778
10
6.6286408
20
3.4127748
11
6.5582408
21
3.4333748
0
LINE
8
DEFAULT_255_2_778
10
6.1957408
20
5.0017748
11
6.2573408
21
5.0589748
0
LINE
8
DEFAULT_255_2_778
10
6.6936408
20
5.4248748
11
6.7320408
21
5.4558748
0
LINE
8
DEFAULT_255_2_778
10
6.5151408
20
5.7280748
11
6.4762408
21
5.6971748
0
LINE
8
DEFAULT_255_2_778
10
6.0274408
20
5.3486748
11
5.9613408
21
5.3010748
0
LINE
8
DEFAULT_255_2_778
10
4.4958408
20
6.6459748
11
4.4958408
21
6.6956748
0
LINE
8
DEFAULT_255_2_778
10
4.3243408
20
6.8893748
11
4.3201408
21
6.8914748
0
LINE
8
DEFAULT_255_2_778
10
4.1018408
20
5.5394748
11
4.0505408
21
4.6252748
0
LINE
8
DEFAULT_255_2_778
10
4.0505408
20
4.6252748
11
4.0465408
21
4.6252748
0
LINE
8
DEFAULT_255_2_778
10
3.8025408
20
4.5075748
11
3.0530408
21
5.0388748
0
LINE
8
DEFAULT_255_2_778
10
4.1026408
20
5.5394748
11
4.1018408
21
5.5394748
0
LINE
8
DEFAULT_255_2_778
10
5.5821408
20
5.0359748
11
4.8394408
21
4.5080748
0
LINE
8
DEFAULT_255_2_778
10
4.5897408
20
4.6258748
11
4.5384408
21
5.5394748
0
LINE
8
DEFAULT_255_2_778
10
2.7797408
20
4.6943748
11
3.4649408
21
4.0831748
0
LINE
8
DEFAULT_255_2_778
10
3.4649408
20
4.0831748
11
3.4649408
21
4.0791748
0
LINE
8
DEFAULT_255_2_778
10
3.4043408
20
3.8151748
11
3.4043408
21
3.8124748
0
LINE
8
DEFAULT_255_2_778
10
3.4043408
20
3.8124748
11
2.5243408
21
3.5592748
0
LINE
8
DEFAULT_255_2_778
10
2.7791408
20
4.6951748
11
2.7797408
21
4.6943748
0
LINE
8
DEFAULT_255_2_778
10
6.1174408
20
3.5619748
11
5.2363408
21
3.8159748
0
LINE
8
DEFAULT_255_2_778
10
5.2363408
20
3.8159748
11
5.2363408
21
3.8193748
0
LINE
8
DEFAULT_255_2_778
10
5.1757408
20
4.0834748
11
5.8557408
21
4.6924748
0
LINE
8
DEFAULT_255_2_778
10
5.8557408
20
4.6924748
11
5.8552408
21
4.6943748
0
LINE
8
DEFAULT_255_2_778
10
4.1793408
20
4.0344748
11
4.4592408
21
4.0344748
0
LINE
8
DEFAULT_255_2_778
10
4.4592408
20
4.0344748
11
4.6307408
21
3.8175748
0
LINE
8
DEFAULT_255_2_778
10
4.6307408
20
3.8175748
11
4.5677408
21
3.5455748
0
LINE
8
DEFAULT_255_2_778
10
4.5677408
20
3.5455748
11
4.3164408
21
3.4243748
0
LINE
8
DEFAULT_255_2_778
10
4.3164408
20
3.4243748
11
4.0640408
21
3.5455748
0
LINE
8
DEFAULT_255_2_778
10
4.0640408
20
3.5455748
11
4.0044408
21
3.8180748
0
LINE
8
DEFAULT_255_2_778
10
4.0044408
20
3.8180748
11
4.1793408
21
4.0344748
0
LINE
8
DEFAULT_255_2_778
10
5.1136408
20
3.2917748
11
6.0211408
21
3.1383748
0
LINE
8
DEFAULT_255_2_778
10
5.2948408
20
2.2241748
11
4.9440408
21
3.0721748
0
LINE
8
DEFAULT_255_2_778
10
5.0773408
20
3.2862748
11
5.0781408
21
3.2917748
0
LINE
8
DEFAULT_255_2_778
10
3.6930408
20
3.0735748
11
3.6930408
21
3.0700748
0
LINE
8
DEFAULT_255_2_778
10
3.6930408
20
3.0700748
11
3.3438408
21
2.2286748
0
LINE
8
DEFAULT_255_2_778
10
2.6228408
20
3.1325748
11
3.5224408
21
3.2859748
0
LINE
8
DEFAULT_255_2_778
10
3.5525408
20
3.2859748
11
3.5541408
21
3.2878748
0
LINE
8
DEFAULT_255_2_778
10
4.4542408
20
2.8382748
11
4.4576408
21
2.8382748
0
LINE
8
DEFAULT_255_2_778
10
4.4576408
20
2.8382748
11
4.9011408
21
2.0384748
0
LINE
8
DEFAULT_255_2_778
10
4.9011408
20
2.0384748
11
4.7238408
21
1.9887748
0
LINE
8
DEFAULT_255_2_778
10
3.7406408
20
2.0395748
11
4.1825408
21
2.8393748
0
LINE
8
DEFAULT_255_2_778
10
4.3135408
20
2.9166748
11
4.3140408
21
2.9187748
0
ARC
8
DEFAULT_255_2_778
10
-0.308456
20
13.6912241
40
14.5760563
50
317.8713928
51
318.8690277
0
ARC
8
DEFAULT_255_2_778
10
-7.5461799
20
19.9132893
40
24.1211879
50
319.6055578
51
320.039174
0
ARC
8
DEFAULT_255_2_778
10
-0.9739184
20
14.3937994
40
15.5386911
50
320.0741084
51
320.1121952
0
ARC
8
DEFAULT_255_2_778
10
-7.7151368
20
21.2350969
40
25.6068872
50
317.6924602
51
318.9809691
0
ARC
8
DEFAULT_255_2_778
10
3.3830669
20
11.1781143
40
10.6298901
50
314.7613817
51
317.5159688
0
ARC
8
DEFAULT_255_2_778
10
1.9540631
20
12.5978476
40
12.6442154
50
314.4786215
51
314.8290997
0
ARC
8
DEFAULT_255_2_778
10
9.0978128
20
1.7099385
40
2.534706
50
39.9213491
51
47.4107246
0
ARC
8
DEFAULT_255_2_778
10
6.482843
20
-0.5455168
40
5.9878231
50
36.9138325
51
40.415566
0
ARC
8
DEFAULT_255_2_778
10
8.0050831
20
0.5925463
40
4.0871982
50
31.922637
51
36.9748278
0
ARC
8
DEFAULT_255_2_778
10
8.2047438
20
0.6964048
40
3.8628553
50
28.1990632
51
32.1810801
0
ARC
8
DEFAULT_255_2_778
10
9.243245
20
1.263886
40
2.6794736
50
27.0577969
51
27.9981037
0
ARC
8
DEFAULT_255_2_778
10
5.4679559
20
-0.789718
40
6.4233922
50
30.6279278
51
32.8707334
0
ARC
8
DEFAULT_255_2_778
10
5.7427261
20
-0.7015788
40
6.1452353
50
33.5709766
51
36.1817151
0
ARC
8
DEFAULT_255_2_778
10
6.8353356
20
0.0251864
40
4.8346453
50
36.8739807
51
40.2838977
0
ARC
8
DEFAULT_255_2_778
10
9.4313817
20
2.2153051
40
1.4381957
50
40.5949363
51
50.9908974
0
ARC
8
DEFAULT_255_2_778
10
12.7400624
20
5.5108048
40
3.0713841
50
278.3718222
51
285.2908574
0
ARC
8
DEFAULT_255_2_778
10
12.7262691
20
5.4553618
40
3.0186182
50
270.0119747
51
278.7840616
0
ARC
8
DEFAULT_255_2_778
10
12.7269
20
5.3937399
40
2.9569962
50
269.8884908
51
269.9999998
0
ARC
8
DEFAULT_255_2_778
10
12.6875193
20
3.5359573
40
1.0997223
50
269.9994777
51
271.7521843
0
ARC
8
DEFAULT_255_2_778
10
12.6874386
20
3.5358297
40
1.0995946
50
249.8330063
51
270.0036839
0
ARC
8
DEFAULT_255_2_778
10
12.5320983
20
3.0922765
40
0.6297202
50
219.6506016
51
249.1868449
0
ARC
8
DEFAULT_255_2_778
10
12.6181069
20
3.1400794
40
0.7266708
50
193.0295268
51
218.2251723
0
ARC
8
DEFAULT_255_2_778
10
13.4137805
20
3.3279028
40
1.5442084
50
179.9987623
51
193.1631201
0
ARC
8
DEFAULT_255_2_778
10
13.4093187
20
3.3279559
40
1.5397466
50
179.442072
51
180.0007357
0
ARC
8
DEFAULT_255_2_778
10
13.8051717
20
3.3992556
40
1.3836804
50
179.4950743
51
187.8758791
0
ARC
8
DEFAULT_255_2_778
10
12.9987847
20
3.2814494
40
0.568791
50
187.2515582
51
203.6234215
0
ARC
8
DEFAULT_255_2_778
10
12.7586027
20
3.184472
40
0.3099637
50
204.9906771
51
210.6512168
0
ARC
8
DEFAULT_255_2_778
10
12.6983286
20
3.1572642
40
0.2443495
50
212.3683192
51
264.8387028
0
ARC
8
DEFAULT_255_2_778
10
12.7520228
20
3.416731
40
0.5084884
50
261.4411576
51
270.2954817
0
ARC
8
DEFAULT_255_2_778
10
12.7484663
20
4.4071707
40
1.4989342
50
270.2361826
51
275.0475085
0
ARC
8
DEFAULT_255_2_778
10
12.7302855
20
4.7956109
40
1.887536
50
274.5598407
51
278.1736978
0
ARC
8
DEFAULT_255_2_778
10
14.6561326
20
3.4386111
40
1.2239311
50
359.999445
51
0.7976325
0
ARC
8
DEFAULT_255_2_778
10
14.6535824
20
3.4386948
40
1.2264813
50
340.7011952
51
359.9955331
0
ARC
8
DEFAULT_255_2_778
10
14.970818
20
3.328212
40
0.8905581
50
316.1403314
51
340.6645149
0
ARC
8
DEFAULT_255_2_778
10
14.9933672
20
3.321015
40
0.8693751
50
290.2831865
51
315.4526079
0
ARC
8
DEFAULT_255_2_778
10
14.8854044
20
3.63026
40
1.1968852
50
270.0031083
51
289.9990759
0
ARC
8
DEFAULT_255_2_778
10
14.8854729
20
3.6298321
40
1.1964573
50
269.0217079
51
269.999828
0
ARC
8
DEFAULT_255_2_778
10
14.871314
20
4.9904098
40
2.5568682
50
265.109693
51
269.8595241
0
ARC
8
DEFAULT_255_2_778
10
15.0586767
20
7.0822596
40
4.657083
50
262.3478342
51
265.0069151
0
ARC
8
DEFAULT_255_2_778
10
14.8232705
20
5.2510316
40
2.8108359
50
257.9579069
51
262.1331042
0
ARC
8
DEFAULT_255_2_778
10
14.7361056
20
4.8606142
40
2.4108276
50
253.8479806
51
258.0480729
0
ARC
8
DEFAULT_255_2_778
10
15.0357968
20
3.4293699
40
1.0426348
50
102.5103663
51
113.6620106
0
ARC
8
DEFAULT_255_2_778
10
15.0175291
20
3.4932776
40
0.9762955
50
89.9733151
51
102.2761773
0
ARC
8
DEFAULT_255_2_778
10
15.0179541
20
3.471956
40
0.997617
50
89.6042265
51
89.9982931
0
ARC
8
DEFAULT_255_2_778
10
15.0429146
20
3.594765
40
0.8749708
50
89.9995721
51
91.183327
0
ARC
8
DEFAULT_255_2_778
10
15.0429284
20
3.5918409
40
0.877895
50
66.6026611
51
90.0004756
0
ARC
8
DEFAULT_255_2_778
10
15.1000657
20
3.7436695
40
0.7159043
50
38.7683127
51
65.9741625
0
ARC
8
DEFAULT_255_2_778
10
14.9325204
20
3.6219146
40
0.9228303
50
15.694605
51
38.148556
0
ARC
8
DEFAULT_255_2_778
10
14.4163606
20
3.4703927
40
1.4607479
50
359.976021
51
15.9396117
0
ARC
8
DEFAULT_255_2_778
10
14.4066136
20
3.4697825
40
1.4704946
50
359.4687921
51
359.9999577
0
ARC
8
DEFAULT_255_2_778
10
14.3044309
20
3.4829134
40
1.0127909
50
359.2948567
51
11.7673063
0
ARC
8
DEFAULT_255_2_778
10
14.8367152
20
3.6002548
40
0.4678055
50
10.9929013
51
36.3865995
0
ARC
8
DEFAULT_255_2_778
10
14.9517185
20
3.6673668
40
0.3357117
50
38.810172
51
90.6311216
0
ARC
8
DEFAULT_255_2_778
10
14.9247201
20
3.4506896
40
0.5528595
50
87.5845251
51
90.0181336
0
ARC
8
DEFAULT_255_2_778
10
14.9241424
20
3.3560406
40
0.6475088
50
89.9643681
51
105.046698
0
ARC
8
DEFAULT_255_2_778
10
14.8709301
20
3.5194009
40
0.4760198
50
103.9659398
51
121.7353911
0
ARC
8
DEFAULT_255_2_778
10
14.8228961
20
4.0856362
40
1.180558
50
260.1306073
51
265.1822504
0
ARC
8
DEFAULT_255_2_778
10
14.8555477
20
4.4015987
40
1.4981584
50
264.9528006
51
270.1987731
0
ARC
8
DEFAULT_255_2_778
10
14.8881488
20
3.30014
40
0.3976361
50
266.0482468
51
269.9984855
0
ARC
8
DEFAULT_255_2_778
10
14.8880644
20
3.2993272
40
0.3968234
50
270.0106638
51
322.6804837
0
ARC
8
DEFAULT_255_2_778
10
14.6418828
20
3.4347864
40
0.6760035
50
326.2021093
51
359.9768635
0
ARC
8
DEFAULT_255_2_778
10
14.6426245
20
3.4345052
40
0.6752619
50
0.0006964
51
3.0257938
0
ARC
8
DEFAULT_255_2_778
10
17.4051879
20
3.4662566
40
1.1929134
50
179.999803
51
181.2204101
0
ARC
8
DEFAULT_255_2_778
10
17.4020814
20
3.4664857
40
1.1898069
50
158.9135863
51
180.010837
0
ARC
8
DEFAULT_255_2_778
10
17.1954405
20
3.5409387
40
0.970229
50
135.7092622
51
158.6255913
0
ARC
8
DEFAULT_255_2_778
10
17.1103092
20
3.6067252
40
0.8634413
50
111.1233249
51
134.8892632
0
ARC
8
DEFAULT_255_2_778
10
17.1468376
20
3.5420954
40
0.9369545
50
90.0668053
51
111.7827244
0
ARC
8
DEFAULT_255_2_778
10
17.1588346
20
3.4262952
40
1.0528354
50
72.5054378
51
90.7123558
0
ARC
8
DEFAULT_255_2_778
10
17.2386994
20
3.6941989
40
0.7733271
50
43.3497446
51
72.1820106
0
ARC
8
DEFAULT_255_2_778
10
17.1979306
20
3.6694252
40
0.8200398
50
15.4568491
51
42.6530675
0
ARC
8
DEFAULT_255_2_778
10
16.6949379
20
3.5195356
40
1.3448278
50
2.464545
51
15.9005559
0
ARC
8
DEFAULT_255_2_778
10
16.1677617
20
3.4801578
40
1.8732838
50
359.9630359
51
2.9744832
0
ARC
8
DEFAULT_255_2_778
10
16.2116727
20
3.4846781
40
1.8293814
50
356.5016395
51
359.8205747
0
ARC
8
DEFAULT_255_2_778
10
14.6283224
20
3.5702966
40
3.4150239
50
354.9796485
51
356.6888277
0
ARC
8
DEFAULT_255_2_778
10
17.1420613
20
3.3040364
40
0.3647746
50
185.1253504
51
235.9930411
0
ARC
8
DEFAULT_255_2_778
10
17.2826946
20
3.5402346
40
0.6394196
50
237.3841644
51
270.0136614
0
ARC
8
DEFAULT_255_2_778
10
17.2828469
20
3.5420677
40
0.6412526
50
270.0000138
51
272.9228469
0
ARC
8
DEFAULT_255_2_778
10
17.3167305
20
3.9423252
40
1.0406766
50
269.9347399
51
270.0217605
0
ARC
8
DEFAULT_255_2_778
10
17.3169555
20
4.4885329
40
1.5868844
50
270.0061446
51
280.7793107
0
ARC
8
DEFAULT_255_2_778
10
17.4060185
20
4.1063989
40
1.1949436
50
280.0110443
51
284.26265
0
ARC
8
DEFAULT_255_2_778
10
17.4238984
20
4.043541
40
1.1296196
50
284.1691901
51
292.3057896
0
ARC
8
DEFAULT_255_2_778
10
17.5970173
20
3.2487068
40
0.7721944
50
285.8983078
51
295.2773946
0
ARC
8
DEFAULT_255_2_778
10
17.3617472
20
4.0289221
40
1.5870634
50
280.2423048
51
286.3512394
0
ARC
8
DEFAULT_255_2_778
10
17.1648435
20
5.0467203
40
2.6236854
50
276.2339452
51
280.521609
0
ARC
8
DEFAULT_255_2_778
10
17.2451347
20
4.370968
40
1.9432209
50
269.9976372
51
276.0441322
0
ARC
8
DEFAULT_255_2_778
10
17.2451951
20
4.4011108
40
1.9733635
50
269.91435
51
269.9959214
0
ARC
8
DEFAULT_255_2_778
10
17.2155311
20
3.6529457
40
1.2254877
50
270.000271
51
271.2490738
0
ARC
8
DEFAULT_255_2_778
10
17.2155129
20
3.6524024
40
1.2249444
50
249.4309089
51
270.0011183
0
ARC
8
DEFAULT_255_2_778
10
17.1002981
20
3.3327647
40
0.8852157
50
223.9364129
51
249.1441343
0
ARC
8
DEFAULT_255_2_778
10
17.0780108
20
3.2966192
40
0.8441526
50
197.7726563
51
223.2193414
0
ARC
8
DEFAULT_255_2_778
10
17.5007707
20
3.4368205
40
1.2895394
50
180.0843143
51
197.9711134
0
ARC
8
DEFAULT_255_2_778
10
17.4880755
20
3.4349674
40
1.2768427
50
179.7495235
51
180.0019994
0
ARC
8
DEFAULT_255_2_778
10
16.9345686
20
3.6226397
40
0.5746502
50
2.9735112
51
16.8851464
0
ARC
8
DEFAULT_255_2_778
10
17.1505138
20
3.6876413
40
0.3491352
50
16.970949
51
39.1035675
0
ARC
8
DEFAULT_255_2_778
10
17.1616575
20
3.6904839
40
0.338729
50
39.9193558
51
63.2829043
0
ARC
8
DEFAULT_255_2_778
10
17.1700716
20
3.7005601
40
0.3259593
50
63.8077317
51
89.9918521
0
ARC
8
DEFAULT_255_2_778
10
17.170118
20
3.7016356
40
0.3248838
50
89.9999969
51
93.0829602
0
ARC
8
DEFAULT_255_2_778
10
17.1431223
20
3.6532246
40
0.3729462
50
88.5368481
51
89.9995115
0
ARC
8
DEFAULT_255_2_778
10
17.1429294
20
3.6565603
40
0.3696106
50
89.9696091
51
113.8728196
0
ARC
8
DEFAULT_255_2_778
10
17.1341528
20
3.6910095
40
0.334609
50
114.8858995
51
138.8372045
0
ARC
8
DEFAULT_255_2_778
10
17.1670084
20
3.669459
40
0.3735675
50
139.6656721
51
161.0699635
0
ARC
8
DEFAULT_255_2_778
10
17.56194
20
3.5260687
40
0.7936927
50
160.5275307
51
170.8962251
0
ARC
8
DEFAULT_255_2_778
10
18.5812762
20
-0.3338975
40
4.4041537
50
76.0763076
51
78.3642606
0
ARC
8
DEFAULT_255_2_778
10
19.2599621
20
2.9325167
40
1.0679986
50
78.6828836
51
88.0737983
0
ARC
8
DEFAULT_255_2_778
10
19.2618049
20
2.9683921
40
1.0320818
50
88.1091029
51
89.9974407
0
ARC
8
DEFAULT_255_2_778
10
19.2618504
20
2.9826228
40
1.0178511
50
89.9999681
51
90.3999671
0
ARC
8
DEFAULT_255_2_778
10
19.2692554
20
2.9483718
40
1.0521775
50
90.7901762
51
94.1809292
0
ARC
8
DEFAULT_255_2_778
10
19.2628435
20
3.0388467
40
0.9614759
50
94.1929271
51
97.9209834
0
ARC
8
DEFAULT_255_2_778
10
19.1997494
20
3.3252399
40
0.6695164
50
95.9501565
51
105.4541593
0
ARC
8
DEFAULT_255_2_778
10
19.5076805
20
1.2807301
40
3.2178178
50
102.4028485
51
108.8290273
0
ARC
8
DEFAULT_255_2_778
10
19.2465535
20
2.4535757
40
2.0162612
50
89.9748717
51
102.3140617
0
ARC
8
DEFAULT_255_2_778
10
19.2474578
20
2.428996
40
2.0408408
50
89.4697381
51
90.0005623
0
ARC
8
DEFAULT_255_2_778
10
19.2555769
20
3.2730749
40
1.1967228
50
84.3331959
51
89.4844386
0
ARC
8
DEFAULT_255_2_778
10
19.1451488
20
1.9812243
40
2.4932267
50
81.8304119
51
84.739336
0
ARC
8
DEFAULT_255_2_778
10
19.2077504
20
2.4745275
40
1.9960503
50
77.9297807
51
81.5969352
0
ARC
8
DEFAULT_255_2_778
10
19.5139617
20
3.8536786
40
0.583462
50
67.9984389
51
79.014639
0
ARC
8
DEFAULT_255_2_778
10
20.8442577
20
1.3735073
40
3.0982074
50
98.3909722
51
105.2478396
0
ARC
8
DEFAULT_255_2_778
10
20.852852
20
1.4682526
40
3.0058132
50
90.0616297
51
98.8165884
0
ARC
8
DEFAULT_255_2_778
10
20.8496811
20
1.5981759
40
2.8758882
50
89.8174268
51
90.0012418
0
ARC
8
DEFAULT_255_2_778
10
20.8921046
20
3.330116
40
1.1444167
50
90.0001483
51
91.6653864
0
ARC
8
DEFAULT_255_2_778
10
20.8923783
20
3.3358257
40
1.1387071
50
70.4595047
51
90.0139231
0
ARC
8
DEFAULT_255_2_778
10
21.0601713
20
3.8280438
40
0.61875
50
39.9734971
51
69.857162
0
ARC
8
DEFAULT_255_2_778
10
20.9798901
20
3.7810849
40
0.7106116
50
13.2990335
51
38.7164958
0
ARC
8
DEFAULT_255_2_778
10
20.2231452
20
3.5992316
40
1.4888979
50
0.0001324
51
13.4106305
0
ARC
8
DEFAULT_255_2_778
10
20.222358
20
3.5992539
40
1.4896852
50
359.342114
51
359.9992751
0
ARC
8
DEFAULT_255_2_778
10
19.7749143
20
3.5274699
40
1.3845788
50
359.5232529
51
7.4431218
0
ARC
8
DEFAULT_255_2_778
10
20.5913576
20
3.6406227
40
0.5603937
50
6.785106
51
22.6862434
0
ARC
8
DEFAULT_255_2_778
10
20.8510968
20
3.7424684
40
0.2815385
50
23.9504251
51
32.3096524
0
ARC
8
DEFAULT_255_2_778
10
20.8891948
20
3.7566545
40
0.2419016
50
34.2933636
51
83.8680516
0
ARC
8
DEFAULT_255_2_778
10
20.8297534
20
3.4802919
40
0.5238683
50
80.6310698
51
90.3727631
0
ARC
8
DEFAULT_255_2_778
10
20.832524
20
2.5052278
40
1.4989342
50
90.2361826
51
95.0475085
0
ARC
8
DEFAULT_255_2_778
10
20.8562277
20
2.0837683
40
1.9208921
50
94.6457588
51
98.1942081
0
ARC
8
DEFAULT_255_2_778
10
23.3081633
20
3.4663953
40
1.190688
50
179.9998215
51
181.2197407
0
ARC
8
DEFAULT_255_2_778
10
23.309625
20
3.4663526
40
1.1921497
50
158.9346865
51
179.9977695
0
ARC
8
DEFAULT_255_2_778
10
23.102355
20
3.5401325
40
0.9722288
50
135.7331526
51
158.601709
0
ARC
8
DEFAULT_255_2_778
10
23.0209345
20
3.601698
40
0.8710444
50
111.4611593
51
134.8947945
0
ARC
8
DEFAULT_255_2_778
10
23.0495823
20
3.5455355
40
0.9338143
50
90.0636353
51
111.8362529
0
ARC
8
DEFAULT_255_2_778
10
23.0616438
20
3.426212
40
1.0532187
50
72.5086319
51
90.7125935
0
ARC
8
DEFAULT_255_2_778
10
23.1416257
20
3.6945039
40
0.7733046
50
43.350815
51
72.185987
0
ARC
8
DEFAULT_255_2_778
10
23.1008275
20
3.6697415
40
0.820031
50
15.4537908
51
42.6520806
0
ARC
8
DEFAULT_255_2_778
10
22.5974522
20
3.5197548
40
1.3452131
50
2.4638493
51
15.8982086
0
ARC
8
DEFAULT_255_2_778
10
22.0699248
20
3.4803582
40
1.8740207
50
359.9630374
51
2.9738951
0
ARC
8
DEFAULT_255_2_778
10
22.3891815
20
3.4849549
40
1.5547745
50
355.8836247
51
359.7860537
0
ARC
8
DEFAULT_255_2_778
10
7.6677497
20
4.5074594
40
16.3116691
50
355.6553269
51
356.0131493
0
ARC
8
DEFAULT_255_2_778
10
23.0447227
20
3.3044376
40
0.3651437
50
185.1361055
51
235.9636839
0
ARC
8
DEFAULT_255_2_778
10
23.1854197
20
3.5419002
40
0.6408834
50
237.4227776
51
269.9907479
0
ARC
8
DEFAULT_255_2_778
10
23.1853122
20
3.5410928
40
0.6400759
50
270.0003599
51
272.9223733
0
ARC
8
DEFAULT_255_2_778
10
23.2187531
20
4.4895905
40
1.5877414
50
269.9708445
51
280.7955546
0
ARC
8
DEFAULT_255_2_778
10
23.3075356
20
4.1101149
40
1.1984611
50
280.0242228
51
284.3842991
0
ARC
8
DEFAULT_255_2_778
10
23.3266957
20
4.0429785
40
1.128671
50
284.2888069
51
292.3037495
0
ARC
8
DEFAULT_255_2_778
10
23.495434
20
3.2600932
40
0.7839209
50
285.9493123
51
295.1946572
0
ARC
8
DEFAULT_255_2_778
10
23.2671206
20
4.0162172
40
1.5737194
50
280.2163808
51
286.3771643
0
ARC
8
DEFAULT_255_2_778
10
23.0686649
20
5.03669
40
2.613251
50
276.225381
51
280.5301731
0
ARC
8
DEFAULT_255_2_778
10
23.1475321
20
4.3694591
40
1.9414119
50
270.0026767
51
276.0468953
0
ARC
8
DEFAULT_255_2_778
10
23.1468786
20
3.813595
40
1.3855479
50
269.9076409
51
270.0307749
0
ARC
8
DEFAULT_255_2_778
10
23.1179119
20
3.6550053
40
1.2272473
50
270.0002901
51
271.2481777
0
ARC
8
DEFAULT_255_2_778
10
23.117936
20
3.654852
40
1.227094
50
249.4624327
51
269.9991635
0
ARC
8
DEFAULT_255_2_778
10
23.0045087
20
3.3358556
40
0.8885977
50
223.9851634
51
249.0953737
0
ARC
8
DEFAULT_255_2_778
10
22.9826914
20
3.2932004
40
0.8434201
50
197.3953039
51
222.9294431
0
ARC
8
DEFAULT_255_2_778
10
23.3854011
20
3.4295277
40
1.2685058
50
179.9881432
51
197.8333156
0
ARC
8
DEFAULT_255_2_778
10
23.3847263
20
3.429812
40
1.267831
50
179.4921612
51
180.0009851
0
ARC
8
DEFAULT_255_2_778
10
22.8388784
20
3.6223655
40
0.5756692
50
3.025475
51
16.9140996
0
ARC
8
DEFAULT_255_2_778
10
23.058558
20
3.6892708
40
0.346027
50
16.8978549
51
39.2169236
0
ARC
8
DEFAULT_255_2_778
10
23.0687756
20
3.6932809
40
0.3355922
50
39.789446
51
63.360832
0
ARC
8
DEFAULT_255_2_778
10
23.075263
20
3.7012639
40
0.3255553
50
63.7514439
51
89.9914328
0
ARC
8
DEFAULT_255_2_778
10
23.0753152
20
3.7018987
40
0.3249206
50
90.0006214
51
93.0821284
0
ARC
8
DEFAULT_255_2_778
10
23.0483223
20
3.6535246
40
0.3729462
50
88.5368481
51
89.9995115
0
ARC
8
DEFAULT_255_2_778
10
23.0481294
20
3.6568603
40
0.3696106
50
89.9696091
51
113.8728196
0
ARC
8
DEFAULT_255_2_778
10
23.039974
20
3.6904813
40
0.3356218
50
114.9226048
51
138.8005581
0
ARC
8
DEFAULT_255_2_778
10
23.0700696
20
3.6713658
40
0.3708971
50
139.6410318
51
161.2071724
0
ARC
8
DEFAULT_255_2_778
10
23.4556199
20
3.5285832
40
0.7819675
50
160.40359
51
170.9228834
0
ARC
8
DEFAULT_255_2_778
10
25.4494245
20
3.2645868
40
0.5445985
50
177.2675185
51
179.9999824
0
ARC
8
DEFAULT_255_2_778
10
25.4494189
20
3.2645715
40
0.5445929
50
179.9983806
51
207.5423753
0
ARC
8
DEFAULT_255_2_778
10
25.1438089
20
3.1271148
40
0.2109548
50
212.8289508
51
263.0443388
0
ARC
8
DEFAULT_255_2_778
10
25.2083098
20
3.4091361
40
0.4996056
50
259.616394
51
270.4971919
0
ARC
8
DEFAULT_255_2_778
10
25.2081607
20
3.9730758
40
1.063536
50
270.241588
51
280.1698077
0
ARC
8
DEFAULT_255_2_778
10
25.2374827
20
3.8539895
40
0.941176
50
279.6928523
51
290.5231185
0
ARC
8
DEFAULT_255_2_778
10
25.0633821
20
3.9940079
40
1.5634661
50
283.2957845
51
291.8490301
0
ARC
8
DEFAULT_255_2_778
10
25.146756
20
3.7362211
40
1.2935995
50
270.0159339
51
282.3277947
0
ARC
8
DEFAULT_255_2_778
10
25.147129
20
3.7264464
40
1.2838248
50
268.9206348
51
269.99941
0
ARC
8
DEFAULT_255_2_778
10
25.0921026
20
3.4240991
40
0.9817344
50
269.9994392
51
271.8003228
0
ARC
8
DEFAULT_255_2_778
10
25.092255
20
3.4278371
40
0.9854725
50
249.6371093
51
269.9905809
0
ARC
8
DEFAULT_255_2_778
10
24.9621591
20
3.0480296
40
0.5842202
50
219.6362053
51
248.6373241
0
ARC
8
DEFAULT_255_2_778
10
25.0136506
20
3.0723883
40
0.6395682
50
191.9510362
51
218.3740185
0
ARC
8
DEFAULT_255_2_778
10
25.9093461
20
3.2707482
40
1.5569486
50
180.001895
51
192.2669184
0
ARC
8
DEFAULT_255_2_778
10
25.903823
20
3.2707218
40
1.5514253
50
179.552116
51
180.0009253
0
ARC
8
DEFAULT_255_2_778
10
27.0470102
20
3.4676716
40
1.1856506
50
180.0002703
51
181.2576121
0
ARC
8
DEFAULT_255_2_778
10
27.0495852
20
3.4675423
40
1.1882256
50
158.8974406
51
179.9940377
0
ARC
8
DEFAULT_255_2_778
10
26.8445386
20
3.5417403
40
0.9702267
50
135.7092478
51
158.6256342
0
ARC
8
DEFAULT_255_2_778
10
26.763398
20
3.601385
40
0.8706078
50
111.2225675
51
134.7900585
0
ARC
8
DEFAULT_255_2_778
10
26.7952377
20
3.5465238
40
0.9333257
50
90.0425136
51
111.8254825
0
ARC
8
DEFAULT_255_2_778
10
26.8076438
20
3.426712
40
1.0532187
50
72.5086319
51
90.7125935
0
ARC
8
DEFAULT_255_2_778
10
26.8876257
20
3.6950039
40
0.7733046
50
43.350815
51
72.185987
0
ARC
8
DEFAULT_255_2_778
10
26.8444473
20
3.6685281
40
0.8229426
50
15.1268959
51
42.6275365
0
ARC
8
DEFAULT_255_2_778
10
26.3342222
20
3.5191401
40
1.3545177
50
2.1994923
51
15.5949331
0
ARC
8
DEFAULT_255_2_778
10
25.8151141
20
3.4823462
40
1.8747313
50
359.9695322
51
2.7142867
0
ARC
8
DEFAULT_255_2_778
10
26.0941501
20
3.4870924
40
1.5957054
50
355.9880363
51
359.7937843
0
ARC
8
DEFAULT_255_2_778
10
11.4137497
20
4.5095594
40
16.3116691
50
355.6553269
51
356.0131493
0
ARC
8
DEFAULT_255_2_778
10
26.7901747
20
3.3068171
40
0.364623
50
185.1875599
51
236.1638063
0
ARC
8
DEFAULT_255_2_778
10
26.9320546
20
3.5434356
40
0.6403188
50
237.4080221
51
269.9965652
0
ARC
8
DEFAULT_255_2_778
10
26.9320122
20
3.5431917
40
0.6400748
50
270.0003608
51
272.9223742
0
ARC
8
DEFAULT_255_2_778
10
26.9647402
20
4.4992547
40
1.5953055
50
269.9965864
51
280.7698195
0
ARC
8
DEFAULT_255_2_778
10
27.0551185
20
4.1087989
40
1.1949436
50
280.0110443
51
284.26265
0
ARC
8
DEFAULT_255_2_778
10
27.0729984
20
4.045941
40
1.1296196
50
284.1691901
51
292.3057896
0
ARC
8
DEFAULT_255_2_778
10
27.2435482
20
3.2584259
40
0.7799101
50
285.925469
51
295.2184642
0
ARC
8
DEFAULT_255_2_778
10
27.0168043
20
4.0049821
40
1.5600843
50
280.1990174
51
286.4101192
0
ARC
8
DEFAULT_255_2_778
10
26.8139435
20
5.0491203
40
2.6236854
50
276.2339452
51
280.521609
0
ARC
8
DEFAULT_255_2_778
10
26.8942342
20
4.373414
40
1.9432667
50
270.0026138
51
276.0440044
0
ARC
8
DEFAULT_255_2_778
10
26.8935786
20
3.8157233
40
1.3855763
50
269.9076413
51
270.0307752
0
ARC
8
DEFAULT_255_2_778
10
26.864631
20
3.6553466
40
1.2254885
50
270.0002708
51
271.2490736
0
ARC
8
DEFAULT_255_2_778
10
26.8646819
20
3.6557339
40
1.2258758
50
249.438809
51
269.9978921
0
ARC
8
DEFAULT_255_2_778
10
26.7501377
20
3.3364247
40
0.8866921
50
223.9665369
51
249.1224233
0
ARC
8
DEFAULT_255_2_778
10
26.7242779
20
3.3024266
40
0.844502
50
198.0079815
51
223.5243716
0
ARC
8
DEFAULT_255_2_778
10
27.1347675
20
3.4304504
40
1.274472
50
180.013994
51
197.7764402
0
ARC
8
DEFAULT_255_2_778
10
27.1272927
20
3.4301383
40
1.2669971
50
179.4930171
51
179.9999673
0
ARC
8
DEFAULT_255_2_778
10
26.5895449
20
3.6238787
40
0.5698576
50
2.9543442
51
16.9853164
0
ARC
8
DEFAULT_255_2_778
10
26.8021764
20
3.6892732
40
0.3473979
50
16.914949
51
39.1596517
0
ARC
8
DEFAULT_255_2_778
10
26.8126247
20
3.6925559
40
0.3372479
50
39.8481641
51
63.3021753
0
ARC
8
DEFAULT_255_2_778
10
26.8201732
20
3.7009371
40
0.3263824
50
63.8249934
51
89.987692
0
ARC
8
DEFAULT_255_2_778
10
26.8202462
20
3.7013826
40
0.3259368
50
90.0005172
51
93.0779616
0
ARC
8
DEFAULT_255_2_778
10
26.7932223
20
3.6540246
40
0.3729462
50
88.5368481
51
89.9995115
0
ARC
8
DEFAULT_255_2_778
10
26.7930294
20
3.6573603
40
0.3696106
50
89.9696091
51
113.8728196
0
ARC
8
DEFAULT_255_2_778
10
26.7792991
20
3.6890289
40
0.3350947
50
113.9174301
51
138.1612622
0
ARC
8
DEFAULT_255_2_778
10
26.8150446
20
3.6706905
40
0.374097
50
139.7207434
51
161.0866813
0
ARC
8
DEFAULT_255_2_778
10
27.1998661
20
3.529717
40
0.7838842
50
160.4560814
51
170.9477669
0
ARC
8
DEFAULT_255_2_778
10
28.708536
20
3.4279761
40
0.5498723
50
266.4663863
51
267.0231064
0
ARC
8
DEFAULT_255_2_778
10
28.7084726
20
3.4273276
40
0.5492212
50
267.0261951
51
269.9993434
0
ARC
8
DEFAULT_255_2_778
10
28.7083365
20
3.4292231
40
0.5511167
50
270.0134946
51
289.1961137
0
ARC
8
DEFAULT_255_2_778
10
28.8394745
20
3.0107706
40
0.113646
50
296.141172
51
359.9493724
0
ARC
8
DEFAULT_255_2_778
10
28.8391675
20
3.010661
40
0.1139529
50
0.0046232
51
6.2411917
0
ARC
8
DEFAULT_255_2_778
10
28.8128747
20
3.0096353
40
0.1402135
50
5.489778
51
65.6235347
0
ARC
8
DEFAULT_255_2_778
10
28.0823331
20
1.7533801
40
1.592785
50
60.3309352
51
70.1627045
0
ARC
8
DEFAULT_255_2_778
10
28.6826207
20
3.9739818
40
0.6899476
50
226.2307013
51
244.4221823
0
ARC
8
DEFAULT_255_2_778
10
28.5577981
20
3.8344882
40
0.5029083
50
201.8582979
51
225.5064071
0
ARC
8
DEFAULT_255_2_778
10
28.6970683
20
3.8729885
40
0.6467011
50
180.0323902
51
200.4300012
0
ARC
8
DEFAULT_255_2_778
10
28.7131142
20
3.87259
40
0.662747
50
178.6720474
51
179.9971547
0
ARC
8
DEFAULT_255_2_778
10
28.5705529
20
3.9082881
40
0.5204054
50
180.0003147
51
182.2398442
0
ARC
8
DEFAULT_255_2_778
10
28.5699789
20
3.9080882
40
0.5198313
50
127.4001034
51
179.9782851
0
ARC
8
DEFAULT_255_2_778
10
28.6938424
20
3.7434709
40
0.7258391
50
101.0993956
51
127.2749142
0
ARC
8
DEFAULT_255_2_778
10
28.8026483
20
3.2553716
40
1.2258217
50
89.5140402
51
101.6979631
0
ARC
8
DEFAULT_255_2_778
10
28.8208403
20
2.6940092
40
1.787157
50
89.9985397
51
90.2499126
0
ARC
8
DEFAULT_255_2_778
10
28.8212373
20
2.6881261
40
1.7930402
50
79.2414542
51
90.0112298
0
ARC
8
DEFAULT_255_2_778
10
28.8804006
20
2.8815751
40
1.5920996
50
70.3704967
51
80.0336406
0
ARC
8
DEFAULT_255_2_778
10
28.6825848
20
2.0348697
40
2.0195578
50
71.6242507
51
77.7774259
0
ARC
8
DEFAULT_255_2_778
10
28.8686387
20
2.8846527
40
1.1496493
50
77.8735647
51
90.067467
0
ARC
8
DEFAULT_255_2_778
10
28.8672648
20
2.8499288
40
1.1843726
50
89.9990233
51
90.5379361
0
ARC
8
DEFAULT_255_2_778
10
28.8444421
20
3.4832622
40
0.5511113
50
88.7832163
51
103.6963385
0
ARC
8
DEFAULT_255_2_778
10
28.7414971
20
3.8672534
40
0.1539334
50
100.3080478
51
148.9511994
0
ARC
8
DEFAULT_255_2_778
10
28.7202803
20
3.8921434
40
0.1233565
50
153.7786578
51
181.0656525
0
ARC
8
DEFAULT_255_2_778
10
28.7459956
20
3.8875717
40
0.1490679
50
179.1245502
51
179.9947555
0
ARC
8
DEFAULT_255_2_778
10
28.7461894
20
3.8876858
40
0.1492616
50
180.0385587
51
201.6370389
0
ARC
8
DEFAULT_255_2_778
10
28.7213704
20
3.8898828
40
0.1274937
50
206.673937
51
237.0068602
0
ARC
8
DEFAULT_255_2_778
10
29.0350282
20
4.3448519
40
0.6800642
50
235.7153739
51
244.5365868
0
ARC
8
DEFAULT_255_2_778
10
29.360127
20
4.99651
40
1.4082546
50
243.9934937
51
249.5096708
0
ARC
8
DEFAULT_255_2_778
10
29.7470471
20
5.979643
40
2.464695
50
249.0843665
51
249.6253382
0
ARC
8
DEFAULT_255_2_778
10
28.1306861
20
1.5456635
40
2.2548056
50
62.0059885
51
70.3492578
0
ARC
8
DEFAULT_255_2_778
10
28.8569252
20
2.9027605
40
0.7156246
50
43.5204511
51
62.3481418
0
ARC
8
DEFAULT_255_2_778
10
29.0552368
20
3.1009159
40
0.4354291
50
16.9073078
51
42.5824548
0
ARC
8
DEFAULT_255_2_778
10
28.7475428
20
3.0235814
40
0.7524737
50
0.002444
51
15.7275362
0
ARC
8
DEFAULT_255_2_778
10
28.7496461
20
3.0236004
40
0.7503705
50
359.2095948
51
0.0009999
0
ARC
8
DEFAULT_255_2_778
10
29.0064434
20
2.9861843
40
0.4942433
50
0.0002795
51
3.1391082
0
ARC
8
DEFAULT_255_2_778
10
29.0066586
20
2.9864596
40
0.4940282
50
304.074096
51
359.9683467
0
ARC
8
DEFAULT_255_2_778
10
28.8488338
20
3.2396104
40
0.7922179
50
282.7048806
51
303.2710695
0
ARC
8
DEFAULT_255_2_778
10
28.7018879
20
3.845642
40
1.4157649
50
271.6975177
51
283.1121715
0
ARC
8
DEFAULT_255_2_778
10
28.6676675
20
4.4272628
40
1.9982163
50
270.0939812
51
272.1842851
0
ARC
8
DEFAULT_255_2_778
10
28.6365343
20
4.2111028
40
1.7823857
50
269.9998075
51
271.1062239
0
ARC
8
DEFAULT_255_2_778
10
28.6363192
20
4.2051201
40
1.7764032
50
257.1002717
51
270.0067459
0
ARC
8
DEFAULT_255_2_778
10
28.645536
20
4.2070953
40
1.7804067
50
248.7671356
51
256.8253376
0
ARC
8
DEFAULT_255_2_778
10
28.7523822
20
4.662737
40
1.7927199
50
248.4311789
51
258.0682921
0
ARC
8
DEFAULT_255_2_778
10
28.6659037
20
4.2810208
40
1.4013833
50
258.3010099
51
270.0019619
0
ARC
8
DEFAULT_255_2_778
10
28.6662746
20
4.286166
40
1.4065286
50
269.986843
51
270.2350646
0
LINE
8
DEFAULT_255_2_778
10
10.3332451
20
3.7297493
11
10.5017451
21
3.9136493
0
LINE
8
DEFAULT_255_2_778
10
10.6703451
20
4.1033493
11
10.8245451
21
4.2816493
0
LINE
8
DEFAULT_255_2_778
10
10.9489451
20
4.4290493
11
11.6050451
21
4.4290493
0
LINE
8
DEFAULT_255_2_778
10
11.6294451
20
2.4827493
11
10.9952451
21
2.4827493
0
LINE
8
DEFAULT_255_2_778
10
10.3366451
20
3.3328493
11
10.3366451
21
2.4793493
0
LINE
8
DEFAULT_255_2_778
10
10.3366451
20
2.4793493
11
9.7847451
21
2.4793493
0
LINE
8
DEFAULT_255_2_778
10
9.7847451
20
2.4793493
11
9.7847451
21
5.2656493
0
LINE
8
DEFAULT_255_2_778
10
9.7847451
20
5.2656493
11
10.3366451
21
5.3548493
0
LINE
8
DEFAULT_255_2_778
10
10.3366451
20
5.3548493
11
10.3366451
21
3.7292493
0
LINE
8
DEFAULT_255_2_778
10
10.3366451
20
3.7292493
11
10.3332451
21
3.7297493
0
LINE
8
DEFAULT_255_2_778
10
11.8696451
20
3.3429493
11
11.8696451
21
4.4285493
0
LINE
8
DEFAULT_255_2_778
10
11.8696451
20
4.4285493
11
12.4215451
21
4.4285493
0
LINE
8
DEFAULT_255_2_778
10
12.4215451
20
4.4285493
11
12.4215451
21
3.4114493
0
LINE
8
DEFAULT_255_2_778
10
12.9986451
20
2.9272493
11
12.9986451
21
4.4300493
0
LINE
8
DEFAULT_255_2_778
10
12.9986451
20
4.4300493
11
13.5505451
21
4.4300493
0
LINE
8
DEFAULT_255_2_778
10
13.5505451
20
4.4300493
11
13.5500451
21
2.5481493
0
LINE
8
DEFAULT_255_2_778
10
14.0654451
20
2.5449493
11
14.0654451
21
5.2661493
0
LINE
8
DEFAULT_255_2_778
10
14.0654451
20
5.2661493
11
14.6173451
21
5.3553493
0
LINE
8
DEFAULT_255_2_778
10
14.6173451
20
5.3553493
11
14.6173451
21
4.3843493
0
LINE
8
DEFAULT_255_2_778
10
15.8770451
20
3.4561493
11
15.8799451
21
3.4556493
0
LINE
8
DEFAULT_255_2_778
10
14.6205451
20
3.9242493
11
14.6205451
21
2.9225493
0
LINE
8
DEFAULT_255_2_778
10
15.3169451
20
3.4701493
11
15.3171451
21
3.4704493
0
LINE
8
DEFAULT_255_2_778
10
18.0302451
20
3.2714493
11
16.7787451
21
3.2714493
0
LINE
8
DEFAULT_255_2_778
10
17.8526451
20
2.9984493
11
17.9267451
21
2.5504493
0
LINE
8
DEFAULT_255_2_778
10
16.2112451
20
3.4405493
11
16.2125451
21
3.4408493
0
LINE
8
DEFAULT_255_2_778
10
16.7782451
20
3.6516493
11
17.5079451
21
3.6516493
0
LINE
8
DEFAULT_255_2_778
10
17.5079451
20
3.6516493
11
17.5084451
21
3.6524493
0
LINE
8
DEFAULT_255_2_778
10
19.0213451
20
3.9705493
11
19.0213451
21
2.4848493
0
LINE
8
DEFAULT_255_2_778
10
19.0213451
20
2.4848493
11
18.4691451
21
2.4848493
0
LINE
8
DEFAULT_255_2_778
10
18.4691451
20
2.4848493
11
18.4691451
21
4.3263493
0
LINE
8
DEFAULT_255_2_778
10
19.7325451
20
4.3946493
11
19.6410451
21
3.9408493
0
LINE
8
DEFAULT_255_2_778
10
21.7119451
20
3.5821493
11
21.7119451
21
2.4814493
0
LINE
8
DEFAULT_255_2_778
10
21.7119451
20
2.4814493
11
21.1594451
21
2.4814493
0
LINE
8
DEFAULT_255_2_778
10
21.1594451
20
2.4814493
11
21.1594451
21
3.5159493
0
LINE
8
DEFAULT_255_2_778
10
20.5824451
20
3.9850493
11
20.5824451
21
2.4822493
0
LINE
8
DEFAULT_255_2_778
10
20.5824451
20
2.4822493
11
20.0302451
21
2.4822493
0
LINE
8
DEFAULT_255_2_778
10
20.0302451
20
2.4822493
11
20.0302451
21
4.3634493
0
LINE
8
DEFAULT_255_2_778
10
20.0302451
20
4.3634493
11
20.0294451
21
4.3626493
0
LINE
8
DEFAULT_255_2_778
10
23.9325451
20
3.2717493
11
22.6810451
21
3.2717493
0
LINE
8
DEFAULT_255_2_778
10
23.7550451
20
2.9987493
11
23.8291451
21
2.5507493
0
LINE
8
DEFAULT_255_2_778
10
22.1169451
20
3.4410493
11
22.1177451
21
3.4410493
0
LINE
8
DEFAULT_255_2_778
10
22.6834451
20
3.6519493
11
23.4131451
21
3.6519493
0
LINE
8
DEFAULT_255_2_778
10
23.4131451
20
3.6519493
11
23.4137451
21
3.6527493
0
LINE
8
DEFAULT_255_2_778
10
24.3535451
20
4.9153493
11
24.9054451
21
5.0045493
0
LINE
8
DEFAULT_255_2_778
10
24.9054451
20
5.0045493
11
24.9054451
21
4.4330493
0
LINE
8
DEFAULT_255_2_778
10
24.9054451
20
4.4330493
11
25.5682451
21
4.4330493
0
LINE
8
DEFAULT_255_2_778
10
25.5682451
20
4.4330493
11
25.5682451
21
3.9758493
0
LINE
8
DEFAULT_255_2_778
10
25.5682451
20
3.9758493
11
24.9054451
21
3.9758493
0
LINE
8
DEFAULT_255_2_778
10
24.9054451
20
3.9758493
11
24.9054451
21
3.2905493
0
LINE
8
DEFAULT_255_2_778
10
25.5674451
20
2.9725493
11
25.6452451
21
2.5428493
0
LINE
8
DEFAULT_255_2_778
10
24.3524451
20
3.2828493
11
24.3524451
21
4.9153493
0
LINE
8
DEFAULT_255_2_778
10
24.3524451
20
4.9153493
11
24.3535451
21
4.9153493
0
LINE
8
DEFAULT_255_2_778
10
27.6785451
20
3.2738493
11
26.4270451
21
3.2738493
0
LINE
8
DEFAULT_255_2_778
10
27.5017451
20
3.0008493
11
27.5758451
21
2.5528493
0
LINE
8
DEFAULT_255_2_778
10
25.8603451
20
3.4413493
11
25.8616451
21
3.4416493
0
LINE
8
DEFAULT_255_2_778
10
26.4257451
20
3.6530493
11
27.1586451
21
3.6532493
0
LINE
8
DEFAULT_255_2_778
10
28.6228451
20
3.2516493
11
28.3847451
21
3.3516493
0
LINE
8
DEFAULT_255_2_778
10
29.4152451
20
4.3811493
11
29.3192451
21
3.9514493
0
LINE
8
DEFAULT_255_2_778
10
28.0007451
20
2.5475493
11
28.0933451
21
2.9955493
0
LINE
8
DEFAULT_255_2_778
10
28.6720451
20
2.8796493
11
28.6746451
21
2.8791493
0
ENDSEC
0
EOF