0
SECTION
2
HEADER
9
$MEASUREMENT
70
1
0
ENDSEC
0
SECTION
2
TABLES
0
TABLE
2
LTYPE
0
LTYPE
72
65
70
64
2
CONTINUOUS
3
______
73
0
40
0
0
ENDTAB
0
TABLE
2
LAYER
0
LAYER
2
DEFAULT_255_2_778
70
0
62
255
6
CONTINUOUS
0
ENDTAB
0
ENDSEC
0
SECTION
2
ENTITIES
0
ARC
8
DEFAULT_255_2_778
10
22.9378093
20
3.9644832
40
9.2999659
50
89.9718241
51
97.9871125
0
ARC
8
DEFAULT_255_2_778
10
22.8754647
20
4.4006573
40
8.8593603
50
97.979783
51
106.2088024
0
ARC
8
DEFAULT_255_2_778
10
22.7147572
20
4.9455798
40
8.2912387
50
106.1935262
51
114.966178
0
ARC
8
DEFAULT_255_2_778
10
22.4119031
20
5.591584
40
7.5777696
50
114.9519103
51
124.0312142
0
ARC
8
DEFAULT_255_2_778
10
21.9440224
20
6.2784201
40
6.7467201
50
124.0026458
51
134.3071747
0
ARC
8
DEFAULT_255_2_778
10
21.3089439
20
6.922169
40
5.8424465
50
134.260065
51
146.9969998
0
ARC
8
DEFAULT_255_2_778
10
20.4113329
20
7.4637386
40
4.7948143
50
146.5819838
51
179.7035374
0
ARC
8
DEFAULT_255_2_778
10
20.4232026
20
7.5158206
40
4.8066973
50
180.3250901
51
214.2576614
0
ARC
8
DEFAULT_255_2_778
10
21.3501132
20
8.0897774
40
5.896082
50
213.7971526
51
226.4475119
0
ARC
8
DEFAULT_255_2_778
10
21.9836374
20
8.7481589
40
6.809752
50
226.4011911
51
236.7075821
0
ARC
8
DEFAULT_255_2_778
10
22.3997267
20
9.367336
40
7.5557104
50
236.6474717
51
243.6862424
0
ARC
8
DEFAULT_255_2_778
10
18.4089508
20
-0.0687172
40
0.1045875
50
173.7614802
51
175.6697441
0
ARC
8
DEFAULT_255_2_778
10
18.4913061
20
-0.0755806
40
0.1872267
50
175.4783255
51
176.2703198
0
ARC
8
DEFAULT_255_2_778
10
18.5517921
20
-0.079187
40
0.2478194
50
176.3479582
51
179.5380458
0
ARC
8
DEFAULT_255_2_778
10
18.5863306
20
-0.0797265
40
0.2823612
50
179.4850904
51
179.9924762
0
ARC
8
DEFAULT_255_2_778
10
18.5700956
20
-0.0801952
40
0.2661267
50
179.891091
51
190.6421903
0
ARC
8
DEFAULT_255_2_778
10
18.5146588
20
-0.0899885
40
0.2098358
50
190.8095645
51
197.1753617
0
ARC
8
DEFAULT_255_2_778
10
18.439938
20
-0.1181666
40
0.1302168
50
195.0379197
51
238.1291354
0
ARC
8
DEFAULT_255_2_778
10
18.4561524
20
-0.082941
40
0.1687622
50
239.7689803
51
251.0766677
0
ARC
8
DEFAULT_255_2_778
10
18.4642982
20
-0.0550563
40
0.1977861
50
251.4641443
51
270.4230178
0
ARC
8
DEFAULT_255_2_778
10
18.4650027
20
-0.0025215
40
0.2503167
50
270.1729763
51
281.6722539
0
ARC
8
DEFAULT_255_2_778
10
18.4645686
20
0.0015044
40
0.2543475
50
281.584557
51
283.2280547
0
ARC
8
DEFAULT_255_2_778
10
18.4736738
20
-0.0344822
40
0.2172331
50
283.0621788
51
288.4108804
0
ARC
8
DEFAULT_255_2_778
10
18.5131549
20
-0.1531316
40
0.0921873
50
288.4187539
51
290.7278304
0
ARC
8
DEFAULT_255_2_778
10
18.5123332
20
-0.0636432
40
0.1788643
50
280.7783779
51
293.8910322
0
ARC
8
DEFAULT_255_2_778
10
18.2606677
20
0.544963
40
0.8374078
50
292.7700641
51
297.5788143
0
ARC
8
DEFAULT_255_2_778
10
17.5930716
20
1.8451873
40
2.2989925
50
297.3240522
51
299.5849832
0
ARC
8
DEFAULT_255_2_778
10
16.2756981
20
4.1721532
40
4.9729854
50
299.5477058
51
301.0814385
0
ARC
8
DEFAULT_255_2_778
10
14.1142458
20
7.7710921
40
9.1711055
50
301.0387597
51
301.9334068
0
ARC
8
DEFAULT_255_2_778
10
11.4218371
20
12.0990854
40
14.2682201
50
301.9162573
51
302.4812954
0
ARC
8
DEFAULT_255_2_778
10
7.302984
20
18.5619383
40
21.9319926
50
302.4912723
51
303.1161787
0
ARC
8
DEFAULT_255_2_778
10
1.2668778
20
27.8267754
40
32.9896489
50
303.1055689
51
303.5108572
0
ARC
8
DEFAULT_255_2_778
10
-7.3801264
20
40.8769767
40
48.6446296
50
303.5164624
51
303.9580426
0
ARC
8
DEFAULT_255_2_778
10
-19.6280918
20
59.075313
40
70.5807203
50
303.9529338
51
304.2705953
0
ARC
8
DEFAULT_255_2_778
10
-27.9302482
20
71.2797521
40
85.3412767
50
304.262843
51
304.3302907
0
ARC
8
DEFAULT_255_2_778
10
-38.5188198
20
86.7599787
40
104.0964122
50
304.3378724
51
304.6297559
0
ARC
8
DEFAULT_255_2_778
10
-52.0649935
20
106.3945929
40
127.9504849
50
304.6246363
51
304.7615707
0
ARC
8
DEFAULT_255_2_778
10
-59.2841674
20
116.7999238
40
140.6148988
50
304.760776
51
304.8546166
0
ARC
8
DEFAULT_255_2_778
10
-63.6088425
20
123.0106302
40
148.1829689
50
304.8544058
51
304.9312004
0
ARC
8
DEFAULT_255_2_778
10
-65.5765769
20
125.8284939
40
151.6198766
50
304.9311023
51
304.9907182
0
ARC
8
DEFAULT_255_2_778
10
-66.3705073
20
126.9627557
40
153.0043894
50
304.9907138
51
305.0298033
0
ARC
8
DEFAULT_255_2_778
10
-66.6432267
20
127.3514973
40
153.4792536
50
305.02987
51
305.0734097
0
ARC
8
DEFAULT_255_2_778
10
-70.4620827
20
132.7910051
40
160.1254484
50
305.0733148
51
305.0953547
0
ARC
8
DEFAULT_255_2_778
10
-91.1139678
20
162.1811406
40
196.045922
50
305.0952857
51
305.1099726
0
ARC
8
DEFAULT_255_2_778
10
22.9359354
20
10.9987691
40
9.2836235
50
261.9842818
51
270.0410255
0
ARC
8
DEFAULT_255_2_778
10
22.9471579
20
11.0154813
40
9.3003343
50
269.9718142
51
277.9869449
0
ARC
8
DEFAULT_255_2_778
10
23.0095336
20
10.579071
40
8.8594904
50
277.9796207
51
286.2086077
0
ARC
8
DEFAULT_255_2_778
10
23.1702877
20
10.0339897
40
8.2912033
50
286.1933151
51
294.9660253
0
ARC
8
DEFAULT_255_2_778
10
23.4731755
20
9.3879184
40
7.5776591
50
294.9517259
51
304.0311186
0
ARC
8
DEFAULT_255_2_778
10
23.941041
20
8.701098
40
6.746631
50
304.00257
51
314.3071232
0
ARC
8
DEFAULT_255_2_778
10
24.5761321
20
8.0573328
40
5.842337
50
314.2600278
51
326.9969948
0
ARC
8
DEFAULT_255_2_778
10
25.4737438
20
7.5157613
40
4.7947031
50
326.5819831
51
359.703485
0
ARC
8
DEFAULT_255_2_778
10
25.461041
20
7.4632717
40
4.8074214
50
0.3298539
51
34.4355334
0
ARC
8
DEFAULT_255_2_778
10
24.5400955
20
6.89145
40
5.890541
50
33.9573841
51
46.2575941
0
ARC
8
DEFAULT_255_2_778
10
23.9144916
20
6.2439832
40
6.7908617
50
46.2213037
51
56.5788473
0
ARC
8
DEFAULT_255_2_778
10
23.4457694
20
5.5399555
40
7.6366424
50
56.5529943
51
65.8794813
0
ARC
8
DEFAULT_255_2_778
10
23.1540668
20
4.8964842
40
8.3431378
50
65.8569959
51
74.3247714
0
ARC
8
DEFAULT_255_2_778
10
23.0021704
20
4.3608826
40
8.8998599
50
74.3148824
51
82.6975674
0
ARC
8
DEFAULT_255_2_778
10
22.9462137
20
3.9409241
40
9.3235248
50
82.6845194
51
90.0235427
0
LINE
8
DEFAULT_255_2_778
10
19.0503827
20
2.594548
11
18.3049827
21
-0.057352
0
LINE
8
DEFAULT_255_2_778
10
22.9423827
20
13.264448
11
22.9423827
21
13.264448
0
ARC
8
DEFAULT_255_2_778
10
18.8833599
20
5.8862543
40
0.4139221
50
181.429825
51
271.2191181
0
ARC
8
DEFAULT_255_2_778
10
17.810793
20
8.8049553
40
0.4154297
50
180.2247267
51
269.9273827
0
ARC
8
DEFAULT_255_2_778
10
17.810793
20
8.8016966
40
0.4154297
50
90.0726105
51
179.7752899
0
ARC
8
DEFAULT_255_2_778
10
19.9740896
20
8.8018467
40
0.4152795
50
0.2040822
51
89.9342062
0
ARC
8
DEFAULT_255_2_778
10
19.9740898
20
8.804805
40
0.4152793
50
270.0657653
51
359.7959296
0
ARC
8
DEFAULT_255_2_778
10
18.9005939
20
5.886235
40
0.413901
50
268.7917923
51
358.5727793
0
ARC
8
DEFAULT_255_2_778
10
22.5877964
20
5.9715409
40
0.4939238
50
245.2239132
51
271.2030342
0
ARC
8
DEFAULT_255_2_778
10
22.4847122
20
5.7566234
40
0.2556134
50
201.1185957
51
246.0150515
0
ARC
8
DEFAULT_255_2_778
10
20.288961
20
5.7656446
40
0.2705173
50
286.6008606
51
337.9357704
0
ARC
8
DEFAULT_255_2_778
10
20.1947707
20
6.0040139
40
0.5263282
50
269.2919397
51
289.0140622
0
ARC
8
DEFAULT_255_2_778
10
20.1883627
20
6.125606
40
0.6478801
50
245.5073176
51
269.9914917
0
ARC
8
DEFAULT_255_2_778
10
20.0220185
20
5.7631328
40
0.2490643
50
210.5149286
51
245.7609438
0
ARC
8
DEFAULT_255_2_778
10
20.0881817
20
5.7972402
40
0.3234096
50
187.539931
51
209.7687444
0
ARC
8
DEFAULT_255_2_778
10
20.2635849
20
5.826875
40
0.5012252
50
179.768437
51
188.2672719
0
ARC
8
DEFAULT_255_2_778
10
20.4736827
20
5.8260684
40
0.7113247
50
172.4572007
51
179.7718605
0
ARC
8
DEFAULT_255_2_778
10
20.7817653
20
5.7860798
40
1.021991
50
166.7567107
51
172.5019631
0
ARC
8
DEFAULT_255_2_778
10
21.1871903
20
5.6917166
40
1.4382517
50
162.3278698
51
166.7974909
0
ARC
8
DEFAULT_255_2_778
10
21.4574021
20
5.609312
40
1.7207311
50
162.1757114
51
162.4448166
0
ARC
8
DEFAULT_255_2_778
10
21.3256457
20
8.6219922
40
0.5256422
50
158.4899221
51
160.5611827
0
ARC
8
DEFAULT_255_2_778
10
21.4468464
20
8.5637131
40
0.6598428
50
125.7601233
51
157.6406621
0
ARC
8
DEFAULT_255_2_778
10
21.4108308
20
8.6270796
40
0.5874274
50
91.7719715
51
126.5214566
0
ARC
8
DEFAULT_255_2_778
10
21.3694511
20
8.6055624
40
0.609106
50
42.6261068
51
87.8157086
0
ARC
8
DEFAULT_255_2_778
10
21.3561796
20
8.5741979
40
0.6402664
50
22.070474
51
43.8870916
0
ARC
8
DEFAULT_255_2_778
10
21.4596107
20
8.6216196
40
0.5266204
50
19.4211622
51
21.5174594
0
ARC
8
DEFAULT_255_2_778
10
21.5841136
20
5.6859227
40
1.4546019
50
13.5918817
51
18.0706929
0
ARC
8
DEFAULT_255_2_778
10
21.9877384
20
5.7828473
40
1.0395034
50
7.9796376
51
13.6273477
0
ARC
8
DEFAULT_255_2_778
10
22.3010458
20
5.8259476
40
0.7232469
50
0.5099918
51
8.0438628
0
ARC
8
DEFAULT_255_2_778
10
22.4473393
20
5.8296253
40
0.5769314
50
359.996289
51
0.2740869
0
ARC
8
DEFAULT_255_2_778
10
22.581648
20
5.8236303
40
0.4426627
50
344.2077005
51
0.771138
0
ARC
8
DEFAULT_255_2_778
10
22.7472334
20
5.7758888
40
0.2703361
50
316.7077694
51
344.3932202
0
ARC
8
DEFAULT_255_2_778
10
22.7652737
20
5.7635861
40
0.2487924
50
294.1260381
51
315.9210807
0
ARC
8
DEFAULT_255_2_778
10
22.598216
20
6.1279309
40
0.649605
50
270.0132703
51
294.4383352
0
ARC
8
DEFAULT_255_2_778
10
23.638843
20
5.9308282
40
0.3967855
50
181.3433763
51
271.1731179
0
ARC
8
DEFAULT_255_2_778
10
23.6697497
20
8.7871276
40
0.4276136
50
89.5153819
51
179.3168636
0
ARC
8
DEFAULT_255_2_778
10
23.6771889
20
8.7872363
40
0.4275067
50
0.6687318
51
90.5123031
0
ARC
8
DEFAULT_255_2_778
10
25.0111094
20
5.9126414
40
0.3967681
50
1.3553072
51
91.1759746
0
ARC
8
DEFAULT_255_2_778
10
25.0108396
20
5.9315901
40
0.3970422
50
268.8637926
51
358.6196952
0
ARC
8
DEFAULT_255_2_778
10
25.9956239
20
5.9012834
40
0.4232581
50
180.1025359
51
269.8974737
0
ARC
8
DEFAULT_255_2_778
10
25.9957097
20
8.790883
40
0.4233438
50
90.1141144
51
179.8994587
0
ARC
8
DEFAULT_255_2_778
10
25.9940234
20
8.7908831
40
0.4233437
50
0.1005365
51
89.8858876
0
ARC
8
DEFAULT_255_2_778
10
27.8265861
20
8.8281984
40
0.3283584
50
90.0043744
51
134.4437915
0
ARC
8
DEFAULT_255_2_778
10
27.8265449
20
8.8267953
40
0.3297615
50
89.2143504
51
89.997196
0
ARC
8
DEFAULT_255_2_778
10
27.8313646
20
8.9021949
40
0.2543312
50
89.7983447
51
90.067158
0
ARC
8
DEFAULT_255_2_778
10
27.8245597
20
8.7397444
40
0.4168507
50
44.4435443
51
88.9415774
0
ARC
8
DEFAULT_255_2_778
10
27.8298373
20
8.7332165
40
0.4177374
50
4.1745705
51
45.5896977
0
ARC
8
DEFAULT_255_2_778
10
27.8734599
20
8.7405194
40
0.3737216
50
0.007918
51
3.5447521
0
ARC
8
DEFAULT_255_2_778
10
27.9187751
20
8.7360905
40
0.3284368
50
315.5830805
51
0.7816584
0
ARC
8
DEFAULT_255_2_778
10
27.8957457
20
5.9105507
40
0.4203084
50
0.0203833
51
37.1926589
0
ARC
8
DEFAULT_255_2_778
10
27.8974026
20
5.9106959
40
0.4186515
50
355.1779274
51
0.0005905
0
ARC
8
DEFAULT_255_2_778
10
27.8972652
20
5.9107008
40
0.4187889
50
351.8907359
51
355.1788436
0
ARC
8
DEFAULT_255_2_778
10
27.8950308
20
5.9095203
40
0.420837
50
306.9096466
51
352.0927676
0
ARC
8
DEFAULT_255_2_778
10
27.8949844
20
5.9054071
40
0.4175835
50
269.9796604
51
307.2536684
0
ARC
8
DEFAULT_255_2_778
10
27.8949047
20
5.9568029
40
0.4689793
50
269.8242947
51
269.9916301
0
ARC
8
DEFAULT_255_2_778
10
27.891818
20
5.9401798
40
0.4523569
50
270.0072059
51
270.2087988
0
ARC
8
DEFAULT_255_2_778
10
27.891609
20
5.9073033
40
0.4194805
50
216.8338979
51
270.0363153
0
ARC
8
DEFAULT_255_2_778
10
25.9947818
20
5.9011106
40
0.4233851
50
270.0791273
51
359.9208727
0
LINE
8
DEFAULT_255_2_778
10
18.4695665
20
5.8759259
11
18.4695665
21
8.3895259
0
LINE
8
DEFAULT_255_2_778
10
18.4695665
20
8.3895259
11
17.8102665
21
8.3895259
0
LINE
8
DEFAULT_255_2_778
10
17.8102665
20
9.2171259
11
19.9745665
21
9.2171259
0
LINE
8
DEFAULT_255_2_778
10
19.9745665
20
8.3895259
11
19.3143665
21
8.3895259
0
LINE
8
DEFAULT_255_2_778
10
19.3143665
20
8.3895259
11
19.3143665
21
5.8759259
0
LINE
8
DEFAULT_255_2_778
10
18.8918665
20
5.4724259
11
18.8921665
21
5.4724259
0
LINE
8
DEFAULT_255_2_778
10
22.2462665
20
5.6645259
11
22.0372665
21
6.2122259
0
LINE
8
DEFAULT_255_2_778
10
22.0372665
20
6.2122259
11
20.7486665
21
6.2122259
0
LINE
8
DEFAULT_255_2_778
10
20.7486665
20
6.2122259
11
20.5396665
21
5.6640259
0
LINE
8
DEFAULT_255_2_778
10
19.8192665
20
6.1360259
11
20.8299665
21
8.7969259
0
LINE
8
DEFAULT_255_2_778
10
21.9562665
20
8.7967259
11
22.9669665
21
6.1371259
0
LINE
8
DEFAULT_255_2_778
10
22.5983665
20
5.4783259
11
22.5981665
21
5.4777259
0
LINE
8
DEFAULT_255_2_778
10
21.8149665
20
6.9610259
11
21.3929665
21
8.1603259
0
LINE
8
DEFAULT_255_2_778
10
21.3929665
20
8.1603259
11
20.9709665
21
6.9610259
0
LINE
8
DEFAULT_255_2_778
10
20.9709665
20
6.9610259
11
21.8149665
21
6.9610259
0
LINE
8
DEFAULT_255_2_778
10
23.2421665
20
5.9215259
11
23.2421665
21
8.7922259
0
LINE
8
DEFAULT_255_2_778
10
24.1046665
20
8.7922259
11
24.1046665
21
6.3093259
0
LINE
8
DEFAULT_255_2_778
10
24.1046665
20
6.3093259
11
25.0029665
21
6.3093259
0
LINE
8
DEFAULT_255_2_778
10
25.0029665
20
5.5346259
11
23.6469665
21
5.5341259
0
LINE
8
DEFAULT_255_2_778
10
25.5723665
20
5.9005259
11
25.5723665
21
8.7916259
0
LINE
8
DEFAULT_255_2_778
10
26.4173665
20
8.7916259
11
26.4173665
21
7.8833259
0
LINE
8
DEFAULT_255_2_778
10
26.4173665
20
7.8833259
11
27.5966665
21
9.0626259
0
LINE
8
DEFAULT_255_2_778
10
28.1533665
20
8.5062259
11
27.1902665
21
7.5431259
0
LINE
8
DEFAULT_255_2_778
10
27.1902665
20
7.5431259
11
28.2305665
21
6.1646259
0
LINE
8
DEFAULT_255_2_778
10
27.5558665
20
5.6558259
11
26.5647665
21
6.9692259
0
LINE
8
DEFAULT_255_2_778
10
26.5647665
20
6.9692259
11
26.4181665
21
6.8226259
0
LINE
8
DEFAULT_255_2_778
10
26.4181665
20
6.8226259
11
26.4181665
21
5.9005259
0
LINE
8
DEFAULT_255_2_778
10
25.9953665
20
5.4777259
11
25.9948665
21
5.4780259
0
ARC
8
DEFAULT_255_2_778
10
10.3590443
20
7.4552162
40
0.6404245
50
90.0086426
51
162.6832866
0
ARC
8
DEFAULT_255_2_778
10
10.3589284
20
7.4551856
40
0.6404552
50
17.3187309
51
89.998278
0
ARC
8
DEFAULT_255_2_778
10
4.4762088
20
7.4554003
40
0.6402404
50
89.996525
51
162.6954043
0
ARC
8
DEFAULT_255_2_778
10
4.4762864
20
7.4554002
40
0.6402405
50
17.3046003
51
90.0034631
0
ARC
8
DEFAULT_255_2_778
10
11.927485
20
6.5295991
40
2.5096836
50
349.9908841
51
0.2338162
0
ARC
8
DEFAULT_255_2_778
10
12.5462226
20
6.4174739
40
1.8808774
50
336.4315323
51
350.0785855
0
ARC
8
DEFAULT_255_2_778
10
12.9769235
20
6.2254663
40
1.4093362
50
315.5350603
51
336.5851026
0
ARC
8
DEFAULT_255_2_778
10
13.0985046
20
6.1234313
40
1.2511543
50
276.3152908
51
314.969769
0
ARC
8
DEFAULT_255_2_778
10
13.0493434
20
6.4004042
40
1.5319646
50
269.9328376
51
277.0033174
0
ARC
8
DEFAULT_255_2_778
10
13.038756
20
6.1329526
40
1.2645424
50
249.4029738
51
270.3983482
0
ARC
8
DEFAULT_255_2_778
10
13.0656122
20
6.1304671
40
1.2719296
50
205.3317983
51
248.2310631
0
ARC
8
DEFAULT_255_2_778
10
13.5546363
20
6.3972063
40
1.8283361
50
188.8797245
51
206.3301839
0
ARC
8
DEFAULT_255_2_778
10
13.947794
20
6.4693901
40
2.2279494
50
179.903545
51
189.1531073
0
ARC
8
DEFAULT_255_2_778
10
13.7822279
20
6.4813674
40
2.0623967
50
160.9557393
51
180.2285458
0
ARC
8
DEFAULT_255_2_778
10
13.3779747
20
6.6288196
40
1.6321734
50
137.4190401
51
161.2181248
0
ARC
8
DEFAULT_255_2_778
10
13.0876161
20
6.8986574
40
1.2357971
50
94.4361064
51
137.5220489
0
ARC
8
DEFAULT_255_2_778
10
13.0947248
20
6.8106729
40
1.3240678
50
89.9817003
51
94.448309
0
ARC
8
DEFAULT_255_2_778
10
13.1041211
20
6.8291816
40
1.3055899
50
70.228501
51
90.3938026
0
ARC
8
DEFAULT_255_2_778
10
13.0879549
20
6.8596328
40
1.2826563
50
23.8266052
51
69.0887318
0
ARC
8
DEFAULT_255_2_778
10
12.5894802
20
6.6018718
40
1.8430964
50
7.2902981
51
24.8967865
0
ARC
8
DEFAULT_255_2_778
10
12.2186664
20
6.5424661
40
2.2184828
50
359.9321968
51
7.596872
0
ARC
8
DEFAULT_255_2_778
10
14.2802542
20
6.4860051
40
1.8870382
50
179.6679627
51
191.2357607
0
ARC
8
DEFAULT_255_2_778
10
13.643269
20
6.3553917
40
1.2368185
50
191.0506592
51
206.3336322
0
ARC
8
DEFAULT_255_2_778
10
13.193562
20
6.1249916
40
0.731608
50
205.7852793
51
232.5618145
0
ARC
8
DEFAULT_255_2_778
10
13.0753669
20
5.9869514
40
0.550241
50
233.5961506
51
270.6019568
0
ARC
8
DEFAULT_255_2_778
10
13.0714991
20
6.004773
40
0.5681142
50
270.9731288
51
331.1365772
0
ARC
8
DEFAULT_255_2_778
10
12.5980158
20
6.3251055
40
1.138597
50
328.5201077
51
345.655904
0
ARC
8
DEFAULT_255_2_778
10
11.9684382
20
6.493713
40
1.7903345
50
345.4198284
51
358.6287651
0
ARC
8
DEFAULT_255_2_778
10
11.6085974
20
6.5160456
40
2.1506504
50
358.2633774
51
0.0051997
0
ARC
8
DEFAULT_255_2_778
10
11.872955
20
6.5276157
40
1.8863269
50
359.6544918
51
11.7508094
0
ARC
8
DEFAULT_255_2_778
10
12.5379489
20
6.6711048
40
1.2060578
50
11.5107944
51
27.838877
0
ARC
8
DEFAULT_255_2_778
10
13.0013291
20
6.9258872
40
0.6773857
50
27.0858446
51
58.4376177
0
ARC
8
DEFAULT_255_2_778
10
13.0823182
20
7.0299634
40
0.5465068
50
59.9613528
51
90.5945136
0
ARC
8
DEFAULT_255_2_778
10
13.0809816
20
7.0001675
40
0.5762895
50
90.4308885
51
152.319416
0
ARC
8
DEFAULT_255_2_778
10
13.5565848
20
6.6939081
40
1.1408391
50
149.7938776
51
166.4135501
0
ARC
8
DEFAULT_255_2_778
10
14.2131551
20
6.5267988
40
1.8183109
50
166.1552724
51
177.991972
0
ARC
8
DEFAULT_255_2_778
10
14.6568178
20
6.4974847
40
2.2627702
50
177.6437962
51
180.0137745
0
LINE
8
DEFAULT_255_2_778
10
0.1586477
20
8.0992407
11
0.8730477
21
8.0992407
0
LINE
8
DEFAULT_255_2_778
10
0.8730477
20
8.0992407
11
0.8730477
21
6.6954407
0
LINE
8
DEFAULT_255_2_778
10
0.8730477
20
6.6954407
11
1.0878477
21
7.0441407
0
LINE
8
DEFAULT_255_2_778
10
1.0878477
20
7.0441407
11
1.8088477
21
8.1024407
0
LINE
8
DEFAULT_255_2_778
10
1.8088477
20
8.1024407
11
2.6872477
21
8.1024407
0
LINE
8
DEFAULT_255_2_778
10
2.6872477
20
8.1024407
11
1.6368477
21
6.7509407
0
LINE
8
DEFAULT_255_2_778
10
1.6368477
20
6.7509407
11
2.7446477
21
4.9266407
0
LINE
8
DEFAULT_255_2_778
10
2.7446477
20
4.9266407
11
1.9207477
21
4.9266407
0
LINE
8
DEFAULT_255_2_778
10
1.9207477
20
4.9266407
11
1.1423477
21
6.2972407
0
LINE
8
DEFAULT_255_2_778
10
1.1423477
20
6.2972407
11
0.8698477
21
5.9630407
0
LINE
8
DEFAULT_255_2_778
10
0.8698477
20
5.9630407
11
0.8698477
21
4.9266407
0
LINE
8
DEFAULT_255_2_778
10
0.8698477
20
4.9266407
11
0.1586477
21
4.9266407
0
LINE
8
DEFAULT_255_2_778
10
0.1586477
20
4.9266407
11
0.1586477
21
8.0992407
0
LINE
8
DEFAULT_255_2_778
10
6.1948477
20
8.0992407
11
6.9092477
21
8.0992407
0
LINE
8
DEFAULT_255_2_778
10
6.9092477
20
8.0992407
11
6.9092477
21
6.6954407
0
LINE
8
DEFAULT_255_2_778
10
6.9092477
20
6.6954407
11
7.1240477
21
7.0441407
0
LINE
8
DEFAULT_255_2_778
10
7.1240477
20
7.0441407
11
7.8450477
21
8.1024407
0
LINE
8
DEFAULT_255_2_778
10
7.8450477
20
8.1024407
11
8.7234477
21
8.1024407
0
LINE
8
DEFAULT_255_2_778
10
8.7234477
20
8.1024407
11
7.6871477
21
6.7509407
0
LINE
8
DEFAULT_255_2_778
10
7.6871477
20
6.7509407
11
8.7949477
21
4.9266407
0
LINE
8
DEFAULT_255_2_778
10
8.7949477
20
4.9266407
11
7.9588477
21
4.9266407
0
LINE
8
DEFAULT_255_2_778
10
7.9588477
20
4.9266407
11
7.1804477
21
6.2972407
0
LINE
8
DEFAULT_255_2_778
10
7.1804477
20
6.2972407
11
6.9079477
21
5.9630407
0
LINE
8
DEFAULT_255_2_778
10
6.9079477
20
5.9630407
11
6.9079477
21
4.9266407
0
LINE
8
DEFAULT_255_2_778
10
6.9079477
20
4.9266407
11
6.1935477
21
4.9266407
0
LINE
8
DEFAULT_255_2_778
10
6.1935477
20
4.9266407
11
6.1948477
21
8.0992407
0
LINE
8
DEFAULT_255_2_778
10
9.8863477
20
5.7402407
11
9.6619477
21
4.9237407
0
LINE
8
DEFAULT_255_2_778
10
9.6619477
20
4.9237407
11
8.9168477
21
4.9237407
0
LINE
8
DEFAULT_255_2_778
10
8.9168477
20
4.9237407
11
9.7476477
21
7.6458407
0
LINE
8
DEFAULT_255_2_778
10
10.9703477
20
7.6458407
11
11.8156477
21
4.9190407
0
LINE
8
DEFAULT_255_2_778
10
11.8156477
20
4.9190407
11
11.0277477
21
4.9190407
0
LINE
8
DEFAULT_255_2_778
10
11.0277477
20
4.9190407
11
10.7843477
21
5.7355407
0
LINE
8
DEFAULT_255_2_778
10
10.7843477
20
5.7355407
11
9.8863477
21
5.7402407
0
LINE
8
DEFAULT_255_2_778
10
10.6933477
20
6.2752407
11
10.4927477
21
6.9533407
0
LINE
8
DEFAULT_255_2_778
10
10.4927477
20
6.9533407
11
10.3302477
21
7.5619407
0
LINE
8
DEFAULT_255_2_778
10
10.3302477
20
7.5619407
11
10.1821477
21
6.9533407
0
LINE
8
DEFAULT_255_2_778
10
10.1821477
20
6.9533407
11
9.9958477
21
6.2800407
0
LINE
8
DEFAULT_255_2_778
10
9.9958477
20
6.2800407
11
10.6933477
21
6.2752407
0
LINE
8
DEFAULT_255_2_778
10
3.9982477
20
5.7402407
11
3.7739477
21
4.9237407
0
LINE
8
DEFAULT_255_2_778
10
3.7739477
20
4.9237407
11
3.0288477
21
4.9237407
0
LINE
8
DEFAULT_255_2_778
10
3.0288477
20
4.9237407
11
3.8649477
21
7.6458407
0
LINE
8
DEFAULT_255_2_778
10
5.0875477
20
7.6458407
11
5.9329477
21
4.9190407
0
LINE
8
DEFAULT_255_2_778
10
5.9329477
20
4.9190407
11
5.1539477
21
4.9190407
0
LINE
8
DEFAULT_255_2_778
10
5.1539477
20
4.9190407
11
4.9105477
21
5.7355407
0
LINE
8
DEFAULT_255_2_778
10
4.9105477
20
5.7355407
11
3.9982477
21
5.7402407
0
LINE
8
DEFAULT_255_2_778
10
4.8195477
20
6.2752407
11
4.6047477
21
6.9533407
0
LINE
8
DEFAULT_255_2_778
10
4.6047477
20
6.9533407
11
4.4422477
21
7.5619407
0
LINE
8
DEFAULT_255_2_778
10
4.4422477
20
7.5619407
11
4.2940477
21
6.9533407
0
LINE
8
DEFAULT_255_2_778
10
4.2940477
20
6.9533407
11
4.1078477
21
6.2800407
0
LINE
8
DEFAULT_255_2_778
10
4.1078477
20
6.2800407
11
4.8195477
21
6.2752407
0
LINE
8
DEFAULT_255_2_778
10
14.4371477
20
6.5398407
11
14.4371477
21
6.5398407
0
LINE
8
DEFAULT_255_2_778
10
12.3940477
20
6.4969407
11
12.3932477
21
6.4969407
0
ENDSEC
0
EOF