0
SECTION
2
HEADER
9
$MEASUREMENT
70
1
0
ENDSEC
0
SECTION
2
TABLES
0
TABLE
2
LTYPE
0
LTYPE
72
65
70
64
2
CONTINUOUS
3
______
73
0
40
0
0
ENDTAB
0
TABLE
2
LAYER
0
LAYER
2
DEFAULT_255_2_778
70
0
62
255
6
CONTINUOUS
0
LAYER
2
DEFAULT_255_1_234
70
0
62
255
6
CONTINUOUS
0
ENDTAB
0
ENDSEC
0
SECTION
2
ENTITIES
0
ARC
8
DEFAULT_255_2_778
10
3.7023693
20
67.8676531
40
0.7914215
50
129.1312896
51
180.1450914
0
ARC
8
DEFAULT_255_2_778
10
3.7026345
20
67.8681402
40
0.7912112
50
89.854026
51
129.1684493
0
ARC
8
DEFAULT_255_2_778
10
25.9316937
20
67.8678268
40
0.7915249
50
39.4792447
51
90.147911
0
ARC
8
DEFAULT_255_2_778
10
25.9322935
20
67.8676734
40
0.7911595
50
359.8533901
51
39.5154338
0
ARC
8
DEFAULT_255_2_778
10
25.9319693
20
-1.9863991
40
0.7914836
50
309.4761667
51
0.1482649
0
ARC
8
DEFAULT_255_2_778
10
25.931698
20
-1.9868302
40
0.7913235
50
269.8517415
51
309.511178
0
ARC
8
DEFAULT_255_2_778
10
3.702642
20
-1.986772
40
0.7913815
50
219.1282118
51
270.1454017
0
ARC
8
DEFAULT_255_2_778
10
3.7023247
20
-1.9863896
40
0.7913769
50
179.8524075
51
219.1641908
0
LINE
8
DEFAULT_255_2_778
10
3.7046503
20
68.659349
11
25.9296503
21
68.659349
0
LINE
8
DEFAULT_255_2_778
10
26.7234503
20
67.865649
11
26.7234503
21
-1.984351
0
LINE
8
DEFAULT_255_2_778
10
25.9296503
20
-2.778151
11
3.7046503
21
-2.778151
0
LINE
8
DEFAULT_255_2_778
10
2.9109503
20
-1.984351
11
2.9109503
21
67.865649
0
LINE
8
DEFAULT_255_1_234
10
11.1858392
20
-0.6513
11
10.7802364
21
-0.6513
0
LINE
8
DEFAULT_255_1_234
10
10.7802364
20
-0.6513
11
10.7802364
21
0.5181211
0
LINE
8
DEFAULT_255_1_234
10
10.7802364
20
0.5181211
11
11.1625471
21
0.5181211
0
LINE
8
DEFAULT_255_1_234
10
11.1914614
20
-0.1043386
11
10.9344458
21
-0.1043386
0
LINE
8
DEFAULT_255_1_234
10
10.9344458
20
-0.1043386
11
10.9344458
21
-0.5252017
0
LINE
8
DEFAULT_255_1_234
10
10.9344458
20
-0.5252017
11
11.1890519
21
-0.5252017
0
LINE
8
DEFAULT_255_1_234
10
10.9344458
20
0.3912196
11
10.9344458
21
0.0193501
0
LINE
8
DEFAULT_255_1_234
10
10.9344458
20
0.0193501
11
11.1673662
21
0.0193501
0
LINE
8
DEFAULT_255_1_234
10
11.1625471
20
0.3912196
11
10.9344458
21
0.3912196
0
ARC
8
DEFAULT_255_1_234
10
11.166318
20
-0.2186099
40
0.7367406
50
82.1257326
51
90.2932599
0
ARC
8
DEFAULT_255_1_234
10
11.2052135
20
0.0532013
40
0.4621653
50
69.9044149
51
82.2857423
0
ARC
8
DEFAULT_255_1_234
10
11.2622813
20
0.2074637
40
0.2976871
50
51.1838526
51
70.0181538
0
ARC
8
DEFAULT_255_1_234
10
11.2877779
20
0.244524
40
0.2528517
50
12.1017251
51
50.4214761
0
ARC
8
DEFAULT_255_1_234
10
11.1493653
20
0.2097676
40
0.3955061
50
359.5251267
51
12.8211707
0
ARC
8
DEFAULT_255_1_234
10
11.3073579
20
0.2028344
40
0.2375281
50
323.4908128
51
0.8817314
0
ARC
8
DEFAULT_255_1_234
10
11.2655266
20
0.235155
40
0.2903817
50
298.6825083
51
323.2756573
0
ARC
8
DEFAULT_255_1_234
10
11.2293629
20
0.2952649
40
0.3604842
50
293.1999386
51
299.1396394
0
ARC
8
DEFAULT_255_1_234
10
11.2966602
20
-0.3132874
40
0.2871098
50
54.0011765
51
74.9167975
0
ARC
8
DEFAULT_255_1_234
10
11.3082961
20
-0.2935668
40
0.2643248
50
36.3580696
51
53.5291921
0
ARC
8
DEFAULT_255_1_234
10
11.2956203
20
-0.3026002
40
0.2798884
50
4.8189881
51
36.3089977
0
ARC
8
DEFAULT_255_1_234
10
11.2177038
20
-0.313573
40
0.358478
50
359.9370252
51
5.5204067
0
ARC
8
DEFAULT_255_1_234
10
11.185256
20
-0.3176333
40
0.3909429
50
344.7478609
51
0.5373281
0
ARC
8
DEFAULT_255_1_234
10
11.2843531
20
-0.3443456
40
0.2883093
50
311.1786488
51
344.6886812
0
ARC
8
DEFAULT_255_1_234
10
11.2551578
20
-0.3080013
40
0.3348923
50
286.0418249
51
310.8441291
0
ARC
8
DEFAULT_255_1_234
10
11.204441
20
-0.1433193
40
0.5071869
50
274.1042341
51
286.4071509
0
ARC
8
DEFAULT_255_1_234
10
11.1867666
20
0.0450229
40
0.6963234
50
269.9236873
51
274.445647
0
ARC
8
DEFAULT_255_1_234
10
11.1913667
20
-0.1889463
40
0.3362634
50
269.6055768
51
281.3740047
0
ARC
8
DEFAULT_255_1_234
10
11.2144305
20
-0.2982647
40
0.224546
50
281.1055983
51
302.5132223
0
ARC
8
DEFAULT_255_1_234
10
11.2291204
20
-0.3246177
40
0.1944357
50
303.0368945
51
311.8811219
0
ARC
8
DEFAULT_255_1_234
10
11.2362611
20
-0.333111
40
0.1833454
50
311.9916004
51
351.7143462
0
ARC
8
DEFAULT_255_1_234
10
11.1545841
20
-0.316607
40
0.2665871
50
350.7339597
51
0.2221581
0
ARC
8
DEFAULT_255_1_234
10
11.1438287
20
-0.3109533
40
0.2773789
50
359.0456241
51
17.2296242
0
ARC
8
DEFAULT_255_1_234
10
11.2477404
20
-0.2800837
40
0.1689915
50
17.6685481
51
78.9940892
0
ARC
8
DEFAULT_255_1_234
10
11.1960568
20
-0.4655776
40
0.3612658
50
76.5635957
51
90.6980921
0
LINE
8
DEFAULT_255_1_234
10
11.1916552
20
-0.1043387
11
11.1914614
21
-0.1043386
0
ARC
8
DEFAULT_255_1_234
10
11.1696228
20
0.3479036
40
0.3285612
50
269.6064736
51
281.4533503
0
ARC
8
DEFAULT_255_1_234
10
11.1919048
20
0.2427688
40
0.2210975
50
281.2041486
51
302.5148063
0
ARC
8
DEFAULT_255_1_234
10
11.2055898
20
0.2181241
40
0.1929674
50
303.021671
51
309.8369575
0
ARC
8
DEFAULT_255_1_234
10
11.2239359
20
0.1975488
40
0.1654181
50
309.5228395
51
356.9509836
0
ARC
8
DEFAULT_255_1_234
10
11.1575942
20
0.2070932
40
0.2322512
50
355.4701227
51
0.0492546
0
ARC
8
DEFAULT_255_1_234
10
11.1297033
20
0.2093094
40
0.2601498
50
359.5558597
51
11.2096359
0
ARC
8
DEFAULT_255_1_234
10
11.2254323
20
0.229123
40
0.1623975
50
10.9182341
51
31.3230275
0
ARC
8
DEFAULT_255_1_234
10
11.2540056
20
0.2450214
40
0.1297302
50
31.8852677
51
52.1412565
0
ARC
8
DEFAULT_255_1_234
10
11.2265789
20
0.206275
40
0.1771663
50
52.8285564
51
71.9850297
0
ARC
8
DEFAULT_255_1_234
10
11.1889965
20
0.0956664
40
0.2939794
50
71.6863486
51
82.8455995
0
ARC
8
DEFAULT_255_1_234
10
11.1650501
20
-0.0852851
40
0.476506
50
82.6984714
51
90.1729175
0
ARC
8
DEFAULT_255_1_234
10
11.1628136
20
0.0370623
40
0.3541573
50
89.8708275
51
90.0431131
0
LINE
8
DEFAULT_255_1_234
10
11.9038766
20
0.5181211
11
12.1857906
21
0.0699501
0
LINE
8
DEFAULT_255_1_234
10
12.1857906
20
0.0699501
11
12.4660982
21
0.5181211
0
LINE
8
DEFAULT_255_1_234
10
12.4660982
20
0.5181211
11
12.6476155
21
0.5181211
0
LINE
8
DEFAULT_255_1_234
10
12.6476155
20
0.5181211
11
12.2781556
21
-0.0617704
0
LINE
8
DEFAULT_255_1_234
10
12.2781556
20
-0.0617704
11
12.6564504
21
-0.6513
0
LINE
8
DEFAULT_255_1_234
10
12.6564504
20
-0.6513
11
12.4733268
21
-0.6513
0
LINE
8
DEFAULT_255_1_234
10
12.4733268
20
-0.6513
11
12.1857906
21
-0.1950973
0
LINE
8
DEFAULT_255_1_234
10
12.1857906
20
-0.1950973
11
11.896648
21
-0.6513
0
LINE
8
DEFAULT_255_1_234
10
11.896648
20
-0.6513
11
11.7143275
21
-0.6513
0
LINE
8
DEFAULT_255_1_234
10
11.7143275
20
-0.6513
11
12.0934256
21
-0.0617704
0
LINE
8
DEFAULT_255_1_234
10
12.0934256
20
-0.0617704
11
11.7231625
21
0.5181211
0
LINE
8
DEFAULT_255_1_234
10
11.7231625
20
0.5181211
11
11.9038766
21
0.5181211
0
LINE
8
DEFAULT_255_1_234
10
13.0845421
20
-0.0938974
11
13.0845421
21
-0.2151766
0
LINE
8
DEFAULT_255_1_234
10
13.0845421
20
-0.2151766
11
12.6925933
21
-0.2151766
0
LINE
8
DEFAULT_255_1_234
10
12.6925933
20
-0.2151766
11
12.6925933
21
-0.0938974
0
LINE
8
DEFAULT_255_1_234
10
12.6925933
20
-0.0938974
11
13.0845421
21
-0.0938974
0
LINE
8
DEFAULT_255_1_234
10
13.9471508
20
0.0402327
11
13.9471508
21
-0.1525291
0
LINE
8
DEFAULT_255_1_234
10
13.209034
20
-0.1726084
11
13.209034
21
0.0257755
0
LINE
8
DEFAULT_255_1_234
10
13.7985636
20
-0.1926877
11
13.7985636
21
0.0506739
0
LINE
8
DEFAULT_255_1_234
10
13.3576212
20
0.0619184
11
13.3576212
21
-0.1758211
0
ARC
8
DEFAULT_255_1_234
10
12.7224397
20
-0.1574195
40
1.2247208
50
353.8441951
51
0.2287902
0
ARC
8
DEFAULT_255_1_234
10
13.1863901
20
-0.2092194
40
0.7578929
50
344.4934747
51
353.9765454
0
ARC
8
DEFAULT_255_1_234
10
13.4856491
20
-0.2943019
40
0.4467846
50
329.2803592
51
344.7472793
0
ARC
8
DEFAULT_255_1_234
10
13.5849316
20
-0.3487982
40
0.3336173
50
324.9352394
51
328.6160465
0
ARC
8
DEFAULT_255_1_234
10
13.6226425
20
-0.3751573
40
0.2876076
50
280.580143
51
324.9173126
0
ARC
8
DEFAULT_255_1_234
10
13.5825217
20
-0.2080901
40
0.4592847
50
269.5977311
51
281.6734359
0
ARC
8
DEFAULT_255_1_234
10
13.5753123
20
-0.2200827
40
0.4472986
50
256.6228859
51
270.51044
0
ARC
8
DEFAULT_255_1_234
10
13.5351101
20
-0.3749123
40
0.2873874
50
215.8618325
51
257.2788573
0
ARC
8
DEFAULT_255_1_234
10
13.6372132
20
-0.3064023
40
0.4102928
50
197.9693508
51
215.2623606
0
ARC
8
DEFAULT_255_1_234
10
13.8857248
20
-0.2225291
40
0.6725652
50
187.8816417
51
198.2346507
0
ARC
8
DEFAULT_255_1_234
10
14.2815456
20
-0.1653921
40
1.0724845
50
180.8976217
51
188.0055519
0
ARC
8
DEFAULT_255_1_234
10
14.5615645
20
-0.1550223
40
1.3526448
50
180.7449369
51
181.1510016
0
ARC
8
DEFAULT_255_1_234
10
14.4038374
20
0.0306042
40
1.1948131
50
173.7675579
51
180.231553
0
ARC
8
DEFAULT_255_1_234
10
13.952052
20
0.0816666
40
0.7401564
50
164.3058563
51
173.9002247
0
ARC
8
DEFAULT_255_1_234
10
13.6608589
20
0.1655656
40
0.4371288
50
148.7922025
51
164.568378
0
ARC
8
DEFAULT_255_1_234
10
13.5657041
20
0.2186929
40
0.3282386
50
144.5883898
51
148.1176286
0
ARC
8
DEFAULT_255_1_234
10
13.5313939
20
0.2426315
40
0.2864044
50
101.6440918
51
144.514236
0
ARC
8
DEFAULT_255_1_234
10
13.5739006
20
0.0737069
40
0.4604934
50
89.5284041
51
102.5819763
0
ARC
8
DEFAULT_255_1_234
10
13.5818094
20
0.0698018
40
0.464401
50
77.0437873
51
90.5081339
0
ARC
8
DEFAULT_255_1_234
10
13.6220095
20
0.2340615
40
0.2953195
50
48.2778575
51
77.4994676
0
ARC
8
DEFAULT_255_1_234
10
13.6292727
20
0.2469746
40
0.2808655
50
36.3142134
51
47.6305865
0
ARC
8
DEFAULT_255_1_234
10
13.5424034
20
0.1884515
40
0.3855453
50
18.2931786
51
35.6769206
0
ARC
8
DEFAULT_255_1_234
10
13.2880792
20
0.1011593
40
0.654423
50
8.024666
51
18.5605216
0
ARC
8
DEFAULT_255_1_234
10
12.8717712
20
0.0396792
40
1.0752407
50
1.1274072
51
8.1718305
0
ARC
8
DEFAULT_255_1_234
10
12.5481903
20
0.0269885
40
1.3990231
50
0.5424119
51
1.3863029
0
ARC
8
DEFAULT_255_1_234
10
12.7303281
20
0.0542342
40
1.0682415
50
359.8090433
51
4.9407866
0
ARC
8
DEFAULT_255_1_234
10
13.1513295
20
0.0918113
40
0.6455691
50
4.8362157
51
12.2904523
0
ARC
8
DEFAULT_255_1_234
10
13.426841
20
0.1531965
40
0.3633074
50
12.0805627
51
23.8173984
0
ARC
8
DEFAULT_255_1_234
10
13.5442115
20
0.2028919
40
0.2358723
50
24.2871213
51
31.3935614
0
ARC
8
DEFAULT_255_1_234
10
13.5966812
20
0.2372233
40
0.1732111
50
30.7407893
51
82.4657128
0
ARC
8
DEFAULT_255_1_234
10
13.5786947
20
0.1488691
40
0.263235
50
81.1060089
51
90.2184952
0
ARC
8
DEFAULT_255_1_234
10
13.5751245
20
0.1746924
40
0.2374236
50
89.3806855
51
105.6762551
0
ARC
8
DEFAULT_255_1_234
10
13.5567876
20
0.2413567
40
0.1682847
50
105.7981136
51
149.7388061
0
ARC
8
DEFAULT_255_1_234
10
13.6631954
20
0.177395
40
0.2924306
50
149.4208916
51
163.6286378
0
ARC
8
DEFAULT_255_1_234
10
13.8722842
20
0.113625
40
0.5110213
50
163.3763315
51
172.1410975
0
ARC
8
DEFAULT_255_1_234
10
14.2023561
20
0.0663518
40
0.8444586
50
172.0259487
51
178.0703232
0
ARC
8
DEFAULT_255_1_234
10
14.5053651
20
0.0519906
40
1.1477868
50
177.8631668
51
179.5044149
0
ARC
8
DEFAULT_255_1_234
10
14.3981055
20
-0.1794611
40
1.0404907
50
179.7995573
51
185.2460446
0
ARC
8
DEFAULT_255_1_234
10
13.9938095
20
-0.2177487
40
0.6343885
50
185.1411642
51
193.0079639
0
ARC
8
DEFAULT_255_1_234
10
13.7294567
20
-0.2802359
40
0.3627568
50
192.7897626
51
205.2507664
0
ARC
8
DEFAULT_255_1_234
10
13.6248114
20
-0.3269585
40
0.2481908
50
205.8005384
51
211.2537509
0
ARC
8
DEFAULT_255_1_234
10
13.5724555
20
-0.362042
40
0.1852521
50
210.3789793
51
238.4008143
0
ARC
8
DEFAULT_255_1_234
10
13.5705077
20
-0.3573624
40
0.1882621
50
239.6520629
51
265.9793761
0
ARC
8
DEFAULT_255_1_234
10
13.5790277
20
-0.2901573
40
0.2559272
50
265.1315437
51
270.060332
0
ARC
8
DEFAULT_255_1_234
10
13.5819055
20
-0.3225466
40
0.2235528
50
269.3314664
51
287.2178029
0
ARC
8
DEFAULT_255_1_234
10
13.5956907
20
-0.3728721
40
0.1714108
50
287.7958004
51
329.080874
0
ARC
8
DEFAULT_255_1_234
10
13.4999364
20
-0.313107
40
0.2842745
50
328.6634704
51
343.3325132
0
ARC
8
DEFAULT_255_1_234
10
13.2826384
20
-0.2454137
40
0.5118644
50
343.0499468
51
351.9393422
0
ARC
8
DEFAULT_255_1_234
10
12.9359684
20
-0.1943051
40
0.8622784
50
351.8069023
51
357.7959224
0
ARC
8
DEFAULT_255_1_234
10
12.612424
20
-0.1775279
40
1.1862365
50
357.5871873
51
359.2677531
0
LINE
8
DEFAULT_255_1_234
10
14.3246425
20
-0.0955037
11
14.2057728
21
-0.0649831
0
LINE
8
DEFAULT_255_1_234
10
14.2057728
20
-0.0649831
11
14.2652076
21
0.5181211
0
LINE
8
DEFAULT_255_1_234
10
14.2652076
20
0.5181211
11
14.8643753
21
0.5181211
0
LINE
8
DEFAULT_255_1_234
10
14.8643753
20
0.5181211
11
14.8643753
21
0.3807784
0
LINE
8
DEFAULT_255_1_234
10
14.8643753
20
0.3807784
11
14.3913059
21
0.3807784
0
LINE
8
DEFAULT_255_1_234
10
14.3913059
20
0.3807784
11
14.3559663
21
0.0619184
0
LINE
8
DEFAULT_255_1_234
10
14.1640077
20
-0.3436844
11
14.3045631
21
-0.3436844
0
LINE
8
DEFAULT_255_1_234
10
14.363998
20
-0.0633768
11
14.3246425
21
-0.0955037
0
ARC
8
DEFAULT_255_1_234
10
14.5414447
20
-0.256077
40
0.3681349
50
93.7182161
51
120.2538958
0
ARC
8
DEFAULT_255_1_234
10
14.550871
20
-0.3368606
40
0.449379
50
89.9660152
51
94.2496022
0
ARC
8
DEFAULT_255_1_234
10
14.5549443
20
-0.2779451
40
0.390482
50
73.8043271
51
90.5585896
0
ARC
8
DEFAULT_255_1_234
10
14.578434
20
-0.1921398
40
0.3015334
50
41.3071453
51
73.5430202
0
ARC
8
DEFAULT_255_1_234
10
14.5368168
20
-0.2279676
40
0.3564457
50
13.5075983
51
41.2174222
0
ARC
8
DEFAULT_255_1_234
10
14.3726372
20
-0.2709514
40
0.5261351
50
1.1331335
51
13.8829381
0
ARC
8
DEFAULT_255_1_234
10
14.231474
20
-0.2785335
40
0.6674378
50
359.9919444
51
1.544251
0
ARC
8
DEFAULT_255_1_234
10
14.3591567
20
-0.282672
40
0.5397702
50
347.8572367
51
0.4293338
0
ARC
8
DEFAULT_255_1_234
10
14.5341884
20
-0.3223264
40
0.3603188
50
323.673004
51
348.1672506
0
ARC
8
DEFAULT_255_1_234
10
14.5636393
20
-0.3402832
40
0.3259678
50
316.8171152
51
323.1492751
0
ARC
8
DEFAULT_255_1_234
10
14.5697582
20
-0.343954
40
0.3189975
50
281.8396411
51
316.5457803
0
ARC
8
DEFAULT_255_1_234
10
14.5321845
20
-0.1884238
40
0.4789527
50
269.5770101
51
282.4214771
0
ARC
8
DEFAULT_255_1_234
10
14.5250657
20
-0.2097875
40
0.45759
50
256.2427136
51
270.4486331
0
ARC
8
DEFAULT_255_1_234
10
14.4951559
20
-0.3297771
40
0.3339303
50
228.9023911
51
256.3314342
0
ARC
8
DEFAULT_255_1_234
10
14.4877792
20
-0.3414254
40
0.32031
50
193.753695
51
228.5271154
0
ARC
8
DEFAULT_255_1_234
10
14.6115746
20
-0.30512
40
0.4492253
50
184.924711
51
194.497588
0
ARC
8
DEFAULT_255_1_234
10
14.6308313
20
-0.3015409
40
0.3289787
50
187.3600538
51
198.6732863
0
ARC
8
DEFAULT_255_1_234
10
14.5258606
20
-0.3379326
40
0.217884
50
198.4451669
51
217.794479
0
ARC
8
DEFAULT_255_1_234
10
14.4962782
20
-0.3588915
40
0.1816698
50
218.2887171
51
228.5612368
0
ARC
8
DEFAULT_255_1_234
10
14.5060569
20
-0.3457037
40
0.1980329
50
228.9654866
51
258.1234728
0
ARC
8
DEFAULT_255_1_234
10
14.5266279
20
-0.2576167
40
0.2884748
50
257.7258293
51
270.401361
0
ARC
8
DEFAULT_255_1_234
10
14.5311165
20
-0.3021179
40
0.2439788
50
269.4204404
51
286.4209037
0
ARC
8
DEFAULT_255_1_234
10
14.5459653
20
-0.3560343
40
0.1880666
50
286.7251356
51
320.600362
0
ARC
8
DEFAULT_255_1_234
10
14.5076478
20
-0.3249405
40
0.2374121
50
320.6712579
51
344.5441685
0
ARC
8
DEFAULT_255_1_234
10
14.3919804
20
-0.2909955
40
0.3579479
50
344.2412205
51
356.7357071
0
ARC
8
DEFAULT_255_1_234
10
14.2670952
20
-0.2806556
40
0.4832297
50
356.3548756
51
0.0500261
0
ARC
8
DEFAULT_255_1_234
10
14.4007461
20
-0.277535
40
0.3495889
50
359.5576869
51
12.953486
0
ARC
8
DEFAULT_255_1_234
10
14.5062359
20
-0.2519566
40
0.2410532
50
12.6490276
51
41.6081334
0
ARC
8
DEFAULT_255_1_234
10
14.529273
20
-0.2323679
40
0.2108218
50
41.7850273
51
85.9892764
0
ARC
8
DEFAULT_255_1_234
10
14.5169466
20
-0.3136538
40
0.2928454
50
84.6957577
51
90.0676183
0
ARC
8
DEFAULT_255_1_234
10
14.514595
20
-0.3805284
40
0.3597255
50
89.6804936
51
99.1614436
0
ARC
8
DEFAULT_255_1_234
10
14.4940582
20
-0.2577869
40
0.235281
50
98.9830931
51
113.8908934
0
ARC
8
DEFAULT_255_1_234
10
14.4710992
20
-0.2036413
40
0.176479
50
114.1950727
51
127.3641004
0
LINE
8
DEFAULT_255_1_234
10
15.9076981
20
0.5181211
11
15.9076981
21
0.3912196
0
LINE
8
DEFAULT_255_1_234
10
15.9076981
20
0.3912196
11
15.5318127
21
0.3912196
0
LINE
8
DEFAULT_255_1_234
10
15.5318127
20
0.3912196
11
15.5318127
21
-0.6513
0
LINE
8
DEFAULT_255_1_234
10
15.5318127
20
-0.6513
11
15.3784065
21
-0.6513
0
LINE
8
DEFAULT_255_1_234
10
15.3784065
20
-0.6513
11
15.3784065
21
0.3912196
0
LINE
8
DEFAULT_255_1_234
10
15.3784065
20
0.3912196
11
15.0033244
21
0.3912196
0
LINE
8
DEFAULT_255_1_234
10
15.0033244
20
0.3912196
11
15.0033244
21
0.5181211
0
LINE
8
DEFAULT_255_1_234
10
15.0033244
20
0.5181211
11
15.9076981
21
0.5181211
0
LINE
8
DEFAULT_255_1_234
10
16.7638814
20
-0.6513
11
16.5100785
21
-0.1782306
0
LINE
8
DEFAULT_255_1_234
10
16.5100785
20
-0.1782306
11
16.235393
21
-0.1782306
0
LINE
8
DEFAULT_255_1_234
10
16.235393
20
-0.1782306
11
16.235393
21
-0.6513
0
LINE
8
DEFAULT_255_1_234
10
16.235393
20
-0.6513
11
16.0803805
21
-0.6513
0
LINE
8
DEFAULT_255_1_234
10
16.0803805
20
-0.6513
11
16.0803805
21
0.5181211
0
LINE
8
DEFAULT_255_1_234
10
16.0803805
20
0.5181211
11
16.4675103
21
0.5181211
0
LINE
8
DEFAULT_255_1_234
10
16.6546498
20
-0.1453005
11
16.9293352
21
-0.6416619
0
LINE
8
DEFAULT_255_1_234
10
16.9293352
20
-0.6416619
11
16.9293352
21
-0.6513
0
LINE
8
DEFAULT_255_1_234
10
16.9293352
20
-0.6513
11
16.7638814
21
-0.6513
0
LINE
8
DEFAULT_255_1_234
10
16.235393
20
0.3912196
11
16.235393
21
-0.0521323
0
LINE
8
DEFAULT_255_1_234
10
16.235393
20
-0.0521323
11
16.4723293
21
-0.0521323
0
LINE
8
DEFAULT_255_1_234
10
16.4715261
20
0.3912196
11
16.235393
21
0.3912196
0
ARC
8
DEFAULT_255_1_234
10
16.4716742
20
-0.1780239
40
0.6961575
50
80.653586
51
90.3427061
0
ARC
8
DEFAULT_255_1_234
10
16.5136217
20
0.0682348
40
0.4463577
50
65.6987447
51
80.8329603
0
ARC
8
DEFAULT_255_1_234
10
16.5613857
20
0.1777322
40
0.3269094
50
50.0017161
51
65.4305835
0
ARC
8
DEFAULT_255_1_234
10
16.5832322
20
0.2072482
40
0.2902647
50
11.628416
51
49.5603263
0
ARC
8
DEFAULT_255_1_234
10
16.4296658
20
0.1697299
40
0.4482792
50
359.5655735
51
12.3691
0
ARC
8
DEFAULT_255_1_234
10
16.5373517
20
0.1634644
40
0.3405924
50
341.9983148
51
0.4822259
0
ARC
8
DEFAULT_255_1_234
10
16.5768358
20
0.1527471
40
0.2997359
50
323.8609373
51
341.61416
0
ARC
8
DEFAULT_255_1_234
10
16.5466602
20
0.1760484
40
0.3378487
50
296.7018614
51
323.6876402
0
ARC
8
DEFAULT_255_1_234
10
16.5025497
20
0.2549235
40
0.4281516
50
290.8086567
51
297.2323311
0
ARC
8
DEFAULT_255_1_234
10
16.4749026
20
0.3072351
40
0.3593766
50
269.589728
51
281.8058135
0
ARC
8
DEFAULT_255_1_234
10
16.4999926
20
0.1924743
40
0.2419125
50
281.5501019
51
303.9357432
0
ARC
8
DEFAULT_255_1_234
10
16.5137113
20
0.1686936
40
0.2145323
50
304.4415616
51
311.2106213
0
ARC
8
DEFAULT_255_1_234
10
16.5269219
20
0.1547632
40
0.1953505
50
310.9875673
51
356.2715578
0
ARC
8
DEFAULT_255_1_234
10
16.4512867
20
0.1660422
40
0.2716331
50
354.9348262
51
0.0609027
0
ARC
8
DEFAULT_255_1_234
10
16.4325742
20
0.1687435
40
0.2903554
50
359.5239371
51
12.8808918
0
ARC
8
DEFAULT_255_1_234
10
16.5303297
20
0.1926728
40
0.1897315
50
12.4173452
51
43.1022135
0
ARC
8
DEFAULT_255_1_234
10
16.5364902
20
0.1963724
40
0.1827118
50
43.5751728
51
48.203944
0
ARC
8
DEFAULT_255_1_234
10
16.5195394
20
0.1742302
40
0.2105272
50
48.7809703
51
72.6969569
0
ARC
8
DEFAULT_255_1_234
10
16.4841018
20
0.066682
40
0.3237537
50
72.3702241
51
84.8791103
0
ARC
8
DEFAULT_255_1_234
10
16.4693494
20
-0.0675231
40
0.4587478
50
84.5400526
51
89.7281406
0
LINE
8
DEFAULT_255_1_234
10
17.8698518
20
0.1799849
11
17.7148392
21
0.1799849
0
LINE
8
DEFAULT_255_1_234
10
17.0225034
20
-0.3123606
11
17.1775159
21
-0.3123606
0
ARC
8
DEFAULT_255_1_234
10
17.7807205
20
1.0746768
40
1.252368
50
248.9199003
51
254.1439814
0
ARC
8
DEFAULT_255_1_234
10
17.61267
20
0.6420234
40
0.788226
50
241.633709
51
249.0064503
0
ARC
8
DEFAULT_255_1_234
10
17.4598094
20
0.3619317
40
0.4691427
50
230.498225
51
241.8087113
0
ARC
8
DEFAULT_255_1_234
10
17.3813668
20
0.2619906
40
0.3421437
50
227.4064532
51
229.9881192
0
ARC
8
DEFAULT_255_1_234
10
17.3326189
20
0.2144088
40
0.2741476
50
200.6781896
51
228.1763934
0
ARC
8
DEFAULT_255_1_234
10
17.33985
20
0.2129077
40
0.2804109
50
179.5061581
51
199.8694617
0
ARC
8
DEFAULT_255_1_234
10
17.3389251
20
0.220321
40
0.2795204
50
132.4834203
51
181.0242172
0
ARC
8
DEFAULT_255_1_234
10
17.3984834
20
0.1640704
40
0.3612768
50
129.2532479
51
133.4242687
0
ARC
8
DEFAULT_255_1_234
10
17.4131283
20
0.1420965
40
0.3875675
50
101.98776
51
128.8742646
0
ARC
8
DEFAULT_255_1_234
10
17.4529894
20
-0.0300259
40
0.5642249
50
89.5906553
51
102.3169264
0
ARC
8
DEFAULT_255_1_234
10
17.4600386
20
0.0018148
40
0.5323783
50
77.2360837
51
90.3248275
0
ARC
8
DEFAULT_255_1_234
10
17.4807465
20
0.09854
40
0.4334697
50
63.837784
51
77.0809408
0
ARC
8
DEFAULT_255_1_234
10
17.5085227
20
0.1502911
40
0.3747796
50
45.9864267
51
64.1607727
0
ARC
8
DEFAULT_255_1_234
10
17.5346108
20
0.1800866
40
0.3352302
50
32.2747395
51
45.6547121
0
ARC
8
DEFAULT_255_1_234
10
17.5412549
20
0.181988
40
0.328603
50
359.6507365
51
32.6130309
0
ARC
8
DEFAULT_255_1_234
10
17.4469644
20
0.182466
40
0.2678863
50
359.469343
51
14.9832209
0
ARC
8
DEFAULT_255_1_234
10
17.5174707
20
0.2013539
40
0.1948938
50
14.9781179
51
48.2004265
0
ARC
8
DEFAULT_255_1_234
10
17.5010351
20
0.1806983
40
0.2212521
50
48.5927837
51
74.1241538
0
ARC
8
DEFAULT_255_1_234
10
17.467684
20
0.0706248
40
0.3362561
50
73.7888341
51
86.6652678
0
ARC
8
DEFAULT_255_1_234
10
17.4574406
20
-0.0501119
40
0.4573953
50
86.2640471
51
90.0526343
0
ARC
8
DEFAULT_255_1_234
10
17.4546119
20
-0.0105808
40
0.4178709
50
89.6697524
51
99.2309573
0
ARC
8
DEFAULT_255_1_234
10
17.4303569
20
0.1338964
40
0.2713749
50
99.069534
51
113.7658566
0
ARC
8
DEFAULT_255_1_234
10
17.4029761
20
0.1984677
40
0.2012469
50
114.0401004
51
127.9850673
0
ARC
8
DEFAULT_255_1_234
10
17.3789324
20
0.228073
40
0.1631167
50
127.7287463
51
176.7105154
0
ARC
8
DEFAULT_255_1_234
10
17.4468042
20
0.2179693
40
0.2315392
50
175.1779447
51
180.0581938
0
ARC
8
DEFAULT_255_1_234
10
17.3624889
20
0.2167428
40
0.1472271
50
179.6142195
51
228.1246017
0
ARC
8
DEFAULT_255_1_234
10
17.4066557
20
0.2576308
40
0.2072299
50
226.5779593
51
230.8800004
0
ARC
8
DEFAULT_255_1_234
10
17.4537636
20
0.3201636
40
0.2854818
50
231.4635071
51
241.9260842
0
ARC
8
DEFAULT_255_1_234
10
17.5734814
20
0.54048
40
0.53622
50
241.7178533
51
248.3259551
0
ARC
8
DEFAULT_255_1_234
10
17.7120186
20
0.8837064
40
0.9063478
50
248.2007737
51
252.4528373
0
ARC
8
DEFAULT_255_1_234
10
17.8323911
20
1.2558441
40
1.2974635
50
252.3391078
51
254.3469452
0
ARC
8
DEFAULT_255_1_234
10
17.0781613
20
-1.4418852
40
1.5037162
50
71.0197183
51
74.4087047
0
ARC
8
DEFAULT_255_1_234
10
17.2476299
20
-0.9526889
40
0.9859993
50
66.1847285
51
71.086374
0
ARC
8
DEFAULT_255_1_234
10
17.4032611
20
-0.60228
40
0.6025855
50
59.3536294
51
66.2691831
0
ARC
8
DEFAULT_255_1_234
10
17.4921263
20
-0.4519391
40
0.4279449
50
49.1020879
51
59.3293958
0
ARC
8
DEFAULT_255_1_234
10
17.5740003
20
-0.3586166
40
0.3038015
50
32.7919921
51
49.2505539
0
ARC
8
DEFAULT_255_1_234
10
17.6061093
20
-0.3357809
40
0.264448
50
31.1181161
51
32.4005348
0
ARC
8
DEFAULT_255_1_234
10
17.5972631
20
-0.3393221
40
0.2738556
50
8.1116974
51
30.7958831
0
ARC
8
DEFAULT_255_1_234
10
17.5162299
20
-0.3531247
40
0.3560327
50
359.8389159
51
8.4706516
0
ARC
8
DEFAULT_255_1_234
10
17.578809
20
-0.3579863
40
0.2934776
50
337.4731098
51
0.7537279
0
ARC
8
DEFAULT_255_1_234
10
17.5966785
20
-0.3599613
40
0.2762607
50
307.5917067
51
336.4315538
0
ARC
8
DEFAULT_255_1_234
10
17.5506613
20
-0.3086898
40
0.3449979
50
307.6551545
51
308.4529766
0
ARC
8
DEFAULT_255_1_234
10
17.5276332
20
-0.273175
40
0.3871988
50
284.3734338
51
307.1424381
0
ARC
8
DEFAULT_255_1_234
10
17.4781162
20
-0.0910068
40
0.5759636
50
272.4382747
51
284.646547
0
ARC
8
DEFAULT_255_1_234
10
17.4654371
20
0.0889893
40
0.7563528
50
269.9708387
51
272.8178037
0
ARC
8
DEFAULT_255_1_234
10
17.4611411
20
-0.1148284
40
0.5525489
50
248.2707594
51
270.4055579
0
ARC
8
DEFAULT_255_1_234
10
17.4557152
20
-0.1338808
40
0.5328452
50
246.1383403
51
248.0542782
0
ARC
8
DEFAULT_255_1_234
10
17.4138531
20
-0.2218157
40
0.4355005
50
233.1670131
51
246.4950969
0
ARC
8
DEFAULT_255_1_234
10
17.3584436
20
-0.2966188
40
0.3424126
50
215.3403242
51
233.0843104
0
ARC
8
DEFAULT_255_1_234
10
17.3311867
20
-0.3164451
40
0.3087104
50
179.2419209
51
215.2648451
0
ARC
8
DEFAULT_255_1_234
10
17.4079461
20
-0.3150334
40
0.2304457
50
179.335461
51
199.1045811
0
ARC
8
DEFAULT_255_1_234
10
17.3747137
20
-0.3237234
40
0.1962176
50
199.8828939
51
232.7063202
0
ARC
8
DEFAULT_255_1_234
10
17.4219406
20
-0.2643212
40
0.2720938
50
232.3738199
51
255.5136649
0
ARC
8
DEFAULT_255_1_234
10
17.4560272
20
-0.1399165
40
0.4010747
50
255.2446292
51
267.5320849
0
ARC
8
DEFAULT_255_1_234
10
17.4647896
20
-0.0166298
40
0.5246356
50
267.1557994
51
270.0286766
0
ARC
8
DEFAULT_255_1_234
10
17.4675668
20
-0.061005
40
0.4802668
50
269.7000017
51
278.1660162
0
ARC
8
DEFAULT_255_1_234
10
17.4931673
20
-0.2340485
40
0.3053425
50
278.0231263
51
290.625471
0
ARC
8
DEFAULT_255_1_234
10
17.527936
20
-0.3267975
40
0.206291
50
290.6619762
51
307.0370976
0
ARC
8
DEFAULT_255_1_234
10
17.5579749
20
-0.3636496
40
0.1587906
50
306.3943566
51
355.3030547
0
ARC
8
DEFAULT_255_1_234
10
17.5067681
20
-0.3559887
40
0.2104809
50
354.3660432
51
0.0698737
0
ARC
8
DEFAULT_255_1_234
10
17.5210026
20
-0.3537383
40
0.1962563
50
359.417946
51
16.1971788
0
ARC
8
DEFAULT_255_1_234
10
17.5665336
20
-0.3412582
40
0.149053
50
16.4723299
51
52.6262157
0
ARC
8
DEFAULT_255_1_234
10
17.484439
20
-0.4496567
40
0.2850296
50
52.7386432
51
62.4979148
0
ARC
8
DEFAULT_255_1_234
10
17.3459467
20
-0.7102717
40
0.5801521
50
62.2515216
51
68.1220564
0
ARC
8
DEFAULT_255_1_234
10
17.1739378
20
-1.1330128
40
1.0365451
50
68.0062803
51
71.8053402
0
ARC
8
DEFAULT_255_1_234
10
16.9943749
20
-1.6715242
40
1.6042013
50
71.7183119
51
73.9258742
0
ARC
8
DEFAULT_255_2_778
10
20.3857188
20
65.0491525
40
0.3580657
50
89.9945037
51
180.0054963
0
ARC
8
DEFAULT_255_2_778
10
20.3857875
20
65.0491525
40
0.3580657
50
359.9945037
51
90.0054963
0
ARC
8
DEFAULT_255_2_778
10
20.3857875
20
65.0490838
40
0.3580657
50
269.9945037
51
0.0054963
0
ARC
8
DEFAULT_255_2_778
10
20.3857188
20
65.0490838
40
0.3580657
50
179.9945037
51
270.0054963
0
ARC
8
DEFAULT_255_2_778
10
23.0945406
20
64.780782
40
2.3282817
50
111.9150345
51
128.7655504
0
ARC
8
DEFAULT_255_2_778
10
23.0114007
20
64.912852
40
2.1733214
50
129.2366206
51
154.7721516
0
ARC
8
DEFAULT_255_2_778
10
23.612957
20
64.6170583
40
2.8435961
50
154.5467617
51
165.9285636
0
ARC
8
DEFAULT_255_2_778
10
24.0969902
20
64.4796212
40
3.3465569
50
165.6609748
51
166.525375
0
ARC
8
DEFAULT_255_2_778
10
21.6605291
20
65.6978171
40
1.414623
50
156.0627036
51
175.7189082
0
ARC
8
DEFAULT_255_2_778
10
22.2487502
20
65.444283
40
2.0551309
50
144.7505594
51
156.2560535
0
ARC
8
DEFAULT_255_2_778
10
23.0184799
20
64.9089863
40
2.9926766
50
137.345293
51
144.8863205
0
ARC
8
DEFAULT_255_2_778
10
23.9454446
20
64.0598407
40
4.2497776
50
131.6389266
51
137.393651
0
ARC
8
DEFAULT_255_2_778
10
24.6716492
20
63.2631248
40
5.3277326
50
130.1334351
51
131.7826198
0
LINE
8
DEFAULT_255_2_778
10
20.0276532
20
65.0491182
11
20.0276532
21
65.0491182
0
LINE
8
DEFAULT_255_2_778
10
21.2375532
20
67.3364182
11
22.2255532
21
66.9408182
0
LINE
8
DEFAULT_255_2_778
10
20.8425532
20
65.2594182
11
20.2498532
21
65.8034182
0
LINE
8
DEFAULT_255_2_778
10
21.2375532
20
67.3364182
11
21.2375532
21
67.3364182
0
ARC
8
DEFAULT_255_2_778
10
13.8917907
20
65.8726437
40
0.8717226
50
88.9281645
51
133.9885749
0
ARC
8
DEFAULT_255_2_778
10
13.9080454
20
65.6475604
40
1.0966534
50
88.9487005
51
89.9972984
0
ARC
8
DEFAULT_255_2_778
10
13.9276
20
65.9430011
40
0.8010283
50
72.1310318
51
89.9594908
0
ARC
8
DEFAULT_255_2_778
10
14.0028373
20
66.2000083
40
0.5333823
50
60.6505783
51
71.3519493
0
ARC
8
DEFAULT_255_2_778
10
14.0866387
20
66.3271349
40
0.3816498
50
20.3938858
51
62.2625554
0
ARC
8
DEFAULT_255_2_778
10
15.1027645
20
65.8391628
40
0.9050345
50
89.7568633
51
136.6758865
0
ARC
8
DEFAULT_255_2_778
10
15.1065773
20
65.7215709
40
1.0226182
50
88.9864436
51
89.9984426
0
ARC
8
DEFAULT_255_2_778
10
15.124548
20
65.960692
40
0.7833372
50
71.373585
51
89.9913488
0
ARC
8
DEFAULT_255_2_778
10
15.2164803
20
66.239542
40
0.489734
50
42.2193789
51
71.1458349
0
ARC
8
DEFAULT_255_2_778
10
15.1913908
20
66.2320658
40
0.5134635
50
8.5226311
51
40.9558105
0
ARC
8
DEFAULT_255_2_778
10
14.8690896
20
66.1668045
40
0.8420446
50
359.6942069
51
9.6641803
0
ARC
8
DEFAULT_255_2_778
10
14.5795507
20
66.1638277
40
1.1315727
50
355.5855084
51
359.923173
0
ARC
8
DEFAULT_255_2_778
10
14.3825845
20
66.1361289
40
0.7547163
50
352.4548626
51
359.7652122
0
ARC
8
DEFAULT_255_2_778
10
14.5401893
20
66.1332192
40
0.5971052
50
359.9824407
51
2.1700815
0
ARC
8
DEFAULT_255_2_778
10
14.9490551
20
66.1490752
40
0.1879327
50
2.0595693
51
88.944897
0
ARC
8
DEFAULT_255_2_778
10
14.8852878
20
65.8617725
40
0.4799353
50
81.9476992
51
88.9638763
0
ARC
8
DEFAULT_255_2_778
10
14.8964352
20
65.8556844
40
0.4859511
50
90.2910974
51
140.7094043
0
ARC
8
DEFAULT_255_2_778
10
15.082723
20
65.6628111
40
0.7529164
50
138.3264016
51
141.8088804
0
ARC
8
DEFAULT_255_2_778
10
13.1434845
20
66.1327289
40
0.7547163
50
352.4548626
51
359.7652122
0
ARC
8
DEFAULT_255_2_778
10
13.3010893
20
66.1298192
40
0.5971052
50
359.9824407
51
2.1700815
0
ARC
8
DEFAULT_255_2_778
10
13.7090327
20
66.1466775
40
0.1888212
50
1.7455696
51
88.6065628
0
ARC
8
DEFAULT_255_2_778
10
13.6474974
20
65.8703897
40
0.469731
50
81.9072271
51
88.8693446
0
ARC
8
DEFAULT_255_2_778
10
13.6449914
20
65.8303568
40
0.5098084
50
88.6765396
51
89.9981553
0
ARC
8
DEFAULT_255_2_778
10
13.6502114
20
65.8339569
40
0.5062351
50
90.5889431
51
134.9317856
0
ARC
8
DEFAULT_255_2_778
10
13.8031307
20
65.6435835
40
0.749469
50
132.9288129
51
135.7848647
0
LINE
8
DEFAULT_255_2_778
10
12.8005663
20
66.7099292
11
13.3328663
21
66.7115292
0
LINE
8
DEFAULT_255_2_778
10
13.3328663
20
66.7115292
11
13.2863663
21
66.4998292
0
LINE
8
DEFAULT_255_2_778
10
15.7077663
20
66.0767292
11
15.7038663
21
66.0339292
0
LINE
8
DEFAULT_255_2_778
10
15.7038663
20
66.0339292
11
15.4709663
21
64.8485292
0
LINE
8
DEFAULT_255_2_778
10
15.4709663
20
64.8485292
11
14.8978663
21
64.8485292
0
LINE
8
DEFAULT_255_2_778
10
14.8978663
20
64.8485292
11
15.1307663
21
66.0370292
0
LINE
8
DEFAULT_255_2_778
10
14.4909663
20
66.1283292
11
14.4848663
21
66.0889292
0
LINE
8
DEFAULT_255_2_778
10
14.4848663
20
66.0889292
11
14.2298663
21
64.8485292
0
LINE
8
DEFAULT_255_2_778
10
14.2298663
20
64.8485292
11
13.6588663
21
64.8485292
0
LINE
8
DEFAULT_255_2_778
10
13.6588663
20
64.8485292
11
13.8916663
21
66.0336292
0
LINE
8
DEFAULT_255_2_778
10
13.2659663
20
66.1662292
11
12.9926663
21
64.8485292
0
LINE
8
DEFAULT_255_2_778
10
12.9926663
20
64.8485292
11
12.4216663
21
64.8485292
0
LINE
8
DEFAULT_255_2_778
10
12.4216663
20
64.8485292
11
12.8002663
21
66.7096292
0
LINE
8
DEFAULT_255_2_778
10
12.8002663
20
66.7096292
11
12.8005663
21
66.7099292
0
ARC
8
DEFAULT_255_2_778
10
16.7523314
20
65.5593402
40
1.1831221
50
72.5008211
51
90.0103536
0
ARC
8
DEFAULT_255_2_778
10
16.8270546
20
65.8223399
40
0.9098586
50
60.3242318
51
72.0085714
0
ARC
8
DEFAULT_255_2_778
10
16.9074051
20
65.9428126
40
0.7654736
50
24.9543019
51
61.0852427
0
ARC
8
DEFAULT_255_2_778
10
16.8128787
20
65.9009465
40
0.8688408
50
359.4872778
51
24.8275177
0
ARC
8
DEFAULT_255_2_778
10
16.6059992
20
65.8945476
40
1.0756863
50
353.6171666
51
359.9267064
0
ARC
8
DEFAULT_255_2_778
10
16.6039416
20
65.8645267
40
1.0748142
50
309.833105
51
355.2199932
0
ARC
8
DEFAULT_255_2_778
10
16.5454023
20
65.9311469
40
1.1634726
50
274.0073872
51
309.9453537
0
ARC
8
DEFAULT_255_2_778
10
16.4941881
20
66.2996028
40
1.5348158
50
269.9462811
51
274.9533663
0
ARC
8
DEFAULT_255_2_778
10
16.4927833
20
66.4233871
40
1.6585995
50
269.1686307
51
269.9988202
0
ARC
8
DEFAULT_255_2_778
10
16.4689284
20
65.9358137
40
1.1708514
50
252.109196
51
269.9896888
0
ARC
8
DEFAULT_255_2_778
10
16.3970024
20
65.6864636
40
0.9114995
50
240.54759
51
251.5966758
0
ARC
8
DEFAULT_255_2_778
10
16.317495
20
65.5637089
40
0.7655666
50
205.2400495
51
241.211713
0
ARC
8
DEFAULT_255_2_778
10
16.3979131
20
65.6010634
40
0.8542357
50
179.5359208
51
205.2063167
0
ARC
8
DEFAULT_255_2_778
10
16.5849722
20
65.6066956
40
1.0412677
50
173.5392122
51
179.9291923
0
ARC
8
DEFAULT_255_2_778
10
16.7714822
20
65.5951758
40
1.2279263
50
153.4099026
51
173.9843619
0
ARC
8
DEFAULT_255_2_778
10
16.6118759
20
65.6629448
40
1.0549233
50
129.6863931
51
152.8211827
0
ARC
8
DEFAULT_255_2_778
10
16.6740015
20
65.5923495
40
1.1489256
50
92.7623759
51
129.8224215
0
ARC
8
DEFAULT_255_2_778
10
16.7165324
20
65.2489549
40
1.494196
50
89.9700369
51
93.7568045
0
ARC
8
DEFAULT_255_2_778
10
16.7172025
20
65.1473597
40
1.5957911
50
88.7355209
51
89.9960014
0
ARC
8
DEFAULT_255_2_778
10
16.573241
20
65.5393885
40
0.4286317
50
179.6425826
51
209.446387
0
ARC
8
DEFAULT_255_2_778
10
16.4720227
20
65.4922221
40
0.3174207
50
211.0145463
51
223.1431724
0
ARC
8
DEFAULT_255_2_778
10
16.4796644
20
65.5101914
40
0.3353769
50
224.4904912
51
268.822899
0
ARC
8
DEFAULT_255_2_778
10
16.5096318
20
65.7221578
40
0.5485121
50
266.1471365
51
268.8180779
0
ARC
8
DEFAULT_255_2_778
10
16.5157553
20
65.8517665
40
0.6782284
50
268.5267288
51
269.9955114
0
ARC
8
DEFAULT_255_2_778
10
16.5313244
20
65.6612446
40
0.4879566
50
268.1653241
51
325.4286401
0
ARC
8
DEFAULT_255_2_778
10
16.3027714
20
65.8278589
40
0.7707306
50
324.8706977
51
351.0886768
0
ARC
8
DEFAULT_255_2_778
10
15.8946203
20
65.906759
40
1.1862684
50
350.3775551
51
0.2885744
0
ARC
8
DEFAULT_255_2_778
10
15.6040207
20
65.9124545
40
1.4768528
50
0.0108339
51
1.7075744
0
ARC
8
DEFAULT_255_2_778
10
16.6260051
20
65.9473496
40
0.454304
50
1.1493477
51
31.2464652
0
ARC
8
DEFAULT_255_2_778
10
16.7201645
20
65.9940769
40
0.3496776
50
32.703807
51
41.7810929
0
ARC
8
DEFAULT_255_2_778
10
16.7419538
20
66.0034534
40
0.3272685
50
43.0987922
51
88.7571407
0
ARC
8
DEFAULT_255_2_778
10
16.7112566
20
65.7911359
40
0.5408314
50
85.992647
51
88.8704975
0
ARC
8
DEFAULT_255_2_778
10
16.7048658
20
65.6892668
40
0.6428217
50
88.4799611
51
89.9943311
0
ARC
8
DEFAULT_255_2_778
10
16.6938546
20
65.8425787
40
0.4896349
50
88.7039519
51
145.0513377
0
ARC
8
DEFAULT_255_2_778
10
16.8919375
20
65.6892936
40
0.7399051
50
144.1087108
51
170.2824956
0
ARC
8
DEFAULT_255_2_778
10
17.3184971
20
65.6021764
40
1.1751307
50
169.6063184
51
180.3528002
0
ARC
8
DEFAULT_255_2_778
10
17.6545698
20
65.5953441
40
1.5111813
50
180.0153016
51
182.009194
0
LINE
8
DEFAULT_255_2_778
10
16.7524176
20
66.7427623
11
16.7521176
21
66.7424623
0
LINE
8
DEFAULT_255_2_778
10
16.1443176
20
65.5423623
11
16.1446176
21
65.5420623
0
ARC
8
DEFAULT_255_2_778
10
18.720237
20
64.6205854
40
1.642039
50
81.2830361
51
86.628458
0
ARC
8
DEFAULT_255_2_778
10
18.7752757
20
65.4590313
40
0.8018272
50
87.0310432
51
89.8986713
0
ARC
8
DEFAULT_255_2_778
10
18.7565064
20
65.3703997
40
0.8906863
50
88.7012797
51
89.9954117
0
ARC
8
DEFAULT_255_2_778
10
18.7426452
20
65.6146623
40
0.6465738
50
88.765285
51
116.6201427
0
ARC
8
DEFAULT_255_2_778
10
18.7125548
20
65.6986694
40
0.5580924
50
117.7228833
51
138.7756782
0
ARC
8
DEFAULT_255_2_778
10
18.8913475
20
66.0648707
40
0.6980151
50
116.489914
51
143.0810972
0
ARC
8
DEFAULT_255_2_778
10
18.8376938
20
66.1449223
40
0.6025621
50
89.4580016
51
115.3188873
0
ARC
8
DEFAULT_255_2_778
10
18.8288205
20
65.8101885
40
0.9373821
50
77.9674605
51
89.1092017
0
ARC
8
DEFAULT_255_2_778
10
18.7351478
20
65.2796466
40
1.4759175
50
78.008513
51
78.7045202
0
LINE
8
DEFAULT_255_2_778
10
19.0417938
20
66.7236573
11
18.9690938
21
66.2436573
0
LINE
8
DEFAULT_255_2_778
10
18.2927938
20
66.0664573
11
18.0395938
21
64.8485573
0
LINE
8
DEFAULT_255_2_778
10
18.0395938
20
64.8485573
11
17.4685938
21
64.8485573
0
LINE
8
DEFAULT_255_2_778
10
17.4685938
20
64.8485573
11
17.8492938
21
66.7096573
0
LINE
8
DEFAULT_255_2_778
10
17.8492938
20
66.7096573
11
18.3858938
21
66.7112573
0
LINE
8
DEFAULT_255_2_778
10
18.3858938
20
66.7112573
11
18.3332938
21
66.4841573
0
LINE
8
DEFAULT_255_2_778
10
19.0417938
20
66.7233573
11
19.0417938
21
66.7236573
0
ARC
8
DEFAULT_255_2_778
10
19.2894667
20
65.9351882
40
1.1701724
50
250.1393411
51
270.3226852
0
ARC
8
DEFAULT_255_2_778
10
19.2345051
20
65.7553475
40
0.9824012
50
242.0502734
51
249.5907868
0
ARC
8
DEFAULT_255_2_778
10
19.1338727
20
65.5959713
40
0.7945755
50
208.3440719
51
243.0739412
0
ARC
8
DEFAULT_255_2_778
10
19.1261609
20
65.5867404
40
0.7834185
50
179.5715836
51
208.0176768
0
ARC
8
DEFAULT_255_2_778
10
19.273472
20
65.5917939
40
0.930708
50
174.3678809
51
179.9504871
0
ARC
8
DEFAULT_255_2_778
10
19.4545378
20
65.6336932
40
1.1074063
50
145.2485417
51
173.7769976
0
ARC
8
DEFAULT_255_2_778
10
19.4366239
20
65.6581309
40
1.0788028
50
116.4826416
51
145.7726174
0
ARC
8
DEFAULT_255_2_778
10
19.4671976
20
65.5884448
40
1.1548163
50
89.3335424
51
116.2986099
0
ARC
8
DEFAULT_255_2_778
10
19.4805483
20
65.3460265
40
1.3971563
50
88.7200635
51
89.9966493
0
ARC
8
DEFAULT_255_2_778
10
19.5062264
20
65.6304319
40
1.1124162
50
73.6937809
51
89.7151452
0
ARC
8
DEFAULT_255_2_778
10
19.6174962
20
66.0023959
40
0.7241771
50
40.439997
51
73.880282
0
ARC
8
DEFAULT_255_2_778
10
19.5837712
20
65.9804519
40
0.7640962
50
0.3370816
51
40.0519836
0
ARC
8
DEFAULT_255_2_778
10
19.3460457
20
65.9568262
40
1.0022031
50
359.994028
51
1.6078833
0
ARC
8
DEFAULT_255_2_778
10
19.2169833
20
65.958994
40
1.1312679
50
353.167063
51
359.8849147
0
ARC
8
DEFAULT_255_2_778
10
19.0729155
20
65.9737359
40
1.2760687
50
352.3939633
51
353.279462
0
ARC
8
DEFAULT_255_2_778
10
19.2858012
20
65.535193
40
0.3608489
50
171.5634883
51
179.9015639
0
ARC
8
DEFAULT_255_2_778
10
19.2585943
20
65.5393834
40
0.3336607
50
180.6131262
51
227.843893
0
ARC
8
DEFAULT_255_2_778
10
19.3366051
20
65.8010283
40
0.5918171
50
239.3225098
51
268.8255118
0
ARC
8
DEFAULT_255_2_778
10
19.3594512
20
66.0344149
40
0.8258202
50
267.5725716
51
270.0162941
0
ARC
8
DEFAULT_255_2_778
10
19.3591973
20
66.1181478
40
0.9095533
50
270.0307885
51
273.2244191
0
ARC
8
DEFAULT_255_2_778
10
19.3865379
20
65.4577781
40
0.2488861
50
275.4917641
51
302.3582203
0
ARC
8
DEFAULT_255_2_778
10
19.4523418
20
65.3418196
40
0.115896
50
305.561706
51
314.7657745
0
ARC
8
DEFAULT_255_2_778
10
19.4418773
20
65.3746196
40
0.1473882
50
308.6632861
51
359.3837416
0
ARC
8
DEFAULT_255_2_778
10
17.939525
20
67.0972961
40
2.962762
50
318.8021847
51
324.4102292
0
ARC
8
DEFAULT_255_2_778
10
18.9248821
20
66.2289638
40
1.6494092
50
310.4033061
51
318.953359
0
ARC
8
DEFAULT_255_2_778
10
19.4511808
20
65.6023319
40
0.831118
50
295.9312381
51
310.7744109
0
ARC
8
DEFAULT_255_2_778
10
19.5730027
20
65.3734904
40
0.5721233
50
294.3678437
51
294.9811966
0
ARC
8
DEFAULT_255_2_778
10
19.3268821
20
66.1376166
40
1.3727502
50
269.5731295
51
290.563626
0
ARC
8
DEFAULT_255_2_778
10
19.3166639
20
66.3534678
40
1.5885634
50
269.2675557
51
269.9996725
0
ARC
8
DEFAULT_255_2_778
10
19.4710312
20
65.7724127
40
0.5595531
50
88.7582819
51
89.9982675
0
ARC
8
DEFAULT_255_2_778
10
19.4646907
20
65.8695288
40
0.4624807
50
89.2123589
51
125.5867616
0
ARC
8
DEFAULT_255_2_778
10
19.5331068
20
65.7973957
40
0.5611219
50
126.9818839
51
147.669232
0
ARC
8
DEFAULT_255_2_778
10
20.008659
20
65.4777026
40
1.1340353
50
146.870707
51
156.2884785
0
ARC
8
DEFAULT_255_2_778
10
19.3656366
20
66.0558524
40
0.4293753
50
349.7481736
51
359.8266598
0
ARC
8
DEFAULT_255_2_778
10
19.4284469
20
66.0551115
40
0.3665636
50
359.9127606
51
9.1392387
0
ARC
8
DEFAULT_255_2_778
10
19.5454569
20
66.0695719
40
0.2487794
50
10.1315408
51
54.8294252
0
ARC
8
DEFAULT_255_2_778
10
19.4919551
20
65.9742265
40
0.3577113
50
56.6213484
51
91.3898693
0
LINE
8
DEFAULT_255_2_778
10
19.4832786
20
66.3318326
11
19.4831569
21
66.3318344
0
LINE
8
DEFAULT_255_2_778
10
18.3472569
20
65.6831344
11
18.3536569
21
65.7537344
0
LINE
8
DEFAULT_255_2_778
10
20.3377569
20
65.8048344
11
20.3046569
21
65.5881344
0
LINE
8
DEFAULT_255_2_778
10
20.3046569
20
65.5881344
11
18.9288569
21
65.5881344
0
LINE
8
DEFAULT_255_2_778
10
19.5892569
20
65.3730344
11
20.3488569
21
65.3730344
0
LINE
8
DEFAULT_255_2_778
10
18.9703569
20
65.9337344
11
19.7757569
21
65.9337344
0
LINE
8
DEFAULT_255_2_778
10
19.7757569
20
65.9337344
11
19.7881569
21
65.9794344
0
LINE
8
DEFAULT_255_2_778
10
11.5575281
20
66.5205177
11
12.9404281
21
65.7045177
0
LINE
8
DEFAULT_255_2_778
10
12.9404281
20
65.7045177
11
11.4093281
21
65.1111177
0
LINE
8
DEFAULT_255_2_778
10
11.4093281
20
65.1111177
11
11.7302281
21
65.8281177
0
LINE
8
DEFAULT_255_2_778
10
11.7302281
20
65.8281177
11
11.5575281
21
66.5205177
0
ARC
8
DEFAULT_255_2_778
10
7.9956492
20
66.2401349
40
1.734445
50
345.0500681
51
0.450213
0
ARC
8
DEFAULT_255_2_778
10
8.2747128
20
66.1759315
40
1.4482985
50
339.8011311
51
344.6559926
0
ARC
8
DEFAULT_255_2_778
10
8.3564959
20
66.1304595
40
1.3559213
50
318.9869254
51
340.4112117
0
ARC
8
DEFAULT_255_2_778
10
8.4726786
20
66.0425223
40
1.2105876
50
317.7755753
51
318.5188915
0
ARC
8
DEFAULT_255_2_778
10
8.5000776
20
66.0166224
40
1.1728926
50
293.4453171
51
317.8130059
0
ARC
8
DEFAULT_255_2_778
10
8.4704728
20
66.0948502
40
1.2564472
50
269.4376299
51
293.2645473
0
ARC
8
DEFAULT_255_2_778
10
8.7713116
20
66.3029305
40
1.0182316
50
68.112945
51
90.7974227
0
ARC
8
DEFAULT_255_2_778
10
8.8150218
20
66.4382759
40
0.8764035
50
66.6600337
51
67.4660887
0
ARC
8
DEFAULT_255_2_778
10
8.8273616
20
66.4500129
40
0.860764
50
41.8199578
51
67.1046866
0
ARC
8
DEFAULT_255_2_778
10
8.7262144
20
66.3737866
40
0.9870277
50
18.4442061
51
41.2024761
0
ARC
8
DEFAULT_255_2_778
10
8.4236394
20
66.2701986
40
1.3068358
50
359.9236227
51
18.5554774
0
ARC
8
DEFAULT_255_2_778
10
8.1090371
20
66.2537824
40
1.6215036
50
359.9993331
51
0.5185192
0
ARC
8
DEFAULT_255_2_778
10
8.2484265
20
66.2599191
40
1.1556879
50
359.3527282
51
15.3461488
0
ARC
8
DEFAULT_255_2_778
10
8.4878709
20
66.3150091
40
0.9102591
50
15.9909101
51
17.2384514
0
ARC
8
DEFAULT_255_2_778
10
8.6538656
20
66.3784942
40
0.7329962
50
16.3441173
51
39.0583428
0
ARC
8
DEFAULT_255_2_778
10
8.7708861
20
66.4640513
40
0.5882641
50
39.7694118
51
66.0014919
0
ARC
8
DEFAULT_255_2_778
10
8.7375911
20
66.3710083
40
0.6868457
50
66.6208799
51
90.9301944
0
ARC
8
DEFAULT_255_2_778
10
8.4997619
20
65.9660777
40
0.865983
50
269.2774049
51
294.6427005
0
ARC
8
DEFAULT_255_2_778
10
8.5132787
20
65.9180801
40
0.8167574
50
295.184769
51
321.1699914
0
ARC
8
DEFAULT_255_2_778
10
8.321121
20
66.0645326
40
1.0582969
50
321.5163412
51
341.7776814
0
ARC
8
DEFAULT_255_2_778
10
8.0263618
20
66.1800931
40
1.374523
50
341.044332
51
342.4824039
0
ARC
8
DEFAULT_255_2_778
10
7.9221077
20
66.2017334
40
1.4804949
50
342.8981919
51
356.6952858
0
ARC
8
DEFAULT_255_2_778
10
7.4185441
20
66.2454849
40
1.9857973
50
356.2725814
51
0.0484329
0
LINE
8
DEFAULT_255_2_778
10
8.4581407
20
64.8384635
11
7.4088407
21
64.8141635
0
LINE
8
DEFAULT_255_2_778
10
7.4088407
20
64.8141635
11
7.9181407
21
67.3210635
0
LINE
8
DEFAULT_255_2_778
10
7.9181407
20
67.3210635
11
8.7571407
21
67.3210635
0
LINE
8
DEFAULT_255_2_778
10
9.7305407
20
66.2537635
11
9.7300407
21
66.2537635
0
LINE
8
DEFAULT_255_2_778
10
8.7264407
20
67.0577635
11
8.1285407
21
67.0397635
0
LINE
8
DEFAULT_255_2_778
10
8.1285407
20
67.0397635
11
7.7686407
21
65.0615635
0
LINE
8
DEFAULT_255_2_778
10
7.7686407
20
65.0615635
11
8.4888407
21
65.1001635
0
LINE
8
DEFAULT_255_2_778
10
9.4043407
20
66.2471635
11
9.4040407
21
66.2468635
0
ARC
8
DEFAULT_255_2_778
10
10.434674
20
65.642419
40
0.5777251
50
269.3131992
51
298.9193317
0
ARC
8
DEFAULT_255_2_778
10
10.3745898
20
65.7470114
40
0.6983333
50
299.0845099
51
323.1838183
0
ARC
8
DEFAULT_255_2_778
10
10.2053419
20
65.8709915
40
0.9081244
50
323.3206017
51
342.9705556
0
ARC
8
DEFAULT_255_2_778
10
10.0399255
20
65.9284416
40
1.0831324
50
342.6274164
51
0.2324268
0
ARC
8
DEFAULT_255_2_778
10
10.3756391
20
65.9455185
40
0.7475175
50
359.0278167
51
16.1300251
0
ARC
8
DEFAULT_255_2_778
10
10.6995449
20
66.0386392
40
0.4104922
50
16.2042834
51
41.9480466
0
ARC
8
DEFAULT_255_2_778
10
10.7119118
20
66.0304262
40
0.4070383
50
43.9719544
51
85.3997935
0
ARC
8
DEFAULT_255_2_778
10
10.6645186
20
65.7547297
40
0.686108
50
83.300847
51
90.1477804
0
ARC
8
DEFAULT_255_2_778
10
10.6542616
20
65.8594474
40
0.58145
50
89.163628
51
118.6648078
0
ARC
8
DEFAULT_255_2_778
10
10.713379
20
65.7624564
40
0.6949321
50
119.1056578
51
143.2104754
0
ARC
8
DEFAULT_255_2_778
10
10.8865438
20
65.6354766
40
0.9096571
50
143.3373192
51
162.9538381
0
ARC
8
DEFAULT_255_2_778
10
11.0503519
20
65.5784321
40
1.0830106
50
162.6089297
51
180.2167337
0
ARC
8
DEFAULT_255_2_778
10
10.722432
20
65.5616465
40
0.7551896
50
179.037255
51
196.0102976
0
ARC
8
DEFAULT_255_2_778
10
10.3946689
20
65.4681213
40
0.4143448
50
196.0798237
51
221.5429745
0
ARC
8
DEFAULT_255_2_778
10
10.3758386
20
65.4697741
40
0.4015819
50
223.501568
51
264.945498
0
ARC
8
DEFAULT_255_2_778
10
10.4257062
20
65.749923
40
0.6854906
50
262.8561454
51
270.170743
0
ARC
8
DEFAULT_255_2_778
10
10.3819801
20
65.8076733
40
0.993603
50
251.4783364
51
270.6555979
0
ARC
8
DEFAULT_255_2_778
10
10.2994823
20
65.5619369
40
0.7343883
50
228.2272369
51
251.4910714
0
ARC
8
DEFAULT_255_2_778
10
10.2621392
20
65.5112077
40
0.671704
50
202.6960886
51
227.720176
0
ARC
8
DEFAULT_255_2_778
10
10.3818562
20
65.5565656
40
0.7996635
50
179.6456167
51
202.3846702
0
ARC
8
DEFAULT_255_2_778
10
10.6496927
20
65.5727351
40
1.0675438
50
179.9999853
51
180.6023814
0
ARC
8
DEFAULT_255_2_778
10
10.6859721
20
65.579723
40
1.1038452
50
157.230675
51
180.3627006
0
ARC
8
DEFAULT_255_2_778
10
10.7166324
20
65.5701196
40
1.135837
50
135.6908415
51
157.3825693
0
ARC
8
DEFAULT_255_2_778
10
10.6869282
20
65.596815
40
1.0959349
50
113.1058727
51
135.604761
0
ARC
8
DEFAULT_255_2_778
10
10.6874078
20
65.6010049
40
1.0922713
50
89.5047522
51
113.2152626
0
ARC
8
DEFAULT_255_2_778
10
10.7082287
20
65.6979295
40
0.9953709
50
71.5130801
51
90.6550541
0
ARC
8
DEFAULT_255_2_778
10
10.7896575
20
65.9437115
40
0.7364524
50
48.2602918
51
71.4580165
0
ARC
8
DEFAULT_255_2_778
10
10.8279984
20
65.9971961
40
0.6710546
50
22.5497085
51
47.6627683
0
ARC
8
DEFAULT_255_2_778
10
10.6993556
20
65.9478328
40
0.8088011
50
359.0650515
51
22.2845409
0
ARC
8
DEFAULT_255_2_778
10
10.4090028
20
65.9285709
40
1.0990629
50
337.1812514
51
0.316152
0
ARC
8
DEFAULT_255_2_778
10
10.3735655
20
65.9391512
40
1.135837
50
315.6908415
51
337.3825693
0
ARC
8
DEFAULT_255_2_778
10
10.3954229
20
65.9211107
40
1.1075969
50
293.2336194
51
315.5688359
0
ARC
8
DEFAULT_255_2_778
10
10.401174
20
65.9004991
40
1.0863919
50
269.5873092
51
293.383724
0
LINE
8
DEFAULT_255_2_778
10
10.427749
20
65.0644354
11
10.427749
21
65.0647354
0
LINE
8
DEFAULT_255_2_778
10
10.393349
20
64.8141354
11
10.393349
21
64.8141354
0
LINE
8
DEFAULT_255_1_234
10
10.8316392
20
62.1872
11
10.4260364
21
62.1872
0
LINE
8
DEFAULT_255_1_234
10
10.4260364
20
62.1872
11
10.4260364
21
63.3566211
0
LINE
8
DEFAULT_255_1_234
10
10.4260364
20
63.3566211
11
10.8083471
21
63.3566211
0
LINE
8
DEFAULT_255_1_234
10
10.8372614
20
62.7341614
11
10.5802458
21
62.7341614
0
LINE
8
DEFAULT_255_1_234
10
10.5802458
20
62.7341614
11
10.5802458
21
62.3132983
0
LINE
8
DEFAULT_255_1_234
10
10.5802458
20
62.3132983
11
10.8348519
21
62.3132983
0
LINE
8
DEFAULT_255_1_234
10
10.5802458
20
63.2297196
11
10.5802458
21
62.8578501
0
LINE
8
DEFAULT_255_1_234
10
10.5802458
20
62.8578501
11
10.8131662
21
62.8578501
0
LINE
8
DEFAULT_255_1_234
10
10.8083471
20
63.2297196
11
10.5802458
21
63.2297196
0
ARC
8
DEFAULT_255_1_234
10
10.812118
20
62.6198901
40
0.7367406
50
82.1257326
51
90.2932599
0
ARC
8
DEFAULT_255_1_234
10
10.8510135
20
62.8917013
40
0.4621653
50
69.9044149
51
82.2857423
0
ARC
8
DEFAULT_255_1_234
10
10.9080813
20
63.0459637
40
0.2976871
50
51.1838526
51
70.0181538
0
ARC
8
DEFAULT_255_1_234
10
10.9335779
20
63.083024
40
0.2528517
50
12.1017251
51
50.4214761
0
ARC
8
DEFAULT_255_1_234
10
10.7951653
20
63.0482676
40
0.3955061
50
359.5251267
51
12.8211707
0
ARC
8
DEFAULT_255_1_234
10
10.9531579
20
63.0413344
40
0.2375281
50
323.4908128
51
0.8817314
0
ARC
8
DEFAULT_255_1_234
10
10.9113266
20
63.073655
40
0.2903817
50
298.6825083
51
323.2756573
0
ARC
8
DEFAULT_255_1_234
10
10.8751629
20
63.1337649
40
0.3604842
50
293.1999386
51
299.1396394
0
ARC
8
DEFAULT_255_1_234
10
10.9424602
20
62.5252126
40
0.2871098
50
54.0011765
51
74.9167975
0
ARC
8
DEFAULT_255_1_234
10
10.9540961
20
62.5449332
40
0.2643248
50
36.3580696
51
53.5291921
0
ARC
8
DEFAULT_255_1_234
10
10.9414203
20
62.5358998
40
0.2798884
50
4.8189881
51
36.3089977
0
ARC
8
DEFAULT_255_1_234
10
10.8635038
20
62.524927
40
0.358478
50
359.9370252
51
5.5204067
0
ARC
8
DEFAULT_255_1_234
10
10.831056
20
62.5208667
40
0.3909429
50
344.7478609
51
0.5373281
0
ARC
8
DEFAULT_255_1_234
10
10.9301531
20
62.4941544
40
0.2883093
50
311.1786488
51
344.6886812
0
ARC
8
DEFAULT_255_1_234
10
10.9009578
20
62.5304987
40
0.3348923
50
286.0418249
51
310.8441291
0
ARC
8
DEFAULT_255_1_234
10
10.850241
20
62.6951807
40
0.5071869
50
274.1042341
51
286.4071509
0
ARC
8
DEFAULT_255_1_234
10
10.8325666
20
62.8835229
40
0.6963234
50
269.9236873
51
274.445647
0
ARC
8
DEFAULT_255_1_234
10
10.8371667
20
62.6495537
40
0.3362634
50
269.6055768
51
281.3740047
0
ARC
8
DEFAULT_255_1_234
10
10.8602305
20
62.5402353
40
0.224546
50
281.1055983
51
302.5132223
0
ARC
8
DEFAULT_255_1_234
10
10.8749204
20
62.5138823
40
0.1944357
50
303.0368945
51
311.8811219
0
ARC
8
DEFAULT_255_1_234
10
10.8820611
20
62.505389
40
0.1833454
50
311.9916004
51
351.7143462
0
ARC
8
DEFAULT_255_1_234
10
10.8003841
20
62.521893
40
0.2665871
50
350.7339597
51
0.2221581
0
ARC
8
DEFAULT_255_1_234
10
10.7896287
20
62.5275467
40
0.2773789
50
359.0456241
51
17.2296242
0
ARC
8
DEFAULT_255_1_234
10
10.8935404
20
62.5584163
40
0.1689915
50
17.6685481
51
78.9940892
0
ARC
8
DEFAULT_255_1_234
10
10.8418568
20
62.3729224
40
0.3612658
50
76.5635957
51
90.6980921
0
LINE
8
DEFAULT_255_1_234
10
10.8374552
20
62.7341613
11
10.8372614
21
62.7341614
0
ARC
8
DEFAULT_255_1_234
10
10.8154228
20
63.1864036
40
0.3285612
50
269.6064736
51
281.4533503
0
ARC
8
DEFAULT_255_1_234
10
10.8377048
20
63.0812688
40
0.2210975
50
281.2041486
51
302.5148063
0
ARC
8
DEFAULT_255_1_234
10
10.8513898
20
63.0566241
40
0.1929674
50
303.021671
51
309.8369575
0
ARC
8
DEFAULT_255_1_234
10
10.8697359
20
63.0360488
40
0.1654181
50
309.5228395
51
356.9509836
0
ARC
8
DEFAULT_255_1_234
10
10.8033942
20
63.0455932
40
0.2322512
50
355.4701227
51
0.0492546
0
ARC
8
DEFAULT_255_1_234
10
10.7755033
20
63.0478094
40
0.2601498
50
359.5558597
51
11.2096359
0
ARC
8
DEFAULT_255_1_234
10
10.8712323
20
63.067623
40
0.1623975
50
10.9182341
51
31.3230275
0
ARC
8
DEFAULT_255_1_234
10
10.8998056
20
63.0835214
40
0.1297302
50
31.8852677
51
52.1412565
0
ARC
8
DEFAULT_255_1_234
10
10.8723789
20
63.044775
40
0.1771663
50
52.8285564
51
71.9850297
0
ARC
8
DEFAULT_255_1_234
10
10.8347965
20
62.9341664
40
0.2939794
50
71.6863486
51
82.8455995
0
ARC
8
DEFAULT_255_1_234
10
10.8108501
20
62.7532149
40
0.476506
50
82.6984714
51
90.1729175
0
ARC
8
DEFAULT_255_1_234
10
10.8086136
20
62.8755623
40
0.3541573
50
89.8708275
51
90.0431131
0
LINE
8
DEFAULT_255_1_234
10
12.1327808
20
62.1872
11
11.8789778
21
62.6602694
0
LINE
8
DEFAULT_255_1_234
10
11.8789778
20
62.6602694
11
11.6042924
21
62.6602694
0
LINE
8
DEFAULT_255_1_234
10
11.6042924
20
62.6602694
11
11.6042924
21
62.1872
0
LINE
8
DEFAULT_255_1_234
10
11.6042924
20
62.1872
11
11.4492798
21
62.1872
0
LINE
8
DEFAULT_255_1_234
10
11.4492798
20
62.1872
11
11.4492798
21
63.3566211
0
LINE
8
DEFAULT_255_1_234
10
11.4492798
20
63.3566211
11
11.8364096
21
63.3566211
0
LINE
8
DEFAULT_255_1_234
10
12.0235491
20
62.6931995
11
12.2982346
21
62.1968381
0
LINE
8
DEFAULT_255_1_234
10
12.2982346
20
62.1968381
11
12.2982346
21
62.1872
0
LINE
8
DEFAULT_255_1_234
10
12.2982346
20
62.1872
11
12.1327808
21
62.1872
0
LINE
8
DEFAULT_255_1_234
10
11.6042924
20
63.2297196
11
11.6042924
21
62.7863677
0
LINE
8
DEFAULT_255_1_234
10
11.6042924
20
62.7863677
11
11.8412287
21
62.7863677
0
LINE
8
DEFAULT_255_1_234
10
11.8404255
20
63.2297196
11
11.6042924
21
63.2297196
0
ARC
8
DEFAULT_255_1_234
10
11.8405736
20
62.6604761
40
0.6961575
50
80.653586
51
90.3427061
0
ARC
8
DEFAULT_255_1_234
10
11.882521
20
62.9067348
40
0.4463577
50
65.6987447
51
80.8329603
0
ARC
8
DEFAULT_255_1_234
10
11.9302851
20
63.0162322
40
0.3269094
50
50.0017161
51
65.4305835
0
ARC
8
DEFAULT_255_1_234
10
11.9521315
20
63.0457482
40
0.2902647
50
11.628416
51
49.5603263
0
ARC
8
DEFAULT_255_1_234
10
11.7985651
20
63.0082299
40
0.4482792
50
359.5655735
51
12.3691
0
ARC
8
DEFAULT_255_1_234
10
11.9062511
20
63.0019644
40
0.3405924
50
341.9983148
51
0.4822259
0
ARC
8
DEFAULT_255_1_234
10
11.9457351
20
62.9912471
40
0.2997359
50
323.8609373
51
341.61416
0
ARC
8
DEFAULT_255_1_234
10
11.9155595
20
63.0145484
40
0.3378487
50
296.7018614
51
323.6876402
0
ARC
8
DEFAULT_255_1_234
10
11.8714491
20
63.0934235
40
0.4281516
50
290.8086567
51
297.2323311
0
ARC
8
DEFAULT_255_1_234
10
11.843802
20
63.1457351
40
0.3593766
50
269.589728
51
281.8058135
0
ARC
8
DEFAULT_255_1_234
10
11.8688919
20
63.0309743
40
0.2419125
50
281.5501019
51
303.9357432
0
ARC
8
DEFAULT_255_1_234
10
11.8826107
20
63.0071936
40
0.2145323
50
304.4415616
51
311.2106213
0
ARC
8
DEFAULT_255_1_234
10
11.8958212
20
62.9932632
40
0.1953505
50
310.9875673
51
356.2715578
0
ARC
8
DEFAULT_255_1_234
10
11.8201861
20
63.0045422
40
0.2716331
50
354.9348262
51
0.0609027
0
ARC
8
DEFAULT_255_1_234
10
11.8014735
20
63.0072435
40
0.2903554
50
359.5239371
51
12.8808918
0
ARC
8
DEFAULT_255_1_234
10
11.8992291
20
63.0311728
40
0.1897315
50
12.4173452
51
43.1022135
0
ARC
8
DEFAULT_255_1_234
10
11.9053895
20
63.0348724
40
0.1827118
50
43.5751728
51
48.203944
0
ARC
8
DEFAULT_255_1_234
10
11.8884387
20
63.0127302
40
0.2105272
50
48.7809703
51
72.6969569
0
ARC
8
DEFAULT_255_1_234
10
11.8530012
20
62.905182
40
0.3237537
50
72.3702241
51
84.8791103
0
ARC
8
DEFAULT_255_1_234
10
11.8382488
20
62.7709769
40
0.4587478
50
84.5400526
51
89.7281406
0
LINE
8
DEFAULT_255_1_234
10
12.5624788
20
63.3566211
11
12.8443928
21
62.9084501
0
LINE
8
DEFAULT_255_1_234
10
12.8443928
20
62.9084501
11
13.1247004
21
63.3566211
0
LINE
8
DEFAULT_255_1_234
10
13.1247004
20
63.3566211
11
13.3062177
21
63.3566211
0
LINE
8
DEFAULT_255_1_234
10
13.3062177
20
63.3566211
11
12.9367578
21
62.7767296
0
LINE
8
DEFAULT_255_1_234
10
12.9367578
20
62.7767296
11
13.3150526
21
62.1872
0
LINE
8
DEFAULT_255_1_234
10
13.3150526
20
62.1872
11
13.131929
21
62.1872
0
LINE
8
DEFAULT_255_1_234
10
13.131929
20
62.1872
11
12.8443928
21
62.6434027
0
LINE
8
DEFAULT_255_1_234
10
12.8443928
20
62.6434027
11
12.5552502
21
62.1872
0
LINE
8
DEFAULT_255_1_234
10
12.5552502
20
62.1872
11
12.3729297
21
62.1872
0
LINE
8
DEFAULT_255_1_234
10
12.3729297
20
62.1872
11
12.7520278
21
62.7767296
0
LINE
8
DEFAULT_255_1_234
10
12.7520278
20
62.7767296
11
12.3817646
21
63.3566211
0
LINE
8
DEFAULT_255_1_234
10
12.3817646
20
63.3566211
11
12.5624788
21
63.3566211
0
LINE
8
DEFAULT_255_1_234
10
14.6772354
20
63.0184849
11
14.5222229
21
63.0184849
0
LINE
8
DEFAULT_255_1_234
10
13.8298871
20
62.5261394
11
13.9848996
21
62.5261394
0
ARC
8
DEFAULT_255_1_234
10
14.5881042
20
63.9131768
40
1.252368
50
248.9199003
51
254.1439814
0
ARC
8
DEFAULT_255_1_234
10
14.4200537
20
63.4805234
40
0.788226
50
241.633709
51
249.0064503
0
ARC
8
DEFAULT_255_1_234
10
14.2671931
20
63.2004317
40
0.4691427
50
230.498225
51
241.8087113
0
ARC
8
DEFAULT_255_1_234
10
14.1887505
20
63.1004906
40
0.3421437
50
227.4064532
51
229.9881192
0
ARC
8
DEFAULT_255_1_234
10
14.1400026
20
63.0529088
40
0.2741476
50
200.6781896
51
228.1763934
0
ARC
8
DEFAULT_255_1_234
10
14.1472337
20
63.0514077
40
0.2804109
50
179.5061581
51
199.8694617
0
ARC
8
DEFAULT_255_1_234
10
14.1463088
20
63.058821
40
0.2795204
50
132.4834203
51
181.0242172
0
ARC
8
DEFAULT_255_1_234
10
14.2058671
20
63.0025704
40
0.3612768
50
129.2532479
51
133.4242687
0
ARC
8
DEFAULT_255_1_234
10
14.220512
20
62.9805965
40
0.3875675
50
101.98776
51
128.8742646
0
ARC
8
DEFAULT_255_1_234
10
14.2603731
20
62.8084741
40
0.5642249
50
89.5906553
51
102.3169264
0
ARC
8
DEFAULT_255_1_234
10
14.2674223
20
62.8403148
40
0.5323783
50
77.2360837
51
90.3248275
0
ARC
8
DEFAULT_255_1_234
10
14.2881302
20
62.93704
40
0.4334697
50
63.837784
51
77.0809408
0
ARC
8
DEFAULT_255_1_234
10
14.3159064
20
62.9887911
40
0.3747796
50
45.9864267
51
64.1607727
0
ARC
8
DEFAULT_255_1_234
10
14.3419945
20
63.0185866
40
0.3352302
50
32.2747395
51
45.6547121
0
ARC
8
DEFAULT_255_1_234
10
14.3486386
20
63.020488
40
0.328603
50
359.6507365
51
32.6130309
0
ARC
8
DEFAULT_255_1_234
10
14.2543481
20
63.020966
40
0.2678863
50
359.469343
51
14.9832209
0
ARC
8
DEFAULT_255_1_234
10
14.3248544
20
63.0398539
40
0.1948938
50
14.9781179
51
48.2004265
0
ARC
8
DEFAULT_255_1_234
10
14.3084188
20
63.0191983
40
0.2212521
50
48.5927837
51
74.1241538
0
ARC
8
DEFAULT_255_1_234
10
14.2750677
20
62.9091248
40
0.3362561
50
73.7888341
51
86.6652678
0
ARC
8
DEFAULT_255_1_234
10
14.2648243
20
62.7883881
40
0.4573953
50
86.2640471
51
90.0526343
0
ARC
8
DEFAULT_255_1_234
10
14.2619955
20
62.8279192
40
0.4178709
50
89.6697524
51
99.2309573
0
ARC
8
DEFAULT_255_1_234
10
14.2377406
20
62.9723964
40
0.2713749
50
99.069534
51
113.7658566
0
ARC
8
DEFAULT_255_1_234
10
14.2103597
20
63.0369677
40
0.2012469
50
114.0401004
51
127.9850673
0
ARC
8
DEFAULT_255_1_234
10
14.1863161
20
63.066573
40
0.1631167
50
127.7287463
51
176.7105154
0
ARC
8
DEFAULT_255_1_234
10
14.2541879
20
63.0564693
40
0.2315392
50
175.1779447
51
180.0581938
0
ARC
8
DEFAULT_255_1_234
10
14.1698726
20
63.0552428
40
0.1472271
50
179.6142195
51
228.1246017
0
ARC
8
DEFAULT_255_1_234
10
14.2140394
20
63.0961308
40
0.2072299
50
226.5779593
51
230.8800004
0
ARC
8
DEFAULT_255_1_234
10
14.2611473
20
63.1586636
40
0.2854818
50
231.4635071
51
241.9260842
0
ARC
8
DEFAULT_255_1_234
10
14.3808651
20
63.37898
40
0.53622
50
241.7178533
51
248.3259551
0
ARC
8
DEFAULT_255_1_234
10
14.5194023
20
63.7222064
40
0.9063478
50
248.2007737
51
252.4528373
0
ARC
8
DEFAULT_255_1_234
10
14.6397748
20
64.0943441
40
1.2974635
50
252.3391078
51
254.3469452
0
ARC
8
DEFAULT_255_1_234
10
13.885545
20
61.3966148
40
1.5037162
50
71.0197183
51
74.4087047
0
ARC
8
DEFAULT_255_1_234
10
14.0550136
20
61.8858111
40
0.9859993
50
66.1847285
51
71.086374
0
ARC
8
DEFAULT_255_1_234
10
14.2106448
20
62.23622
40
0.6025855
50
59.3536294
51
66.2691831
0
ARC
8
DEFAULT_255_1_234
10
14.29951
20
62.3865609
40
0.4279449
50
49.1020879
51
59.3293958
0
ARC
8
DEFAULT_255_1_234
10
14.381384
20
62.4798834
40
0.3038015
50
32.7919921
51
49.2505539
0
ARC
8
DEFAULT_255_1_234
10
14.413493
20
62.5027191
40
0.264448
50
31.1181161
51
32.4005348
0
ARC
8
DEFAULT_255_1_234
10
14.4046468
20
62.4991779
40
0.2738556
50
8.1116974
51
30.7958831
0
ARC
8
DEFAULT_255_1_234
10
14.3236136
20
62.4853753
40
0.3560327
50
359.8389159
51
8.4706516
0
ARC
8
DEFAULT_255_1_234
10
14.3861927
20
62.4805137
40
0.2934776
50
337.4731098
51
0.7537279
0
ARC
8
DEFAULT_255_1_234
10
14.4040622
20
62.4785387
40
0.2762607
50
307.5917067
51
336.4315538
0
ARC
8
DEFAULT_255_1_234
10
14.358045
20
62.5298102
40
0.3449979
50
307.6551545
51
308.4529766
0
ARC
8
DEFAULT_255_1_234
10
14.3350169
20
62.565325
40
0.3871988
50
284.3734338
51
307.1424381
0
ARC
8
DEFAULT_255_1_234
10
14.2854999
20
62.7474932
40
0.5759636
50
272.4382747
51
284.646547
0
ARC
8
DEFAULT_255_1_234
10
14.2728208
20
62.9274893
40
0.7563528
50
269.9708387
51
272.8178037
0
ARC
8
DEFAULT_255_1_234
10
14.2685248
20
62.7236716
40
0.5525489
50
248.2707594
51
270.4055579
0
ARC
8
DEFAULT_255_1_234
10
14.2630989
20
62.7046192
40
0.5328452
50
246.1383403
51
248.0542782
0
ARC
8
DEFAULT_255_1_234
10
14.2212368
20
62.6166843
40
0.4355005
50
233.1670131
51
246.4950969
0
ARC
8
DEFAULT_255_1_234
10
14.1658273
20
62.5418812
40
0.3424126
50
215.3403242
51
233.0843104
0
ARC
8
DEFAULT_255_1_234
10
14.1385704
20
62.5220549
40
0.3087104
50
179.2419209
51
215.2648451
0
ARC
8
DEFAULT_255_1_234
10
14.2153298
20
62.5234666
40
0.2304457
50
179.335461
51
199.1045811
0
ARC
8
DEFAULT_255_1_234
10
14.1820974
20
62.5147766
40
0.1962176
50
199.8828939
51
232.7063202
0
ARC
8
DEFAULT_255_1_234
10
14.2293243
20
62.5741788
40
0.2720938
50
232.3738199
51
255.5136649
0
ARC
8
DEFAULT_255_1_234
10
14.2634109
20
62.6985835
40
0.4010747
50
255.2446292
51
267.5320849
0
ARC
8
DEFAULT_255_1_234
10
14.2721733
20
62.8218702
40
0.5246356
50
267.1557994
51
270.0286766
0
ARC
8
DEFAULT_255_1_234
10
14.2749505
20
62.777495
40
0.4802668
50
269.7000017
51
278.1660162
0
ARC
8
DEFAULT_255_1_234
10
14.300551
20
62.6044515
40
0.3053425
50
278.0231263
51
290.625471
0
ARC
8
DEFAULT_255_1_234
10
14.3353197
20
62.5117025
40
0.206291
50
290.6619762
51
307.0370976
0
ARC
8
DEFAULT_255_1_234
10
14.3653586
20
62.4748504
40
0.1587906
50
306.3943566
51
355.3030547
0
ARC
8
DEFAULT_255_1_234
10
14.3141518
20
62.4825113
40
0.2104809
50
354.3660432
51
0.0698737
0
ARC
8
DEFAULT_255_1_234
10
14.3283863
20
62.4847617
40
0.1962563
50
359.417946
51
16.1971788
0
ARC
8
DEFAULT_255_1_234
10
14.3739173
20
62.4972418
40
0.149053
50
16.4723299
51
52.6262157
0
ARC
8
DEFAULT_255_1_234
10
14.2918227
20
62.3888433
40
0.2850296
50
52.7386432
51
62.4979148
0
ARC
8
DEFAULT_255_1_234
10
14.1533304
20
62.1282283
40
0.5801521
50
62.2515216
51
68.1220564
0
ARC
8
DEFAULT_255_1_234
10
13.9813215
20
61.7054872
40
1.0365451
50
68.0062803
51
71.8053402
0
ARC
8
DEFAULT_255_1_234
10
13.8017586
20
61.1669758
40
1.6042013
50
71.7183119
51
73.9258742
0
LINE
8
DEFAULT_255_1_234
10
14.8161845
20
62.5976218
11
14.8161845
21
62.6249297
0
LINE
8
DEFAULT_255_1_234
10
15.5534981
20
62.6409932
11
15.5534981
21
62.5791488
0
LINE
8
DEFAULT_255_1_234
10
15.5534981
20
62.5791488
11
14.9647717
21
62.5791488
0
LINE
8
DEFAULT_255_1_234
10
15.451495
20
62.4096792
11
15.5422537
21
62.3389999
0
LINE
8
DEFAULT_255_1_234
10
14.9695907
20
62.7012313
11
15.4049109
21
62.7012313
0
LINE
8
DEFAULT_255_1_234
10
15.4049109
20
62.7012313
11
15.4049109
21
62.7124757
0
ARC
8
DEFAULT_255_1_234
10
15.210121
20
62.6087332
40
0.4376191
50
252.3266134
51
270.5810217
0
ARC
8
DEFAULT_255_1_234
10
15.1896299
20
62.5346644
40
0.3608374
50
223.3000567
51
251.8561855
0
ARC
8
DEFAULT_255_1_234
10
15.210766
20
62.5551937
40
0.3902993
50
190.9374509
51
223.3654032
0
ARC
8
DEFAULT_255_1_234
10
15.3832632
20
62.5941885
40
0.5670891
50
179.6531105
51
191.4989439
0
ARC
8
DEFAULT_255_1_234
10
15.3954645
20
62.6281417
40
0.5792888
50
167.4007466
51
180.3176909
0
ARC
8
DEFAULT_255_1_234
10
15.2902706
20
62.6503885
40
0.471777
50
154.1835823
51
167.250763
0
ARC
8
DEFAULT_255_1_234
10
15.2271174
20
62.6836417
40
0.4004528
50
134.3149965
51
154.5315275
0
ARC
8
DEFAULT_255_1_234
10
15.2053669
20
62.7027228
40
0.371612
50
122.8616532
51
133.9707695
0
ARC
8
DEFAULT_255_1_234
10
15.1950243
20
62.7249703
40
0.3473289
50
89.8249009
51
123.4199222
0
ARC
8
DEFAULT_255_1_234
10
15.2000284
20
62.6602967
40
0.4120197
50
74.7876118
51
90.5482747
0
ARC
8
DEFAULT_255_1_234
10
15.2294027
20
62.768803
40
0.2996077
50
39.8178249
51
74.7633718
0
ARC
8
DEFAULT_255_1_234
10
15.1781347
20
62.7288351
40
0.3645855
50
16.8990863
51
39.4829761
0
ARC
8
DEFAULT_255_1_234
10
14.9886644
20
62.6681526
40
0.5635218
50
4.9636328
51
17.2026414
0
ARC
8
DEFAULT_255_1_234
10
14.7468714
20
62.642634
40
0.8066286
50
359.8834553
51
5.2834307
0
ARC
8
DEFAULT_255_1_234
10
15.3506238
20
62.5857803
40
0.3859091
50
180.9846213
51
194.9401313
0
ARC
8
DEFAULT_255_1_234
10
15.2456516
20
62.5570849
40
0.2770883
50
194.80314
51
222.0412631
0
ARC
8
DEFAULT_255_1_234
10
15.2152398
20
62.5269116
40
0.2343055
50
221.5417084
51
268.8614402
0
ARC
8
DEFAULT_255_1_234
10
15.2225393
20
62.5945686
40
0.3021528
50
267.732405
51
270.0097136
0
ARC
8
DEFAULT_255_1_234
10
15.2243203
20
62.6147105
40
0.3222994
50
269.6924892
51
280.4117579
0
ARC
8
DEFAULT_255_1_234
10
15.2419609
20
62.5228193
40
0.2287344
50
280.2255091
51
298.6338936
0
ARC
8
DEFAULT_255_1_234
10
15.2536401
20
62.4984223
40
0.2017294
50
299.0430333
51
300.4643464
0
ARC
8
DEFAULT_255_1_234
10
15.1856407
20
62.6118038
40
0.3339357
50
300.6577328
51
322.0378878
0
ARC
8
DEFAULT_255_1_234
10
15.1505946
20
62.6422021
40
0.3802736
50
321.6750233
51
322.3046845
0
ARC
8
DEFAULT_255_1_234
10
15.2436907
20
62.525537
40
0.3520454
50
276.9728461
51
328.0035423
0
ARC
8
DEFAULT_255_1_234
10
15.215996
20
62.6735841
40
0.5024498
50
269.8361028
51
278.0581756
0
ARC
8
DEFAULT_255_1_234
10
15.1932698
20
62.7480757
40
0.202159
50
89.2018686
51
117.2851756
0
ARC
8
DEFAULT_255_1_234
10
15.1985867
20
62.7438752
40
0.2083484
50
118.0551165
51
137.4540413
0
ARC
8
DEFAULT_255_1_234
10
15.2360607
20
62.7098304
40
0.2589774
50
137.5109581
51
158.8516286
0
ARC
8
DEFAULT_255_1_234
10
15.3498442
20
62.6639074
40
0.38167
50
158.5845963
51
170.1721436
0
ARC
8
DEFAULT_255_1_234
10
15.4667831
20
62.6406823
40
0.5008657
50
169.8376422
51
173.0566086
0
ARC
8
DEFAULT_255_1_234
10
14.9970905
20
62.6917509
40
0.4083467
50
2.9091802
51
12.8847116
0
ARC
8
DEFAULT_255_1_234
10
15.1341582
20
62.7240101
40
0.2675383
50
12.6957781
51
28.6404489
0
ARC
8
DEFAULT_255_1_234
10
15.1883253
20
62.7520458
40
0.2065654
50
29.0169854
51
41.1487595
0
ARC
8
DEFAULT_255_1_234
10
15.2086038
20
62.7697003
40
0.1796786
50
41.1646065
51
85.0013516
0
ARC
8
DEFAULT_255_1_234
10
15.1965134
20
62.6962431
40
0.2539726
50
83.7280015
51
90.0964893
0
LINE
8
DEFAULT_255_1_234
10
16.1454372
20
63.0610531
11
16.1454372
21
62.9229072
0
LINE
8
DEFAULT_255_1_234
10
15.8739645
20
62.8040375
11
15.8739645
21
62.1872
0
LINE
8
DEFAULT_255_1_234
10
15.8739645
20
62.1872
11
15.7253773
21
62.1872
0
LINE
8
DEFAULT_255_1_234
10
15.7253773
20
62.1872
11
15.7253773
21
63.0562341
0
LINE
8
DEFAULT_255_1_234
10
15.7253773
20
63.0562341
11
15.8699486
21
63.0562341
0
LINE
8
DEFAULT_255_1_234
10
15.8699486
20
63.0562341
11
15.8723581
21
62.9558374
0
ARC
8
DEFAULT_255_1_234
10
16.0787778
20
62.5169342
40
0.4114092
50
80.6754243
51
86.8932892
0
ARC
8
DEFAULT_255_1_234
10
16.0727312
20
62.42017
40
0.5083596
50
86.8038578
51
90.0431435
0
ARC
8
DEFAULT_255_1_234
10
16.0690293
20
62.6658866
40
0.2626638
50
89.2759698
51
106.6213787
0
ARC
8
DEFAULT_255_1_234
10
16.0485857
20
62.740183
40
0.1856317
50
107.1346045
51
157.6458115
0
ARC
8
DEFAULT_255_1_234
10
16.1177458
20
62.7018311
40
0.2643398
50
155.6586782
51
157.2539184
0
ARC
8
DEFAULT_255_1_234
10
16.097266
20
62.8187157
40
0.2634121
50
127.8165941
51
148.6302098
0
ARC
8
DEFAULT_255_1_234
10
16.0719129
20
62.8447218
40
0.2273596
50
91.3329982
51
126.7875809
0
ARC
8
DEFAULT_255_1_234
10
16.079507
20
62.7732195
40
0.299078
50
89.986594
51
92.4688449
0
ARC
8
DEFAULT_255_1_234
10
16.0803465
20
62.8007078
40
0.2715908
50
85.3589899
51
90.1623399
0
ARC
8
DEFAULT_255_1_234
10
16.088798
20
62.9011164
40
0.1708278
50
78.401942
51
85.4594656
0
ARC
8
DEFAULT_255_1_234
10
16.1032864
20
62.9702236
40
0.1002194
50
67.7858312
51
78.5728455
0
ARC
8
DEFAULT_255_1_234
10
16.1140717
20
62.9981887
40
0.0702548
50
63.4835954
51
67.3062642
0
LINE
8
DEFAULT_255_1_234
10
16.4434147
20
63.0562341
11
16.4434147
21
62.1872
0
LINE
8
DEFAULT_255_1_234
10
16.4434147
20
62.1872
11
16.2948275
21
62.1872
0
LINE
8
DEFAULT_255_1_234
10
16.2948275
20
62.1872
11
16.2948275
21
63.0562341
0
LINE
8
DEFAULT_255_1_234
10
16.2948275
20
63.0562341
11
16.4434147
21
63.0562341
0
ARC
8
DEFAULT_255_1_234
10
16.3806424
20
63.2876889
40
0.097867
50
161.415052
51
180.5526306
0
ARC
8
DEFAULT_255_1_234
10
16.3682202
20
63.2911077
40
0.0850062
50
138.1827368
51
160.9307106
0
ARC
8
DEFAULT_255_1_234
10
16.3572148
20
63.3006588
40
0.0704362
50
104.6368899
51
138.0039868
0
ARC
8
DEFAULT_255_1_234
10
16.3679303
20
63.2639963
40
0.1086221
50
92.0600725
51
105.2189128
0
ARC
8
DEFAULT_255_1_234
10
16.3702651
20
63.2297117
40
0.1429728
50
89.9756393
51
92.5012496
0
ARC
8
DEFAULT_255_1_234
10
16.371267
20
63.2522731
40
0.1204151
50
78.0235316
51
90.4478182
0
ARC
8
DEFAULT_255_1_234
10
16.3804762
20
63.2936295
40
0.0780493
50
55.051506
51
78.3369085
0
ARC
8
DEFAULT_255_1_234
10
16.3855037
20
63.3020711
40
0.0682538
50
42.0501187
51
54.4513741
0
ARC
8
DEFAULT_255_1_234
10
16.3719904
20
63.2896798
40
0.0865878
50
1.7497075
51
42.1496013
0
ARC
8
DEFAULT_255_1_234
10
16.3465237
20
63.2867738
40
0.1121515
50
359.9852656
51
2.8364544
0
ARC
8
DEFAULT_255_1_234
10
16.3631229
20
63.2858229
40
0.0955566
50
342.1070653
51
0.552888
0
ARC
8
DEFAULT_255_1_234
10
16.3773926
20
63.2818904
40
0.0807713
50
316.7107116
51
341.6516965
0
ARC
8
DEFAULT_255_1_234
10
16.3840963
20
63.2758823
40
0.0717724
50
285.4397031
51
316.5324284
0
ARC
8
DEFAULT_255_1_234
10
16.373088
20
63.3124554
40
0.1099597
50
272.3547054
51
285.8953117
0
ARC
8
DEFAULT_255_1_234
10
16.3704038
20
63.3490048
40
0.1465932
50
269.9695369
51
272.8160237
0
ARC
8
DEFAULT_255_1_234
10
16.369422
20
63.3270863
40
0.1246779
50
258.8431134
51
270.4153935
0
ARC
8
DEFAULT_255_1_234
10
16.3604262
20
63.2835414
40
0.0802162
50
238.5431189
51
259.1288175
0
ARC
8
DEFAULT_255_1_234
10
16.3536147
20
63.2711856
40
0.0661247
50
222.5062634
51
237.9906969
0
ARC
8
DEFAULT_255_1_234
10
16.3663734
20
63.2827889
40
0.0833707
50
184.1069131
51
222.460413
0
ARC
8
DEFAULT_255_1_234
10
16.3932975
20
63.2866349
40
0.1105176
50
179.9429482
51
185.0960898
0
LINE
8
DEFAULT_255_1_234
10
16.643405
20
62.5976218
11
16.643405
21
62.6249297
0
LINE
8
DEFAULT_255_1_234
10
17.3807186
20
62.6409932
11
17.3807186
21
62.5791488
0
LINE
8
DEFAULT_255_1_234
10
17.3807186
20
62.5791488
11
16.7919921
21
62.5791488
0
LINE
8
DEFAULT_255_1_234
10
17.2787155
20
62.4096792
11
17.3694741
21
62.3389999
0
LINE
8
DEFAULT_255_1_234
10
16.7968112
20
62.7012313
11
17.2321314
21
62.7012313
0
LINE
8
DEFAULT_255_1_234
10
17.2321314
20
62.7012313
11
17.2321314
21
62.7124757
0
ARC
8
DEFAULT_255_1_234
10
17.0373415
20
62.6087332
40
0.4376191
50
252.3266134
51
270.5810217
0
ARC
8
DEFAULT_255_1_234
10
17.0168504
20
62.5346644
40
0.3608374
50
223.3000567
51
251.8561855
0
ARC
8
DEFAULT_255_1_234
10
17.0379865
20
62.5551937
40
0.3902993
50
190.9374509
51
223.3654032
0
ARC
8
DEFAULT_255_1_234
10
17.2104837
20
62.5941885
40
0.5670891
50
179.6531105
51
191.4989439
0
ARC
8
DEFAULT_255_1_234
10
17.2226849
20
62.6281417
40
0.5792888
50
167.4007466
51
180.3176909
0
ARC
8
DEFAULT_255_1_234
10
17.1174911
20
62.6503885
40
0.471777
50
154.1835823
51
167.250763
0
ARC
8
DEFAULT_255_1_234
10
17.0543378
20
62.6836417
40
0.4004528
50
134.3149965
51
154.5315275
0
ARC
8
DEFAULT_255_1_234
10
17.0325873
20
62.7027228
40
0.371612
50
122.8616532
51
133.9707695
0
ARC
8
DEFAULT_255_1_234
10
17.0222447
20
62.7249703
40
0.3473289
50
89.8249009
51
123.4199222
0
ARC
8
DEFAULT_255_1_234
10
17.0272488
20
62.6602967
40
0.4120197
50
74.7876118
51
90.5482747
0
ARC
8
DEFAULT_255_1_234
10
17.0566232
20
62.768803
40
0.2996077
50
39.8178249
51
74.7633718
0
ARC
8
DEFAULT_255_1_234
10
17.0053552
20
62.7288351
40
0.3645855
50
16.8990863
51
39.4829761
0
ARC
8
DEFAULT_255_1_234
10
16.8158848
20
62.6681526
40
0.5635218
50
4.9636328
51
17.2026414
0
ARC
8
DEFAULT_255_1_234
10
16.5740918
20
62.642634
40
0.8066286
50
359.8834553
51
5.2834307
0
ARC
8
DEFAULT_255_1_234
10
17.1778443
20
62.5857803
40
0.3859091
50
180.9846213
51
194.9401313
0
ARC
8
DEFAULT_255_1_234
10
17.0728721
20
62.5570849
40
0.2770883
50
194.80314
51
222.0412631
0
ARC
8
DEFAULT_255_1_234
10
17.0424603
20
62.5269116
40
0.2343055
50
221.5417084
51
268.8614402
0
ARC
8
DEFAULT_255_1_234
10
17.0497597
20
62.5945686
40
0.3021528
50
267.732405
51
270.0097136
0
ARC
8
DEFAULT_255_1_234
10
17.0515407
20
62.6147105
40
0.3222994
50
269.6924892
51
280.4117579
0
ARC
8
DEFAULT_255_1_234
10
17.0691814
20
62.5228193
40
0.2287344
50
280.2255091
51
298.6338936
0
ARC
8
DEFAULT_255_1_234
10
17.0808606
20
62.4984223
40
0.2017294
50
299.0430333
51
300.4643464
0
ARC
8
DEFAULT_255_1_234
10
17.0128611
20
62.6118038
40
0.3339357
50
300.6577328
51
322.0378878
0
ARC
8
DEFAULT_255_1_234
10
16.9778151
20
62.6422021
40
0.3802736
50
321.6750233
51
322.3046845
0
ARC
8
DEFAULT_255_1_234
10
17.0709112
20
62.525537
40
0.3520454
50
276.9728461
51
328.0035423
0
ARC
8
DEFAULT_255_1_234
10
17.0432165
20
62.6735841
40
0.5024498
50
269.8361028
51
278.0581756
0
ARC
8
DEFAULT_255_1_234
10
17.0204902
20
62.7480757
40
0.202159
50
89.2018686
51
117.2851756
0
ARC
8
DEFAULT_255_1_234
10
17.0258071
20
62.7438752
40
0.2083484
50
118.0551165
51
137.4540413
0
ARC
8
DEFAULT_255_1_234
10
17.0632811
20
62.7098304
40
0.2589774
50
137.5109581
51
158.8516286
0
ARC
8
DEFAULT_255_1_234
10
17.1770647
20
62.6639074
40
0.38167
50
158.5845963
51
170.1721436
0
ARC
8
DEFAULT_255_1_234
10
17.2940036
20
62.6406823
40
0.5008657
50
169.8376422
51
173.0566086
0
ARC
8
DEFAULT_255_1_234
10
16.824311
20
62.6917509
40
0.4083467
50
2.9091802
51
12.8847116
0
ARC
8
DEFAULT_255_1_234
10
16.9613786
20
62.7240101
40
0.2675383
50
12.6957781
51
28.6404489
0
ARC
8
DEFAULT_255_1_234
10
17.0155457
20
62.7520458
40
0.2065654
50
29.0169854
51
41.1487595
0
ARC
8
DEFAULT_255_1_234
10
17.0358242
20
62.7697003
40
0.1796786
50
41.1646065
51
85.0013516
0
ARC
8
DEFAULT_255_1_234
10
17.0237339
20
62.6962431
40
0.2539726
50
83.7280015
51
90.0964893
0
LINE
8
DEFAULT_255_1_234
10
18.1991527
20
62.8008248
11
18.0497624
21
62.8008248
0
LINE
8
DEFAULT_255_1_234
10
17.5164549
20
62.4546569
11
17.6650421
21
62.4546569
0
ARC
8
DEFAULT_255_1_234
10
17.9309442
20
62.4191959
40
0.1276617
50
359.3334982
51
18.5871358
0
ARC
8
DEFAULT_255_1_234
10
17.9518079
20
62.4247133
40
0.1061371
50
19.3540742
51
54.6485071
0
ARC
8
DEFAULT_255_1_234
10
17.9013981
20
62.3551919
40
0.1920087
50
54.3827097
51
65.0622807
0
ARC
8
DEFAULT_255_1_234
10
17.8245378
20
62.19349
40
0.3710447
50
64.8282493
51
71.4200025
0
ARC
8
DEFAULT_255_1_234
10
17.7343253
20
61.9288107
40
0.6506741
50
71.3164301
51
75.8006402
0
ARC
8
DEFAULT_255_1_234
10
17.6502073
20
61.6047561
40
0.9854641
50
75.6809531
51
78.0061883
0
ARC
8
DEFAULT_255_1_234
10
18.0950606
20
63.702677
40
1.1591028
50
254.6901892
51
258.0466452
0
ARC
8
DEFAULT_255_1_234
10
17.9912515
20
63.3267781
40
0.7691345
50
249.9010773
51
254.755261
0
ARC
8
DEFAULT_255_1_234
10
17.8908857
20
63.0541982
40
0.478665
50
243.3097214
51
249.9709442
0
ARC
8
DEFAULT_255_1_234
10
17.8279878
20
62.9287778
40
0.3383568
50
234.4047477
51
243.2862168
0
ARC
8
DEFAULT_255_1_234
10
17.7657401
20
62.8428232
40
0.2322322
50
220.8667099
51
234.5493881
0
ARC
8
DEFAULT_255_1_234
10
17.7315342
20
62.8116817
40
0.1859923
50
214.3062465
51
220.5065136
0
ARC
8
DEFAULT_255_1_234
10
17.7289422
20
62.808588
40
0.1821108
50
186.912965
51
213.9618616
0
ARC
8
DEFAULT_255_1_234
10
17.7821516
20
62.8172009
40
0.2359799
50
179.8808832
51
187.4339886
0
ARC
8
DEFAULT_255_1_234
10
17.766665
20
62.8192088
40
0.2204978
50
132.005434
51
180.3942919
0
ARC
8
DEFAULT_255_1_234
10
17.8323263
20
62.7586083
40
0.3095791
50
129.2319861
51
133.5302299
0
ARC
8
DEFAULT_255_1_234
10
17.8376771
20
62.7491928
40
0.3202615
50
100.4410011
51
128.9081242
0
ARC
8
DEFAULT_255_1_234
10
17.8650655
20
62.6206455
40
0.4516583
50
89.6985377
51
100.9026564
0
ARC
8
DEFAULT_255_1_234
10
17.8707697
20
62.6046166
40
0.4676928
50
77.6965325
51
90.4076836
0
ARC
8
DEFAULT_255_1_234
10
17.9038681
20
62.7473413
40
0.3211988
50
50.7276602
51
78.0399361
0
ARC
8
DEFAULT_255_1_234
10
17.948314
20
62.7991296
40
0.2529778
50
25.7545084
51
51.0957453
0
ARC
8
DEFAULT_255_1_234
10
17.9484364
20
62.8041206
40
0.250738
50
359.2468627
51
24.7394243
0
ARC
8
DEFAULT_255_1_234
10
17.9199816
20
62.8012664
40
0.1297815
50
359.8050318
51
45.1544908
0
ARC
8
DEFAULT_255_1_234
10
17.8792958
20
62.7664794
40
0.1831883
50
43.8047702
51
49.6271585
0
ARC
8
DEFAULT_255_1_234
10
17.880086
20
62.7665678
40
0.18261
50
49.7980766
51
82.1218353
0
ARC
8
DEFAULT_255_1_234
10
17.8681831
20
62.7018998
40
0.2483163
50
81.4465357
51
90.1710293
0
ARC
8
DEFAULT_255_1_234
10
17.8657434
20
62.649288
40
0.300932
50
89.6766211
51
99.1264602
0
ARC
8
DEFAULT_255_1_234
10
17.8485896
20
62.7526537
40
0.1961547
50
98.968313
51
113.4570237
0
ARC
8
DEFAULT_255_1_234
10
17.8289981
20
62.7994965
40
0.1453859
50
113.722589
51
127.4763106
0
ARC
8
DEFAULT_255_1_234
10
17.8121627
20
62.8195124
40
0.1192639
50
126.9083309
51
150.3165862
0
ARC
8
DEFAULT_255_1_234
10
17.807396
20
62.8245981
40
0.112623
50
151.3635175
51
180.0701457
0
ARC
8
DEFAULT_255_1_234
10
17.8382745
20
62.822499
40
0.1435149
50
179.2169974
51
179.9954013
0
ARC
8
DEFAULT_255_1_234
10
17.8021802
20
62.8212056
40
0.1074286
50
179.3040112
51
198.4225446
0
ARC
8
DEFAULT_255_1_234
10
17.7829936
20
62.8162127
40
0.0876573
50
199.2895851
51
238.6034594
0
ARC
8
DEFAULT_255_1_234
10
17.8432782
20
62.910845
40
0.1998512
50
237.9846301
51
246.8744712
0
ARC
8
DEFAULT_255_1_234
10
17.9290727
20
63.1071205
40
0.4140547
50
246.6234531
51
251.8168941
0
ARC
8
DEFAULT_255_1_234
10
18.0321271
20
63.4165905
40
0.7402308
50
251.713434
51
255.0778414
0
ARC
8
DEFAULT_255_1_234
10
18.1520533
20
63.8632563
40
1.2027155
50
255.0367487
51
257.4705983
0
ARC
8
DEFAULT_255_1_234
10
17.6412543
20
61.5618863
40
1.1546601
50
73.6837552
51
77.5016755
0
ARC
8
DEFAULT_255_1_234
10
17.7501318
20
61.9318581
40
0.7690009
50
68.7044154
51
73.7249639
0
ARC
8
DEFAULT_255_1_234
10
17.8404339
20
62.1645654
40
0.5193873
50
63.590599
51
68.6626804
0
ARC
8
DEFAULT_255_1_234
10
17.9175358
20
62.3183123
40
0.3473927
50
54.7106439
51
63.7013633
0
ARC
8
DEFAULT_255_1_234
10
17.9799812
20
62.40554
40
0.2401192
50
41.0622434
51
54.8487496
0
ARC
8
DEFAULT_255_1_234
10
18.0141199
20
62.4368592
40
0.1938094
50
34.4950568
51
40.7105546
0
ARC
8
DEFAULT_255_1_234
10
18.0188006
20
62.4417078
40
0.1872106
50
9.3763373
51
34.0833615
0
ARC
8
DEFAULT_255_1_234
10
17.9534876
20
62.4291728
40
0.2536988
50
359.7694872
51
9.7663171
0
ARC
8
DEFAULT_255_1_234
10
17.9732377
20
62.4248764
40
0.2339696
50
335.8654732
51
0.8022045
0
ARC
8
DEFAULT_255_1_234
10
17.9807422
20
62.4262197
40
0.2277108
50
307.7357725
51
334.7849066
0
ARC
8
DEFAULT_255_1_234
10
17.9406597
20
62.4712645
40
0.2878951
50
307.0241536
51
308.5578354
0
ARC
8
DEFAULT_255_1_234
10
17.9148929
20
62.5098801
40
0.3342515
50
282.9362969
51
306.5646424
0
ARC
8
DEFAULT_255_1_234
10
17.8787226
20
62.6566108
40
0.4853615
50
271.1026298
51
283.2200835
0
ARC
8
DEFAULT_255_1_234
10
17.872347
20
62.7807418
40
0.6096052
50
269.9919117
51
271.4772449
0
ARC
8
DEFAULT_255_1_234
10
17.8697225
20
62.6729436
40
0.5018135
50
259.0723564
51
270.289833
0
ARC
8
DEFAULT_255_1_234
10
17.8484957
20
62.5612271
40
0.388099
50
245.4963068
51
259.0227342
0
ARC
8
DEFAULT_255_1_234
10
17.8206914
20
62.5030615
40
0.3236422
50
228.9684658
51
245.7044727
0
ARC
8
DEFAULT_255_1_234
10
17.7941357
20
62.4703575
40
0.2815426
50
214.4011705
51
228.6759915
0
ARC
8
DEFAULT_255_1_234
10
17.7652098
20
62.454529
40
0.2487548
50
179.9705531
51
215.1572795
0
ARC
8
DEFAULT_255_1_234
10
17.8352698
20
62.4618806
40
0.1703809
50
182.4299387
51
203.0329699
0
ARC
8
DEFAULT_255_1_234
10
17.8168355
20
62.4562396
40
0.1512226
50
203.798802
51
232.548466
0
ARC
8
DEFAULT_255_1_234
10
17.8444877
20
62.4913826
40
0.1959374
50
232.3782728
51
256.3934612
0
ARC
8
DEFAULT_255_1_234
10
17.8675238
20
62.5803842
40
0.2878639
50
256.104506
51
268.4626716
0
ARC
8
DEFAULT_255_1_234
10
17.8721723
20
62.6600487
40
0.3676329
50
268.0715632
51
270.0138206
0
ARC
8
DEFAULT_255_1_234
10
17.8740247
20
62.6328083
40
0.3403971
50
269.7031147
51
278.8341955
0
ARC
8
DEFAULT_255_1_234
10
17.8922341
20
62.5197876
40
0.2259217
50
278.6728789
51
292.8232582
0
ARC
8
DEFAULT_255_1_234
10
17.9122879
20
62.4696449
40
0.171929
50
293.1452328
51
303.6655899
0
ARC
8
DEFAULT_255_1_234
10
17.9387758
20
62.4320204
40
0.1259367
50
303.1248165
51
321.742847
0
ARC
8
DEFAULT_255_1_234
10
17.9573638
20
62.4157156
40
0.1012531
50
322.4748573
51
1.1291126
0
LINE
8
DEFAULT_255_2_778
10
20.1088417
20
52.7843993
11
18.7859417
21
52.7843993
0
LINE
8
DEFAULT_255_2_778
10
18.7859417
20
52.7843993
11
18.7859417
21
31.6176993
0
LINE
8
DEFAULT_255_2_778
10
18.7859417
20
26.3260993
11
18.7859417
21
5.1593993
0
LINE
8
DEFAULT_255_2_778
10
18.7859417
20
5.1593993
11
20.1088417
21
5.1593993
0
LINE
8
DEFAULT_255_2_778
10
17.4629834
20
31.6177333
11
20.1087834
21
31.6177333
0
LINE
8
DEFAULT_255_2_778
10
20.1087834
20
31.6177333
11
20.1087834
21
26.3260333
0
LINE
8
DEFAULT_255_2_778
10
20.1087834
20
26.3260333
11
17.4629834
21
26.3260333
0
LINE
8
DEFAULT_255_2_778
10
17.4629834
20
26.3260333
11
17.4629834
21
31.6177333
0
LINE
8
DEFAULT_255_2_778
10
18.2568
20
26.8552666
11
18.2568
21
31.0885666
0
LINE
8
DEFAULT_255_2_778
10
17.9922167
20
30.294875
11
18.2568167
21
31.088575
0
LINE
8
DEFAULT_255_2_778
10
18.2568167
20
31.088575
11
18.5214167
21
30.294875
0
LINE
8
DEFAULT_255_2_778
10
18.5214167
20
30.294875
11
17.9922167
21
30.294875
0
LINE
8
DEFAULT_255_2_778
10
19.3151
20
31.0885666
11
19.3151
21
26.8552666
0
LINE
8
DEFAULT_255_2_778
10
19.0505167
20
27.648975
11
19.3151167
21
26.855275
0
LINE
8
DEFAULT_255_2_778
10
19.3151167
20
26.855275
11
19.5797167
21
27.648975
0
LINE
8
DEFAULT_255_2_778
10
19.5797167
20
27.648975
11
19.0505167
21
27.648975
0
LINE
8
DEFAULT_255_1_234
10
4.3933522
20
61.3723211
11
4.7258662
21
60.4077093
0
LINE
8
DEFAULT_255_1_234
10
4.7258662
20
60.4077093
11
5.0599865
21
61.3723211
0
LINE
8
DEFAULT_255_1_234
10
5.0599865
20
61.3723211
11
5.228653
21
61.3723211
0
LINE
8
DEFAULT_255_1_234
10
5.228653
20
61.3723211
11
4.7949391
21
60.2029
0
LINE
8
DEFAULT_255_1_234
10
4.7949391
20
60.2029
11
4.6583996
21
60.2029
0
LINE
8
DEFAULT_255_1_234
10
4.6583996
20
60.2029
11
4.2254889
21
61.3723211
0
LINE
8
DEFAULT_255_1_234
10
4.2254889
20
61.3723211
11
4.3933522
21
61.3723211
0
LINE
8
DEFAULT_255_1_234
10
5.787662
20
61.1715276
11
5.787662
21
60.8301788
0
LINE
8
DEFAULT_255_1_234
10
5.787662
20
60.8301788
11
6.1137505
21
60.8301788
0
LINE
8
DEFAULT_255_1_234
10
6.1137505
20
60.8301788
11
6.1137505
21
60.6896233
0
LINE
8
DEFAULT_255_1_234
10
6.1137505
20
60.6896233
11
5.787662
21
60.6896233
0
LINE
8
DEFAULT_255_1_234
10
5.787662
20
60.6896233
11
5.787662
21
60.3201634
0
LINE
8
DEFAULT_255_1_234
10
5.787662
20
60.3201634
11
5.6382716
21
60.3201634
0
LINE
8
DEFAULT_255_1_234
10
5.6382716
20
60.3201634
11
5.6382716
21
60.6896233
0
LINE
8
DEFAULT_255_1_234
10
5.6382716
20
60.6896233
11
5.3121831
21
60.6896233
0
LINE
8
DEFAULT_255_1_234
10
5.3121831
20
60.6896233
11
5.3121831
21
60.8301788
0
LINE
8
DEFAULT_255_1_234
10
5.3121831
20
60.8301788
11
5.6382716
21
60.8301788
0
LINE
8
DEFAULT_255_1_234
10
5.6382716
20
60.8301788
11
5.6382716
21
61.1715276
0
LINE
8
DEFAULT_255_1_234
10
5.6382716
20
61.1715276
11
5.787662
21
61.1715276
0
LINE
8
DEFAULT_255_1_234
10
23.0665522
20
61.3723211
11
23.3990662
21
60.4077093
0
LINE
8
DEFAULT_255_1_234
10
23.3990662
20
60.4077093
11
23.7331865
21
61.3723211
0
LINE
8
DEFAULT_255_1_234
10
23.7331865
20
61.3723211
11
23.901853
21
61.3723211
0
LINE
8
DEFAULT_255_1_234
10
23.901853
20
61.3723211
11
23.4681391
21
60.2029
0
LINE
8
DEFAULT_255_1_234
10
23.4681391
20
60.2029
11
23.3315996
21
60.2029
0
LINE
8
DEFAULT_255_1_234
10
23.3315996
20
60.2029
11
22.8986889
21
61.3723211
0
LINE
8
DEFAULT_255_1_234
10
22.8986889
20
61.3723211
11
23.0665522
21
61.3723211
0
LINE
8
DEFAULT_255_1_234
10
24.3146843
20
60.7603026
11
24.3146843
21
60.6390234
0
LINE
8
DEFAULT_255_1_234
10
24.3146843
20
60.6390234
11
23.9227355
21
60.6390234
0
LINE
8
DEFAULT_255_1_234
10
23.9227355
20
60.6390234
11
23.9227355
21
60.7603026
0
LINE
8
DEFAULT_255_1_234
10
23.9227355
20
60.7603026
11
24.3146843
21
60.7603026
0
LINE
8
DEFAULT_255_1_234
10
22.5432458
20
5.8098211
11
22.8468456
21
5.222701
0
LINE
8
DEFAULT_255_1_234
10
22.8468456
20
5.222701
11
23.1520516
21
5.8098211
0
LINE
8
DEFAULT_255_1_234
10
23.1520516
20
5.8098211
11
23.3271435
21
5.8098211
0
LINE
8
DEFAULT_255_1_234
10
23.3271435
20
5.8098211
11
22.9239502
21
5.0765234
0
LINE
8
DEFAULT_255_1_234
10
22.9239502
20
5.0765234
11
22.9239502
21
4.6404
0
LINE
8
DEFAULT_255_1_234
10
22.9239502
20
4.6404
11
22.7697409
21
4.6404
0
LINE
8
DEFAULT_255_1_234
10
22.7697409
20
4.6404
11
22.7697409
21
5.0765234
0
LINE
8
DEFAULT_255_1_234
10
22.7697409
20
5.0765234
11
22.3665476
21
5.8098211
0
LINE
8
DEFAULT_255_1_234
10
22.3665476
20
5.8098211
11
22.5432458
21
5.8098211
0
LINE
8
DEFAULT_255_1_234
10
24.0668666
20
5.8098211
11
24.0668666
21
5.033152
0
LINE
8
DEFAULT_255_1_234
10
24.0668666
20
5.033152
11
24.2291077
21
5.033152
0
LINE
8
DEFAULT_255_1_234
10
24.2291077
20
5.033152
11
24.2291077
21
4.9118728
0
LINE
8
DEFAULT_255_1_234
10
24.2291077
20
4.9118728
11
24.0668666
21
4.9118728
0
LINE
8
DEFAULT_255_1_234
10
24.0668666
20
4.9118728
11
24.0668666
21
4.6404
0
LINE
8
DEFAULT_255_1_234
10
24.0668666
20
4.6404
11
23.9174763
21
4.6404
0
LINE
8
DEFAULT_255_1_234
10
23.9174763
20
4.6404
11
23.9174763
21
4.9118728
0
LINE
8
DEFAULT_255_1_234
10
23.9174763
20
4.9118728
11
23.384972
21
4.9118728
0
LINE
8
DEFAULT_255_1_234
10
23.384972
20
4.9118728
11
23.384972
21
4.9994187
0
LINE
8
DEFAULT_255_1_234
10
23.384972
20
4.9994187
11
23.9086414
21
5.8098211
0
LINE
8
DEFAULT_255_1_234
10
23.9086414
20
5.8098211
11
24.0668666
21
5.8098211
0
LINE
8
DEFAULT_255_1_234
10
23.8998064
20
5.5744912
11
23.5536385
21
5.033152
0
LINE
8
DEFAULT_255_1_234
10
23.5536385
20
5.033152
11
23.9174763
21
5.033152
0
LINE
8
DEFAULT_255_1_234
10
23.9174763
20
5.033152
11
23.9174763
21
5.6066181
0
LINE
8
DEFAULT_255_1_234
10
23.9174763
20
5.6066181
11
23.8998064
21
5.5744912
0
LINE
8
DEFAULT_255_1_234
10
23.3185119
20
12.6991792
11
23.3185119
21
12.5779
0
LINE
8
DEFAULT_255_1_234
10
23.3185119
20
12.5779
11
22.552284
21
12.5779
0
LINE
8
DEFAULT_255_1_234
10
22.552284
20
12.5779
11
22.552284
21
12.6847221
0
LINE
8
DEFAULT_255_1_234
10
22.552284
20
12.6847221
11
22.9570836
21
13.1344995
0
LINE
8
DEFAULT_255_1_234
10
22.6783823
20
13.4027595
11
22.5297952
21
13.4027595
0
LINE
8
DEFAULT_255_1_234
10
23.0446296
20
13.0389218
11
22.7313918
21
12.6991792
0
LINE
8
DEFAULT_255_1_234
10
22.7313918
20
12.6991792
11
23.3185119
21
12.6991792
0
ARC
8
DEFAULT_255_1_234
10
21.608067
20
14.3274527
40
1.8008286
50
318.5132453
51
320.7828378
0
ARC
8
DEFAULT_255_1_234
10
22.1367644
20
13.8971426
40
1.1191493
50
320.7372736
51
323.9737074
0
ARC
8
DEFAULT_255_1_234
10
22.5287501
20
13.6131361
40
0.6350923
50
323.8961724
51
328.6421089
0
ARC
8
DEFAULT_255_1_234
10
22.7334096
20
13.4869031
40
0.3946393
50
328.8299013
51
331.789948
0
ARC
8
DEFAULT_255_1_234
10
22.8331274
20
13.4354509
40
0.2824501
50
331.4255242
51
352.9364833
0
ARC
8
DEFAULT_255_1_234
10
22.8467775
20
13.4323976
40
0.2685315
50
353.2248685
51
0.0169286
0
ARC
8
DEFAULT_255_1_234
10
22.8677652
20
13.434695
40
0.2475536
50
359.4866256
51
15.9339782
0
ARC
8
DEFAULT_255_1_234
10
22.9184637
20
13.4483286
40
0.1950618
50
16.1714718
51
43.5284424
0
ARC
8
DEFAULT_255_1_234
10
22.9261946
20
13.4560573
40
0.184134
50
43.4415429
51
83.1661404
0
ARC
8
DEFAULT_255_1_234
10
22.9127864
20
13.3823771
40
0.258926
50
82.160215
51
90.1505798
0
ARC
8
DEFAULT_255_1_234
10
22.9096291
20
13.3286865
40
0.3126255
50
89.5460705
51
102.5418777
0
ARC
8
DEFAULT_255_1_234
10
22.8853377
20
13.4317665
40
0.2067346
50
102.1739365
51
129.2061916
0
ARC
8
DEFAULT_255_1_234
10
22.8774449
20
13.4442094
40
0.1921118
50
129.7279328
51
135.7542026
0
ARC
8
DEFAULT_255_1_234
10
22.8895977
20
13.4345045
40
0.2075944
50
136.175737
51
166.3674722
0
ARC
8
DEFAULT_255_1_234
10
22.9902896
20
13.4075182
40
0.3118201
50
165.9092917
51
178.8683903
0
ARC
8
DEFAULT_255_1_234
10
23.0767757
20
13.4028179
40
0.3983935
50
178.438168
51
180.0083905
0
ARC
8
DEFAULT_255_1_234
10
22.9366359
20
13.4067231
40
0.4068601
50
163.2878735
51
180.5581814
0
ARC
8
DEFAULT_255_1_234
10
22.8564621
20
13.428784
40
0.3237344
50
133.454115
51
162.9470031
0
ARC
8
DEFAULT_255_1_234
10
22.8743162
20
13.4098
40
0.349795
50
100.7869394
51
133.4384016
0
ARC
8
DEFAULT_255_1_234
10
22.9090934
20
13.2549319
40
0.5084616
50
89.6605301
51
101.3704185
0
ARC
8
DEFAULT_255_1_234
10
22.9157273
20
13.2610496
40
0.502348
50
78.2171172
51
90.4130393
0
ARC
8
DEFAULT_255_1_234
10
22.9512351
20
13.4234637
40
0.3361092
50
55.9268222
51
78.4888551
0
ARC
8
DEFAULT_255_1_234
10
22.9708791
20
13.4573324
40
0.2970617
50
47.9292255
51
55.4054003
0
ARC
8
DEFAULT_255_1_234
10
22.9810352
20
13.4676502
40
0.2825983
50
4.3347696
51
48.0560701
0
ARC
8
DEFAULT_255_1_234
10
22.8714745
20
13.4506601
40
0.393225
50
359.925209
51
5.5967654
0
ARC
8
DEFAULT_255_1_234
10
22.9143637
20
13.4562816
40
0.3503892
50
337.8914096
51
358.9967724
0
ARC
8
DEFAULT_255_1_234
10
22.6430049
20
13.5609706
40
0.6412172
50
326.9135351
51
338.3505194
0
ARC
8
DEFAULT_255_1_234
10
22.2444353
20
13.8164284
40
1.1146189
50
319.6472867
51
327.095818
0
ARC
8
DEFAULT_255_1_234
10
21.8611356
20
14.1326
40
1.6114559
50
317.2586784
51
319.9046139
0
LINE
8
DEFAULT_255_1_234
10
24.2196729
20
12.9489663
11
24.3746854
21
12.9489663
0
LINE
8
DEFAULT_255_1_234
10
23.4743276
20
13.1079947
11
23.4743276
21
13.2204391
0
LINE
8
DEFAULT_255_1_234
10
24.3746854
20
13.3714357
11
24.2196729
21
13.3714357
0
LINE
8
DEFAULT_255_1_234
10
23.6293401
20
13.2164232
11
23.6293401
21
13.1031757
0
ARC
8
DEFAULT_255_1_234
10
23.8266241
20
13.0086846
40
0.5513052
50
340.1774281
51
353.7814284
0
ARC
8
DEFAULT_255_1_234
10
23.9837594
20
12.9501582
40
0.3836379
50
311.4558989
51
340.4421614
0
ARC
8
DEFAULT_255_1_234
10
23.9804262
20
12.9612528
40
0.3941894
50
282.4333181
51
310.7513653
0
ARC
8
DEFAULT_255_1_234
10
23.9365001
20
13.1427679
40
0.5809175
50
269.9358511
51
282.809604
0
ARC
8
DEFAULT_255_1_234
10
23.9313067
20
13.2885212
40
0.7266847
50
270.0021091
51
270.3581957
0
ARC
8
DEFAULT_255_1_234
10
23.9260484
20
13.0284585
40
0.4666519
50
250.7884749
51
270.6489167
0
ARC
8
DEFAULT_255_1_234
10
23.9092319
20
12.9647319
40
0.4009729
50
219.3627325
51
250.0611886
0
ARC
8
DEFAULT_255_1_234
10
23.992153
20
13.0352042
40
0.5097822
50
193.5479632
51
219.5756669
0
ARC
8
DEFAULT_255_1_234
10
24.2293151
20
13.0967919
40
0.7547848
50
181.1218675
51
193.87563
0
ARC
8
DEFAULT_255_1_234
10
24.4363332
20
13.107858
40
0.9620055
50
179.9918545
51
181.5394234
0
ARC
8
DEFAULT_255_1_234
10
24.2512434
20
13.2241788
40
0.7769248
50
169.5837241
51
180.2757934
0
ARC
8
DEFAULT_255_1_234
10
24.0675372
20
13.2581229
40
0.590109
50
155.0365899
51
169.6003176
0
ARC
8
DEFAULT_255_1_234
10
23.9539836
20
13.3128677
40
0.4640625
50
136.783148
51
155.2472683
0
ARC
8
DEFAULT_255_1_234
10
23.9150313
20
13.3459562
40
0.4130255
50
121.7633186
51
136.428115
0
ARC
8
DEFAULT_255_1_234
10
23.9285275
20
13.3210227
40
0.4413323
50
95.6459699
51
121.5490577
0
ARC
8
DEFAULT_255_1_234
10
23.9442557
20
13.2101949
40
0.55319
50
89.924208
51
96.1377933
0
ARC
8
DEFAULT_255_1_234
10
23.949299
20
13.2220542
40
0.5413475
50
76.6779277
51
90.4563316
0
ARC
8
DEFAULT_255_1_234
10
23.9886613
20
13.3811114
40
0.3775041
50
47.485847
51
76.9287264
0
ARC
8
DEFAULT_255_1_234
10
23.9739586
20
13.3711159
40
0.3948286
50
16.5424086
51
46.8933463
0
ARC
8
DEFAULT_255_1_234
10
23.8131743
20
13.3182861
40
0.564021
50
5.4072051
51
17.0365086
0
ARC
8
DEFAULT_255_1_234
10
23.669276
20
13.2951679
40
0.5556559
50
7.8891745
51
15.9239216
0
ARC
8
DEFAULT_255_1_234
10
23.8679773
20
13.3528631
40
0.3487515
50
15.7653144
51
27.9410532
0
ARC
8
DEFAULT_255_1_234
10
23.9783991
20
13.411979
40
0.2235026
50
27.8166557
51
46.4008329
0
ARC
8
DEFAULT_255_1_234
10
23.9833634
20
13.4114082
40
0.2205286
50
47.4371857
51
75.0698205
0
ARC
8
DEFAULT_255_1_234
10
23.9525029
20
13.3039765
40
0.3322915
50
74.7008593
51
87.8124495
0
ARC
8
DEFAULT_255_1_234
10
23.9451716
20
13.1983844
40
0.4380987
50
87.3814673
51
90.0240855
0
ARC
8
DEFAULT_255_1_234
10
23.9413259
20
13.3161291
40
0.3203749
50
89.3451631
51
108.5745436
0
ARC
8
DEFAULT_255_1_234
10
23.9276365
20
13.3674908
40
0.2673494
50
109.2998449
51
143.3037509
0
ARC
8
DEFAULT_255_1_234
10
24.0038437
20
13.3088881
40
0.3634757
50
143.0753173
51
163.1916937
0
ARC
8
DEFAULT_255_1_234
10
24.1990165
20
13.2472967
40
0.5681262
50
162.9373603
51
174.6208611
0
ARC
8
DEFAULT_255_1_234
10
24.4616207
20
13.218501
40
0.8322832
50
174.3419979
51
180.1430411
0
ARC
8
DEFAULT_255_1_234
10
24.3685363
20
13.0990698
40
0.7392076
50
179.6817502
51
189.150529
0
ARC
8
DEFAULT_255_1_234
10
24.1184611
20
13.057419
40
0.4856932
50
188.9910863
51
203.5773039
0
ARC
8
DEFAULT_255_1_234
10
24.0104944
20
13.0126211
40
0.3688271
50
203.9077269
51
215.1312379
0
ARC
8
DEFAULT_255_1_234
10
23.9182038
20
12.9410941
40
0.2522457
50
213.9071664
51
263.8849284
0
ARC
8
DEFAULT_255_1_234
10
23.9307367
20
13.0195518
40
0.3316174
50
263.1758525
51
270.1031083
0
ARC
8
DEFAULT_255_1_234
10
23.9339459
20
13.1442365
40
0.4563091
50
269.6719807
51
279.0609165
0
ARC
8
DEFAULT_255_1_234
10
23.9606227
20
12.9829907
40
0.2928759
50
278.8750225
51
293.6346586
0
ARC
8
DEFAULT_255_1_234
10
23.9926435
20
12.90779
40
0.2111472
50
293.8553404
51
310.0518804
0
ARC
8
DEFAULT_255_1_234
10
23.9931289
20
12.9015516
40
0.2060917
50
311.0646779
51
332.0108348
0
ARC
8
DEFAULT_255_1_234
10
23.8739016
20
12.9672978
40
0.3422352
50
331.6588543
51
343.2878891
0
ARC
8
DEFAULT_255_1_234
10
23.6676531
20
13.0306798
40
0.5580003
50
343.1446044
51
351.010618
0
ARC
8
DEFAULT_255_1_234
10
23.5135177
20
13.0587871
40
0.7146438
50
350.7157277
51
351.1602153
0
LINE
8
DEFAULT_255_1_234
10
22.6490458
20
21.6848211
11
22.9526456
21
21.097701
0
LINE
8
DEFAULT_255_1_234
10
22.9526456
20
21.097701
11
23.2578516
21
21.6848211
0
LINE
8
DEFAULT_255_1_234
10
23.2578516
20
21.6848211
11
23.4329435
21
21.6848211
0
LINE
8
DEFAULT_255_1_234
10
23.4329435
20
21.6848211
11
23.0297502
21
20.9515234
0
LINE
8
DEFAULT_255_1_234
10
23.0297502
20
20.9515234
11
23.0297502
21
20.5154
0
LINE
8
DEFAULT_255_1_234
10
23.0297502
20
20.5154
11
22.8755409
21
20.5154
0
LINE
8
DEFAULT_255_1_234
10
22.8755409
20
20.5154
11
22.8755409
21
20.9515234
0
LINE
8
DEFAULT_255_1_234
10
22.8755409
20
20.9515234
11
22.4723476
21
21.6848211
0
LINE
8
DEFAULT_255_1_234
10
22.4723476
20
21.6848211
11
22.6490458
21
21.6848211
0
LINE
8
DEFAULT_255_1_234
10
23.7614416
20
21.0511169
11
23.7614416
21
21.1723962
0
LINE
8
DEFAULT_255_1_234
10
23.7614416
20
21.1723962
11
23.8730828
21
21.1723962
0
LINE
8
DEFAULT_255_1_234
10
23.6827306
20
21.3780087
11
23.5341434
21
21.3780087
0
LINE
8
DEFAULT_255_1_234
10
23.5237021
20
20.8238188
11
23.6730925
21
20.8238188
0
LINE
8
DEFAULT_255_1_234
10
23.8730828
20
21.0511169
11
23.7614416
21
21.0511169
0
ARC
8
DEFAULT_255_1_234
10
23.8701694
20
21.5116713
40
0.3392876
50
270.4919872
51
281.8951556
0
ARC
8
DEFAULT_255_1_234
10
23.8942956
20
21.4014702
40
0.2264817
50
281.6691735
51
301.2943132
0
ARC
8
DEFAULT_255_1_234
10
23.9113166
20
21.3703304
40
0.1910381
50
301.7833094
51
311.7545298
0
ARC
8
DEFAULT_255_1_234
10
23.9204742
20
21.3601748
40
0.1773635
50
311.7323931
51
354.2802411
0
ARC
8
DEFAULT_255_1_234
10
23.8478367
20
21.3726722
40
0.2509385
50
353.0937916
51
0.1181479
0
ARC
8
DEFAULT_255_1_234
10
23.8017152
20
21.3774386
40
0.2970898
50
359.1805295
51
15.0453146
0
ARC
8
DEFAULT_255_1_234
10
23.9362989
20
21.4166992
40
0.1569564
50
13.9577229
51
77.6713066
0
ARC
8
DEFAULT_255_1_234
10
23.8976518
20
21.2781949
40
0.3006298
50
76.1116566
51
90.7026153
0
ARC
8
DEFAULT_255_1_234
10
23.8917356
20
21.3055545
40
0.2732568
50
89.5324876
51
103.531937
0
ARC
8
DEFAULT_255_1_234
10
23.8716801
20
21.3854884
40
0.1908508
50
103.2931773
51
133.5619022
0
ARC
8
DEFAULT_255_1_234
10
23.8672289
20
21.3914375
40
0.1834746
50
133.8349307
51
173.5344437
0
ARC
8
DEFAULT_255_1_234
10
23.9395332
20
21.3786213
40
0.2568033
50
172.5096846
51
180.1366907
0
ARC
8
DEFAULT_255_1_234
10
23.8444226
20
21.3820622
40
0.3103056
50
155.3484492
51
180.7484736
0
ARC
8
DEFAULT_255_1_234
10
23.8395315
20
21.3791846
40
0.3070957
50
131.5744599
51
154.4798489
0
ARC
8
DEFAULT_255_1_234
10
23.8708462
20
21.347531
40
0.3515643
50
96.9875458
51
131.9690667
0
ARC
8
DEFAULT_255_1_234
10
23.8927942
20
21.2229636
40
0.4779224
50
89.8596053
51
97.7825159
0
ARC
8
DEFAULT_255_1_234
10
23.8976005
20
21.1967616
40
0.5041361
50
78.3655447
51
90.4131539
0
ARC
8
DEFAULT_255_1_234
10
23.9333923
20
21.3626887
40
0.3344039
50
56.6229102
51
78.638727
0
ARC
8
DEFAULT_255_1_234
10
23.9548867
20
21.4002805
40
0.2912001
50
47.0253525
51
56.0854072
0
ARC
8
DEFAULT_255_1_234
10
23.9568647
20
21.4042223
40
0.2869704
50
10.9208013
51
46.7778124
0
ARC
8
DEFAULT_255_1_234
10
23.8204713
20
21.3726857
40
0.426899
50
359.6364486
51
11.6087304
0
ARC
8
DEFAULT_255_1_234
10
24.0039557
20
21.3711752
40
0.243409
50
332.3549906
51
359.7179418
0
ARC
8
DEFAULT_255_1_234
10
23.9389159
20
21.4020142
40
0.3153459
50
325.2333722
51
332.8745602
0
ARC
8
DEFAULT_255_1_234
10
23.9541783
20
21.3913828
40
0.2967456
50
292.9802137
51
325.2392345
0
ARC
8
DEFAULT_255_1_234
10
23.9267157
20
21.4447863
40
0.3566604
50
292.5402179
51
293.6924929
0
ARC
8
DEFAULT_255_1_234
10
23.9659752
20
20.7993091
40
0.3307468
50
57.6435486
51
72.8625112
0
ARC
8
DEFAULT_255_1_234
10
24.0014252
20
20.8567549
40
0.2632492
50
36.7248896
51
57.4697979
0
ARC
8
DEFAULT_255_1_234
10
24.0002885
20
20.858022
40
0.2634081
50
8.0545065
51
36.356114
0
ARC
8
DEFAULT_255_1_234
10
23.914007
20
20.8425174
40
0.3510261
50
359.8320645
51
8.5869982
0
ARC
8
DEFAULT_255_1_234
10
23.8764846
20
20.8377101
40
0.3885653
50
343.9829931
51
0.5571613
0
ARC
8
DEFAULT_255_1_234
10
23.9651043
20
20.8134438
40
0.2966924
50
311.6359546
51
343.7651759
0
ARC
8
DEFAULT_255_1_234
10
23.9272613
20
20.8561102
40
0.3537231
50
279.7829875
51
311.6255694
0
ARC
8
DEFAULT_255_1_234
10
23.8971389
20
20.999828
40
0.5004971
50
269.7286406
51
280.3856417
0
ARC
8
DEFAULT_255_1_234
10
23.8909461
20
20.9956996
40
0.4963778
50
256.6828919
51
270.4412052
0
ARC
8
DEFAULT_255_1_234
10
23.8570757
20
20.8572394
40
0.3538406
50
229.4223008
51
256.8556159
0
ARC
8
DEFAULT_255_1_234
10
23.815615
20
20.8105736
40
0.2914296
50
181.818294
51
229.6455059
0
ARC
8
DEFAULT_255_1_234
10
23.9196106
20
20.8236496
40
0.3959084
50
179.9755256
51
183.2323064
0
ARC
8
DEFAULT_255_1_234
10
23.9023852
20
20.8216037
40
0.2293034
50
179.4465117
51
196.2869258
0
ARC
8
DEFAULT_255_1_234
10
23.853626
20
20.8082651
40
0.1787621
50
196.5661473
51
227.705904
0
ARC
8
DEFAULT_255_1_234
10
23.8700355
20
20.8266155
40
0.2033784
50
227.7652068
51
257.8762805
0
ARC
8
DEFAULT_255_1_234
10
23.8925325
20
20.9209156
40
0.3003081
50
257.4584385
51
270.426602
0
ARC
8
DEFAULT_255_1_234
10
23.8970891
20
20.9498996
40
0.329292
50
269.5962073
51
280.8789248
0
ARC
8
DEFAULT_255_1_234
10
23.920042
20
20.8352685
40
0.2123908
50
280.6346389
51
299.8595945
0
ARC
8
DEFAULT_255_1_234
10
23.9391327
20
20.7990212
40
0.171457
50
300.3576302
51
314.5517981
0
ARC
8
DEFAULT_255_1_234
10
23.9308387
20
20.8050919
40
0.1816095
50
315.0728369
51
345.0431014
0
ARC
8
DEFAULT_255_1_234
10
23.8385201
20
20.8319841
40
0.2777492
50
344.5986631
51
357.9269593
0
ARC
8
DEFAULT_255_1_234
10
23.7489528
20
20.8381276
40
0.3674917
50
357.4748886
51
0.0231117
0
ARC
8
DEFAULT_255_1_234
10
23.8512637
20
20.8405679
40
0.2651907
50
359.5047933
51
13.4239635
0
ARC
8
DEFAULT_255_1_234
10
23.9379281
20
20.8627478
40
0.1757509
50
12.9498199
51
48.7551375
0
ARC
8
DEFAULT_255_1_234
10
23.9197014
20
20.83784
40
0.2065134
50
49.5088623
51
72.1836453
0
ARC
8
DEFAULT_255_1_234
10
23.8839167
20
20.7316291
40
0.3185836
50
71.9010081
51
84.3554254
0
ARC
8
DEFAULT_255_1_234
10
23.8677799
20
20.5955326
40
0.4556151
50
84.0193428
51
89.333121
0
LINE
8
DEFAULT_255_1_234
10
22.6490458
20
29.6223211
11
22.9526456
21
29.035201
0
LINE
8
DEFAULT_255_1_234
10
22.9526456
20
29.035201
11
23.2578516
21
29.6223211
0
LINE
8
DEFAULT_255_1_234
10
23.2578516
20
29.6223211
11
23.4329435
21
29.6223211
0
LINE
8
DEFAULT_255_1_234
10
23.4329435
20
29.6223211
11
23.0297502
21
28.8890234
0
LINE
8
DEFAULT_255_1_234
10
23.0297502
20
28.8890234
11
23.0297502
21
28.4529
0
LINE
8
DEFAULT_255_1_234
10
23.0297502
20
28.4529
11
22.8755409
21
28.4529
0
LINE
8
DEFAULT_255_1_234
10
22.8755409
20
28.4529
11
22.8755409
21
28.8890234
0
LINE
8
DEFAULT_255_1_234
10
22.8755409
20
28.8890234
11
22.4723476
21
29.6223211
0
LINE
8
DEFAULT_255_1_234
10
22.4723476
20
29.6223211
11
22.6490458
21
29.6223211
0
LINE
8
DEFAULT_255_1_234
10
24.3116157
20
28.5741792
11
24.3116157
21
28.4529
0
LINE
8
DEFAULT_255_1_234
10
24.3116157
20
28.4529
11
23.5453878
21
28.4529
0
LINE
8
DEFAULT_255_1_234
10
23.5453878
20
28.4529
11
23.5453878
21
28.5597221
0
LINE
8
DEFAULT_255_1_234
10
23.5453878
20
28.5597221
11
23.9501875
21
29.0094995
0
LINE
8
DEFAULT_255_1_234
10
23.6714861
20
29.2777595
11
23.522899
21
29.2777595
0
LINE
8
DEFAULT_255_1_234
10
24.0377334
20
28.9139218
11
23.7244956
21
28.5741792
0
LINE
8
DEFAULT_255_1_234
10
23.7244956
20
28.5741792
11
24.3116157
21
28.5741792
0
ARC
8
DEFAULT_255_1_234
10
22.6011708
20
30.2024527
40
1.8008286
50
318.5132453
51
320.7828378
0
ARC
8
DEFAULT_255_1_234
10
23.1298682
20
29.7721426
40
1.1191493
50
320.7372736
51
323.9737074
0
ARC
8
DEFAULT_255_1_234
10
23.5218539
20
29.4881361
40
0.6350923
50
323.8961724
51
328.6421089
0
ARC
8
DEFAULT_255_1_234
10
23.7265134
20
29.3619031
40
0.3946393
50
328.8299013
51
331.789948
0
ARC
8
DEFAULT_255_1_234
10
23.8262313
20
29.3104509
40
0.2824501
50
331.4255242
51
352.9364833
0
ARC
8
DEFAULT_255_1_234
10
23.8398813
20
29.3073976
40
0.2685315
50
353.2248685
51
0.0169286
0
ARC
8
DEFAULT_255_1_234
10
23.860869
20
29.309695
40
0.2475536
50
359.4866256
51
15.9339782
0
ARC
8
DEFAULT_255_1_234
10
23.9115675
20
29.3233286
40
0.1950618
50
16.1714718
51
43.5284424
0
ARC
8
DEFAULT_255_1_234
10
23.9192984
20
29.3310573
40
0.184134
50
43.4415429
51
83.1661404
0
ARC
8
DEFAULT_255_1_234
10
23.9058902
20
29.2573771
40
0.258926
50
82.160215
51
90.1505798
0
ARC
8
DEFAULT_255_1_234
10
23.9027329
20
29.2036865
40
0.3126255
50
89.5460705
51
102.5418777
0
ARC
8
DEFAULT_255_1_234
10
23.8784416
20
29.3067665
40
0.2067346
50
102.1739365
51
129.2061916
0
ARC
8
DEFAULT_255_1_234
10
23.8705487
20
29.3192094
40
0.1921118
50
129.7279328
51
135.7542026
0
ARC
8
DEFAULT_255_1_234
10
23.8827015
20
29.3095045
40
0.2075944
50
136.175737
51
166.3674722
0
ARC
8
DEFAULT_255_1_234
10
23.9833934
20
29.2825182
40
0.3118201
50
165.9092917
51
178.8683903
0
ARC
8
DEFAULT_255_1_234
10
24.0698795
20
29.2778179
40
0.3983935
50
178.438168
51
180.0083905
0
ARC
8
DEFAULT_255_1_234
10
23.9297398
20
29.2817231
40
0.4068601
50
163.2878735
51
180.5581814
0
ARC
8
DEFAULT_255_1_234
10
23.8495659
20
29.303784
40
0.3237344
50
133.454115
51
162.9470031
0
ARC
8
DEFAULT_255_1_234
10
23.86742
20
29.2848
40
0.349795
50
100.7869394
51
133.4384016
0
ARC
8
DEFAULT_255_1_234
10
23.9021972
20
29.1299319
40
0.5084616
50
89.6605301
51
101.3704185
0
ARC
8
DEFAULT_255_1_234
10
23.9088311
20
29.1360496
40
0.502348
50
78.2171172
51
90.4130393
0
ARC
8
DEFAULT_255_1_234
10
23.9443389
20
29.2984637
40
0.3361092
50
55.9268222
51
78.4888551
0
ARC
8
DEFAULT_255_1_234
10
23.9639829
20
29.3323324
40
0.2970617
50
47.9292255
51
55.4054003
0
ARC
8
DEFAULT_255_1_234
10
23.974139
20
29.3426502
40
0.2825983
50
4.3347696
51
48.0560701
0
ARC
8
DEFAULT_255_1_234
10
23.8645783
20
29.3256601
40
0.393225
50
359.925209
51
5.5967654
0
ARC
8
DEFAULT_255_1_234
10
23.9074675
20
29.3312816
40
0.3503892
50
337.8914096
51
358.9967724
0
ARC
8
DEFAULT_255_1_234
10
23.6361087
20
29.4359706
40
0.6412172
50
326.9135351
51
338.3505194
0
ARC
8
DEFAULT_255_1_234
10
23.2375391
20
29.6914284
40
1.1146189
50
319.6472867
51
327.095818
0
ARC
8
DEFAULT_255_1_234
10
22.8542394
20
30.0076
40
1.6114559
50
317.2586784
51
319.9046139
0
LINE
8
DEFAULT_255_1_234
10
22.6578458
20
37.5598211
11
22.9614456
21
36.972701
0
LINE
8
DEFAULT_255_1_234
10
22.9614456
20
36.972701
11
23.2666516
21
37.5598211
0
LINE
8
DEFAULT_255_1_234
10
23.2666516
20
37.5598211
11
23.4417435
21
37.5598211
0
LINE
8
DEFAULT_255_1_234
10
23.4417435
20
37.5598211
11
23.0385502
21
36.8265234
0
LINE
8
DEFAULT_255_1_234
10
23.0385502
20
36.8265234
11
23.0385502
21
36.3904
0
LINE
8
DEFAULT_255_1_234
10
23.0385502
20
36.3904
11
22.8843409
21
36.3904
0
LINE
8
DEFAULT_255_1_234
10
22.8843409
20
36.3904
11
22.8843409
21
36.8265234
0
LINE
8
DEFAULT_255_1_234
10
22.8843409
20
36.8265234
11
22.4811476
21
37.5598211
0
LINE
8
DEFAULT_255_1_234
10
22.4811476
20
37.5598211
11
22.6578458
21
37.5598211
0
LINE
8
DEFAULT_255_1_234
10
24.0425175
20
37.5654433
11
24.0425175
21
36.3904
0
LINE
8
DEFAULT_255_1_234
10
24.0425175
20
36.3904
11
23.8931272
21
36.3904
0
LINE
8
DEFAULT_255_1_234
10
23.8931272
20
36.3904
11
23.8931272
21
37.3807133
0
LINE
8
DEFAULT_255_1_234
10
23.8931272
20
37.3807133
11
23.5935434
21
37.2706785
0
LINE
8
DEFAULT_255_1_234
10
23.5935434
20
37.2706785
11
23.5935434
21
37.4056117
0
LINE
8
DEFAULT_255_1_234
10
23.5935434
20
37.4056117
11
24.0192255
21
37.5654433
0
LINE
8
DEFAULT_255_1_234
10
24.0192255
20
37.5654433
11
24.0425175
21
37.5654433
0
LINE
8
DEFAULT_255_1_234
10
22.6490458
20
45.4973211
11
22.9526456
21
44.910201
0
LINE
8
DEFAULT_255_1_234
10
22.9526456
20
44.910201
11
23.2578516
21
45.4973211
0
LINE
8
DEFAULT_255_1_234
10
23.2578516
20
45.4973211
11
23.4329435
21
45.4973211
0
LINE
8
DEFAULT_255_1_234
10
23.4329435
20
45.4973211
11
23.0297502
21
44.7640234
0
LINE
8
DEFAULT_255_1_234
10
23.0297502
20
44.7640234
11
23.0297502
21
44.3279
0
LINE
8
DEFAULT_255_1_234
10
23.0297502
20
44.3279
11
22.8755409
21
44.3279
0
LINE
8
DEFAULT_255_1_234
10
22.8755409
20
44.3279
11
22.8755409
21
44.7640234
0
LINE
8
DEFAULT_255_1_234
10
22.8755409
20
44.7640234
11
22.4723476
21
45.4973211
0
LINE
8
DEFAULT_255_1_234
10
22.4723476
20
45.4973211
11
22.6490458
21
45.4973211
0
LINE
8
DEFAULT_255_1_234
10
24.2786855
20
45.0194327
11
24.2786855
21
44.8266709
0
LINE
8
DEFAULT_255_1_234
10
23.5405688
20
44.8065916
11
23.5405688
21
45.0049755
0
LINE
8
DEFAULT_255_1_234
10
24.1300984
20
44.7865123
11
24.1300984
21
45.0298739
0
LINE
8
DEFAULT_255_1_234
10
23.689156
20
45.0411184
11
23.689156
21
44.8033789
0
ARC
8
DEFAULT_255_1_234
10
23.0539745
20
44.8217805
40
1.2247208
50
353.8441951
51
0.2287902
0
ARC
8
DEFAULT_255_1_234
10
23.5179249
20
44.7699806
40
0.7578929
50
344.4934747
51
353.9765454
0
ARC
8
DEFAULT_255_1_234
10
23.8171839
20
44.6848981
40
0.4467846
50
329.2803592
51
344.7472793
0
ARC
8
DEFAULT_255_1_234
10
23.9164664
20
44.6304018
40
0.3336173
50
324.9352394
51
328.6160465
0
ARC
8
DEFAULT_255_1_234
10
23.9541773
20
44.6040427
40
0.2876076
50
280.580143
51
324.9173126
0
ARC
8
DEFAULT_255_1_234
10
23.9140565
20
44.7711099
40
0.4592847
50
269.5977311
51
281.6734359
0
ARC
8
DEFAULT_255_1_234
10
23.9068471
20
44.7591173
40
0.4472986
50
256.6228859
51
270.51044
0
ARC
8
DEFAULT_255_1_234
10
23.8666449
20
44.6042877
40
0.2873874
50
215.8618325
51
257.2788573
0
ARC
8
DEFAULT_255_1_234
10
23.968748
20
44.6727977
40
0.4102928
50
197.9693508
51
215.2623606
0
ARC
8
DEFAULT_255_1_234
10
24.2172596
20
44.7566709
40
0.6725652
50
187.8816417
51
198.2346507
0
ARC
8
DEFAULT_255_1_234
10
24.6130804
20
44.8138079
40
1.0724845
50
180.8976217
51
188.0055519
0
ARC
8
DEFAULT_255_1_234
10
24.8930992
20
44.8241777
40
1.3526448
50
180.7449369
51
181.1510016
0
ARC
8
DEFAULT_255_1_234
10
24.7353721
20
45.0098042
40
1.1948131
50
173.7675579
51
180.231553
0
ARC
8
DEFAULT_255_1_234
10
24.2835868
20
45.0608666
40
0.7401564
50
164.3058563
51
173.9002247
0
ARC
8
DEFAULT_255_1_234
10
23.9923937
20
45.1447656
40
0.4371288
50
148.7922025
51
164.568378
0
ARC
8
DEFAULT_255_1_234
10
23.8972389
20
45.1978929
40
0.3282386
50
144.5883898
51
148.1176286
0
ARC
8
DEFAULT_255_1_234
10
23.8629287
20
45.2218315
40
0.2864044
50
101.6440918
51
144.514236
0
ARC
8
DEFAULT_255_1_234
10
23.9054354
20
45.0529069
40
0.4604934
50
89.5284041
51
102.5819763
0
ARC
8
DEFAULT_255_1_234
10
23.9133441
20
45.0490018
40
0.464401
50
77.0437873
51
90.5081339
0
ARC
8
DEFAULT_255_1_234
10
23.9535443
20
45.2132615
40
0.2953195
50
48.2778575
51
77.4994676
0
ARC
8
DEFAULT_255_1_234
10
23.9608074
20
45.2261746
40
0.2808655
50
36.3142134
51
47.6305865
0
ARC
8
DEFAULT_255_1_234
10
23.8739381
20
45.1676515
40
0.3855453
50
18.2931786
51
35.6769206
0
ARC
8
DEFAULT_255_1_234
10
23.619614
20
45.0803593
40
0.654423
50
8.024666
51
18.5605216
0
ARC
8
DEFAULT_255_1_234
10
23.203306
20
45.0188792
40
1.0752407
50
1.1274072
51
8.1718305
0
ARC
8
DEFAULT_255_1_234
10
22.8797251
20
45.0061885
40
1.3990231
50
0.5424119
51
1.3863029
0
ARC
8
DEFAULT_255_1_234
10
23.0618629
20
45.0334342
40
1.0682415
50
359.8090433
51
4.9407866
0
ARC
8
DEFAULT_255_1_234
10
23.4828643
20
45.0710113
40
0.6455691
50
4.8362157
51
12.2904523
0
ARC
8
DEFAULT_255_1_234
10
23.7583757
20
45.1323965
40
0.3633074
50
12.0805627
51
23.8173984
0
ARC
8
DEFAULT_255_1_234
10
23.8757463
20
45.1820919
40
0.2358723
50
24.2871213
51
31.3935614
0
ARC
8
DEFAULT_255_1_234
10
23.928216
20
45.2164233
40
0.1732111
50
30.7407893
51
82.4657128
0
ARC
8
DEFAULT_255_1_234
10
23.9102294
20
45.1280691
40
0.263235
50
81.1060089
51
90.2184952
0
ARC
8
DEFAULT_255_1_234
10
23.9066593
20
45.1538924
40
0.2374236
50
89.3806855
51
105.6762551
0
ARC
8
DEFAULT_255_1_234
10
23.8883224
20
45.2205567
40
0.1682847
50
105.7981136
51
149.7388061
0
ARC
8
DEFAULT_255_1_234
10
23.9947302
20
45.156595
40
0.2924306
50
149.4208916
51
163.6286378
0
ARC
8
DEFAULT_255_1_234
10
24.203819
20
45.092825
40
0.5110213
50
163.3763315
51
172.1410975
0
ARC
8
DEFAULT_255_1_234
10
24.5338909
20
45.0455518
40
0.8444586
50
172.0259487
51
178.0703232
0
ARC
8
DEFAULT_255_1_234
10
24.8368999
20
45.0311906
40
1.1477868
50
177.8631668
51
179.5044149
0
ARC
8
DEFAULT_255_1_234
10
24.7296403
20
44.7997389
40
1.0404907
50
179.7995573
51
185.2460446
0
ARC
8
DEFAULT_255_1_234
10
24.3253442
20
44.7614513
40
0.6343885
50
185.1411642
51
193.0079639
0
ARC
8
DEFAULT_255_1_234
10
24.0609915
20
44.6989641
40
0.3627568
50
192.7897626
51
205.2507664
0
ARC
8
DEFAULT_255_1_234
10
23.9563462
20
44.6522415
40
0.2481908
50
205.8005384
51
211.2537509
0
ARC
8
DEFAULT_255_1_234
10
23.9039902
20
44.617158
40
0.1852521
50
210.3789793
51
238.4008143
0
ARC
8
DEFAULT_255_1_234
10
23.9020424
20
44.6218376
40
0.1882621
50
239.6520629
51
265.9793761
0
ARC
8
DEFAULT_255_1_234
10
23.9105624
20
44.6890427
40
0.2559272
50
265.1315437
51
270.060332
0
ARC
8
DEFAULT_255_1_234
10
23.9134403
20
44.6566534
40
0.2235528
50
269.3314664
51
287.2178029
0
ARC
8
DEFAULT_255_1_234
10
23.9272255
20
44.6063279
40
0.1714108
50
287.7958004
51
329.080874
0
ARC
8
DEFAULT_255_1_234
10
23.8314712
20
44.666093
40
0.2842745
50
328.6634704
51
343.3325132
0
ARC
8
DEFAULT_255_1_234
10
23.6141732
20
44.7337863
40
0.5118644
50
343.0499468
51
351.9393422
0
ARC
8
DEFAULT_255_1_234
10
23.2675032
20
44.7848949
40
0.8622784
50
351.8069023
51
357.7959224
0
ARC
8
DEFAULT_255_1_234
10
22.9439588
20
44.8016721
40
1.1862365
50
357.5871873
51
359.2677531
0
LINE
8
DEFAULT_255_1_234
10
23.0406137
20
53.4404433
11
23.0406137
21
52.2654
0
LINE
8
DEFAULT_255_1_234
10
23.0406137
20
52.2654
11
22.8912234
21
52.2654
0
LINE
8
DEFAULT_255_1_234
10
22.8912234
20
52.2654
11
22.8912234
21
53.2557133
0
LINE
8
DEFAULT_255_1_234
10
22.8912234
20
53.2557133
11
22.5916396
21
53.1456785
0
LINE
8
DEFAULT_255_1_234
10
22.5916396
20
53.1456785
11
22.5916396
21
53.2806117
0
LINE
8
DEFAULT_255_1_234
10
22.5916396
20
53.2806117
11
23.0173217
21
53.4404433
0
LINE
8
DEFAULT_255_1_234
10
23.0173217
20
53.4404433
11
23.0406137
21
53.4404433
0
LINE
8
DEFAULT_255_1_234
10
24.2196729
20
52.6364663
11
24.3746854
21
52.6364663
0
LINE
8
DEFAULT_255_1_234
10
23.4743276
20
52.7954947
11
23.4743276
21
52.9079391
0
LINE
8
DEFAULT_255_1_234
10
24.3746854
20
53.0589357
11
24.2196729
21
53.0589357
0
LINE
8
DEFAULT_255_1_234
10
23.6293401
20
52.9039232
11
23.6293401
21
52.7906757
0
ARC
8
DEFAULT_255_1_234
10
23.8266241
20
52.6961846
40
0.5513052
50
340.1774281
51
353.7814284
0
ARC
8
DEFAULT_255_1_234
10
23.9837594
20
52.6376582
40
0.3836379
50
311.4558989
51
340.4421614
0
ARC
8
DEFAULT_255_1_234
10
23.9804262
20
52.6487528
40
0.3941894
50
282.4333181
51
310.7513653
0
ARC
8
DEFAULT_255_1_234
10
23.9365001
20
52.8302679
40
0.5809175
50
269.9358511
51
282.809604
0
ARC
8
DEFAULT_255_1_234
10
23.9313067
20
52.9760212
40
0.7266847
50
270.0021091
51
270.3581957
0
ARC
8
DEFAULT_255_1_234
10
23.9260484
20
52.7159585
40
0.4666519
50
250.7884749
51
270.6489167
0
ARC
8
DEFAULT_255_1_234
10
23.9092319
20
52.6522319
40
0.4009729
50
219.3627325
51
250.0611886
0
ARC
8
DEFAULT_255_1_234
10
23.992153
20
52.7227042
40
0.5097822
50
193.5479632
51
219.5756669
0
ARC
8
DEFAULT_255_1_234
10
24.2293151
20
52.7842919
40
0.7547848
50
181.1218675
51
193.87563
0
ARC
8
DEFAULT_255_1_234
10
24.4363332
20
52.795358
40
0.9620055
50
179.9918545
51
181.5394234
0
ARC
8
DEFAULT_255_1_234
10
24.2512434
20
52.9116788
40
0.7769248
50
169.5837241
51
180.2757934
0
ARC
8
DEFAULT_255_1_234
10
24.0675372
20
52.9456229
40
0.590109
50
155.0365899
51
169.6003176
0
ARC
8
DEFAULT_255_1_234
10
23.9539836
20
53.0003677
40
0.4640625
50
136.783148
51
155.2472683
0
ARC
8
DEFAULT_255_1_234
10
23.9150313
20
53.0334562
40
0.4130255
50
121.7633186
51
136.428115
0
ARC
8
DEFAULT_255_1_234
10
23.9285275
20
53.0085227
40
0.4413323
50
95.6459699
51
121.5490577
0
ARC
8
DEFAULT_255_1_234
10
23.9442557
20
52.8976949
40
0.55319
50
89.924208
51
96.1377933
0
ARC
8
DEFAULT_255_1_234
10
23.949299
20
52.9095542
40
0.5413475
50
76.6779277
51
90.4563316
0
ARC
8
DEFAULT_255_1_234
10
23.9886613
20
53.0686114
40
0.3775041
50
47.485847
51
76.9287264
0
ARC
8
DEFAULT_255_1_234
10
23.9739586
20
53.0586159
40
0.3948286
50
16.5424086
51
46.8933463
0
ARC
8
DEFAULT_255_1_234
10
23.8131743
20
53.0057861
40
0.564021
50
5.4072051
51
17.0365086
0
ARC
8
DEFAULT_255_1_234
10
23.669276
20
52.9826679
40
0.5556559
50
7.8891745
51
15.9239216
0
ARC
8
DEFAULT_255_1_234
10
23.8679773
20
53.0403631
40
0.3487515
50
15.7653144
51
27.9410532
0
ARC
8
DEFAULT_255_1_234
10
23.9783991
20
53.099479
40
0.2235026
50
27.8166557
51
46.4008329
0
ARC
8
DEFAULT_255_1_234
10
23.9833634
20
53.0989082
40
0.2205286
50
47.4371857
51
75.0698205
0
ARC
8
DEFAULT_255_1_234
10
23.9525029
20
52.9914765
40
0.3322915
50
74.7008593
51
87.8124495
0
ARC
8
DEFAULT_255_1_234
10
23.9451716
20
52.8858844
40
0.4380987
50
87.3814673
51
90.0240855
0
ARC
8
DEFAULT_255_1_234
10
23.9413259
20
53.0036291
40
0.3203749
50
89.3451631
51
108.5745436
0
ARC
8
DEFAULT_255_1_234
10
23.9276365
20
53.0549908
40
0.2673494
50
109.2998449
51
143.3037509
0
ARC
8
DEFAULT_255_1_234
10
24.0038437
20
52.9963881
40
0.3634757
50
143.0753173
51
163.1916937
0
ARC
8
DEFAULT_255_1_234
10
24.1990165
20
52.9347967
40
0.5681262
50
162.9373603
51
174.6208611
0
ARC
8
DEFAULT_255_1_234
10
24.4616207
20
52.906001
40
0.8322832
50
174.3419979
51
180.1430411
0
ARC
8
DEFAULT_255_1_234
10
24.3685363
20
52.7865698
40
0.7392076
50
179.6817502
51
189.150529
0
ARC
8
DEFAULT_255_1_234
10
24.1184611
20
52.744919
40
0.4856932
50
188.9910863
51
203.5773039
0
ARC
8
DEFAULT_255_1_234
10
24.0104944
20
52.7001211
40
0.3688271
50
203.9077269
51
215.1312379
0
ARC
8
DEFAULT_255_1_234
10
23.9182038
20
52.6285941
40
0.2522457
50
213.9071664
51
263.8849284
0
ARC
8
DEFAULT_255_1_234
10
23.9307367
20
52.7070518
40
0.3316174
50
263.1758525
51
270.1031083
0
ARC
8
DEFAULT_255_1_234
10
23.9339459
20
52.8317365
40
0.4563091
50
269.6719807
51
279.0609165
0
ARC
8
DEFAULT_255_1_234
10
23.9606227
20
52.6704907
40
0.2928759
50
278.8750225
51
293.6346586
0
ARC
8
DEFAULT_255_1_234
10
23.9926435
20
52.59529
40
0.2111472
50
293.8553404
51
310.0518804
0
ARC
8
DEFAULT_255_1_234
10
23.9931289
20
52.5890516
40
0.2060917
50
311.0646779
51
332.0108348
0
ARC
8
DEFAULT_255_1_234
10
23.8739016
20
52.6547978
40
0.3422352
50
331.6588543
51
343.2878891
0
ARC
8
DEFAULT_255_1_234
10
23.6676531
20
52.7181798
40
0.5580003
50
343.1446044
51
351.010618
0
ARC
8
DEFAULT_255_1_234
10
23.5135177
20
52.7462871
40
0.7146438
50
350.7157277
51
351.1602153
0
ENDSEC
0
EOF