0
SECTION
2
HEADER
9
$MEASUREMENT
70
1
0
ENDSEC
0
SECTION
2
TABLES
0
TABLE
2
LTYPE
0
LTYPE
72
65
70
64
2
CONTINUOUS
3
______
73
0
40
0
0
ENDTAB
0
TABLE
2
LAYER
0
LAYER
2
DEFAULT_255_2_778
70
0
62
255
6
CONTINUOUS
0
LAYER
2
DEFAULT_255_1_388
70
0
62
255
6
CONTINUOUS
0
ENDTAB
0
ENDSEC
0
SECTION
2
ENTITIES
0
ARC
8
DEFAULT_255_2_778
10
3.7023693
20
131.3676523
40
0.7914215
50
129.1312896
51
180.1450914
0
ARC
8
DEFAULT_255_2_778
10
3.7026345
20
131.3681394
40
0.7912112
50
89.854026
51
129.1684493
0
ARC
8
DEFAULT_255_2_778
10
25.9316937
20
131.3678259
40
0.7915249
50
39.4792447
51
90.147911
0
ARC
8
DEFAULT_255_2_778
10
25.9322935
20
131.3676726
40
0.7911595
50
359.8533901
51
39.5154338
0
ARC
8
DEFAULT_255_2_778
10
25.9319693
20
-1.9864
40
0.7914836
50
309.4761667
51
0.1482649
0
ARC
8
DEFAULT_255_2_778
10
25.931698
20
-1.9868311
40
0.7913235
50
269.8517415
51
309.511178
0
ARC
8
DEFAULT_255_2_778
10
3.702642
20
-1.9867729
40
0.7913815
50
219.1282118
51
270.1454017
0
ARC
8
DEFAULT_255_2_778
10
3.7023247
20
-1.9863904
40
0.7913769
50
179.8524075
51
219.1641908
0
LINE
8
DEFAULT_255_2_778
10
3.7046503
20
132.1593481
11
25.9296503
21
132.1593481
0
LINE
8
DEFAULT_255_2_778
10
26.7234503
20
131.3656481
11
26.7234503
21
-1.9843519
0
LINE
8
DEFAULT_255_2_778
10
25.9296503
20
-2.7781519
11
3.7046503
21
-2.7781519
0
LINE
8
DEFAULT_255_2_778
10
2.9109503
20
-1.9843519
11
2.9109503
21
131.3656481
0
LINE
8
DEFAULT_255_1_388
10
10.7939024
20
-0.6398
11
10.3376024
21
-0.6398
0
LINE
8
DEFAULT_255_1_388
10
10.3376024
20
-0.6398
11
10.3376024
21
0.6757898
0
LINE
8
DEFAULT_255_1_388
10
10.3376024
20
0.6757898
11
10.7676991
21
0.6757898
0
LINE
8
DEFAULT_255_1_388
10
10.8002274
20
-0.0244726
11
10.5110868
21
-0.0244726
0
LINE
8
DEFAULT_255_1_388
10
10.5110868
20
-0.0244726
11
10.5110868
21
-0.4979404
0
LINE
8
DEFAULT_255_1_388
10
10.5110868
20
-0.4979404
11
10.7975167
21
-0.4979404
0
LINE
8
DEFAULT_255_1_388
10
10.5110868
20
0.5330267
11
10.5110868
21
0.1146763
0
LINE
8
DEFAULT_255_1_388
10
10.5110868
20
0.1146763
11
10.7731205
21
0.1146763
0
LINE
8
DEFAULT_255_1_388
10
10.7676991
20
0.5330267
11
10.5110868
21
0.5330267
0
ARC
8
DEFAULT_255_1_388
10
10.7719411
20
-0.1530176
40
0.8288183
50
82.1256322
51
90.2932506
0
ARC
8
DEFAULT_255_1_388
10
10.8156986
20
0.152759
40
0.5199321
50
69.9044202
51
82.2857574
0
ARC
8
DEFAULT_255_1_388
10
10.8798979
20
0.3262993
40
0.3348993
50
51.1840204
51
70.018125
0
ARC
8
DEFAULT_255_1_388
10
10.9085811
20
0.3679945
40
0.2844579
50
12.1018086
51
50.421322
0
ARC
8
DEFAULT_255_1_388
10
10.7528682
20
0.3288937
40
0.4449429
50
359.5252354
51
12.8212369
0
ARC
8
DEFAULT_255_1_388
10
10.9306112
20
0.3210943
40
0.2672162
50
323.4907456
51
0.8818258
0
ARC
8
DEFAULT_255_1_388
10
10.8835525
20
0.3574523
40
0.3266736
50
298.6824053
51
323.2758285
0
ARC
8
DEFAULT_255_1_388
10
10.8428816
20
0.4250509
40
0.4055105
50
293.1994739
51
299.139634
0
ARC
8
DEFAULT_255_1_388
10
10.9185766
20
-0.2595349
40
0.3229926
50
54.0009997
51
74.9168635
0
ARC
8
DEFAULT_255_1_388
10
10.9316693
20
-0.2373489
40
0.2973581
50
36.3578854
51
53.5293172
0
ARC
8
DEFAULT_255_1_388
10
10.9174061
20
-0.247515
40
0.3148715
50
4.8189348
51
36.3090187
0
ARC
8
DEFAULT_255_1_388
10
10.8297085
20
-0.2598617
40
0.4033265
50
359.9373213
51
5.5201284
0
ARC
8
DEFAULT_255_1_388
10
10.7932415
20
-0.2644267
40
0.4398126
50
344.7479357
51
0.5372278
0
ARC
8
DEFAULT_255_1_388
10
10.9047314
20
-0.2944795
40
0.3243441
50
311.1785587
51
344.6887681
0
ARC
8
DEFAULT_255_1_388
10
10.8718857
20
-0.2535916
40
0.3767511
50
286.0417804
51
310.8440924
0
ARC
8
DEFAULT_255_1_388
10
10.8148266
20
-0.0683115
40
0.5705957
50
274.1044074
51
286.4070149
0
ARC
8
DEFAULT_255_1_388
10
10.7949482
20
0.1434901
40
0.7832907
50
269.9235077
51
274.4458593
0
ARC
8
DEFAULT_255_1_388
10
10.80012
20
-0.1196538
40
0.3782955
50
269.6057074
51
281.3740795
0
ARC
8
DEFAULT_255_1_388
10
10.8260698
20
-0.2426431
40
0.2526069
50
281.105298
51
302.5134029
0
ARC
8
DEFAULT_255_1_388
10
10.8426086
20
-0.2723056
40
0.2187131
50
303.0365425
51
311.8818034
0
ARC
8
DEFAULT_255_1_388
10
10.8506263
20
-0.2818398
40
0.2062624
50
311.9916937
51
351.7143773
0
ARC
8
DEFAULT_255_1_388
10
10.7587288
20
-0.2632729
40
0.2999202
50
350.7343295
51
0.2221526
0
ARC
8
DEFAULT_255_1_388
10
10.7466376
20
-0.256913
40
0.3120525
50
359.045729
51
17.2295312
0
ARC
8
DEFAULT_255_1_388
10
10.8635406
20
-0.2221845
40
0.1901144
50
17.6685208
51
78.9940245
0
ARC
8
DEFAULT_255_1_388
10
10.8053767
20
-0.4309989
40
0.4065575
50
76.565218
51
90.7103392
0
LINE
8
DEFAULT_255_1_388
10
10.8003364
20
-0.0244726
11
10.8002274
21
-0.0244726
0
ARC
8
DEFAULT_255_1_388
10
10.7756593
20
0.4842949
40
0.3696273
50
269.6064514
51
281.4533785
0
ARC
8
DEFAULT_255_1_388
10
10.8007234
20
0.3660283
40
0.2487412
50
281.2044438
51
302.5143998
0
ARC
8
DEFAULT_255_1_388
10
10.8161488
20
0.3382576
40
0.2170405
50
303.0211308
51
309.8378766
0
ARC
8
DEFAULT_255_1_388
10
10.8367605
20
0.3151486
40
0.1860946
50
309.5229446
51
356.9509628
0
ARC
8
DEFAULT_255_1_388
10
10.7621731
20
0.3258831
40
0.2612347
50
355.4699226
51
0.0498632
0
ARC
8
DEFAULT_255_1_388
10
10.7307404
20
0.3283789
40
0.2926762
50
359.5558955
51
11.2092924
0
ARC
8
DEFAULT_255_1_388
10
10.8384372
20
0.3506667
40
0.1827036
50
10.9185717
51
31.322519
0
ARC
8
DEFAULT_255_1_388
10
10.870592
20
0.3685571
40
0.1459418
50
31.8850633
51
52.1415586
0
ARC
8
DEFAULT_255_1_388
10
10.8397349
20
0.3249674
40
0.1993088
50
52.8283418
51
71.9850132
0
ARC
8
DEFAULT_255_1_388
10
10.797451
20
0.2005158
40
0.3307407
50
71.686634
51
82.8453416
0
ARC
8
DEFAULT_255_1_388
10
10.7705157
20
-0.0030108
40
0.536039
50
82.6981895
51
90.1730083
0
ARC
8
DEFAULT_255_1_388
10
10.7679989
20
0.0848836
40
0.4481429
50
89.8851568
51
90.0383283
0
LINE
8
DEFAULT_255_1_388
10
11.6016891
20
0.6757898
11
11.9188402
21
0.1716009
0
LINE
8
DEFAULT_255_1_388
10
11.9188402
20
0.1716009
11
12.2341842
21
0.6757898
0
LINE
8
DEFAULT_255_1_388
10
12.2341842
20
0.6757898
11
12.4383897
21
0.6757898
0
LINE
8
DEFAULT_255_1_388
10
12.4383897
20
0.6757898
11
12.0227501
21
0.0234163
0
LINE
8
DEFAULT_255_1_388
10
12.0227501
20
0.0234163
11
12.448329
21
-0.6398
0
LINE
8
DEFAULT_255_1_388
10
12.448329
20
-0.6398
11
12.2423163
21
-0.6398
0
LINE
8
DEFAULT_255_1_388
10
12.2423163
20
-0.6398
11
11.9188402
21
-0.1265754
0
LINE
8
DEFAULT_255_1_388
10
11.9188402
20
-0.1265754
11
11.593557
21
-0.6398
0
LINE
8
DEFAULT_255_1_388
10
11.593557
20
-0.6398
11
11.3884479
21
-0.6398
0
LINE
8
DEFAULT_255_1_388
10
11.3884479
20
-0.6398
11
11.8149303
21
0.0234163
0
LINE
8
DEFAULT_255_1_388
10
11.8149303
20
0.0234163
11
11.3983871
21
0.6757898
0
LINE
8
DEFAULT_255_1_388
10
11.3983871
20
0.6757898
11
11.6016891
21
0.6757898
0
LINE
8
DEFAULT_255_1_388
10
12.9299288
20
-0.0127263
11
12.9299288
21
-0.1491645
0
LINE
8
DEFAULT_255_1_388
10
12.9299288
20
-0.1491645
11
12.4889894
21
-0.1491645
0
LINE
8
DEFAULT_255_1_388
10
12.4889894
20
-0.1491645
11
12.4889894
21
-0.0127263
0
LINE
8
DEFAULT_255_1_388
10
12.4889894
20
-0.0127263
11
12.9299288
21
-0.0127263
0
LINE
8
DEFAULT_255_1_388
10
13.6247699
20
0.6821148
11
13.6247699
21
-0.6398
0
LINE
8
DEFAULT_255_1_388
10
13.6247699
20
-0.6398
11
13.4567069
21
-0.6398
0
LINE
8
DEFAULT_255_1_388
10
13.4567069
20
-0.6398
11
13.4567069
21
0.474295
0
LINE
8
DEFAULT_255_1_388
10
13.4567069
20
0.474295
11
13.1196773
21
0.3505066
0
LINE
8
DEFAULT_255_1_388
10
13.1196773
20
0.3505066
11
13.1196773
21
0.5023055
0
LINE
8
DEFAULT_255_1_388
10
13.1196773
20
0.5023055
11
13.5985665
21
0.6821148
0
LINE
8
DEFAULT_255_1_388
10
13.5985665
20
0.6821148
11
13.6247699
21
0.6821148
0
LINE
8
DEFAULT_255_1_388
10
14.9765023
20
-0.5033618
11
14.9765023
21
-0.6398
0
LINE
8
DEFAULT_255_1_388
10
14.9765023
20
-0.6398
11
14.1145018
21
-0.6398
0
LINE
8
DEFAULT_255_1_388
10
14.1145018
20
-0.6398
11
14.1145018
21
-0.5196259
0
LINE
8
DEFAULT_255_1_388
10
14.1145018
20
-0.5196259
11
14.5698983
21
-0.0136298
0
LINE
8
DEFAULT_255_1_388
10
14.2563614
20
0.2881607
11
14.089202
21
0.2881607
0
LINE
8
DEFAULT_255_1_388
10
14.6683868
20
-0.121154
11
14.3159967
21
-0.5033618
0
LINE
8
DEFAULT_255_1_388
10
14.3159967
20
-0.5033618
11
14.9765023
21
-0.5033618
0
ARC
8
DEFAULT_255_1_388
10
13.0523042
20
1.3283983
40
2.0258655
50
318.5132526
51
320.7829045
0
ARC
8
DEFAULT_255_1_388
10
13.6470999
20
0.8442929
40
1.2589638
50
320.7372878
51
323.9739031
0
ARC
8
DEFAULT_255_1_388
10
14.0879931
20
0.5248554
40
0.7145141
50
323.8962701
51
328.64194
0
ARC
8
DEFAULT_255_1_388
10
14.3182189
20
0.3828545
40
0.4440242
50
328.8294576
51
331.7891185
0
ARC
8
DEFAULT_255_1_388
10
14.4304509
20
0.3249374
40
0.3177517
50
331.4254512
51
352.9365785
0
ARC
8
DEFAULT_255_1_388
10
14.4457509
20
0.321505
40
0.3021496
50
353.2257659
51
0.0166158
0
ARC
8
DEFAULT_255_1_388
10
14.4694269
20
0.3240894
40
0.2784847
50
359.486299
51
15.9343185
0
ARC
8
DEFAULT_255_1_388
10
14.5264536
20
0.3394269
40
0.2194403
50
16.1712913
51
43.5286088
0
ARC
8
DEFAULT_255_1_388
10
14.5351481
20
0.3481191
40
0.2071504
50
43.4417391
51
83.1661095
0
ARC
8
DEFAULT_255_1_388
10
14.5200642
20
0.2652316
40
0.2912888
50
82.160179
51
90.1505708
0
ARC
8
DEFAULT_255_1_388
10
14.5165123
20
0.2048279
40
0.3517025
50
89.5460741
51
102.5418361
0
ARC
8
DEFAULT_255_1_388
10
14.4891843
20
0.3207933
40
0.2325748
50
102.1738499
51
129.206123
0
ARC
8
DEFAULT_255_1_388
10
14.4803297
20
0.3347664
40
0.2161591
50
129.72865
51
135.753947
0
ARC
8
DEFAULT_255_1_388
10
14.4939779
20
0.3238728
40
0.2335433
50
136.1757367
51
166.3673339
0
ARC
8
DEFAULT_255_1_388
10
14.6072467
20
0.2935148
40
0.3507873
50
165.9090694
51
178.8684636
0
ARC
8
DEFAULT_255_1_388
10
14.7048239
20
0.2882263
40
0.4484624
50
178.4391136
51
180.0083808
0
ARC
8
DEFAULT_255_1_388
10
14.546894
20
0.2926197
40
0.4577138
50
163.2878482
51
180.5581842
0
ARC
8
DEFAULT_255_1_388
10
14.4566982
20
0.3174393
40
0.3641968
50
133.4540601
51
162.947111
0
ARC
8
DEFAULT_255_1_388
10
14.4767863
20
0.2960789
40
0.3935189
50
100.7869829
51
133.4382499
0
ARC
8
DEFAULT_255_1_388
10
14.5159108
20
0.1218399
40
0.5720313
50
89.660664
51
101.3702276
0
ARC
8
DEFAULT_255_1_388
10
14.5233717
20
0.1287263
40
0.5651495
50
78.2172678
51
90.412935
0
ARC
8
DEFAULT_255_1_388
10
14.5633183
20
0.3114511
40
0.378122
50
55.9269121
51
78.4888449
0
ARC
8
DEFAULT_255_1_388
10
14.5853898
20
0.3495187
40
0.3342379
50
47.929771
51
55.4049217
0
ARC
8
DEFAULT_255_1_388
10
14.5968428
20
0.3611618
40
0.3179217
50
4.334829
51
48.0560205
0
ARC
8
DEFAULT_255_1_388
10
14.473623
20
0.3420487
40
0.442341
50
359.9251713
51
5.5971671
0
ARC
8
DEFAULT_255_1_388
10
14.5218385
20
0.3483728
40
0.3941854
50
337.8914027
51
358.9967534
0
ARC
8
DEFAULT_255_1_388
10
14.2165955
20
0.4661295
40
0.7213271
50
326.9132501
51
338.3508308
0
ARC
8
DEFAULT_255_1_388
10
13.7682067
20
0.7535105
40
1.2538973
50
319.6471833
51
327.0959558
0
ARC
8
DEFAULT_255_1_388
10
13.3368725
20
1.109305
40
1.8129975
50
317.2588228
51
319.9045804
0
LINE
8
DEFAULT_255_1_388
10
16.1059579
20
0.6757898
11
16.1059579
21
0.5330267
0
LINE
8
DEFAULT_255_1_388
10
16.1059579
20
0.5330267
11
15.6830897
21
0.5330267
0
LINE
8
DEFAULT_255_1_388
10
15.6830897
20
0.5330267
11
15.6830897
21
-0.6398
0
LINE
8
DEFAULT_255_1_388
10
15.6830897
20
-0.6398
11
15.5105089
21
-0.6398
0
LINE
8
DEFAULT_255_1_388
10
15.5105089
20
-0.6398
11
15.5105089
21
0.5330267
0
LINE
8
DEFAULT_255_1_388
10
15.5105089
20
0.5330267
11
15.0885443
21
0.5330267
0
LINE
8
DEFAULT_255_1_388
10
15.0885443
20
0.5330267
11
15.0885443
21
0.6757898
0
LINE
8
DEFAULT_255_1_388
10
15.0885443
20
0.6757898
11
16.1059579
21
0.6757898
0
LINE
8
DEFAULT_255_1_388
10
16.6652643
20
-0.6398
11
16.3011278
21
-0.6398
0
LINE
8
DEFAULT_255_1_388
10
16.3011278
20
-0.6398
11
16.3011278
21
0.6757898
0
LINE
8
DEFAULT_255_1_388
10
16.3011278
20
0.6757898
11
16.6724928
21
0.6757898
0
LINE
8
DEFAULT_255_1_388
10
17.2525812
20
0.0622696
11
17.2525812
21
-0.0217619
0
LINE
8
DEFAULT_255_1_388
10
16.6770106
20
0.5330267
11
16.4746122
21
0.5330267
0
LINE
8
DEFAULT_255_1_388
10
16.4746122
20
0.5330267
11
16.4746122
21
-0.4979404
0
LINE
8
DEFAULT_255_1_388
10
16.4746122
20
-0.4979404
11
16.6571322
21
-0.4979404
0
LINE
8
DEFAULT_255_1_388
10
17.0809039
20
-0.0181477
11
17.0809039
21
0.0586553
0
ARC
8
DEFAULT_255_1_388
10
16.6768722
20
0.0159436
40
0.6598608
50
75.4100343
51
90.3802731
0
ARC
8
DEFAULT_255_1_388
10
16.7026968
20
0.1235691
40
0.5492049
50
60.1455157
51
75.1889627
0
ARC
8
DEFAULT_255_1_388
10
16.7205559
20
0.1546914
40
0.5133226
50
26.525419
51
60.1451222
0
ARC
8
DEFAULT_255_1_388
10
16.5945346
20
0.0878642
40
0.6559324
50
7.4029944
51
26.832209
0
ARC
8
DEFAULT_255_1_388
10
16.4151743
20
0.0599229
40
0.8374103
50
0.1605597
51
7.7176135
0
ARC
8
DEFAULT_255_1_388
10
16.4336143
20
-0.0260679
40
0.8189782
50
348.7289744
51
0.30125
0
ARC
8
DEFAULT_255_1_388
10
16.6199607
20
-0.0630844
40
0.628991
50
333.0706936
51
348.7181455
0
ARC
8
DEFAULT_255_1_388
10
16.7287235
20
-0.1221551
40
0.5052808
50
299.2531435
51
333.4571133
0
ARC
8
DEFAULT_255_1_388
10
16.6881266
20
-0.0450371
40
0.5924066
50
278.1072193
51
299.0340218
0
ARC
8
DEFAULT_255_1_388
10
16.6593315
20
0.1245979
40
0.7644209
50
270.4446841
51
278.4508355
0
ARC
8
DEFAULT_255_1_388
10
16.6616798
20
0.02003
40
0.5179903
50
269.4969684
51
284.0204874
0
ARC
8
DEFAULT_255_1_388
10
16.7016517
20
-0.1335585
40
0.3592968
50
283.7699076
51
318.1557121
0
ARC
8
DEFAULT_255_1_388
10
16.6637062
20
-0.1051601
40
0.4065308
50
318.7417595
51
343.687252
0
ARC
8
DEFAULT_255_1_388
10
16.4607641
20
-0.0417725
40
0.6191194
50
343.3324891
51
355.8548594
0
ARC
8
DEFAULT_255_1_388
10
16.2246678
20
-0.0193281
40
0.856237
50
355.4988754
51
0.0789913
0
ARC
8
DEFAULT_255_1_388
10
16.3127478
20
0.063408
40
0.7681709
50
359.6455047
51
9.8607559
0
ARC
8
DEFAULT_255_1_388
10
16.5783201
20
0.1113664
40
0.498312
50
9.6573037
51
26.1931522
0
ARC
8
DEFAULT_255_1_388
10
16.6827276
20
0.1598587
40
0.3832303
50
26.5777895
51
40.1533752
0
ARC
8
DEFAULT_255_1_388
10
16.7114941
20
0.182302
40
0.3467742
50
40.3839958
51
80.1430923
0
ARC
8
DEFAULT_255_1_388
10
16.6747196
20
0.0192486
40
0.5137832
50
79.2153636
51
89.7445174
0
LINE
8
DEFAULT_255_1_388
10
18.3332442
20
-0.5033618
11
18.3332442
21
-0.6398
0
LINE
8
DEFAULT_255_1_388
10
18.3332442
20
-0.6398
11
17.4712438
21
-0.6398
0
LINE
8
DEFAULT_255_1_388
10
17.4712438
20
-0.6398
11
17.4712438
21
-0.5196259
0
LINE
8
DEFAULT_255_1_388
10
17.4712438
20
-0.5196259
11
17.9266402
21
-0.0136298
0
LINE
8
DEFAULT_255_1_388
10
17.6131034
20
0.2881607
11
17.4459439
21
0.2881607
0
LINE
8
DEFAULT_255_1_388
10
18.0251288
20
-0.121154
11
17.6727386
21
-0.5033618
0
LINE
8
DEFAULT_255_1_388
10
17.6727386
20
-0.5033618
11
18.3332442
21
-0.5033618
0
ARC
8
DEFAULT_255_1_388
10
16.4090462
20
1.3283983
40
2.0258655
50
318.5132526
51
320.7829045
0
ARC
8
DEFAULT_255_1_388
10
17.0038419
20
0.8442929
40
1.2589638
50
320.7372878
51
323.9739031
0
ARC
8
DEFAULT_255_1_388
10
17.444735
20
0.5248554
40
0.7145141
50
323.8962701
51
328.64194
0
ARC
8
DEFAULT_255_1_388
10
17.6749608
20
0.3828545
40
0.4440242
50
328.8294576
51
331.7891185
0
ARC
8
DEFAULT_255_1_388
10
17.7871928
20
0.3249374
40
0.3177517
50
331.4254512
51
352.9365785
0
ARC
8
DEFAULT_255_1_388
10
17.8024928
20
0.321505
40
0.3021496
50
353.2257659
51
0.0166158
0
ARC
8
DEFAULT_255_1_388
10
17.8261689
20
0.3240894
40
0.2784847
50
359.486299
51
15.9343185
0
ARC
8
DEFAULT_255_1_388
10
17.8831955
20
0.3394269
40
0.2194403
50
16.1712913
51
43.5286088
0
ARC
8
DEFAULT_255_1_388
10
17.89189
20
0.3481191
40
0.2071504
50
43.4417391
51
83.1661095
0
ARC
8
DEFAULT_255_1_388
10
17.8768061
20
0.2652316
40
0.2912888
50
82.160179
51
90.1505708
0
ARC
8
DEFAULT_255_1_388
10
17.8732543
20
0.2048279
40
0.3517025
50
89.5460741
51
102.5418361
0
ARC
8
DEFAULT_255_1_388
10
17.8459263
20
0.3207933
40
0.2325748
50
102.1738499
51
129.206123
0
ARC
8
DEFAULT_255_1_388
10
17.8370716
20
0.3347664
40
0.2161591
50
129.72865
51
135.753947
0
ARC
8
DEFAULT_255_1_388
10
17.8507198
20
0.3238728
40
0.2335433
50
136.1757367
51
166.3673339
0
ARC
8
DEFAULT_255_1_388
10
17.9639887
20
0.2935148
40
0.3507873
50
165.9090694
51
178.8684636
0
ARC
8
DEFAULT_255_1_388
10
18.0615658
20
0.2882263
40
0.4484624
50
178.4391136
51
180.0083808
0
ARC
8
DEFAULT_255_1_388
10
17.903636
20
0.2926197
40
0.4577138
50
163.2878482
51
180.5581842
0
ARC
8
DEFAULT_255_1_388
10
17.8134401
20
0.3174393
40
0.3641968
50
133.4540601
51
162.947111
0
ARC
8
DEFAULT_255_1_388
10
17.8335283
20
0.2960789
40
0.3935189
50
100.7869829
51
133.4382499
0
ARC
8
DEFAULT_255_1_388
10
17.8726528
20
0.1218399
40
0.5720313
50
89.660664
51
101.3702276
0
ARC
8
DEFAULT_255_1_388
10
17.8801137
20
0.1287263
40
0.5651495
50
78.2172678
51
90.412935
0
ARC
8
DEFAULT_255_1_388
10
17.9200602
20
0.3114511
40
0.378122
50
55.9269121
51
78.4888449
0
ARC
8
DEFAULT_255_1_388
10
17.9421318
20
0.3495187
40
0.3342379
50
47.929771
51
55.4049217
0
ARC
8
DEFAULT_255_1_388
10
17.9535848
20
0.3611618
40
0.3179217
50
4.334829
51
48.0560205
0
ARC
8
DEFAULT_255_1_388
10
17.830365
20
0.3420487
40
0.442341
50
359.9251713
51
5.5971671
0
ARC
8
DEFAULT_255_1_388
10
17.8785804
20
0.3483728
40
0.3941854
50
337.8914027
51
358.9967534
0
ARC
8
DEFAULT_255_1_388
10
17.5733374
20
0.4661295
40
0.7213271
50
326.9132501
51
338.3508308
0
ARC
8
DEFAULT_255_1_388
10
17.1249486
20
0.7535105
40
1.2538973
50
319.6471833
51
327.0959558
0
ARC
8
DEFAULT_255_1_388
10
16.6936144
20
1.109305
40
1.8129975
50
317.2588228
51
319.9045804
0
ARC
8
DEFAULT_255_2_778
10
20.3857188
20
128.5491525
40
0.3580657
50
89.9945037
51
180.0054963
0
ARC
8
DEFAULT_255_2_778
10
20.3857875
20
128.5491525
40
0.3580657
50
359.9945037
51
90.0054963
0
ARC
8
DEFAULT_255_2_778
10
20.3857875
20
128.5490838
40
0.3580657
50
269.9945037
51
0.0054963
0
ARC
8
DEFAULT_255_2_778
10
20.3857188
20
128.5490838
40
0.3580657
50
179.9945037
51
270.0054963
0
ARC
8
DEFAULT_255_2_778
10
23.0945406
20
128.280782
40
2.3282817
50
111.9150345
51
128.7655504
0
ARC
8
DEFAULT_255_2_778
10
23.0114007
20
128.412852
40
2.1733214
50
129.2366206
51
154.7721516
0
ARC
8
DEFAULT_255_2_778
10
23.612957
20
128.1170583
40
2.8435961
50
154.5467617
51
165.9285636
0
ARC
8
DEFAULT_255_2_778
10
24.0969902
20
127.9796212
40
3.3465569
50
165.6609748
51
166.525375
0
ARC
8
DEFAULT_255_2_778
10
21.6605291
20
129.1978171
40
1.414623
50
156.0627036
51
175.7189082
0
ARC
8
DEFAULT_255_2_778
10
22.2487502
20
128.944283
40
2.0551309
50
144.7505594
51
156.2560535
0
ARC
8
DEFAULT_255_2_778
10
23.0184799
20
128.4089863
40
2.9926766
50
137.345293
51
144.8863205
0
ARC
8
DEFAULT_255_2_778
10
23.9454446
20
127.5598407
40
4.2497776
50
131.6389266
51
137.393651
0
ARC
8
DEFAULT_255_2_778
10
24.6716492
20
126.7631248
40
5.3277326
50
130.1334351
51
131.7826198
0
LINE
8
DEFAULT_255_2_778
10
20.0276532
20
128.5491182
11
20.0276532
21
128.5491182
0
LINE
8
DEFAULT_255_2_778
10
21.2375532
20
130.8364182
11
22.2255532
21
130.4408182
0
LINE
8
DEFAULT_255_2_778
10
20.8425532
20
128.7594182
11
20.2498532
21
129.3034182
0
LINE
8
DEFAULT_255_2_778
10
21.2375532
20
130.8364182
11
21.2375532
21
130.8364182
0
ARC
8
DEFAULT_255_2_778
10
13.8917907
20
129.3726437
40
0.8717226
50
88.9281645
51
133.9885749
0
ARC
8
DEFAULT_255_2_778
10
13.9080454
20
129.1475604
40
1.0966534
50
88.9487005
51
89.9972984
0
ARC
8
DEFAULT_255_2_778
10
13.9276
20
129.4430011
40
0.8010283
50
72.1310318
51
89.9594908
0
ARC
8
DEFAULT_255_2_778
10
14.0028373
20
129.7000083
40
0.5333823
50
60.6505783
51
71.3519493
0
ARC
8
DEFAULT_255_2_778
10
14.0866387
20
129.8271349
40
0.3816498
50
20.3938858
51
62.2625554
0
ARC
8
DEFAULT_255_2_778
10
15.1027645
20
129.3391628
40
0.9050345
50
89.7568633
51
136.6758865
0
ARC
8
DEFAULT_255_2_778
10
15.1065773
20
129.2215709
40
1.0226182
50
88.9864436
51
89.9984426
0
ARC
8
DEFAULT_255_2_778
10
15.124548
20
129.460692
40
0.7833372
50
71.373585
51
89.9913488
0
ARC
8
DEFAULT_255_2_778
10
15.2164803
20
129.739542
40
0.489734
50
42.2193789
51
71.1458349
0
ARC
8
DEFAULT_255_2_778
10
15.1913908
20
129.7320658
40
0.5134635
50
8.5226311
51
40.9558105
0
ARC
8
DEFAULT_255_2_778
10
14.8690896
20
129.6668045
40
0.8420446
50
359.6942069
51
9.6641803
0
ARC
8
DEFAULT_255_2_778
10
14.5795507
20
129.6638277
40
1.1315727
50
355.5855084
51
359.923173
0
ARC
8
DEFAULT_255_2_778
10
14.3825845
20
129.6361289
40
0.7547163
50
352.4548626
51
359.7652122
0
ARC
8
DEFAULT_255_2_778
10
14.5401893
20
129.6332192
40
0.5971052
50
359.9824407
51
2.1700815
0
ARC
8
DEFAULT_255_2_778
10
14.9490551
20
129.6490752
40
0.1879327
50
2.0595693
51
88.944897
0
ARC
8
DEFAULT_255_2_778
10
14.8852878
20
129.3617725
40
0.4799353
50
81.9476992
51
88.9638763
0
ARC
8
DEFAULT_255_2_778
10
14.8964352
20
129.3556844
40
0.4859511
50
90.2910974
51
140.7094043
0
ARC
8
DEFAULT_255_2_778
10
15.082723
20
129.1628111
40
0.7529164
50
138.3264016
51
141.8088804
0
ARC
8
DEFAULT_255_2_778
10
13.1434845
20
129.6327289
40
0.7547163
50
352.4548626
51
359.7652122
0
ARC
8
DEFAULT_255_2_778
10
13.3010893
20
129.6298192
40
0.5971052
50
359.9824407
51
2.1700815
0
ARC
8
DEFAULT_255_2_778
10
13.7090327
20
129.6466775
40
0.1888212
50
1.7455696
51
88.6065628
0
ARC
8
DEFAULT_255_2_778
10
13.6474974
20
129.3703897
40
0.469731
50
81.9072271
51
88.8693446
0
ARC
8
DEFAULT_255_2_778
10
13.6449914
20
129.3303568
40
0.5098084
50
88.6765396
51
89.9981553
0
ARC
8
DEFAULT_255_2_778
10
13.6502114
20
129.3339569
40
0.5062351
50
90.5889431
51
134.9317856
0
ARC
8
DEFAULT_255_2_778
10
13.8031307
20
129.1435835
40
0.749469
50
132.9288129
51
135.7848647
0
LINE
8
DEFAULT_255_2_778
10
12.8005663
20
130.2099292
11
13.3328663
21
130.2115292
0
LINE
8
DEFAULT_255_2_778
10
13.3328663
20
130.2115292
11
13.2863663
21
129.9998292
0
LINE
8
DEFAULT_255_2_778
10
15.7077663
20
129.5767292
11
15.7038663
21
129.5339292
0
LINE
8
DEFAULT_255_2_778
10
15.7038663
20
129.5339292
11
15.4709663
21
128.3485292
0
LINE
8
DEFAULT_255_2_778
10
15.4709663
20
128.3485292
11
14.8978663
21
128.3485292
0
LINE
8
DEFAULT_255_2_778
10
14.8978663
20
128.3485292
11
15.1307663
21
129.5370292
0
LINE
8
DEFAULT_255_2_778
10
14.4909663
20
129.6283292
11
14.4848663
21
129.5889292
0
LINE
8
DEFAULT_255_2_778
10
14.4848663
20
129.5889292
11
14.2298663
21
128.3485292
0
LINE
8
DEFAULT_255_2_778
10
14.2298663
20
128.3485292
11
13.6588663
21
128.3485292
0
LINE
8
DEFAULT_255_2_778
10
13.6588663
20
128.3485292
11
13.8916663
21
129.5336292
0
LINE
8
DEFAULT_255_2_778
10
13.2659663
20
129.6662292
11
12.9926663
21
128.3485292
0
LINE
8
DEFAULT_255_2_778
10
12.9926663
20
128.3485292
11
12.4216663
21
128.3485292
0
LINE
8
DEFAULT_255_2_778
10
12.4216663
20
128.3485292
11
12.8002663
21
130.2096292
0
LINE
8
DEFAULT_255_2_778
10
12.8002663
20
130.2096292
11
12.8005663
21
130.2099292
0
ARC
8
DEFAULT_255_2_778
10
16.7523314
20
129.0593402
40
1.1831221
50
72.5008211
51
90.0103536
0
ARC
8
DEFAULT_255_2_778
10
16.8270546
20
129.3223399
40
0.9098586
50
60.3242318
51
72.0085714
0
ARC
8
DEFAULT_255_2_778
10
16.9074051
20
129.4428126
40
0.7654736
50
24.9543019
51
61.0852427
0
ARC
8
DEFAULT_255_2_778
10
16.8128787
20
129.4009465
40
0.8688408
50
359.4872778
51
24.8275177
0
ARC
8
DEFAULT_255_2_778
10
16.6059992
20
129.3945476
40
1.0756863
50
353.6171666
51
359.9267064
0
ARC
8
DEFAULT_255_2_778
10
16.6039416
20
129.3645267
40
1.0748142
50
309.833105
51
355.2199932
0
ARC
8
DEFAULT_255_2_778
10
16.5454023
20
129.4311469
40
1.1634726
50
274.0073872
51
309.9453537
0
ARC
8
DEFAULT_255_2_778
10
16.4941881
20
129.7996028
40
1.5348158
50
269.9462811
51
274.9533663
0
ARC
8
DEFAULT_255_2_778
10
16.4927833
20
129.9233871
40
1.6585995
50
269.1686307
51
269.9988202
0
ARC
8
DEFAULT_255_2_778
10
16.4689284
20
129.4358137
40
1.1708514
50
252.109196
51
269.9896888
0
ARC
8
DEFAULT_255_2_778
10
16.3970024
20
129.1864636
40
0.9114995
50
240.54759
51
251.5966758
0
ARC
8
DEFAULT_255_2_778
10
16.317495
20
129.0637089
40
0.7655666
50
205.2400495
51
241.211713
0
ARC
8
DEFAULT_255_2_778
10
16.3979131
20
129.1010634
40
0.8542357
50
179.5359208
51
205.2063167
0
ARC
8
DEFAULT_255_2_778
10
16.5849722
20
129.1066956
40
1.0412677
50
173.5392122
51
179.9291923
0
ARC
8
DEFAULT_255_2_778
10
16.7714822
20
129.0951758
40
1.2279263
50
153.4099026
51
173.9843619
0
ARC
8
DEFAULT_255_2_778
10
16.6118759
20
129.1629448
40
1.0549233
50
129.6863931
51
152.8211827
0
ARC
8
DEFAULT_255_2_778
10
16.6740015
20
129.0923495
40
1.1489256
50
92.7623759
51
129.8224215
0
ARC
8
DEFAULT_255_2_778
10
16.7165324
20
128.7489549
40
1.494196
50
89.9700369
51
93.7568045
0
ARC
8
DEFAULT_255_2_778
10
16.7172025
20
128.6473597
40
1.5957911
50
88.7355209
51
89.9960014
0
ARC
8
DEFAULT_255_2_778
10
16.573241
20
129.0393885
40
0.4286317
50
179.6425826
51
209.446387
0
ARC
8
DEFAULT_255_2_778
10
16.4720227
20
128.9922221
40
0.3174207
50
211.0145463
51
223.1431724
0
ARC
8
DEFAULT_255_2_778
10
16.4796644
20
129.0101914
40
0.3353769
50
224.4904912
51
268.822899
0
ARC
8
DEFAULT_255_2_778
10
16.5096318
20
129.2221578
40
0.5485121
50
266.1471365
51
268.8180779
0
ARC
8
DEFAULT_255_2_778
10
16.5157553
20
129.3517665
40
0.6782284
50
268.5267288
51
269.9955114
0
ARC
8
DEFAULT_255_2_778
10
16.5313244
20
129.1612446
40
0.4879566
50
268.1653241
51
325.4286401
0
ARC
8
DEFAULT_255_2_778
10
16.3027714
20
129.3278589
40
0.7707306
50
324.8706977
51
351.0886768
0
ARC
8
DEFAULT_255_2_778
10
15.8946203
20
129.406759
40
1.1862684
50
350.3775551
51
0.2885744
0
ARC
8
DEFAULT_255_2_778
10
15.6040207
20
129.4124545
40
1.4768528
50
0.0108339
51
1.7075744
0
ARC
8
DEFAULT_255_2_778
10
16.6260051
20
129.4473496
40
0.454304
50
1.1493477
51
31.2464652
0
ARC
8
DEFAULT_255_2_778
10
16.7201645
20
129.4940769
40
0.3496776
50
32.703807
51
41.7810929
0
ARC
8
DEFAULT_255_2_778
10
16.7419538
20
129.5034534
40
0.3272685
50
43.0987922
51
88.7571407
0
ARC
8
DEFAULT_255_2_778
10
16.7112566
20
129.2911359
40
0.5408314
50
85.992647
51
88.8704975
0
ARC
8
DEFAULT_255_2_778
10
16.7048658
20
129.1892668
40
0.6428217
50
88.4799611
51
89.9943311
0
ARC
8
DEFAULT_255_2_778
10
16.6938546
20
129.3425787
40
0.4896349
50
88.7039519
51
145.0513377
0
ARC
8
DEFAULT_255_2_778
10
16.8919375
20
129.1892936
40
0.7399051
50
144.1087108
51
170.2824956
0
ARC
8
DEFAULT_255_2_778
10
17.3184971
20
129.1021764
40
1.1751307
50
169.6063184
51
180.3528002
0
ARC
8
DEFAULT_255_2_778
10
17.6545698
20
129.0953441
40
1.5111813
50
180.0153016
51
182.009194
0
LINE
8
DEFAULT_255_2_778
10
16.7524176
20
130.2427623
11
16.7521176
21
130.2424623
0
LINE
8
DEFAULT_255_2_778
10
16.1443176
20
129.0423623
11
16.1446176
21
129.0420623
0
ARC
8
DEFAULT_255_2_778
10
18.720237
20
128.1205854
40
1.642039
50
81.2830361
51
86.628458
0
ARC
8
DEFAULT_255_2_778
10
18.7752757
20
128.9590313
40
0.8018272
50
87.0310432
51
89.8986713
0
ARC
8
DEFAULT_255_2_778
10
18.7565064
20
128.8703997
40
0.8906863
50
88.7012797
51
89.9954117
0
ARC
8
DEFAULT_255_2_778
10
18.7426452
20
129.1146623
40
0.6465738
50
88.765285
51
116.6201427
0
ARC
8
DEFAULT_255_2_778
10
18.7125548
20
129.1986694
40
0.5580924
50
117.7228833
51
138.7756782
0
ARC
8
DEFAULT_255_2_778
10
18.8913475
20
129.5648707
40
0.6980151
50
116.489914
51
143.0810972
0
ARC
8
DEFAULT_255_2_778
10
18.8376938
20
129.6449223
40
0.6025621
50
89.4580016
51
115.3188873
0
ARC
8
DEFAULT_255_2_778
10
18.8288205
20
129.3101885
40
0.9373821
50
77.9674605
51
89.1092017
0
ARC
8
DEFAULT_255_2_778
10
18.7351478
20
128.7796466
40
1.4759175
50
78.008513
51
78.7045202
0
LINE
8
DEFAULT_255_2_778
10
19.0417938
20
130.2236573
11
18.9690938
21
129.7436573
0
LINE
8
DEFAULT_255_2_778
10
18.2927938
20
129.5664573
11
18.0395938
21
128.3485573
0
LINE
8
DEFAULT_255_2_778
10
18.0395938
20
128.3485573
11
17.4685938
21
128.3485573
0
LINE
8
DEFAULT_255_2_778
10
17.4685938
20
128.3485573
11
17.8492938
21
130.2096573
0
LINE
8
DEFAULT_255_2_778
10
17.8492938
20
130.2096573
11
18.3858938
21
130.2112573
0
LINE
8
DEFAULT_255_2_778
10
18.3858938
20
130.2112573
11
18.3332938
21
129.9841573
0
LINE
8
DEFAULT_255_2_778
10
19.0417938
20
130.2233573
11
19.0417938
21
130.2236573
0
ARC
8
DEFAULT_255_2_778
10
19.2894667
20
129.435175
40
1.1701724
50
250.1393411
51
270.3226852
0
ARC
8
DEFAULT_255_2_778
10
19.2345051
20
129.2553343
40
0.9824012
50
242.0502734
51
249.5907868
0
ARC
8
DEFAULT_255_2_778
10
19.133831
20
129.0958015
40
0.794417
50
208.3292132
51
243.0715083
0
ARC
8
DEFAULT_255_2_778
10
19.1260252
20
129.0867929
40
0.7832826
50
179.5739013
51
208.0201199
0
ARC
8
DEFAULT_255_2_778
10
19.2727713
20
129.0918153
40
0.9300073
50
174.3657638
51
179.9505495
0
ARC
8
DEFAULT_255_2_778
10
19.4545378
20
129.13368
40
1.1074063
50
145.2485417
51
173.7769976
0
ARC
8
DEFAULT_255_2_778
10
19.4366239
20
129.1581177
40
1.0788028
50
116.4826416
51
145.7726174
0
ARC
8
DEFAULT_255_2_778
10
19.4671976
20
129.0884316
40
1.1548163
50
89.3335424
51
116.2986099
0
ARC
8
DEFAULT_255_2_778
10
19.4805483
20
128.8460133
40
1.3971563
50
88.7200635
51
89.9966493
0
ARC
8
DEFAULT_255_2_778
10
19.5062264
20
129.1304187
40
1.1124162
50
73.6937809
51
89.7151452
0
ARC
8
DEFAULT_255_2_778
10
19.6174962
20
129.5023827
40
0.7241771
50
40.439997
51
73.880282
0
ARC
8
DEFAULT_255_2_778
10
19.5837712
20
129.4804387
40
0.7640962
50
0.3370816
51
40.0519836
0
ARC
8
DEFAULT_255_2_778
10
19.3460457
20
129.456813
40
1.0022031
50
359.994028
51
1.6078833
0
ARC
8
DEFAULT_255_2_778
10
19.2169833
20
129.4589808
40
1.1312679
50
353.167063
51
359.8849147
0
ARC
8
DEFAULT_255_2_778
10
19.0729155
20
129.4737227
40
1.2760687
50
352.3939633
51
353.279462
0
ARC
8
DEFAULT_255_2_778
10
19.2858012
20
129.0351797
40
0.3608489
50
171.5634883
51
179.9015639
0
ARC
8
DEFAULT_255_2_778
10
19.2585943
20
129.0393702
40
0.3336607
50
180.6131262
51
227.843893
0
ARC
8
DEFAULT_255_2_778
10
19.3366051
20
129.3010151
40
0.5918171
50
239.3225098
51
268.8255118
0
ARC
8
DEFAULT_255_2_778
10
19.3594512
20
129.5344016
40
0.8258202
50
267.5725716
51
270.0162941
0
ARC
8
DEFAULT_255_2_778
10
19.3591973
20
129.6181346
40
0.9095533
50
270.0307885
51
273.2244191
0
ARC
8
DEFAULT_255_2_778
10
19.3865379
20
128.9577649
40
0.2488861
50
275.4917641
51
302.3582203
0
ARC
8
DEFAULT_255_2_778
10
19.4523418
20
128.8418063
40
0.115896
50
305.561706
51
314.7657745
0
ARC
8
DEFAULT_255_2_778
10
19.4418773
20
128.8746064
40
0.1473882
50
308.6632861
51
359.3837416
0
ARC
8
DEFAULT_255_2_778
10
17.939525
20
130.5972828
40
2.962762
50
318.8021847
51
324.4102292
0
ARC
8
DEFAULT_255_2_778
10
18.9248821
20
129.7289505
40
1.6494092
50
310.4033061
51
318.953359
0
ARC
8
DEFAULT_255_2_778
10
19.4511808
20
129.1023187
40
0.831118
50
295.9312381
51
310.7744109
0
ARC
8
DEFAULT_255_2_778
10
19.5730027
20
128.8734771
40
0.5721233
50
294.3678437
51
294.9811966
0
ARC
8
DEFAULT_255_2_778
10
19.3263828
20
129.6404614
40
1.3756016
50
269.5724547
51
290.5412856
0
ARC
8
DEFAULT_255_2_778
10
19.3161577
20
129.8587488
40
1.5938505
50
269.2881822
51
269.9985732
0
ARC
8
DEFAULT_255_2_778
10
19.4713649
20
129.2721819
40
0.5598634
50
88.7931239
51
89.9984438
0
ARC
8
DEFAULT_255_2_778
10
19.4649983
20
129.3690553
40
0.463034
50
89.2102909
51
125.5845733
0
ARC
8
DEFAULT_255_2_778
10
19.5331068
20
129.2973825
40
0.5611219
50
126.9818839
51
147.669232
0
ARC
8
DEFAULT_255_2_778
10
20.008659
20
128.9776894
40
1.1340353
50
146.870707
51
156.2884785
0
ARC
8
DEFAULT_255_2_778
10
19.3656366
20
129.5558392
40
0.4293753
50
349.7481736
51
359.8266598
0
ARC
8
DEFAULT_255_2_778
10
19.4284469
20
129.5550983
40
0.3665636
50
359.9127606
51
9.1392387
0
ARC
8
DEFAULT_255_2_778
10
19.5454569
20
129.5695587
40
0.2487794
50
10.1315408
51
54.8294252
0
ARC
8
DEFAULT_255_2_778
10
19.4916417
20
129.4737413
40
0.3582778
50
56.6210187
51
91.3472693
0
LINE
8
DEFAULT_255_2_778
10
18.3472569
20
129.1831211
11
18.3536569
21
129.2537211
0
LINE
8
DEFAULT_255_2_778
10
20.3377569
20
129.3048211
11
20.3046569
21
129.0881211
0
LINE
8
DEFAULT_255_2_778
10
20.3046569
20
129.0881211
11
18.9288569
21
129.0881211
0
LINE
8
DEFAULT_255_2_778
10
19.5892569
20
128.8730211
11
20.3488569
21
128.8730211
0
LINE
8
DEFAULT_255_2_778
10
18.9703569
20
129.4337211
11
19.7757569
21
129.4337211
0
LINE
8
DEFAULT_255_2_778
10
19.7757569
20
129.4337211
11
19.7881569
21
129.4794211
0
LINE
8
DEFAULT_255_2_778
10
11.5575281
20
130.0205177
11
12.9404281
21
129.2045177
0
LINE
8
DEFAULT_255_2_778
10
12.9404281
20
129.2045177
11
11.4093281
21
128.6111177
0
LINE
8
DEFAULT_255_2_778
10
11.4093281
20
128.6111177
11
11.7302281
21
129.3281177
0
LINE
8
DEFAULT_255_2_778
10
11.7302281
20
129.3281177
11
11.5575281
21
130.0205177
0
ARC
8
DEFAULT_255_2_778
10
7.9956492
20
129.7401349
40
1.734445
50
345.0500681
51
0.450213
0
ARC
8
DEFAULT_255_2_778
10
8.2747128
20
129.6759315
40
1.4482985
50
339.8011311
51
344.6559926
0
ARC
8
DEFAULT_255_2_778
10
8.3564959
20
129.6304595
40
1.3559213
50
318.9869254
51
340.4112117
0
ARC
8
DEFAULT_255_2_778
10
8.4726786
20
129.5425223
40
1.2105876
50
317.7755753
51
318.5188915
0
ARC
8
DEFAULT_255_2_778
10
8.5000776
20
129.5166224
40
1.1728926
50
293.4453171
51
317.8130059
0
ARC
8
DEFAULT_255_2_778
10
8.4704728
20
129.5948502
40
1.2564472
50
269.4376299
51
293.2645473
0
ARC
8
DEFAULT_255_2_778
10
8.7713116
20
129.8029305
40
1.0182316
50
68.112945
51
90.7974227
0
ARC
8
DEFAULT_255_2_778
10
8.8150218
20
129.9382759
40
0.8764035
50
66.6600337
51
67.4660887
0
ARC
8
DEFAULT_255_2_778
10
8.8273616
20
129.9500129
40
0.860764
50
41.8199578
51
67.1046866
0
ARC
8
DEFAULT_255_2_778
10
8.7262144
20
129.8737866
40
0.9870277
50
18.4442061
51
41.2024761
0
ARC
8
DEFAULT_255_2_778
10
8.4236394
20
129.7701986
40
1.3068358
50
359.9236227
51
18.5554774
0
ARC
8
DEFAULT_255_2_778
10
8.1090371
20
129.7537824
40
1.6215036
50
359.9993331
51
0.5185192
0
ARC
8
DEFAULT_255_2_778
10
8.2484265
20
129.7599191
40
1.1556879
50
359.3527282
51
15.3461488
0
ARC
8
DEFAULT_255_2_778
10
8.4878709
20
129.8150091
40
0.9102591
50
15.9909101
51
17.2384514
0
ARC
8
DEFAULT_255_2_778
10
8.6538656
20
129.8784942
40
0.7329962
50
16.3441173
51
39.0583428
0
ARC
8
DEFAULT_255_2_778
10
8.7708861
20
129.9640513
40
0.5882641
50
39.7694118
51
66.0014919
0
ARC
8
DEFAULT_255_2_778
10
8.7375911
20
129.8710083
40
0.6868457
50
66.6208799
51
90.9301944
0
ARC
8
DEFAULT_255_2_778
10
8.4997619
20
129.4660777
40
0.865983
50
269.2774049
51
294.6427005
0
ARC
8
DEFAULT_255_2_778
10
8.5132787
20
129.4180801
40
0.8167574
50
295.184769
51
321.1699914
0
ARC
8
DEFAULT_255_2_778
10
8.321121
20
129.5645326
40
1.0582969
50
321.5163412
51
341.7776814
0
ARC
8
DEFAULT_255_2_778
10
8.0263618
20
129.6800931
40
1.374523
50
341.044332
51
342.4824039
0
ARC
8
DEFAULT_255_2_778
10
7.9221077
20
129.7017334
40
1.4804949
50
342.8981919
51
356.6952858
0
ARC
8
DEFAULT_255_2_778
10
7.4185441
20
129.7454849
40
1.9857973
50
356.2725814
51
0.0484329
0
LINE
8
DEFAULT_255_2_778
10
8.4581407
20
128.3384635
11
7.4088407
21
128.3141635
0
LINE
8
DEFAULT_255_2_778
10
7.4088407
20
128.3141635
11
7.9181407
21
130.8210635
0
LINE
8
DEFAULT_255_2_778
10
7.9181407
20
130.8210635
11
8.7571407
21
130.8210635
0
LINE
8
DEFAULT_255_2_778
10
9.7305407
20
129.7537635
11
9.7300407
21
129.7537635
0
LINE
8
DEFAULT_255_2_778
10
8.7264407
20
130.5577635
11
8.1285407
21
130.5397635
0
LINE
8
DEFAULT_255_2_778
10
8.1285407
20
130.5397635
11
7.7686407
21
128.5615635
0
LINE
8
DEFAULT_255_2_778
10
7.7686407
20
128.5615635
11
8.4888407
21
128.6001635
0
LINE
8
DEFAULT_255_2_778
10
9.4043407
20
129.7471635
11
9.4040407
21
129.7468635
0
ARC
8
DEFAULT_255_2_778
10
10.434674
20
129.142419
40
0.5777251
50
269.3131992
51
298.9193317
0
ARC
8
DEFAULT_255_2_778
10
10.3745898
20
129.2470114
40
0.6983333
50
299.0845099
51
323.1838183
0
ARC
8
DEFAULT_255_2_778
10
10.2053419
20
129.3709915
40
0.9081244
50
323.3206017
51
342.9705556
0
ARC
8
DEFAULT_255_2_778
10
10.0399255
20
129.4284416
40
1.0831324
50
342.6274164
51
0.2324268
0
ARC
8
DEFAULT_255_2_778
10
10.3756391
20
129.4455185
40
0.7475175
50
359.0278167
51
16.1300251
0
ARC
8
DEFAULT_255_2_778
10
10.6995449
20
129.5386392
40
0.4104922
50
16.2042834
51
41.9480466
0
ARC
8
DEFAULT_255_2_778
10
10.7119118
20
129.5304262
40
0.4070383
50
43.9719544
51
85.3997935
0
ARC
8
DEFAULT_255_2_778
10
10.6645186
20
129.2547297
40
0.686108
50
83.300847
51
90.1477804
0
ARC
8
DEFAULT_255_2_778
10
10.6542616
20
129.3594474
40
0.58145
50
89.163628
51
118.6648078
0
ARC
8
DEFAULT_255_2_778
10
10.713379
20
129.2624564
40
0.6949321
50
119.1056578
51
143.2104754
0
ARC
8
DEFAULT_255_2_778
10
10.8865438
20
129.1354766
40
0.9096571
50
143.3373192
51
162.9538381
0
ARC
8
DEFAULT_255_2_778
10
11.0503519
20
129.0784321
40
1.0830106
50
162.6089297
51
180.2167337
0
ARC
8
DEFAULT_255_2_778
10
10.722432
20
129.0616465
40
0.7551896
50
179.037255
51
196.0102976
0
ARC
8
DEFAULT_255_2_778
10
10.3946689
20
128.9681213
40
0.4143448
50
196.0798237
51
221.5429745
0
ARC
8
DEFAULT_255_2_778
10
10.3758386
20
128.9697741
40
0.4015819
50
223.501568
51
264.945498
0
ARC
8
DEFAULT_255_2_778
10
10.4257062
20
129.249923
40
0.6854906
50
262.8561454
51
270.170743
0
ARC
8
DEFAULT_255_2_778
10
10.3819801
20
129.3076733
40
0.993603
50
251.4783364
51
270.6555979
0
ARC
8
DEFAULT_255_2_778
10
10.2994823
20
129.0619369
40
0.7343883
50
228.2272369
51
251.4910714
0
ARC
8
DEFAULT_255_2_778
10
10.2621392
20
129.0112077
40
0.671704
50
202.6960886
51
227.720176
0
ARC
8
DEFAULT_255_2_778
10
10.3818562
20
129.0565656
40
0.7996635
50
179.6456167
51
202.3846702
0
ARC
8
DEFAULT_255_2_778
10
10.6496927
20
129.0727351
40
1.0675438
50
179.9999853
51
180.6023814
0
ARC
8
DEFAULT_255_2_778
10
10.6859721
20
129.079723
40
1.1038452
50
157.230675
51
180.3627006
0
ARC
8
DEFAULT_255_2_778
10
10.7166324
20
129.0701196
40
1.135837
50
135.6908415
51
157.3825693
0
ARC
8
DEFAULT_255_2_778
10
10.6869282
20
129.096815
40
1.0959349
50
113.1058727
51
135.604761
0
ARC
8
DEFAULT_255_2_778
10
10.6874078
20
129.1010049
40
1.0922713
50
89.5047522
51
113.2152626
0
ARC
8
DEFAULT_255_2_778
10
10.7082287
20
129.1979295
40
0.9953709
50
71.5130801
51
90.6550541
0
ARC
8
DEFAULT_255_2_778
10
10.7896575
20
129.4437115
40
0.7364524
50
48.2602918
51
71.4580165
0
ARC
8
DEFAULT_255_2_778
10
10.8279984
20
129.4971961
40
0.6710546
50
22.5497085
51
47.6627683
0
ARC
8
DEFAULT_255_2_778
10
10.6993556
20
129.4478328
40
0.8088011
50
359.0650515
51
22.2845409
0
ARC
8
DEFAULT_255_2_778
10
10.4090028
20
129.4285709
40
1.0990629
50
337.1812514
51
0.316152
0
ARC
8
DEFAULT_255_2_778
10
10.3735655
20
129.4391512
40
1.135837
50
315.6908415
51
337.3825693
0
ARC
8
DEFAULT_255_2_778
10
10.3954229
20
129.4211107
40
1.1075969
50
293.2336194
51
315.5688359
0
ARC
8
DEFAULT_255_2_778
10
10.401174
20
129.4004991
40
1.0863919
50
269.5873092
51
293.383724
0
LINE
8
DEFAULT_255_2_778
10
10.427749
20
128.5644354
11
10.427749
21
128.5647354
0
LINE
8
DEFAULT_255_2_778
10
10.393349
20
128.3141354
11
10.393349
21
128.3141354
0
LINE
8
DEFAULT_255_1_388
10
10.4046024
20
125.6988
11
9.9483024
21
125.6988
0
LINE
8
DEFAULT_255_1_388
10
9.9483024
20
125.6988
11
9.9483024
21
127.0143898
0
LINE
8
DEFAULT_255_1_388
10
9.9483024
20
127.0143898
11
10.3783991
21
127.0143898
0
LINE
8
DEFAULT_255_1_388
10
10.4109274
20
126.3141274
11
10.1217868
21
126.3141274
0
LINE
8
DEFAULT_255_1_388
10
10.1217868
20
126.3141274
11
10.1217868
21
125.8406596
0
LINE
8
DEFAULT_255_1_388
10
10.1217868
20
125.8406596
11
10.4082167
21
125.8406596
0
LINE
8
DEFAULT_255_1_388
10
10.1217868
20
126.8716267
11
10.1217868
21
126.4532763
0
LINE
8
DEFAULT_255_1_388
10
10.1217868
20
126.4532763
11
10.3838205
21
126.4532763
0
LINE
8
DEFAULT_255_1_388
10
10.3783991
20
126.8716267
11
10.1217868
21
126.8716267
0
ARC
8
DEFAULT_255_1_388
10
10.3826411
20
126.1855824
40
0.8288183
50
82.1256322
51
90.2932506
0
ARC
8
DEFAULT_255_1_388
10
10.4263986
20
126.491359
40
0.5199321
50
69.9044202
51
82.2857574
0
ARC
8
DEFAULT_255_1_388
10
10.4905979
20
126.6648993
40
0.3348993
50
51.1840204
51
70.018125
0
ARC
8
DEFAULT_255_1_388
10
10.5192811
20
126.7065945
40
0.2844579
50
12.1018086
51
50.421322
0
ARC
8
DEFAULT_255_1_388
10
10.3635682
20
126.6674937
40
0.4449429
50
359.5252354
51
12.8212369
0
ARC
8
DEFAULT_255_1_388
10
10.5413112
20
126.6596943
40
0.2672162
50
323.4907456
51
0.8818258
0
ARC
8
DEFAULT_255_1_388
10
10.4942525
20
126.6960523
40
0.3266736
50
298.6824053
51
323.2758285
0
ARC
8
DEFAULT_255_1_388
10
10.4535816
20
126.7636509
40
0.4055105
50
293.1994739
51
299.139634
0
ARC
8
DEFAULT_255_1_388
10
10.5292766
20
126.0790651
40
0.3229926
50
54.0009997
51
74.9168635
0
ARC
8
DEFAULT_255_1_388
10
10.5423693
20
126.1012511
40
0.2973581
50
36.3578854
51
53.5293172
0
ARC
8
DEFAULT_255_1_388
10
10.5281061
20
126.091085
40
0.3148715
50
4.8189348
51
36.3090187
0
ARC
8
DEFAULT_255_1_388
10
10.4404085
20
126.0787383
40
0.4033265
50
359.9373213
51
5.5201284
0
ARC
8
DEFAULT_255_1_388
10
10.4039415
20
126.0741733
40
0.4398126
50
344.7479357
51
0.5372278
0
ARC
8
DEFAULT_255_1_388
10
10.5154314
20
126.0441205
40
0.3243441
50
311.1785587
51
344.6887681
0
ARC
8
DEFAULT_255_1_388
10
10.4825857
20
126.0850084
40
0.3767511
50
286.0417804
51
310.8440924
0
ARC
8
DEFAULT_255_1_388
10
10.4255266
20
126.2702885
40
0.5705957
50
274.1044074
51
286.4070149
0
ARC
8
DEFAULT_255_1_388
10
10.4056482
20
126.4820901
40
0.7832907
50
269.9235077
51
274.4458593
0
ARC
8
DEFAULT_255_1_388
10
10.41082
20
126.2189462
40
0.3782955
50
269.6057074
51
281.3740795
0
ARC
8
DEFAULT_255_1_388
10
10.4367698
20
126.0959569
40
0.2526069
50
281.105298
51
302.5134029
0
ARC
8
DEFAULT_255_1_388
10
10.4533086
20
126.0662944
40
0.2187131
50
303.0365425
51
311.8818034
0
ARC
8
DEFAULT_255_1_388
10
10.4613263
20
126.0567602
40
0.2062624
50
311.9916937
51
351.7143773
0
ARC
8
DEFAULT_255_1_388
10
10.3694288
20
126.0753271
40
0.2999202
50
350.7343295
51
0.2221526
0
ARC
8
DEFAULT_255_1_388
10
10.3573376
20
126.081687
40
0.3120525
50
359.045729
51
17.2295312
0
ARC
8
DEFAULT_255_1_388
10
10.4742406
20
126.1164155
40
0.1901144
50
17.6685208
51
78.9940245
0
ARC
8
DEFAULT_255_1_388
10
10.4160767
20
125.9076011
40
0.4065575
50
76.565218
51
90.7103392
0
LINE
8
DEFAULT_255_1_388
10
10.4110364
20
126.3141274
11
10.4109274
21
126.3141274
0
ARC
8
DEFAULT_255_1_388
10
10.3863593
20
126.8228949
40
0.3696273
50
269.6064514
51
281.4533785
0
ARC
8
DEFAULT_255_1_388
10
10.4114234
20
126.7046283
40
0.2487412
50
281.2044438
51
302.5143998
0
ARC
8
DEFAULT_255_1_388
10
10.4268488
20
126.6768576
40
0.2170405
50
303.0211308
51
309.8378766
0
ARC
8
DEFAULT_255_1_388
10
10.4474605
20
126.6537486
40
0.1860946
50
309.5229446
51
356.9509628
0
ARC
8
DEFAULT_255_1_388
10
10.3728731
20
126.6644831
40
0.2612347
50
355.4699226
51
0.0498632
0
ARC
8
DEFAULT_255_1_388
10
10.3414404
20
126.6669789
40
0.2926762
50
359.5558955
51
11.2092924
0
ARC
8
DEFAULT_255_1_388
10
10.4491372
20
126.6892667
40
0.1827036
50
10.9185717
51
31.322519
0
ARC
8
DEFAULT_255_1_388
10
10.481292
20
126.7071571
40
0.1459418
50
31.8850633
51
52.1415586
0
ARC
8
DEFAULT_255_1_388
10
10.4504349
20
126.6635674
40
0.1993088
50
52.8283418
51
71.9850132
0
ARC
8
DEFAULT_255_1_388
10
10.408151
20
126.5391158
40
0.3307407
50
71.686634
51
82.8453416
0
ARC
8
DEFAULT_255_1_388
10
10.3812157
20
126.3355892
40
0.536039
50
82.6981895
51
90.1730083
0
ARC
8
DEFAULT_255_1_388
10
10.3786989
20
126.4234836
40
0.4481429
50
89.8851568
51
90.0383283
0
LINE
8
DEFAULT_255_1_388
10
11.8683769
20
125.6988
11
11.5828505
21
126.2309995
0
LINE
8
DEFAULT_255_1_388
10
11.5828505
20
126.2309995
11
11.2738314
21
126.2309995
0
LINE
8
DEFAULT_255_1_388
10
11.2738314
20
126.2309995
11
11.2738314
21
125.6988
0
LINE
8
DEFAULT_255_1_388
10
11.2738314
20
125.6988
11
11.0994435
21
125.6988
0
LINE
8
DEFAULT_255_1_388
10
11.0994435
20
125.6988
11
11.0994435
21
127.0143898
0
LINE
8
DEFAULT_255_1_388
10
11.0994435
20
127.0143898
11
11.5349616
21
127.0143898
0
LINE
8
DEFAULT_255_1_388
10
11.7454921
20
126.2680456
11
12.0545111
21
125.7096428
0
LINE
8
DEFAULT_255_1_388
10
12.0545111
20
125.7096428
11
12.0545111
21
125.6988
0
LINE
8
DEFAULT_255_1_388
10
12.0545111
20
125.6988
11
11.8683769
21
125.6988
0
LINE
8
DEFAULT_255_1_388
10
11.2738314
20
126.8716267
11
11.2738314
21
126.3728591
0
LINE
8
DEFAULT_255_1_388
10
11.2738314
20
126.3728591
11
11.540383
21
126.3728591
0
LINE
8
DEFAULT_255_1_388
10
11.5394794
20
126.8716267
11
11.2738314
21
126.8716267
0
ARC
8
DEFAULT_255_1_388
10
11.5396461
20
126.2312346
40
0.7831693
50
80.6535681
51
90.3427203
0
ARC
8
DEFAULT_255_1_388
10
11.5868372
20
126.5082722
40
0.5021479
50
65.6987674
51
80.8330164
0
ARC
8
DEFAULT_255_1_388
10
11.6405666
20
126.6314479
40
0.3677787
50
50.0019152
51
65.4304412
0
ARC
8
DEFAULT_255_1_388
10
11.6651482
20
126.6646603
40
0.3265454
50
11.6284215
51
49.5603681
0
ARC
8
DEFAULT_255_1_388
10
11.4923968
20
126.6224524
40
0.5043009
50
359.5655533
51
12.3693319
0
ARC
8
DEFAULT_255_1_388
10
11.6135304
20
126.6154038
40
0.3831661
50
341.998418
51
0.4822212
0
ARC
8
DEFAULT_255_1_388
10
11.6579491
20
126.6033479
40
0.3372036
50
323.8610842
51
341.6141514
0
ARC
8
DEFAULT_255_1_388
10
11.6240037
20
126.6295615
40
0.3800784
50
296.7019299
51
323.6876213
0
ARC
8
DEFAULT_255_1_388
10
11.5743995
20
126.7182532
40
0.4816219
50
290.808313
51
297.2325929
0
ARC
8
DEFAULT_255_1_388
10
11.5432789
20
126.7771377
40
0.404289
50
269.5895908
51
281.8058892
0
ARC
8
DEFAULT_255_1_388
10
11.5715055
20
126.648036
40
0.2721459
50
281.5499321
51
303.9358954
0
ARC
8
DEFAULT_255_1_388
10
11.5869589
20
126.6212588
40
0.2413121
50
304.4410786
51
311.211123
0
ARC
8
DEFAULT_255_1_388
10
11.6017995
20
126.6056152
40
0.2197678
50
310.9874923
51
356.2715203
0
ARC
8
DEFAULT_255_1_388
10
11.5167741
20
126.6182992
40
0.3055212
50
354.9346315
51
0.0617816
0
ARC
8
DEFAULT_255_1_388
10
11.4956582
20
126.6213427
40
0.3266482
50
359.5239293
51
12.8808621
0
ARC
8
DEFAULT_255_1_388
10
11.6056344
20
126.6482638
40
0.2134449
50
12.417206
51
43.1023141
0
ARC
8
DEFAULT_255_1_388
10
11.6125675
20
126.6524253
40
0.2055463
50
43.575886
51
48.2047245
0
ARC
8
DEFAULT_255_1_388
10
11.5934936
20
126.6275151
40
0.2368418
50
48.7809155
51
72.6968768
0
ARC
8
DEFAULT_255_1_388
10
11.5536299
20
126.5065385
40
0.364206
50
72.3699892
51
84.8793749
0
ARC
8
DEFAULT_255_1_388
10
11.5370305
20
126.3555651
40
0.5160674
50
84.5398226
51
89.7281165
0
LINE
8
DEFAULT_255_1_388
10
12.3517838
20
127.0143898
11
12.668935
21
126.5102009
0
LINE
8
DEFAULT_255_1_388
10
12.668935
20
126.5102009
11
12.984279
21
127.0143898
0
LINE
8
DEFAULT_255_1_388
10
12.984279
20
127.0143898
11
13.1884845
21
127.0143898
0
LINE
8
DEFAULT_255_1_388
10
13.1884845
20
127.0143898
11
12.7728449
21
126.3620163
0
LINE
8
DEFAULT_255_1_388
10
12.7728449
20
126.3620163
11
13.1984237
21
125.6988
0
LINE
8
DEFAULT_255_1_388
10
13.1984237
20
125.6988
11
12.992411
21
125.6988
0
LINE
8
DEFAULT_255_1_388
10
12.992411
20
125.6988
11
12.668935
21
126.2120246
0
LINE
8
DEFAULT_255_1_388
10
12.668935
20
126.2120246
11
12.3436518
21
125.6988
0
LINE
8
DEFAULT_255_1_388
10
12.3436518
20
125.6988
11
12.1385426
21
125.6988
0
LINE
8
DEFAULT_255_1_388
10
12.1385426
20
125.6988
11
12.565025
21
126.3620163
0
LINE
8
DEFAULT_255_1_388
10
12.565025
20
126.3620163
11
12.1484818
21
127.0143898
0
LINE
8
DEFAULT_255_1_388
10
12.1484818
20
127.0143898
11
12.3517838
21
127.0143898
0
LINE
8
DEFAULT_255_1_388
10
14.730869
20
126.6339892
11
14.5564811
21
126.6339892
0
LINE
8
DEFAULT_255_1_388
10
13.7776085
20
126.0801042
11
13.9519965
21
126.0801042
0
ARC
8
DEFAULT_255_1_388
10
14.6305538
20
127.6403821
40
1.4087688
50
248.9196578
51
254.1442424
0
ARC
8
DEFAULT_255_1_388
10
14.4415418
20
127.1537805
40
0.8867498
50
241.6337352
51
249.0064643
0
ARC
8
DEFAULT_255_1_388
10
14.2695731
20
126.8386764
40
0.5277799
50
230.4982261
51
241.8087583
0
ARC
8
DEFAULT_255_1_388
10
14.1813503
20
126.7262686
40
0.3849419
50
227.4062979
51
229.9877433
0
ARC
8
DEFAULT_255_1_388
10
14.1264849
20
126.6727155
40
0.3084129
50
200.6782127
51
228.1765252
0
ARC
8
DEFAULT_255_1_388
10
14.1346218
20
126.6710277
40
0.315461
50
179.506278
51
199.8695278
0
ARC
8
DEFAULT_255_1_388
10
14.1335807
20
126.6793671
40
0.3144584
50
132.4834401
51
181.0242352
0
ARC
8
DEFAULT_255_1_388
10
14.2005011
20
126.6161788
40
0.4063094
50
129.2526113
51
133.4249077
0
ARC
8
DEFAULT_255_1_388
10
14.2170604
20
126.5913619
40
0.436014
50
101.9878945
51
128.8741833
0
ARC
8
DEFAULT_255_1_388
10
14.2619019
20
126.397736
40
0.6347415
50
89.5906376
51
102.3170567
0
ARC
8
DEFAULT_255_1_388
10
14.269833
20
126.4335586
40
0.5989122
50
77.2359491
51
90.3248968
0
ARC
8
DEFAULT_255_1_388
10
14.2931261
20
126.5423554
40
0.4876594
50
63.8379856
51
77.0808925
0
ARC
8
DEFAULT_255_1_388
10
14.3243795
20
126.6005882
40
0.4216191
50
45.9863127
51
64.1608798
0
ARC
8
DEFAULT_255_1_388
10
14.3537189
20
126.634099
40
0.3771394
50
32.2747934
51
45.6544796
0
ARC
8
DEFAULT_255_1_388
10
14.3611995
20
126.6362426
40
0.3696765
50
359.6507495
51
32.6129943
0
ARC
8
DEFAULT_255_1_388
10
14.2551178
20
126.6367788
40
0.3013762
50
359.469654
51
14.983205
0
ARC
8
DEFAULT_255_1_388
10
14.334443
20
126.6580288
40
0.2192542
50
14.9781954
51
48.2004799
0
ARC
8
DEFAULT_255_1_388
10
14.3159541
20
126.6347937
40
0.2489048
50
48.5926661
51
74.1242559
0
ARC
8
DEFAULT_255_1_388
10
14.2784343
20
126.5109607
40
0.3782845
50
73.7889321
51
86.6653996
0
ARC
8
DEFAULT_255_1_388
10
14.2669158
20
126.3751955
40
0.5145025
50
86.2642725
51
90.0533288
0
ARC
8
DEFAULT_255_1_388
10
14.2637251
20
126.4196376
40
0.4700681
50
89.669455
51
99.2313411
0
ARC
8
DEFAULT_255_1_388
10
14.236441
20
126.5821401
40
0.3052945
50
99.0695987
51
113.7659242
0
ARC
8
DEFAULT_255_1_388
10
14.2056405
20
126.6547772
40
0.226407
50
114.0402885
51
127.9848946
0
ARC
8
DEFAULT_255_1_388
10
14.1785881
20
126.6880884
40
0.1835045
50
127.7287217
51
176.7106493
0
ARC
8
DEFAULT_255_1_388
10
14.2549546
20
126.676721
40
0.2604907
50
175.1780759
51
180.0581213
0
ARC
8
DEFAULT_255_1_388
10
14.160089
20
126.6753411
40
0.1656287
50
179.6140658
51
228.124674
0
ARC
8
DEFAULT_255_1_388
10
14.2098247
20
126.721394
40
0.2332038
50
226.5785315
51
230.8792476
0
ARC
8
DEFAULT_255_1_388
10
14.2627734
20
126.7916908
40
0.3211664
50
231.4636401
51
241.9261664
0
ARC
8
DEFAULT_255_1_388
10
14.3974517
20
127.0395349
40
0.6032345
50
241.7177136
51
248.3259138
0
ARC
8
DEFAULT_255_1_388
10
14.5533112
20
127.4256771
40
1.0196417
50
248.2007377
51
252.4527713
0
ARC
8
DEFAULT_255_1_388
10
14.6886638
20
127.8441092
40
1.4594143
50
252.3388938
51
254.347037
0
ARC
8
DEFAULT_255_1_388
10
13.8401939
20
124.8093095
40
1.6917621
50
71.0197462
51
74.4085467
0
ARC
8
DEFAULT_255_1_388
10
14.0309027
20
125.3598144
40
1.1091618
50
66.1845203
51
71.086519
0
ARC
8
DEFAULT_255_1_388
10
14.2059576
20
125.7539439
40
0.6779073
50
59.3537334
51
66.269255
0
ARC
8
DEFAULT_255_1_388
10
14.3059302
20
125.9230777
40
0.4814366
50
49.1021732
51
59.3294421
0
ARC
8
DEFAULT_255_1_388
10
14.398029
20
126.0280575
40
0.3417875
50
32.7924183
51
49.2503526
0
ARC
8
DEFAULT_255_1_388
10
14.4329904
20
126.0530311
40
0.2988789
50
31.121225
51
32.3977355
0
ARC
8
DEFAULT_255_1_388
10
14.4242082
20
126.0497728
40
0.3080861
50
8.1116803
51
30.7958224
0
ARC
8
DEFAULT_255_1_388
10
14.3330428
20
126.0342437
40
0.4005385
50
359.8390945
51
8.4707348
0
ARC
8
DEFAULT_255_1_388
10
14.4034475
20
126.0287751
40
0.3301608
50
337.4732479
51
0.7538283
0
ARC
8
DEFAULT_255_1_388
10
14.4235501
20
126.0265554
40
0.3107929
50
307.5917028
51
336.4313755
0
ARC
8
DEFAULT_255_1_388
10
14.3724558
20
126.0833509
40
0.3870096
50
307.6560665
51
308.4561779
0
ARC
8
DEFAULT_255_1_388
10
14.3458775
20
126.1241832
40
0.435591
50
284.3733666
51
307.1426212
0
ARC
8
DEFAULT_255_1_388
10
14.2901669
20
126.3291391
40
0.6479685
50
272.4384566
51
284.6464689
0
ARC
8
DEFAULT_255_1_388
10
14.2759054
20
126.5315434
40
0.8508149
50
269.9708517
51
272.8180721
0
ARC
8
DEFAULT_255_1_388
10
14.2710737
20
126.3023283
40
0.6216151
50
248.2707343
51
270.4054609
0
ARC
8
DEFAULT_255_1_388
10
14.2649608
20
126.2808673
40
0.5994203
50
246.1380358
51
248.054058
0
ARC
8
DEFAULT_255_1_388
10
14.2178751
20
126.1819705
40
0.4899388
50
233.1671897
51
246.4951656
0
ARC
8
DEFAULT_255_1_388
10
14.1555386
20
126.0978137
40
0.3852115
50
215.3403381
51
233.084328
0
ARC
8
DEFAULT_255_1_388
10
14.124875
20
126.0755093
40
0.3472969
50
179.2419235
51
215.2648426
0
ARC
8
DEFAULT_255_1_388
10
14.2112301
20
126.0770979
40
0.259251
50
179.3355796
51
199.1045873
0
ARC
8
DEFAULT_255_1_388
10
14.1738443
20
126.0673223
40
0.2207454
50
199.8830064
51
232.7061328
0
ARC
8
DEFAULT_255_1_388
10
14.2269717
20
126.1341456
40
0.306101
50
232.3736206
51
255.5136621
0
ARC
8
DEFAULT_255_1_388
10
14.2653223
20
126.2741177
40
0.4512213
50
255.2447928
51
267.5318292
0
ARC
8
DEFAULT_255_1_388
10
14.275169
20
126.4127709
40
0.5901825
50
267.1564563
51
270.0294721
0
ARC
8
DEFAULT_255_1_388
10
14.2783015
20
126.3628623
40
0.5402814
50
269.6999944
51
278.1662446
0
ARC
8
DEFAULT_255_1_388
10
14.3071043
20
126.1681974
40
0.3435003
50
278.0229022
51
290.6255326
0
ARC
8
DEFAULT_255_1_388
10
14.3462209
20
126.0638547
40
0.2320666
50
290.6616368
51
307.0374127
0
ARC
8
DEFAULT_255_1_388
10
14.3800109
20
126.022404
40
0.1786372
50
306.3942078
51
355.303191
0
ARC
8
DEFAULT_255_1_388
10
14.3224402
20
126.0310186
40
0.2367516
50
354.3662092
51
0.0709489
0
ARC
8
DEFAULT_255_1_388
10
14.3384271
20
126.0335561
40
0.2207761
50
359.4175379
51
16.1975911
0
ARC
8
DEFAULT_255_1_388
10
14.3896389
20
126.0475954
40
0.1676828
50
16.4721294
51
52.6261798
0
ARC
8
DEFAULT_255_1_388
10
14.2972896
20
125.9256606
40
0.3206412
50
52.7381828
51
62.4979144
0
ARC
8
DEFAULT_255_1_388
10
14.1414649
20
125.6324236
40
0.6527035
50
62.2517425
51
68.1219454
0
ARC
8
DEFAULT_255_1_388
10
13.9480137
20
125.1569951
40
1.1659797
50
68.006043
51
71.8055127
0
ARC
8
DEFAULT_255_1_388
10
13.7460045
20
124.5511723
40
1.8045908
50
71.718361
51
73.9260743
0
LINE
8
DEFAULT_255_1_388
10
14.8871857
20
126.1605214
11
14.8871857
21
126.1912426
0
LINE
8
DEFAULT_255_1_388
10
15.7166579
20
126.2093139
11
15.7166579
21
126.1397395
0
LINE
8
DEFAULT_255_1_388
10
15.7166579
20
126.1397395
11
15.0543451
21
126.1397395
0
LINE
8
DEFAULT_255_1_388
10
15.6019052
20
125.9490874
11
15.704008
21
125.8695737
0
LINE
8
DEFAULT_255_1_388
10
15.0597665
20
126.2770813
11
15.5494984
21
126.2770813
0
LINE
8
DEFAULT_255_1_388
10
15.5494984
20
126.2770813
11
15.5494984
21
126.2897312
0
ARC
8
DEFAULT_255_1_388
10
15.3303618
20
126.173021
40
0.4923176
50
252.326534
51
270.5809615
0
ARC
8
DEFAULT_255_1_388
10
15.3073082
20
126.089694
40
0.4059384
50
223.3000488
51
251.8562489
0
ARC
8
DEFAULT_255_1_388
10
15.3310862
20
126.1127898
40
0.4390832
50
190.9374369
51
223.3654369
0
ARC
8
DEFAULT_255_1_388
10
15.525154
20
126.1566598
40
0.63798
50
179.6531919
51
191.4988561
0
ARC
8
DEFAULT_255_1_388
10
15.5388567
20
126.1948571
40
0.6516811
50
167.4005523
51
180.3177836
0
ARC
8
DEFAULT_255_1_388
10
15.4205239
20
126.2198853
40
0.5307402
50
154.1835149
51
167.2508278
0
ARC
8
DEFAULT_255_1_388
10
15.349483
20
126.2572925
40
0.4505076
50
134.3150225
51
154.5315008
0
ARC
8
DEFAULT_255_1_388
10
15.3250165
20
126.278755
40
0.4180662
50
122.8617482
51
133.9707159
0
ARC
8
DEFAULT_255_1_388
10
15.3133772
20
126.3037882
40
0.3907416
50
89.8248474
51
123.4199325
0
ARC
8
DEFAULT_255_1_388
10
15.319007
20
126.2310352
40
0.4635141
50
74.7874349
51
90.5482648
0
ARC
8
DEFAULT_255_1_388
10
15.3520534
20
126.3530987
40
0.3370565
50
39.8178888
51
74.7634383
0
ARC
8
DEFAULT_255_1_388
10
15.2943776
20
126.3081356
40
0.4101553
50
16.8990848
51
39.4830125
0
ARC
8
DEFAULT_255_1_388
10
15.081239
20
126.2398711
40
0.6339427
50
4.9634768
51
17.2027767
0
ARC
8
DEFAULT_255_1_388
10
14.8091795
20
126.21116
40
0.9074803
50
359.8834402
51
5.2832409
0
ARC
8
DEFAULT_255_1_388
10
15.4884153
20
126.1471981
40
0.4341343
50
180.9844233
51
194.9402766
0
ARC
8
DEFAULT_255_1_388
10
15.3703319
20
126.114917
40
0.3117211
50
194.8030557
51
222.0412897
0
ARC
8
DEFAULT_255_1_388
10
15.3361191
20
126.0809715
40
0.2635903
50
221.541578
51
268.8616004
0
ARC
8
DEFAULT_255_1_388
10
15.3443311
20
126.157028
40
0.3398611
50
267.7321071
51
270.009808
0
ARC
8
DEFAULT_255_1_388
10
15.3463375
20
126.1797178
40
0.3625561
50
269.6921218
51
280.4122297
0
ARC
8
DEFAULT_255_1_388
10
15.3661786
20
126.0763767
40
0.2573323
50
280.2257165
51
298.633539
0
ARC
8
DEFAULT_255_1_388
10
15.37872
20
126.0499578
40
0.2281403
50
299.0485543
51
300.4624141
0
ARC
8
DEFAULT_255_1_388
10
15.302818
20
126.1764796
40
0.3756797
50
300.6578578
51
322.037749
0
ARC
8
DEFAULT_255_1_388
10
15.2657702
20
126.2088266
40
0.4247956
50
321.671786
51
322.3059078
0
ARC
8
DEFAULT_255_1_388
10
15.3681265
20
126.0794267
40
0.3960488
50
276.9729088
51
328.0035579
0
ARC
8
DEFAULT_255_1_388
10
15.3369735
20
126.2459609
40
0.5652345
50
269.8358003
51
278.0581296
0
ARC
8
DEFAULT_255_1_388
10
15.3114034
20
126.329782
40
0.2274263
50
89.2017936
51
117.2852353
0
ARC
8
DEFAULT_255_1_388
10
15.3173785
20
126.3250637
40
0.2343798
50
118.0546404
51
137.4544511
0
ARC
8
DEFAULT_255_1_388
10
15.3595429
20
126.2867556
40
0.2913471
50
137.5109688
51
158.8516701
0
ARC
8
DEFAULT_255_1_388
10
15.4875529
20
126.2350902
40
0.4293804
50
158.5845496
51
170.1719753
0
ARC
8
DEFAULT_255_1_388
10
15.6191865
20
126.2089519
40
0.5635533
50
169.8378964
51
173.0563877
0
ARC
8
DEFAULT_255_1_388
10
15.0907149
20
126.2664187
40
0.4593755
50
2.9089079
51
12.88469
0
ARC
8
DEFAULT_255_1_388
10
15.2449068
20
126.3027082
40
0.3009753
50
12.6957404
51
28.6405841
0
ARC
8
DEFAULT_255_1_388
10
15.3058565
20
126.3342577
40
0.232366
50
29.016559
51
41.1492981
0
ARC
8
DEFAULT_255_1_388
10
15.3286544
20
126.354108
40
0.2021373
50
41.1646967
51
85.001362
0
ARC
8
DEFAULT_255_1_388
10
15.3150548
20
126.2714775
40
0.2857091
50
83.728216
51
90.0968824
0
LINE
8
DEFAULT_255_1_388
10
16.3825849
20
126.6818781
11
16.3825849
21
126.526465
0
LINE
8
DEFAULT_255_1_388
10
16.0771801
20
126.3927375
11
16.0771801
21
125.6988
0
LINE
8
DEFAULT_255_1_388
10
16.0771801
20
125.6988
11
15.9100207
21
125.6988
0
LINE
8
DEFAULT_255_1_388
10
15.9100207
20
125.6988
11
15.9100207
21
126.6764567
0
LINE
8
DEFAULT_255_1_388
10
15.9100207
20
126.6764567
11
16.0726623
21
126.6764567
0
LINE
8
DEFAULT_255_1_388
10
16.0726623
20
126.6764567
11
16.0753729
21
126.5635112
0
ARC
8
DEFAULT_255_1_388
10
16.3076008
20
126.0698068
40
0.4627735
50
80.6751522
51
86.893806
0
ARC
8
DEFAULT_255_1_388
10
16.3007838
20
125.9606103
40
0.5721798
50
86.8046851
51
90.0423898
0
ARC
8
DEFAULT_255_1_388
10
16.2966258
20
126.2373197
40
0.2954939
50
89.2758283
51
106.6212906
0
ARC
8
DEFAULT_255_1_388
10
16.2736282
20
126.3209009
40
0.2088351
50
107.1347109
51
157.6456887
0
ARC
8
DEFAULT_255_1_388
10
16.3504345
20
126.2781908
40
0.296292
50
155.6557383
51
157.256838
0
ARC
8
DEFAULT_255_1_388
10
16.3283959
20
126.4092472
40
0.296341
50
127.8167201
51
148.6300223
0
ARC
8
DEFAULT_255_1_388
10
16.2998706
20
126.4385066
40
0.2557782
50
91.3329934
51
126.7875218
0
ARC
8
DEFAULT_255_1_388
10
16.3084094
20
126.3581718
40
0.3363561
50
89.9858247
51
92.4688453
0
ARC
8
DEFAULT_255_1_388
10
16.3093587
20
126.3890114
40
0.3055179
50
85.3587643
51
90.1624243
0
ARC
8
DEFAULT_255_1_388
10
16.3188652
20
126.5019458
40
0.1921848
50
78.4019195
51
85.4592653
0
ARC
8
DEFAULT_255_1_388
10
16.3351712
20
126.5797142
40
0.1127267
50
67.7849217
51
78.573798
0
ARC
8
DEFAULT_255_1_388
10
16.3473347
20
126.6112374
40
0.0789473
50
63.4805074
51
67.3074739
0
LINE
8
DEFAULT_255_1_388
10
16.7178073
20
126.6764567
11
16.7178073
21
125.6988
0
LINE
8
DEFAULT_255_1_388
10
16.7178073
20
125.6988
11
16.5506479
21
125.6988
0
LINE
8
DEFAULT_255_1_388
10
16.5506479
20
125.6988
11
16.5506479
21
126.6764567
0
LINE
8
DEFAULT_255_1_388
10
16.5506479
20
126.6764567
11
16.7178073
21
126.6764567
0
ARC
8
DEFAULT_255_1_388
10
16.6471841
20
126.9368428
40
0.1100948
50
161.4148232
51
180.5532607
0
ARC
8
DEFAULT_255_1_388
10
16.6332151
20
126.9406875
40
0.0956324
50
138.1830164
51
160.9307633
0
ARC
8
DEFAULT_255_1_388
10
16.6208338
20
126.9514313
40
0.0792417
50
104.6371663
51
138.0036136
0
ARC
8
DEFAULT_255_1_388
10
16.6328877
20
126.9101963
40
0.1221906
50
92.0601206
51
105.2198859
0
ARC
8
DEFAULT_255_1_388
10
16.6355241
20
126.8713583
40
0.161103
50
89.9790681
51
92.5006086
0
ARC
8
DEFAULT_255_1_388
10
16.6366417
20
126.8969998
40
0.1354654
50
78.0234649
51
90.4478111
0
ARC
8
DEFAULT_255_1_388
10
16.6470001
20
126.9435203
40
0.0878096
50
55.0521508
51
78.336297
0
ARC
8
DEFAULT_255_1_388
10
16.6526535
20
126.9530168
40
0.0767913
50
42.0506198
51
54.4508489
0
ARC
8
DEFAULT_255_1_388
10
16.6374568
20
126.9390821
40
0.0974091
50
1.7493657
51
42.1498724
0
ARC
8
DEFAULT_255_1_388
10
16.6088474
20
126.9358166
40
0.1261276
50
359.9832635
51
2.8353994
0
ARC
8
DEFAULT_255_1_388
10
16.6274884
20
126.9347412
40
0.1074916
50
342.1062453
51
0.5535864
0
ARC
8
DEFAULT_255_1_388
10
16.6435308
20
126.9303197
40
0.0908695
50
316.7110111
51
341.6513114
0
ARC
8
DEFAULT_255_1_388
10
16.651074
20
126.9235607
40
0.0807447
50
285.4398289
51
316.5320129
0
ARC
8
DEFAULT_255_1_388
10
16.6386911
20
126.9647023
40
0.1237022
50
272.3543902
51
285.8951677
0
ARC
8
DEFAULT_255_1_388
10
16.6356621
20
127.0062742
40
0.1653687
50
269.9725761
51
272.8112722
0
ARC
8
DEFAULT_255_1_388
10
16.6345673
20
126.9811727
40
0.1402709
50
258.8433431
51
270.4148607
0
ARC
8
DEFAULT_255_1_388
10
16.6244453
20
126.9321739
40
0.0902407
50
238.54281
51
259.1289544
0
ARC
8
DEFAULT_255_1_388
10
16.6167774
20
126.9182694
40
0.0743817
50
222.5056676
51
237.9918132
0
ARC
8
DEFAULT_255_1_388
10
16.6311368
20
126.9313295
40
0.0937918
50
184.1070774
51
222.4604165
0
ARC
8
DEFAULT_255_1_388
10
16.6613781
20
126.9356538
40
0.1242838
50
179.9419581
51
185.0970785
0
LINE
8
DEFAULT_255_1_388
10
16.9427948
20
126.1605214
11
16.9427948
21
126.1912426
0
LINE
8
DEFAULT_255_1_388
10
17.772267
20
126.2093139
11
17.772267
21
126.1397395
0
LINE
8
DEFAULT_255_1_388
10
17.772267
20
126.1397395
11
17.1099542
21
126.1397395
0
LINE
8
DEFAULT_255_1_388
10
17.6575143
20
125.9490874
11
17.7596171
21
125.8695737
0
LINE
8
DEFAULT_255_1_388
10
17.1153756
20
126.2770813
11
17.6051076
21
126.2770813
0
LINE
8
DEFAULT_255_1_388
10
17.6051076
20
126.2770813
11
17.6051076
21
126.2897312
0
ARC
8
DEFAULT_255_1_388
10
17.3859709
20
126.173021
40
0.4923176
50
252.326534
51
270.5809615
0
ARC
8
DEFAULT_255_1_388
10
17.3629174
20
126.089694
40
0.4059384
50
223.3000488
51
251.8562489
0
ARC
8
DEFAULT_255_1_388
10
17.3866954
20
126.1127898
40
0.4390832
50
190.9374369
51
223.3654369
0
ARC
8
DEFAULT_255_1_388
10
17.5807632
20
126.1566598
40
0.63798
50
179.6531919
51
191.4988561
0
ARC
8
DEFAULT_255_1_388
10
17.5944659
20
126.1948571
40
0.6516811
50
167.4005523
51
180.3177836
0
ARC
8
DEFAULT_255_1_388
10
17.476133
20
126.2198853
40
0.5307402
50
154.1835149
51
167.2508278
0
ARC
8
DEFAULT_255_1_388
10
17.4050921
20
126.2572925
40
0.4505076
50
134.3150225
51
154.5315008
0
ARC
8
DEFAULT_255_1_388
10
17.3806256
20
126.278755
40
0.4180662
50
122.8617482
51
133.9707159
0
ARC
8
DEFAULT_255_1_388
10
17.3689863
20
126.3037882
40
0.3907416
50
89.8248474
51
123.4199325
0
ARC
8
DEFAULT_255_1_388
10
17.3746161
20
126.2310352
40
0.4635141
50
74.7874349
51
90.5482648
0
ARC
8
DEFAULT_255_1_388
10
17.4076625
20
126.3530987
40
0.3370565
50
39.8178888
51
74.7634383
0
ARC
8
DEFAULT_255_1_388
10
17.3499867
20
126.3081356
40
0.4101553
50
16.8990848
51
39.4830125
0
ARC
8
DEFAULT_255_1_388
10
17.1368481
20
126.2398711
40
0.6339427
50
4.9634768
51
17.2027767
0
ARC
8
DEFAULT_255_1_388
10
16.8647886
20
126.21116
40
0.9074803
50
359.8834402
51
5.2832409
0
ARC
8
DEFAULT_255_1_388
10
17.5440244
20
126.1471981
40
0.4341343
50
180.9844233
51
194.9402766
0
ARC
8
DEFAULT_255_1_388
10
17.425941
20
126.114917
40
0.3117211
50
194.8030557
51
222.0412897
0
ARC
8
DEFAULT_255_1_388
10
17.3917282
20
126.0809715
40
0.2635903
50
221.541578
51
268.8616004
0
ARC
8
DEFAULT_255_1_388
10
17.3999403
20
126.157028
40
0.3398611
50
267.7321071
51
270.009808
0
ARC
8
DEFAULT_255_1_388
10
17.4019466
20
126.1797178
40
0.3625561
50
269.6921218
51
280.4122297
0
ARC
8
DEFAULT_255_1_388
10
17.4217878
20
126.0763767
40
0.2573323
50
280.2257165
51
298.633539
0
ARC
8
DEFAULT_255_1_388
10
17.4343291
20
126.0499578
40
0.2281403
50
299.0485543
51
300.4624141
0
ARC
8
DEFAULT_255_1_388
10
17.3584272
20
126.1764796
40
0.3756797
50
300.6578578
51
322.037749
0
ARC
8
DEFAULT_255_1_388
10
17.3213793
20
126.2088266
40
0.4247956
50
321.671786
51
322.3059078
0
ARC
8
DEFAULT_255_1_388
10
17.4237356
20
126.0794267
40
0.3960488
50
276.9729088
51
328.0035579
0
ARC
8
DEFAULT_255_1_388
10
17.3925827
20
126.2459609
40
0.5652345
50
269.8358003
51
278.0581296
0
ARC
8
DEFAULT_255_1_388
10
17.3670126
20
126.329782
40
0.2274263
50
89.2017936
51
117.2852353
0
ARC
8
DEFAULT_255_1_388
10
17.3729876
20
126.3250637
40
0.2343798
50
118.0546404
51
137.4544511
0
ARC
8
DEFAULT_255_1_388
10
17.415152
20
126.2867556
40
0.2913471
50
137.5109688
51
158.8516701
0
ARC
8
DEFAULT_255_1_388
10
17.543162
20
126.2350902
40
0.4293804
50
158.5845496
51
170.1719753
0
ARC
8
DEFAULT_255_1_388
10
17.6747956
20
126.2089519
40
0.5635533
50
169.8378964
51
173.0563877
0
ARC
8
DEFAULT_255_1_388
10
17.146324
20
126.2664187
40
0.4593755
50
2.9089079
51
12.88469
0
ARC
8
DEFAULT_255_1_388
10
17.3005159
20
126.3027082
40
0.3009753
50
12.6957404
51
28.6405841
0
ARC
8
DEFAULT_255_1_388
10
17.3614656
20
126.3342577
40
0.232366
50
29.016559
51
41.1492981
0
ARC
8
DEFAULT_255_1_388
10
17.3842635
20
126.354108
40
0.2021373
50
41.1646967
51
85.001362
0
ARC
8
DEFAULT_255_1_388
10
17.3706639
20
126.2714775
40
0.2857091
50
83.728216
51
90.0968824
0
LINE
8
DEFAULT_255_1_388
10
18.6929992
20
126.3891232
11
18.5249362
21
126.3891232
0
LINE
8
DEFAULT_255_1_388
10
17.9249694
20
125.999687
11
18.0921288
21
125.999687
0
ARC
8
DEFAULT_255_1_388
10
18.3912653
20
125.9597935
40
0.1436198
50
359.3335374
51
18.5869869
0
ARC
8
DEFAULT_255_1_388
10
18.4147392
20
125.9660015
40
0.1194022
50
19.3538149
51
54.6486387
0
ARC
8
DEFAULT_255_1_388
10
18.3580379
20
125.8878077
40
0.2159877
50
54.3821575
51
65.0627557
0
ARC
8
DEFAULT_255_1_388
10
18.2715727
20
125.7059032
40
0.4173927
50
64.8282172
51
71.4204388
0
ARC
8
DEFAULT_255_1_388
10
18.1700622
20
125.4080782
40
0.7320403
50
71.3166092
51
75.8005927
0
ARC
8
DEFAULT_255_1_388
10
18.0754508
20
125.0435881
40
1.108605
50
75.6810806
51
78.0063886
0
ARC
8
DEFAULT_255_1_388
10
18.5759097
20
127.403753
40
1.3040363
50
254.69024
51
258.0465557
0
ARC
8
DEFAULT_255_1_388
10
18.4590965
20
126.9807742
40
0.8652254
50
249.9010634
51
254.7555005
0
ARC
8
DEFAULT_255_1_388
10
18.3462018
20
126.674168
40
0.5384962
50
243.3097375
51
249.970939
0
ARC
8
DEFAULT_255_1_388
10
18.2754432
20
126.5330721
40
0.380652
50
234.4047808
51
243.2861752
0
ARC
8
DEFAULT_255_1_388
10
18.2054068
20
126.4363645
40
0.2612502
50
220.8665526
51
234.5497192
0
ARC
8
DEFAULT_255_1_388
10
18.1669066
20
126.4013203
40
0.2092097
50
214.3063391
51
220.5075055
0
ARC
8
DEFAULT_255_1_388
10
18.164018
20
126.3978577
40
0.2048755
50
186.9131438
51
213.9617385
0
ARC
8
DEFAULT_255_1_388
10
18.223857
20
126.4075431
40
0.2654563
50
179.8802037
51
187.4338578
0
ARC
8
DEFAULT_255_1_388
10
18.2064535
20
126.4098049
40
0.2480581
50
132.0053393
51
180.3942351
0
ARC
8
DEFAULT_255_1_388
10
18.2803448
20
126.3415997
40
0.3483116
50
129.2317021
51
133.5294826
0
ARC
8
DEFAULT_255_1_388
10
18.2863416
20
126.3310383
40
0.360291
50
100.440976
51
128.9081567
0
ARC
8
DEFAULT_255_1_388
10
18.3171534
20
126.1864357
40
0.5080996
50
89.6985063
51
100.9029043
0
ARC
8
DEFAULT_255_1_388
10
18.3235689
20
126.1683739
40
0.5261675
50
77.6967144
51
90.4074623
0
ARC
8
DEFAULT_255_1_388
10
18.3608041
20
126.3289503
40
0.3613511
50
50.7278431
51
78.0397473
0
ARC
8
DEFAULT_255_1_388
10
18.4108084
20
126.3872173
40
0.2845966
50
25.754382
51
51.0957456
0
ARC
8
DEFAULT_255_1_388
10
18.4109451
20
126.3928311
40
0.2820785
50
359.2468358
51
24.7393861
0
ARC
8
DEFAULT_255_1_388
10
18.3789338
20
126.3896204
40
0.1460032
50
359.8048924
51
45.1543866
0
ARC
8
DEFAULT_255_1_388
10
18.3331072
20
126.3504291
40
0.2061641
50
43.8053172
51
49.625485
0
ARC
8
DEFAULT_255_1_388
10
18.3340515
20
126.3505849
40
0.2054344
50
49.7979696
51
82.121802
0
ARC
8
DEFAULT_255_1_388
10
18.3206597
20
126.2778473
40
0.2793404
50
81.4458692
51
90.1707936
0
ARC
8
DEFAULT_255_1_388
10
18.3179174
20
126.2186478
40
0.3385438
50
89.6768097
51
99.1267111
0
ARC
8
DEFAULT_255_1_388
10
18.2986156
20
126.3349405
40
0.2206627
50
98.9679878
51
113.4573418
0
ARC
8
DEFAULT_255_1_388
10
18.2765836
20
126.3876193
40
0.1635691
50
113.7230234
51
127.4758155
0
ARC
8
DEFAULT_255_1_388
10
18.2576419
20
126.4101433
40
0.1341757
50
126.9086647
51
150.3160891
0
ARC
8
DEFAULT_255_1_388
10
18.252275
20
126.415868
40
0.1266992
50
151.363328
51
180.0701537
0
ARC
8
DEFAULT_255_1_388
10
18.2832971
20
126.413523
40
0.1577364
50
179.2045432
51
180.0012892
0
ARC
8
DEFAULT_255_1_388
10
18.2464082
20
126.4120515
40
0.1208564
50
179.3040542
51
198.4225767
0
ARC
8
DEFAULT_255_1_388
10
18.2248223
20
126.4064337
40
0.0986126
50
199.2893055
51
238.6036855
0
ARC
8
DEFAULT_255_1_388
10
18.2926317
20
126.5128752
40
0.2248082
50
237.9844191
51
246.8751643
0
ARC
8
DEFAULT_255_1_388
10
18.3891176
20
126.7335861
40
0.4656832
50
246.6226408
51
251.8174794
0
ARC
8
DEFAULT_255_1_388
10
18.5051644
20
127.0820909
40
0.8329993
50
251.7140983
51
255.0775146
0
ARC
8
DEFAULT_255_1_388
10
18.6401168
20
127.5847708
40
1.3534786
50
255.0370864
51
257.4701577
0
ARC
8
DEFAULT_255_1_388
10
18.0653713
20
124.9953535
40
1.298957
50
73.6835762
51
77.5015749
0
ARC
8
DEFAULT_255_1_388
10
18.1878627
20
125.4115699
40
0.8650912
50
68.7042835
51
73.7249997
0
ARC
8
DEFAULT_255_1_388
10
18.2894191
20
125.6732853
40
0.584363
50
63.5907059
51
68.6622978
0
ARC
8
DEFAULT_255_1_388
10
18.3761932
20
125.8463157
40
0.3907955
50
54.7106507
51
63.7018033
0
ARC
8
DEFAULT_255_1_388
10
18.446432
20
125.9444287
40
0.2701345
50
41.0624597
51
54.8488532
0
ARC
8
DEFAULT_255_1_388
10
18.4848098
20
125.9796439
40
0.2180695
50
34.4952722
51
40.7097584
0
ARC
8
DEFAULT_255_1_388
10
18.4901064
20
125.9851204
40
0.2106083
50
9.3761233
51
34.0834046
0
ARC
8
DEFAULT_255_1_388
10
18.4166192
20
125.9710174
40
0.2854177
50
359.7695264
51
9.7660556
0
ARC
8
DEFAULT_255_1_388
10
18.4388485
20
125.9661841
40
0.2632121
50
335.8653103
51
0.8022272
0
ARC
8
DEFAULT_255_1_388
10
18.4472891
20
125.9676951
40
0.2561728
50
307.7357819
51
334.7849324
0
ARC
8
DEFAULT_255_1_388
10
18.4027532
20
126.0176553
40
0.3229737
50
307.0217048
51
308.5596894
0
ARC
8
DEFAULT_255_1_388
10
18.3732116
20
126.0618063
40
0.3760237
50
282.9361285
51
306.5649033
0
ARC
8
DEFAULT_255_1_388
10
18.3325178
20
126.2268871
40
0.5460314
50
271.1026197
51
283.2199962
0
ARC
8
DEFAULT_255_1_388
10
18.3253367
20
126.3669744
40
0.6862456
50
269.9926344
51
271.4770056
0
ARC
8
DEFAULT_255_1_388
10
18.3223937
20
126.2452633
40
0.5645418
50
259.0723633
51
270.2897324
0
ARC
8
DEFAULT_255_1_388
10
18.2985161
20
126.1195887
40
0.4366198
50
245.4965026
51
259.0225745
0
ARC
8
DEFAULT_255_1_388
10
18.2672378
20
126.0541491
40
0.3641037
50
228.9686619
51
245.7042678
0
ARC
8
DEFAULT_255_1_388
10
18.2373653
20
126.0173573
40
0.3167435
50
214.4015391
51
228.6759028
0
ARC
8
DEFAULT_255_1_388
10
18.204815
20
125.9995429
40
0.2798456
50
179.9704983
51
215.1574389
0
ARC
8
DEFAULT_255_1_388
10
18.2836362
20
126.0078148
40
0.1916798
50
182.430239
51
203.0329751
0
ARC
8
DEFAULT_255_1_388
10
18.2628958
20
126.0014675
40
0.1701248
50
203.7987464
51
232.5483345
0
ARC
8
DEFAULT_255_1_388
10
18.2940043
20
126.0410049
40
0.2204299
50
232.3784541
51
256.3934343
0
ARC
8
DEFAULT_255_1_388
10
18.319919
20
126.1411359
40
0.3238512
50
256.1048329
51
268.4627478
0
ARC
8
DEFAULT_255_1_388
10
18.3251609
20
126.2315297
40
0.4143627
50
268.0734924
51
270.0121004
0
ARC
8
DEFAULT_255_1_388
10
18.3272327
20
126.2001191
40
0.3829573
50
269.7031202
51
278.8338867
0
ARC
8
DEFAULT_255_1_388
10
18.3477192
20
126.0729553
40
0.2541568
50
278.6727378
51
292.82331
0
ARC
8
DEFAULT_255_1_388
10
18.3702738
20
126.0165546
40
0.1934264
50
293.1457581
51
303.6656964
0
ARC
8
DEFAULT_255_1_388
10
18.4000811
20
125.9742159
40
0.1416713
50
303.1245849
51
321.7434683
0
ARC
8
DEFAULT_255_1_388
10
18.4209893
20
125.955878
40
0.1139081
50
322.4747616
51
1.1293039
0
LINE
8
DEFAULT_255_2_778
10
20.1088417
20
117.6072568
11
18.7859417
21
117.6072568
0
LINE
8
DEFAULT_255_2_778
10
18.7859417
20
117.6072568
11
18.7859417
21
64.0291568
0
LINE
8
DEFAULT_255_2_778
10
18.7859417
20
58.7374568
11
18.7859417
21
5.1593568
0
LINE
8
DEFAULT_255_2_778
10
18.7859417
20
5.1593568
11
20.1088417
21
5.1593568
0
LINE
8
DEFAULT_255_2_778
10
17.4629834
20
64.0291333
11
20.1087834
21
64.0291333
0
LINE
8
DEFAULT_255_2_778
10
20.1087834
20
64.0291333
11
20.1087834
21
58.7374333
0
LINE
8
DEFAULT_255_2_778
10
20.1087834
20
58.7374333
11
17.4629834
21
58.7374333
0
LINE
8
DEFAULT_255_2_778
10
17.4629834
20
58.7374333
11
17.4629834
21
64.0291333
0
LINE
8
DEFAULT_255_2_778
10
18.2568
20
59.2666666
11
18.2568
21
63.4999666
0
LINE
8
DEFAULT_255_2_778
10
17.9922167
20
62.706275
11
18.2568167
21
63.499975
0
LINE
8
DEFAULT_255_2_778
10
18.2568167
20
63.499975
11
18.5214167
21
62.706275
0
LINE
8
DEFAULT_255_2_778
10
18.5214167
20
62.706275
11
17.9922167
21
62.706275
0
LINE
8
DEFAULT_255_2_778
10
19.3151
20
63.4999666
11
19.3151
21
59.2666666
0
LINE
8
DEFAULT_255_2_778
10
19.0505167
20
60.060375
11
19.3151167
21
59.266675
0
LINE
8
DEFAULT_255_2_778
10
19.3151167
20
59.266675
11
19.5797167
21
60.060375
0
LINE
8
DEFAULT_255_2_778
10
19.5797167
20
60.060375
11
19.0505167
21
60.060375
0
LINE
8
DEFAULT_255_1_388
10
4.3202448
20
125.0299898
11
4.6943205
21
123.9448089
0
LINE
8
DEFAULT_255_1_388
10
4.6943205
20
123.9448089
11
5.0702033
21
125.0299898
0
LINE
8
DEFAULT_255_1_388
10
5.0702033
20
125.0299898
11
5.2599518
21
125.0299898
0
LINE
8
DEFAULT_255_1_388
10
5.2599518
20
125.0299898
11
4.772027
21
123.7144
0
LINE
8
DEFAULT_255_1_388
10
4.772027
20
123.7144
11
4.618421
21
123.7144
0
LINE
8
DEFAULT_255_1_388
10
4.618421
20
123.7144
11
4.1313998
21
125.0299898
0
LINE
8
DEFAULT_255_1_388
10
4.1313998
20
125.0299898
11
4.3202448
21
125.0299898
0
LINE
8
DEFAULT_255_1_388
10
5.8888327
20
124.8040987
11
5.8888327
21
124.4200838
0
LINE
8
DEFAULT_255_1_388
10
5.8888327
20
124.4200838
11
6.2556798
21
124.4200838
0
LINE
8
DEFAULT_255_1_388
10
6.2556798
20
124.4200838
11
6.2556798
21
124.2619601
0
LINE
8
DEFAULT_255_1_388
10
6.2556798
20
124.2619601
11
5.8888327
21
124.2619601
0
LINE
8
DEFAULT_255_1_388
10
5.8888327
20
124.2619601
11
5.8888327
21
123.8463204
0
LINE
8
DEFAULT_255_1_388
10
5.8888327
20
123.8463204
11
5.7207697
21
123.8463204
0
LINE
8
DEFAULT_255_1_388
10
5.7207697
20
123.8463204
11
5.7207697
21
124.2619601
0
LINE
8
DEFAULT_255_1_388
10
5.7207697
20
124.2619601
11
5.3539225
21
124.2619601
0
LINE
8
DEFAULT_255_1_388
10
5.3539225
20
124.2619601
11
5.3539225
21
124.4200838
0
LINE
8
DEFAULT_255_1_388
10
5.3539225
20
124.4200838
11
5.7207697
21
124.4200838
0
LINE
8
DEFAULT_255_1_388
10
5.7207697
20
124.4200838
11
5.7207697
21
124.8040987
0
LINE
8
DEFAULT_255_1_388
10
5.7207697
20
124.8040987
11
5.8888327
21
124.8040987
0
LINE
8
DEFAULT_255_1_388
10
22.8935448
20
125.0299898
11
23.2676205
21
123.9448089
0
LINE
8
DEFAULT_255_1_388
10
23.2676205
20
123.9448089
11
23.6435033
21
125.0299898
0
LINE
8
DEFAULT_255_1_388
10
23.6435033
20
125.0299898
11
23.8332518
21
125.0299898
0
LINE
8
DEFAULT_255_1_388
10
23.8332518
20
125.0299898
11
23.345327
21
123.7144
0
LINE
8
DEFAULT_255_1_388
10
23.345327
20
123.7144
11
23.191721
21
123.7144
0
LINE
8
DEFAULT_255_1_388
10
23.191721
20
123.7144
11
22.7046998
21
125.0299898
0
LINE
8
DEFAULT_255_1_388
10
22.7046998
20
125.0299898
11
22.8935448
21
125.0299898
0
LINE
8
DEFAULT_255_1_388
10
24.2976839
20
124.3414737
11
24.2976839
21
124.2050355
0
LINE
8
DEFAULT_255_1_388
10
24.2976839
20
124.2050355
11
23.8567445
21
124.2050355
0
LINE
8
DEFAULT_255_1_388
10
23.8567445
20
124.2050355
11
23.8567445
21
124.3414737
0
LINE
8
DEFAULT_255_1_388
10
23.8567445
20
124.3414737
11
24.2976839
21
124.3414737
0
LINE
8
DEFAULT_255_1_388
10
21.4949376
20
5.9674898
11
21.836485
21
5.3069842
0
LINE
8
DEFAULT_255_1_388
10
21.836485
20
5.3069842
11
22.1798395
21
5.9674898
0
LINE
8
DEFAULT_255_1_388
10
22.1798395
20
5.9674898
11
22.3768166
21
5.9674898
0
LINE
8
DEFAULT_255_1_388
10
22.3768166
20
5.9674898
11
21.9232272
21
5.1425355
0
LINE
8
DEFAULT_255_1_388
10
21.9232272
20
5.1425355
11
21.9232272
21
4.6519
0
LINE
8
DEFAULT_255_1_388
10
21.9232272
20
4.6519
11
21.7497428
21
4.6519
0
LINE
8
DEFAULT_255_1_388
10
21.7497428
20
4.6519
11
21.7497428
21
5.1425355
0
LINE
8
DEFAULT_255_1_388
10
21.7497428
20
5.1425355
11
21.2961535
21
5.9674898
0
LINE
8
DEFAULT_255_1_388
10
21.2961535
20
5.9674898
11
21.4949376
21
5.9674898
0
LINE
8
DEFAULT_255_1_388
10
23.0526828
20
5.9738148
11
23.0526828
21
4.6519
0
LINE
8
DEFAULT_255_1_388
10
23.0526828
20
4.6519
11
22.8846198
21
4.6519
0
LINE
8
DEFAULT_255_1_388
10
22.8846198
20
4.6519
11
22.8846198
21
5.765995
0
LINE
8
DEFAULT_255_1_388
10
22.8846198
20
5.765995
11
22.5475902
21
5.6422066
0
LINE
8
DEFAULT_255_1_388
10
22.5475902
20
5.6422066
11
22.5475902
21
5.7940055
0
LINE
8
DEFAULT_255_1_388
10
22.5475902
20
5.7940055
11
23.0264794
21
5.9738148
0
LINE
8
DEFAULT_255_1_388
10
23.0264794
20
5.9738148
11
23.0526828
21
5.9738148
0
LINE
8
DEFAULT_255_1_388
10
24.0917819
20
5.9738148
11
24.0917819
21
4.6519
0
LINE
8
DEFAULT_255_1_388
10
24.0917819
20
4.6519
11
23.9237189
21
4.6519
0
LINE
8
DEFAULT_255_1_388
10
23.9237189
20
4.6519
11
23.9237189
21
5.765995
0
LINE
8
DEFAULT_255_1_388
10
23.9237189
20
5.765995
11
23.5866894
21
5.6422066
0
LINE
8
DEFAULT_255_1_388
10
23.5866894
20
5.6422066
11
23.5866894
21
5.7940055
0
LINE
8
DEFAULT_255_1_388
10
23.5866894
20
5.7940055
11
24.0655785
21
5.9738148
0
LINE
8
DEFAULT_255_1_388
10
24.0655785
20
5.9738148
11
24.0917819
21
5.9738148
0
LINE
8
DEFAULT_255_1_388
10
21.4874376
20
13.9049898
11
21.828985
21
13.2444842
0
LINE
8
DEFAULT_255_1_388
10
21.828985
20
13.2444842
11
22.1723395
21
13.9049898
0
LINE
8
DEFAULT_255_1_388
10
22.1723395
20
13.9049898
11
22.3693166
21
13.9049898
0
LINE
8
DEFAULT_255_1_388
10
22.3693166
20
13.9049898
11
21.9157272
21
13.0800355
0
LINE
8
DEFAULT_255_1_388
10
21.9157272
20
13.0800355
11
21.9157272
21
12.5894
0
LINE
8
DEFAULT_255_1_388
10
21.9157272
20
12.5894
11
21.7422428
21
12.5894
0
LINE
8
DEFAULT_255_1_388
10
21.7422428
20
12.5894
11
21.7422428
21
13.0800355
0
LINE
8
DEFAULT_255_1_388
10
21.7422428
20
13.0800355
11
21.2886535
21
13.9049898
0
LINE
8
DEFAULT_255_1_388
10
21.2886535
20
13.9049898
11
21.4874376
21
13.9049898
0
LINE
8
DEFAULT_255_1_388
10
23.0451828
20
13.9113148
11
23.0451828
21
12.5894
0
LINE
8
DEFAULT_255_1_388
10
23.0451828
20
12.5894
11
22.8771198
21
12.5894
0
LINE
8
DEFAULT_255_1_388
10
22.8771198
20
12.5894
11
22.8771198
21
13.703495
0
LINE
8
DEFAULT_255_1_388
10
22.8771198
20
13.703495
11
22.5400902
21
13.5797066
0
LINE
8
DEFAULT_255_1_388
10
22.5400902
20
13.5797066
11
22.5400902
21
13.7315055
0
LINE
8
DEFAULT_255_1_388
10
22.5400902
20
13.7315055
11
23.0189794
21
13.9113148
0
LINE
8
DEFAULT_255_1_388
10
23.0189794
20
13.9113148
11
23.0451828
21
13.9113148
0
LINE
8
DEFAULT_255_1_388
10
24.359869
20
13.367369
11
24.359869
21
13.1505135
0
LINE
8
DEFAULT_255_1_388
10
23.5294933
20
13.1279244
11
23.5294933
21
13.3511048
0
LINE
8
DEFAULT_255_1_388
10
24.1927096
20
13.1053353
11
24.1927096
21
13.3791153
0
LINE
8
DEFAULT_255_1_388
10
23.6966527
20
13.3917652
11
23.6966527
21
13.1243102
0
ARC
8
DEFAULT_255_1_388
10
22.9821024
20
13.1450118
40
1.3777776
50
353.8440855
51
0.2287917
0
ARC
8
DEFAULT_255_1_388
10
23.5040042
20
13.0867414
40
0.852639
50
344.4934746
51
353.9763743
0
ARC
8
DEFAULT_255_1_388
10
23.8406849
20
12.9910191
40
0.5026273
50
329.2803599
51
344.7473406
0
ARC
8
DEFAULT_255_1_388
10
23.9522345
20
12.9298038
40
0.3754848
50
324.9361395
51
328.6153007
0
ARC
8
DEFAULT_255_1_388
10
23.9947994
20
12.9000586
40
0.3235566
50
280.5801797
51
324.9173226
0
ARC
8
DEFAULT_255_1_388
10
23.9496623
20
13.0880236
40
0.5167077
50
269.5979457
51
281.6732777
0
ARC
8
DEFAULT_255_1_388
10
23.9415527
20
13.0745113
40
0.5032026
50
256.6228565
51
270.5105488
0
ARC
8
DEFAULT_255_1_388
10
23.8963269
20
12.9003345
40
0.3233092
50
215.8618351
51
257.2787793
0
ARC
8
DEFAULT_255_1_388
10
24.0111976
20
12.9774106
40
0.4615831
50
197.9695203
51
215.2622745
0
ARC
8
DEFAULT_255_1_388
10
24.2907652
20
13.0717641
40
0.7566307
50
187.8816486
51
198.2346584
0
ARC
8
DEFAULT_255_1_388
10
24.736089
20
13.1360453
40
1.2065653
50
180.8977266
51
188.0054894
0
ARC
8
DEFAULT_255_1_388
10
25.0411104
20
13.14754
40
1.5117443
50
180.7434591
51
181.152202
0
ARC
8
DEFAULT_255_1_388
10
24.87361
20
13.3565371
40
1.3441277
50
173.7674302
51
180.2315596
0
ARC
8
DEFAULT_255_1_388
10
24.3653969
20
13.4139779
40
0.8326847
50
164.3058537
51
173.9000553
0
ARC
8
DEFAULT_255_1_388
10
24.0377969
20
13.5083652
40
0.4917711
50
148.7922028
51
164.5682288
0
ARC
8
DEFAULT_255_1_388
10
23.9308706
20
13.5680457
40
0.3694204
50
144.5883979
51
148.1161588
0
ARC
8
DEFAULT_255_1_388
10
23.8921452
20
13.5950667
40
0.322202
50
101.6440149
51
144.5142619
0
ARC
8
DEFAULT_255_1_388
10
23.9399644
20
13.4050337
40
0.5180451
50
89.528284
51
102.5820197
0
ARC
8
DEFAULT_255_1_388
10
23.9488636
20
13.4006376
40
0.5224441
50
77.0437914
51
90.508231
0
ARC
8
DEFAULT_255_1_388
10
23.9940889
20
13.5854272
40
0.3322297
50
48.2777708
51
77.4996087
0
ARC
8
DEFAULT_255_1_388
10
24.0022629
20
13.5999557
40
0.315966
50
36.3141586
51
47.6307332
0
ARC
8
DEFAULT_255_1_388
10
23.9045352
20
13.5341159
40
0.4337313
50
18.2931065
51
35.6770203
0
ARC
8
DEFAULT_255_1_388
10
23.6184192
20
13.4359107
40
0.7362203
50
8.0246996
51
18.5605636
0
ARC
8
DEFAULT_255_1_388
10
23.1500548
20
13.3667432
40
1.2096583
50
1.127539
51
8.1718423
0
ARC
8
DEFAULT_255_1_388
10
22.7851681
20
13.3524374
40
1.5747719
50
0.5432713
51
1.38669
0
ARC
8
DEFAULT_255_1_388
10
22.990906
20
13.3831163
40
1.2018103
50
359.8092569
51
4.9408001
0
ARC
8
DEFAULT_255_1_388
10
23.4645641
20
13.42539
40
0.7262727
50
4.8364937
51
12.2906017
0
ARC
8
DEFAULT_255_1_388
10
23.7745106
20
13.4944485
40
0.4087324
50
12.0806994
51
23.8171225
0
ARC
8
DEFAULT_255_1_388
10
23.9065502
20
13.5503508
40
0.2653719
50
24.2874621
51
31.3934353
0
ARC
8
DEFAULT_255_1_388
10
23.9655938
20
13.5889822
40
0.1948607
50
30.7407708
51
82.4658033
0
ARC
8
DEFAULT_255_1_388
10
23.9453599
20
13.4896017
40
0.2961198
50
81.1057101
51
90.2187368
0
ARC
8
DEFAULT_255_1_388
10
23.9413411
20
13.5186421
40
0.2670929
50
89.380395
51
105.6763916
0
ARC
8
DEFAULT_255_1_388
10
23.9207133
20
13.593632
40
0.1893189
50
105.7980655
51
149.7387869
0
ARC
8
DEFAULT_255_1_388
10
24.0404273
20
13.5216719
40
0.3289892
50
149.4208441
51
163.628295
0
ARC
8
DEFAULT_255_1_388
10
24.2756502
20
13.4499345
40
0.5749004
50
163.3764549
51
172.141138
0
ARC
8
DEFAULT_255_1_388
10
24.6469224
20
13.3967582
40
0.9499585
50
172.0258462
51
178.0705453
0
ARC
8
DEFAULT_255_1_388
10
24.9890777
20
13.3805682
40
1.2924734
50
177.8639301
51
179.5036263
0
ARC
8
DEFAULT_255_1_388
10
24.8671795
20
13.1202151
40
1.170534
50
179.7995545
51
185.246089
0
ARC
8
DEFAULT_255_1_388
10
24.4123388
20
13.0771404
40
0.7136613
50
185.1411911
51
193.0082205
0
ARC
8
DEFAULT_255_1_388
10
24.1149649
20
13.0068441
40
0.4080987
50
192.7897338
51
205.2507384
0
ARC
8
DEFAULT_255_1_388
10
23.9971859
20
12.9542538
40
0.2791522
50
205.8001921
51
211.2545876
0
ARC
8
DEFAULT_255_1_388
10
23.9383398
20
12.9148132
40
0.2084074
50
210.3789935
51
238.4007996
0
ARC
8
DEFAULT_255_1_388
10
23.9361484
20
12.9200786
40
0.2117943
50
239.6521916
51
265.9793852
0
ARC
8
DEFAULT_255_1_388
10
23.9457333
20
12.9957358
40
0.2879689
50
265.1324455
51
270.0603288
0
ARC
8
DEFAULT_255_1_388
10
23.948971
20
12.9592418
40
0.2514919
50
269.3314378
51
287.2180039
0
ARC
8
DEFAULT_255_1_388
10
23.9644792
20
12.9026291
40
0.1928357
50
287.7957942
51
329.0808983
0
ARC
8
DEFAULT_255_1_388
10
23.8567549
20
12.9698651
40
0.319808
50
328.6635261
51
343.3325043
0
ARC
8
DEFAULT_255_1_388
10
23.6123008
20
13.0460195
40
0.5758408
50
343.0498092
51
351.9392499
0
ARC
8
DEFAULT_255_1_388
10
23.222233
20
13.1035205
40
0.9701202
50
351.8071632
51
357.7957897
0
ARC
8
DEFAULT_255_1_388
10
22.8587807
20
13.1223724
40
1.3340376
50
357.5870923
51
359.2682493
0
LINE
8
DEFAULT_255_1_388
10
22.5277376
20
21.8424898
11
22.869285
21
21.1819842
0
LINE
8
DEFAULT_255_1_388
10
22.869285
20
21.1819842
11
23.2126395
21
21.8424898
0
LINE
8
DEFAULT_255_1_388
10
23.2126395
20
21.8424898
11
23.4096166
21
21.8424898
0
LINE
8
DEFAULT_255_1_388
10
23.4096166
20
21.8424898
11
22.9560272
21
21.0175355
0
LINE
8
DEFAULT_255_1_388
10
22.9560272
20
21.0175355
11
22.9560272
21
20.5269
0
LINE
8
DEFAULT_255_1_388
10
22.9560272
20
20.5269
11
22.7825428
21
20.5269
0
LINE
8
DEFAULT_255_1_388
10
22.7825428
20
20.5269
11
22.7825428
21
21.0175355
0
LINE
8
DEFAULT_255_1_388
10
22.7825428
20
21.0175355
11
22.3289535
21
21.8424898
0
LINE
8
DEFAULT_255_1_388
10
22.3289535
20
21.8424898
11
22.5277376
21
21.8424898
0
LINE
8
DEFAULT_255_1_388
10
24.3448058
20
21.3166153
11
24.3448058
21
21.2678229
0
LINE
8
DEFAULT_255_1_388
10
23.7348998
20
20.5259964
11
23.7023714
21
20.5259964
0
LINE
8
DEFAULT_255_1_388
10
23.7023714
20
20.5259964
11
23.7023714
21
20.6669525
0
LINE
8
DEFAULT_255_1_388
10
23.7023714
20
20.6669525
11
23.7376104
21
20.6669525
0
LINE
8
DEFAULT_255_1_388
10
24.1776463
20
21.284087
11
24.1776463
21
21.3509508
0
ARC
8
DEFAULT_255_1_388
10
23.8633555
20
21.3679877
40
0.4089973
50
297.4036461
51
320.0168133
0
ARC
8
DEFAULT_255_1_388
10
23.8959735
20
21.3053072
40
0.3383378
50
270.2631886
51
297.3852322
0
ARC
8
DEFAULT_255_1_388
10
23.8921411
20
21.3590343
40
0.3920983
50
269.9969069
51
270.7871389
0
ARC
8
DEFAULT_255_1_388
10
23.8892735
20
21.3572737
40
0.3903482
50
254.5997295
51
270.4178147
0
ARC
8
DEFAULT_255_1_388
10
23.8732267
20
21.2937693
40
0.3248657
50
236.4717231
51
254.3539376
0
ARC
8
DEFAULT_255_1_388
10
23.8907998
20
21.3173999
40
0.3542746
50
208.4727261
51
236.2134628
0
ARC
8
DEFAULT_255_1_388
10
23.9626761
20
21.3613676
40
0.4384402
50
204.3450776
51
209.0455365
0
ARC
8
DEFAULT_255_1_388
10
24.0391137
20
21.39378
40
0.5214459
50
183.9375459
51
204.1275509
0
ARC
8
DEFAULT_255_1_388
10
24.1413443
20
21.4047863
40
0.6242037
50
179.9652726
51
184.3010611
0
ARC
8
DEFAULT_255_1_388
10
24.1142989
20
21.4085004
40
0.5971675
50
166.7585952
51
180.3200491
0
ARC
8
DEFAULT_255_1_388
10
24.0190797
20
21.4291979
40
0.4997418
50
154.6954866
51
166.5679151
0
ARC
8
DEFAULT_255_1_388
10
23.9231037
20
21.4775411
40
0.3923208
50
136.3325251
51
155.0871367
0
ARC
8
DEFAULT_255_1_388
10
23.8914957
20
21.5046271
40
0.3507618
50
121.2365985
51
135.9680081
0
ARC
8
DEFAULT_255_1_388
10
23.9073021
20
21.4753541
40
0.3839917
50
96.8454764
51
120.9881329
0
ARC
8
DEFAULT_255_1_388
10
23.9236827
20
21.3700942
40
0.4904679
50
89.887204
51
97.2797758
0
ARC
8
DEFAULT_255_1_388
10
23.92958
20
21.4418652
40
0.418725
50
70.6505767
51
90.6748382
0
ARC
8
DEFAULT_255_1_388
10
23.9443497
20
21.4996091
40
0.3593866
50
36.7493297
51
69.8220487
0
ARC
8
DEFAULT_255_1_388
10
23.8319844
20
21.4120446
40
0.5018201
50
15.3958155
51
37.0841102
0
ARC
8
DEFAULT_255_1_388
10
23.5924129
20
21.3422111
40
0.7513436
50
3.9487796
51
15.6798517
0
ARC
8
DEFAULT_255_1_388
10
23.3222771
20
21.317881
40
1.0225293
50
359.9290791
51
4.266464
0
ARC
8
DEFAULT_255_1_388
10
22.8041688
20
21.2603372
40
1.5406551
50
352.8365702
51
0.2783851
0
ARC
8
DEFAULT_255_1_388
10
23.3989919
20
21.1830664
40
0.9408425
50
341.8359339
51
352.9884057
0
ARC
8
DEFAULT_255_1_388
10
23.7610906
20
21.0610144
40
0.5587481
50
322.8579243
51
342.1527461
0
ARC
8
DEFAULT_255_1_388
10
23.8582598
20
20.994735
40
0.4413099
50
319.3348471
51
322.100194
0
ARC
8
DEFAULT_255_1_388
10
23.8234529
20
21.0296814
40
0.4904992
50
285.954114
51
318.8878716
0
ARC
8
DEFAULT_255_1_388
10
23.7416967
20
21.2895865
40
0.7628991
50
272.9280841
51
286.4924389
0
ARC
8
DEFAULT_255_1_388
10
23.7203271
20
21.543024
40
1.017132
50
270.8209173
51
273.4010121
0
ARC
8
DEFAULT_255_1_388
10
23.7303294
20
21.3382073
40
0.6712943
50
270.6214576
51
281.4062333
0
ARC
8
DEFAULT_255_1_388
10
23.7787018
20
21.106925
40
0.4350167
50
281.1852583
51
299.0622058
0
ARC
8
DEFAULT_255_1_388
10
23.8207264
20
21.0258138
40
0.3437146
50
299.5068171
51
313.1200142
0
ARC
8
DEFAULT_255_1_388
10
23.8232001
20
21.0168959
40
0.3355418
50
313.8525725
51
338.5989631
0
ARC
8
DEFAULT_255_1_388
10
23.6405129
20
21.0919576
40
0.5330317
50
338.2523315
51
351.2431701
0
ARC
8
DEFAULT_255_1_388
10
23.369288
20
21.1380494
40
0.8081235
50
350.940933
51
357.6690137
0
ARC
8
DEFAULT_255_1_388
10
23.919476
20
21.3633048
40
0.2581236
50
269.9447107
51
306.8249644
0
ARC
8
DEFAULT_255_1_388
10
23.8928062
20
21.410906
40
0.3122948
50
305.5071046
51
327.0773808
0
ARC
8
DEFAULT_255_1_388
10
23.9061113
20
21.4002445
40
0.2953369
50
327.4106457
51
336.8396801
0
ARC
8
DEFAULT_255_1_388
10
23.5580827
20
21.3545932
40
0.6195743
50
359.663158
51
10.1176387
0
ARC
8
DEFAULT_255_1_388
10
23.755359
20
21.3910922
40
0.4189561
50
9.9431549
51
26.7699242
0
ARC
8
DEFAULT_255_1_388
10
23.8225576
20
21.4220796
40
0.3450125
50
27.2018067
51
34.6833639
0
ARC
8
DEFAULT_255_1_388
10
23.8776189
20
21.463456
40
0.2762035
50
34.124913
51
50.30709
0
ARC
8
DEFAULT_255_1_388
10
23.9278672
20
21.5235741
40
0.1978518
50
50.3850304
51
90.6705051
0
ARC
8
DEFAULT_255_1_388
10
23.9226066
20
21.4893074
40
0.2321235
50
89.2729817
51
111.9140267
0
ARC
8
DEFAULT_255_1_388
10
23.9204153
20
21.5051308
40
0.2166604
50
112.9381864
51
142.5320936
0
ARC
8
DEFAULT_255_1_388
10
23.9818642
20
21.4552392
40
0.2957902
50
142.1024021
51
166.3835244
0
ARC
8
DEFAULT_255_1_388
10
24.1147612
20
21.4209213
40
0.4330361
50
166.1100968
51
178.6653563
0
ARC
8
DEFAULT_255_1_388
10
24.2329538
20
21.4143061
40
0.5513642
50
178.2641888
51
180.010994
0
ARC
8
DEFAULT_255_1_388
10
24.1424039
20
21.4111136
40
0.4608248
50
179.6162225
51
191.8786013
0
ARC
8
DEFAULT_255_1_388
10
24.0051349
20
21.380759
40
0.3202502
50
191.6192934
51
215.2970746
0
ARC
8
DEFAULT_255_1_388
10
23.9812004
20
21.3664963
40
0.2924827
50
215.7258926
51
216.5355437
0
ARC
8
DEFAULT_255_1_388
10
23.9223624
20
21.3191919
40
0.2170661
50
215.7486606
51
239.9728403
0
ARC
8
DEFAULT_255_1_388
10
23.914479
20
21.3134838
40
0.208217
50
241.065081
51
269.280972
0
ARC
8
DEFAULT_255_1_388
10
23.9191948
20
21.3690327
40
0.2638514
50
268.4083352
51
270.0069622
0
LINE
8
DEFAULT_255_1_388
10
22.5277376
20
29.7799898
11
22.869285
21
29.1194842
0
LINE
8
DEFAULT_255_1_388
10
22.869285
20
29.1194842
11
23.2126395
21
29.7799898
0
LINE
8
DEFAULT_255_1_388
10
23.2126395
20
29.7799898
11
23.4096166
21
29.7799898
0
LINE
8
DEFAULT_255_1_388
10
23.4096166
20
29.7799898
11
22.9560272
21
28.9550355
0
LINE
8
DEFAULT_255_1_388
10
22.9560272
20
28.9550355
11
22.9560272
21
28.4644
0
LINE
8
DEFAULT_255_1_388
10
22.9560272
20
28.4644
11
22.7825428
21
28.4644
0
LINE
8
DEFAULT_255_1_388
10
22.7825428
20
28.4644
11
22.7825428
21
28.9550355
0
LINE
8
DEFAULT_255_1_388
10
22.7825428
20
28.9550355
11
22.3289535
21
29.7799898
0
LINE
8
DEFAULT_255_1_388
10
22.3289535
20
29.7799898
11
22.5277376
21
29.7799898
0
ARC
8
DEFAULT_255_1_388
10
24.0164661
20
29.433772
40
0.3175098
50
338.8762533
51
0.5167111
0
ARC
8
DEFAULT_255_1_388
10
24.0354255
20
29.42866
40
0.2979894
50
325.8415285
51
338.4793574
0
ARC
8
DEFAULT_255_1_388
10
23.9914889
20
29.4591242
40
0.351452
50
296.7587686
51
325.7536481
0
ARC
8
DEFAULT_255_1_388
10
23.9586516
20
29.5145363
40
0.4157374
50
296.0927901
51
297.3613472
0
ARC
8
DEFAULT_255_1_388
10
23.9880712
20
28.7762593
40
0.395855
50
47.9007294
51
67.1948823
0
ARC
8
DEFAULT_255_1_388
10
24.0101354
20
28.8039599
40
0.360516
50
35.2363914
51
47.551141
0
ARC
8
DEFAULT_255_1_388
10
24.0395758
20
28.8236093
40
0.3251343
50
359.2759765
51
35.4014143
0
ARC
8
DEFAULT_255_1_388
10
23.9557684
20
28.8153787
40
0.4089365
50
343.1293083
51
0.5775513
0
ARC
8
DEFAULT_255_1_388
10
24.0372797
20
28.7929336
40
0.3244269
50
310.8496669
51
342.7449331
0
ARC
8
DEFAULT_255_1_388
10
23.9902672
20
28.8465913
40
0.3957651
50
281.5472888
51
310.9170406
0
ARC
8
DEFAULT_255_1_388
10
23.9501547
20
29.0212814
40
0.5749654
50
269.619248
51
281.9789564
0
ARC
8
DEFAULT_255_1_388
10
23.9420324
20
29.0213776
40
0.5750649
50
257.4585678
51
270.4285689
0
ARC
8
DEFAULT_255_1_388
10
23.8991845
20
28.8409741
40
0.389671
50
228.7554326
51
257.8484789
0
ARC
8
DEFAULT_255_1_388
10
23.864333
20
28.7990228
40
0.335154
50
184.0104975
51
228.5071184
0
ARC
8
DEFAULT_255_1_388
10
23.9951722
20
28.818943
40
0.4671891
50
179.9315832
51
185.3253753
0
ARC
8
DEFAULT_255_1_388
10
23.8628235
20
28.8231592
40
0.33486
50
145.6796023
51
180.6259786
0
ARC
8
DEFAULT_255_1_388
10
23.8812001
20
28.8103271
40
0.3572723
50
115.5537685
51
145.6415986
0
ARC
8
DEFAULT_255_1_388
10
23.9195045
20
28.7417087
40
0.4357296
50
113.243307
51
116.2057839
0
ARC
8
DEFAULT_255_1_388
10
23.9023696
20
29.4614379
40
0.3549126
50
222.9549744
51
244.1370481
0
ARC
8
DEFAULT_255_1_388
10
23.888634
20
29.4460378
40
0.3343711
50
213.3436887
51
222.6274467
0
ARC
8
DEFAULT_255_1_388
10
23.8670409
20
29.4313653
40
0.3082678
50
180.431584
51
213.271499
0
ARC
8
DEFAULT_255_1_388
10
23.9305408
20
29.4366296
40
0.3718363
50
179.9991191
51
181.1690594
0
ARC
8
DEFAULT_255_1_388
10
23.9777864
20
29.4405072
40
0.4190996
50
164.6186169
51
180.529336
0
ARC
8
DEFAULT_255_1_388
10
23.8767513
20
29.467678
40
0.3144772
50
132.2455553
51
164.5090724
0
ARC
8
DEFAULT_255_1_388
10
23.9090492
20
29.431107
40
0.3632644
50
100.7053914
51
132.1386381
0
ARC
8
DEFAULT_255_1_388
10
23.9433552
20
29.2761118
40
0.5219578
50
89.6730358
51
101.2451698
0
ARC
8
DEFAULT_255_1_388
10
23.9503543
20
29.2957648
40
0.5023124
50
76.287748
51
90.4586006
0
ARC
8
DEFAULT_255_1_388
10
23.9848045
20
29.4332671
40
0.3605639
50
47.8240511
51
76.4266241
0
ARC
8
DEFAULT_255_1_388
10
24.009843
20
29.4625599
40
0.3220463
50
6.9168387
51
47.6262497
0
ARC
8
DEFAULT_255_1_388
10
23.8763883
20
29.4379004
40
0.4575765
50
359.8415968
51
7.9697453
0
ARC
8
DEFAULT_255_1_388
10
23.9148152
20
28.8258519
40
0.2827228
50
359.445363
51
16.9256873
0
ARC
8
DEFAULT_255_1_388
10
23.9675586
20
28.8403781
40
0.2280396
50
17.2920767
51
45.4630727
0
ARC
8
DEFAULT_255_1_388
10
23.9614722
20
28.8351324
40
0.2360485
50
45.30305
51
83.1920945
0
ARC
8
DEFAULT_255_1_388
10
23.9453467
20
28.7449473
40
0.3275527
50
82.2612665
51
90.1434275
0
ARC
8
DEFAULT_255_1_388
10
23.9418743
20
28.7711869
40
0.3013237
50
89.4956434
51
104.8580688
0
ARC
8
DEFAULT_255_1_388
10
23.9219933
20
28.8465455
40
0.2233867
50
104.8856641
51
135.244616
0
ARC
8
DEFAULT_255_1_388
10
23.9275922
20
28.8415352
40
0.2308906
50
135.3399546
51
172.1044062
0
ARC
8
DEFAULT_255_1_388
10
24.0183446
20
28.8241667
40
0.3232034
50
171.2645637
51
180.186429
0
ARC
8
DEFAULT_255_1_388
10
23.9993451
20
28.8205426
40
0.304213
50
179.5154935
51
193.6464289
0
ARC
8
DEFAULT_255_1_388
10
23.9075127
20
28.7971473
40
0.209456
50
193.3540274
51
225.8258581
0
ARC
8
DEFAULT_255_1_388
10
23.9120999
20
28.8051076
40
0.2183738
50
226.4180634
51
255.8552336
0
ARC
8
DEFAULT_255_1_388
10
23.9409465
20
28.9104521
40
0.3275812
50
255.4654104
51
268.7987425
0
ARC
8
DEFAULT_255_1_388
10
23.9462642
20
29.0046545
40
0.4218877
50
268.3449238
51
270.0094605
0
ARC
8
DEFAULT_255_1_388
10
23.9488875
20
28.9278094
40
0.3450519
50
269.5759586
51
282.0820163
0
ARC
8
DEFAULT_255_1_388
10
23.9741912
20
28.8159363
40
0.2303642
50
281.752014
51
306.6056188
0
ARC
8
DEFAULT_255_1_388
10
23.985272
20
28.7977802
40
0.2091906
50
307.1346085
51
314.027845
0
ARC
8
DEFAULT_255_1_388
10
23.9812231
20
28.8007459
40
0.2141385
50
314.2552483
51
350.1694025
0
ARC
8
DEFAULT_255_1_388
10
23.8854469
20
28.8215175
40
0.312082
50
349.4140529
51
0.2933014
0
ARC
8
DEFAULT_255_1_388
10
23.9439746
20
29.4018924
40
0.2588377
50
89.477747
51
105.729729
0
ARC
8
DEFAULT_255_1_388
10
23.9286666
20
29.4587367
40
0.1999733
50
105.9233417
51
135.1660906
0
ARC
8
DEFAULT_255_1_388
10
23.9309696
20
29.4571412
40
0.2027322
50
135.3052302
51
168.9883645
0
ARC
8
DEFAULT_255_1_388
10
24.0240713
20
29.4357996
40
0.2982129
50
168.3801673
51
180.3602268
0
ARC
8
DEFAULT_255_1_388
10
23.9983829
20
29.4315622
40
0.2725291
50
179.5033122
51
194.9125571
0
ARC
8
DEFAULT_255_1_388
10
23.9325236
20
29.4142427
40
0.204431
50
194.9720816
51
224.194444
0
ARC
8
DEFAULT_255_1_388
10
23.9293602
20
29.4116635
40
0.2003651
50
224.2962453
51
262.015664
0
ARC
8
DEFAULT_255_1_388
10
23.9453606
20
29.4939315
40
0.2840925
50
261.1245923
51
270.1962896
0
ARC
8
DEFAULT_255_1_388
10
23.9487087
20
29.4728859
40
0.2630559
50
269.4827276
51
285.0987215
0
ARC
8
DEFAULT_255_1_388
10
23.9660523
20
29.4078175
40
0.1957162
50
285.1585357
51
315.9484501
0
ARC
8
DEFAULT_255_1_388
10
23.9560397
20
29.4170315
40
0.2093195
50
316.0413965
51
351.916092
0
ARC
8
DEFAULT_255_1_388
10
23.8735771
20
29.4329323
40
0.2932279
50
351.105835
51
0.1939062
0
ARC
8
DEFAULT_255_1_388
10
23.9031405
20
29.4363224
40
0.2636739
50
359.4789618
51
16.0678224
0
ARC
8
DEFAULT_255_1_388
10
23.9566877
20
29.4507721
40
0.2082215
50
16.3252067
51
44.7913869
0
ARC
8
DEFAULT_255_1_388
10
23.9546939
20
29.450832
40
0.2095992
50
44.3957814
51
88.2499162
0
ARC
8
DEFAULT_255_1_388
10
23.9464273
20
29.3820006
40
0.2787189
50
86.9833854
51
90.0192215
0
LINE
8
DEFAULT_255_1_388
10
22.6556901
20
37.0045775
11
22.6556901
21
37.1410157
0
LINE
8
DEFAULT_255_1_388
10
22.6556901
20
37.1410157
11
22.7812856
21
37.1410157
0
LINE
8
DEFAULT_255_1_388
10
22.5671408
20
37.3723282
11
22.3999814
21
37.3723282
0
LINE
8
DEFAULT_255_1_388
10
22.3882351
20
36.7488688
11
22.556298
21
36.7488688
0
LINE
8
DEFAULT_255_1_388
10
22.7812856
20
37.0045775
11
22.6556901
21
37.0045775
0
ARC
8
DEFAULT_255_1_388
10
22.7780082
20
37.5226922
40
0.3816905
50
270.491971
51
281.8953028
0
ARC
8
DEFAULT_255_1_388
10
22.8051509
20
37.3987199
40
0.2547877
50
281.6690378
51
301.2943765
0
ARC
8
DEFAULT_255_1_388
10
22.8242961
20
37.3636926
40
0.2149197
50
301.7834992
51
311.754567
0
ARC
8
DEFAULT_255_1_388
10
22.8346002
20
37.352265
40
0.1995326
50
311.7325027
51
354.2803031
0
ARC
8
DEFAULT_255_1_388
10
22.7528418
20
37.366328
40
0.2823461
50
353.0941646
51
0.1174696
0
ARC
8
DEFAULT_255_1_388
10
22.7009976
20
37.3716874
40
0.3342238
50
359.1804452
51
15.0452323
0
ARC
8
DEFAULT_255_1_388
10
22.8524034
20
37.4158546
40
0.1765747
50
13.957816
51
77.6713812
0
ARC
8
DEFAULT_255_1_388
10
22.808927
20
37.2600464
40
0.3381982
50
76.111571
51
90.7028736
0
ARC
8
DEFAULT_255_1_388
10
22.8022682
20
37.290825
40
0.3074046
50
89.5321574
51
103.5319393
0
ARC
8
DEFAULT_255_1_388
10
22.7797066
20
37.3807443
40
0.2147041
50
103.2930114
51
133.5619756
0
ARC
8
DEFAULT_255_1_388
10
22.7747007
20
37.3874351
40
0.2064084
50
133.8349761
51
173.5343225
0
ARC
8
DEFAULT_255_1_388
10
22.8560665
20
37.3730144
40
0.2889266
50
172.5097183
51
180.1360699
0
ARC
8
DEFAULT_255_1_388
10
22.7490429
20
37.376888
40
0.3490913
50
155.3483706
51
180.7484035
0
ARC
8
DEFAULT_255_1_388
10
22.7435404
20
37.3736519
40
0.3454798
50
131.5745177
51
154.4799474
0
ARC
8
DEFAULT_255_1_388
10
22.7787687
20
37.3380422
40
0.3955058
50
96.9874487
51
131.9690874
0
ARC
8
DEFAULT_255_1_388
10
22.803458
20
37.1979407
40
0.537622
50
89.8592909
51
97.7827481
0
ARC
8
DEFAULT_255_1_388
10
22.8088689
20
37.168436
40
0.5671399
50
78.3654493
51
90.4132586
0
ARC
8
DEFAULT_255_1_388
10
22.849133
20
37.3550918
40
0.3762034
50
56.6229818
51
78.6387103
0
ARC
8
DEFAULT_255_1_388
10
22.8733159
20
37.3973846
40
0.3275964
50
47.0254604
51
56.085558
0
ARC
8
DEFAULT_255_1_388
10
22.875541
20
37.4018189
40
0.3228382
50
10.9207523
51
46.777927
0
ARC
8
DEFAULT_255_1_388
10
22.7221004
20
37.3663401
40
0.4802559
50
359.6364235
51
11.6087615
0
ARC
8
DEFAULT_255_1_388
10
22.928517
20
37.3646404
40
0.273833
50
332.3549969
51
359.7179765
0
ARC
8
DEFAULT_255_1_388
10
22.855357
20
37.3993285
40
0.3547505
50
325.2332381
51
332.8746682
0
ARC
8
DEFAULT_255_1_388
10
22.8725153
20
37.3873763
40
0.3338396
50
292.9803892
51
325.2391113
0
ARC
8
DEFAULT_255_1_388
10
22.8414349
20
37.4478679
40
0.4016959
50
292.542178
51
293.6931461
0
ARC
8
DEFAULT_255_1_388
10
22.8857921
20
36.7213036
40
0.372079
50
57.643292
51
72.8626085
0
ARC
8
DEFAULT_255_1_388
10
22.9256755
20
36.7859273
40
0.2961455
50
36.7246661
51
57.4701329
0
ARC
8
DEFAULT_255_1_388
10
22.9243912
20
36.787347
40
0.2963321
50
8.054535
51
36.3561529
0
ARC
8
DEFAULT_255_1_388
10
22.8273585
20
36.7699073
40
0.3948682
50
359.8316595
51
8.5873361
0
ARC
8
DEFAULT_255_1_388
10
22.7851059
20
36.764497
40
0.4371398
50
343.9831631
51
0.557075
0
ARC
8
DEFAULT_255_1_388
10
22.8848108
20
36.7371963
40
0.3337749
50
311.6358204
51
343.7652116
0
ARC
8
DEFAULT_255_1_388
10
22.8422362
20
36.7851955
40
0.3979351
50
279.7829743
51
311.625622
0
ARC
8
DEFAULT_255_1_388
10
22.8083497
20
36.9468642
40
0.5630417
50
269.7285092
51
280.3857694
0
ARC
8
DEFAULT_255_1_388
10
22.801381
20
36.9422241
40
0.5584119
50
256.6827433
51
270.4412869
0
ARC
8
DEFAULT_255_1_388
10
22.7632797
20
36.7864698
40
0.3980715
50
229.4223821
51
256.8554507
0
ARC
8
DEFAULT_255_1_388
10
22.716635
20
36.7339683
40
0.3278564
50
181.8183354
51
229.6455015
0
ARC
8
DEFAULT_255_1_388
10
22.833596
20
36.7486825
40
0.4453611
50
179.9760419
51
183.2330638
0
ARC
8
DEFAULT_255_1_388
10
22.8142512
20
36.7463781
40
0.2579652
50
179.4467996
51
196.2871626
0
ARC
8
DEFAULT_255_1_388
10
22.7593966
20
36.7313709
40
0.2011057
50
196.5661293
51
227.7059371
0
ARC
8
DEFAULT_255_1_388
10
22.7778573
20
36.7520155
40
0.2287994
50
227.7653015
51
257.8763321
0
ARC
8
DEFAULT_255_1_388
10
22.8031656
20
36.8580961
40
0.3378385
50
257.4583525
51
270.4267406
0
ARC
8
DEFAULT_255_1_388
10
22.8082906
20
36.890723
40
0.3704652
50
269.5965319
51
280.8788143
0
ARC
8
DEFAULT_255_1_388
10
22.8341134
20
36.7617529
40
0.2389415
50
280.6347277
51
299.8594068
0
ARC
8
DEFAULT_255_1_388
10
22.8555903
20
36.7209736
40
0.19289
50
300.3575552
51
314.5515667
0
ARC
8
DEFAULT_255_1_388
10
22.8462579
20
36.7278025
40
0.204312
50
315.0730962
51
345.0429362
0
ARC
8
DEFAULT_255_1_388
10
22.7424087
20
36.7580539
40
0.31246
50
344.598526
51
357.9270698
0
ARC
8
DEFAULT_255_1_388
10
22.6414391
20
36.7649705
40
0.4136265
50
357.4755098
51
0.0224936
0
ARC
8
DEFAULT_255_1_388
10
22.7567269
20
36.7677099
40
0.2983498
50
359.5051035
51
13.4236939
0
ARC
8
DEFAULT_255_1_388
10
22.8542359
20
36.7926637
40
0.1977186
50
12.9497905
51
48.7550905
0
ARC
8
DEFAULT_255_1_388
10
22.8337281
20
36.7646373
40
0.2323321
50
49.509109
51
72.1832965
0
ARC
8
DEFAULT_255_1_388
10
22.7934749
20
36.6451632
40
0.358397
50
71.9008458
51
84.3555134
0
ARC
8
DEFAULT_255_1_388
10
22.7753144
20
36.4919712
40
0.512641
50
84.019632
51
89.3326067
0
LINE
8
DEFAULT_255_1_388
10
24.2884311
20
36.8193468
11
24.462819
21
36.8193468
0
LINE
8
DEFAULT_255_1_388
10
23.4499233
20
36.9982525
11
23.4499233
21
37.1247516
0
LINE
8
DEFAULT_255_1_388
10
24.462819
20
37.2946217
11
24.2884311
21
37.2946217
0
LINE
8
DEFAULT_255_1_388
10
23.6243112
20
37.1202337
11
23.6243112
21
36.9928312
0
ARC
8
DEFAULT_255_1_388
10
23.8462424
20
36.8865329
40
0.6202263
50
340.1774904
51
353.7812217
0
ARC
8
DEFAULT_255_1_388
10
24.0230277
20
36.8206893
40
0.4315926
50
311.4560052
51
340.4420756
0
ARC
8
DEFAULT_255_1_388
10
24.0192817
20
36.8331665
40
0.4434573
50
282.4332229
51
310.7514507
0
ARC
8
DEFAULT_255_1_388
10
23.9698635
20
37.0373703
40
0.6535262
50
269.9358869
51
282.8096729
0
ARC
8
DEFAULT_255_1_388
10
23.9640574
20
37.1886329
40
0.8048043
50
269.9995752
51
270.3612856
0
ARC
8
DEFAULT_255_1_388
10
23.9581064
20
36.9087781
40
0.5249831
50
250.7885263
51
270.6488451
0
ARC
8
DEFAULT_255_1_388
10
23.9391889
20
36.8370853
40
0.4510942
50
219.3628377
51
250.0611024
0
ARC
8
DEFAULT_255_1_388
10
24.0324763
20
36.9163653
40
0.5735046
50
193.5480293
51
219.5755675
0
ARC
8
DEFAULT_255_1_388
10
24.2992972
20
36.985652
40
0.849146
50
181.1220183
51
193.8754971
0
ARC
8
DEFAULT_255_1_388
10
24.5316206
20
36.9980914
40
1.0816971
50
179.9914644
51
181.5398227
0
ARC
8
DEFAULT_255_1_388
10
24.3239516
20
37.1289586
40
0.8740384
50
169.5837606
51
180.275782
0
ARC
8
DEFAULT_255_1_388
10
24.1172864
20
37.1671439
40
0.6638751
50
155.0367033
51
169.6002779
0
ARC
8
DEFAULT_255_1_388
10
23.9895322
20
37.2287336
40
0.5220662
50
136.7831557
51
155.2472983
0
ARC
8
DEFAULT_255_1_388
10
23.9457113
20
37.2659577
40
0.4646502
50
121.7633063
51
136.4281161
0
ARC
8
DEFAULT_255_1_388
10
23.9608953
20
37.2379049
40
0.4964979
50
95.6460018
51
121.5489589
0
ARC
8
DEFAULT_255_1_388
10
23.9785927
20
37.1131704
40
0.6223912
50
89.9245727
51
96.1375919
0
ARC
8
DEFAULT_255_1_388
10
23.9842632
20
37.1265721
40
0.6090084
50
76.6779212
51
90.456405
0
ARC
8
DEFAULT_255_1_388
10
24.0285445
20
37.305506
40
0.42469
50
47.4858803
51
76.9287069
0
ARC
8
DEFAULT_255_1_388
10
24.0120059
20
37.2942623
40
0.4441778
50
16.5424081
51
46.8934505
0
ARC
8
DEFAULT_255_1_388
10
23.8311109
20
37.2348265
40
0.6345318
50
5.4072971
51
17.0363711
0
ARC
8
DEFAULT_255_1_388
10
23.6692834
20
37.2088304
40
0.6250632
50
7.8888693
51
15.9242022
0
ARC
8
DEFAULT_255_1_388
10
23.8927819
20
37.2737309
40
0.3923364
50
15.7650676
51
27.9410069
0
ARC
8
DEFAULT_255_1_388
10
24.0169989
20
37.3402317
40
0.2514401
50
27.8167196
51
46.4007942
0
ARC
8
DEFAULT_255_1_388
10
24.022583
20
37.3395882
40
0.2480958
50
47.4372362
51
75.0695672
0
ARC
8
DEFAULT_255_1_388
10
23.9878666
20
37.2187277
40
0.3738281
50
74.7009379
51
87.8124314
0
ARC
8
DEFAULT_255_1_388
10
23.9796283
20
37.1003659
40
0.4924321
50
87.3802571
51
90.0251599
0
ARC
8
DEFAULT_255_1_388
10
23.975293
20
37.2323997
40
0.3604218
50
89.3451886
51
108.5744412
0
ARC
8
DEFAULT_255_1_388
10
23.9598922
20
37.2901836
40
0.3007661
50
109.2998307
51
143.3037387
0
ARC
8
DEFAULT_255_1_388
10
24.0456212
20
37.2242584
40
0.4089031
50
143.075267
51
163.1918576
0
ARC
8
DEFAULT_255_1_388
10
24.2652047
20
37.1549652
40
0.6391492
50
162.9375929
51
174.6208776
0
ARC
8
DEFAULT_255_1_388
10
24.5606428
20
37.1225711
40
0.9363344
50
174.342123
51
180.1430283
0
ARC
8
DEFAULT_255_1_388
10
24.455897
20
36.9882117
40
0.8315986
50
179.6817261
51
189.150555
0
ARC
8
DEFAULT_255_1_388
10
24.1745719
20
36.9413559
40
0.5464044
50
188.9911061
51
203.5772363
0
ARC
8
DEFAULT_255_1_388
10
24.053101
20
36.8909539
40
0.4149206
50
203.9075402
51
215.1312435
0
ARC
8
DEFAULT_255_1_388
10
23.9492808
20
36.8104907
40
0.2837747
50
213.9071511
51
263.8848919
0
ARC
8
DEFAULT_255_1_388
10
23.9633801
20
36.8987519
40
0.3730641
50
263.1757928
51
270.1031044
0
ARC
8
DEFAULT_255_1_388
10
23.9669881
20
37.0390511
40
0.5133712
50
269.6722503
51
279.0606936
0
ARC
8
DEFAULT_255_1_388
10
23.9970036
20
36.857615
40
0.3294739
50
278.8749101
51
293.6349581
0
ARC
8
DEFAULT_255_1_388
10
24.033024
20
36.7730251
40
0.2375405
50
293.8553806
51
310.0518171
0
ARC
8
DEFAULT_255_1_388
10
24.0335749
20
36.7660021
40
0.2318463
50
311.0644687
51
332.0111037
0
ARC
8
DEFAULT_255_1_388
10
23.8994422
20
36.8399702
40
0.3850112
50
331.6586806
51
343.2877423
0
ARC
8
DEFAULT_255_1_388
10
23.6673888
20
36.9112806
40
0.6277712
50
343.1446576
51
351.0103568
0
ARC
8
DEFAULT_255_1_388
10
23.5041211
20
36.9412873
40
0.7937327
50
350.71248
51
351.1626997
0
LINE
8
DEFAULT_255_1_388
10
22.5277376
20
45.6549898
11
22.869285
21
44.9944842
0
LINE
8
DEFAULT_255_1_388
10
22.869285
20
44.9944842
11
23.2126395
21
45.6549898
0
LINE
8
DEFAULT_255_1_388
10
23.2126395
20
45.6549898
11
23.4096166
21
45.6549898
0
LINE
8
DEFAULT_255_1_388
10
23.4096166
20
45.6549898
11
22.9560272
21
44.8300355
0
LINE
8
DEFAULT_255_1_388
10
22.9560272
20
44.8300355
11
22.9560272
21
44.3394
0
LINE
8
DEFAULT_255_1_388
10
22.9560272
20
44.3394
11
22.7825428
21
44.3394
0
LINE
8
DEFAULT_255_1_388
10
22.7825428
20
44.3394
11
22.7825428
21
44.8300355
0
LINE
8
DEFAULT_255_1_388
10
22.7825428
20
44.8300355
11
22.3289535
21
45.6549898
0
LINE
8
DEFAULT_255_1_388
10
22.3289535
20
45.6549898
11
22.5277376
21
45.6549898
0
LINE
8
DEFAULT_255_1_388
10
24.3854662
20
45.6549898
11
24.3854662
21
45.5610191
0
LINE
8
DEFAULT_255_1_388
10
24.3854662
20
45.5610191
11
23.8406168
21
44.3394
0
LINE
8
DEFAULT_255_1_388
10
23.8406168
20
44.3394
11
23.6653253
21
44.3394
0
LINE
8
DEFAULT_255_1_388
10
23.6653253
20
44.3394
11
24.2083675
21
45.517648
0
LINE
8
DEFAULT_255_1_388
10
24.2083675
20
45.517648
11
23.4963587
21
45.517648
0
LINE
8
DEFAULT_255_1_388
10
23.4963587
20
45.517648
11
23.4963587
21
45.6549898
0
LINE
8
DEFAULT_255_1_388
10
23.4963587
20
45.6549898
11
24.3854662
21
45.6549898
0
LINE
8
DEFAULT_255_1_388
10
22.5277376
20
53.5924898
11
22.869285
21
52.9319842
0
LINE
8
DEFAULT_255_1_388
10
22.869285
20
52.9319842
11
23.2126395
21
53.5924898
0
LINE
8
DEFAULT_255_1_388
10
23.2126395
20
53.5924898
11
23.4096166
21
53.5924898
0
LINE
8
DEFAULT_255_1_388
10
23.4096166
20
53.5924898
11
22.9560272
21
52.7675355
0
LINE
8
DEFAULT_255_1_388
10
22.9560272
20
52.7675355
11
22.9560272
21
52.2769
0
LINE
8
DEFAULT_255_1_388
10
22.9560272
20
52.2769
11
22.7825428
21
52.2769
0
LINE
8
DEFAULT_255_1_388
10
22.7825428
20
52.2769
11
22.7825428
21
52.7675355
0
LINE
8
DEFAULT_255_1_388
10
22.7825428
20
52.7675355
11
22.3289535
21
53.5924898
0
LINE
8
DEFAULT_255_1_388
10
22.3289535
20
53.5924898
11
22.5277376
21
53.5924898
0
LINE
8
DEFAULT_255_1_388
10
24.1622857
20
53.5933934
11
24.1921034
21
53.5933934
0
LINE
8
DEFAULT_255_1_388
10
24.1921034
20
53.5933934
11
24.1921034
21
53.4515338
0
LINE
8
DEFAULT_255_1_388
10
24.1921034
20
53.4515338
11
24.1613822
21
53.4515338
0
LINE
8
DEFAULT_255_1_388
10
23.5460548
20
52.7774747
11
23.5460548
21
52.8416278
0
LINE
8
DEFAULT_255_1_388
10
23.7141178
20
52.8199422
11
23.7141178
21
52.7584999
0
ARC
8
DEFAULT_255_1_388
10
24.1672713
20
52.8892826
40
0.562282
50
90.6001079
51
104.5146616
0
ARC
8
DEFAULT_255_1_388
10
24.1235673
20
53.05181
40
0.3939917
50
104.2855758
51
133.8630124
0
ARC
8
DEFAULT_255_1_388
10
24.1419926
20
53.0396243
40
0.4155734
50
134.5304124
51
161.6210222
0
ARC
8
DEFAULT_255_1_388
10
24.3279858
20
52.9740421
40
0.6127682
50
161.2850533
51
174.2074364
0
ARC
8
DEFAULT_255_1_388
10
24.4869425
20
52.9521437
40
0.7731446
50
173.7817938
51
174.9251711
0
ARC
8
DEFAULT_255_1_388
10
23.9743618
20
52.796627
40
0.3412588
50
95.8332067
51
138.995412
0
ARC
8
DEFAULT_255_1_388
10
23.9994898
20
52.6527695
40
0.4870358
50
89.8755506
51
97.0540979
0
ARC
8
DEFAULT_255_1_388
10
24.0048288
20
52.7467841
40
0.3930432
50
71.6407016
51
90.6240821
0
ARC
8
DEFAULT_255_1_388
10
24.0217681
20
52.8091433
40
0.3285421
50
39.6368051
51
71.0190743
0
ARC
8
DEFAULT_255_1_388
10
23.9501589
20
52.7472586
40
0.4231706
50
10.6588054
51
39.9044509
0
ARC
8
DEFAULT_255_1_388
10
23.7760134
20
52.7094223
40
0.60133
50
359.6827842
51
11.1326896
0
ARC
8
DEFAULT_255_1_388
10
23.771547
20
52.7014715
40
0.6058047
50
347.2485908
51
0.4371098
0
ARC
8
DEFAULT_255_1_388
10
23.9591255
20
52.6563379
40
0.4128987
50
318.1408565
51
347.6118497
0
ARC
8
DEFAULT_255_1_388
10
23.9956852
20
52.6262903
40
0.3656244
50
275.6342406
51
317.824739
0
ARC
8
DEFAULT_255_1_388
10
23.9708373
20
52.7724827
40
0.513655
50
269.8872513
51
276.7916069
0
ARC
8
DEFAULT_255_1_388
10
23.9646566
20
52.6571181
40
0.398323
50
246.9139443
51
270.7436787
0
ARC
8
DEFAULT_255_1_388
10
23.9653762
20
52.6411044
40
0.3839368
50
218.1665534
51
245.8780431
0
ARC
8
DEFAULT_255_1_388
10
24.0643134
20
52.7238903
40
0.5128958
50
191.4115343
51
218.6077624
0
ARC
8
DEFAULT_255_1_388
10
24.282345
20
52.7727777
40
0.7363054
50
179.6344971
51
191.7836758
0
ARC
8
DEFAULT_255_1_388
10
24.9103324
20
52.8491495
40
1.3642984
50
171.4523743
51
180.3158856
0
ARC
8
DEFAULT_255_1_388
10
24.4159052
20
52.9260895
40
0.8639311
50
157.9802296
51
171.6246761
0
ARC
8
DEFAULT_255_1_388
10
24.1668402
20
53.0254038
40
0.5958004
50
141.4299236
51
157.8541251
0
ARC
8
DEFAULT_255_1_388
10
24.0946486
20
53.0764746
40
0.5075416
50
102.871586
51
140.8564533
0
ARC
8
DEFAULT_255_1_388
10
24.1675038
20
52.8019943
40
0.7914163
50
90.377773
51
103.5868422
0
ARC
8
DEFAULT_255_1_388
10
23.9719559
20
52.7339543
40
0.2667015
50
89.8751238
51
126.2072139
0
ARC
8
DEFAULT_255_1_388
10
23.977103
20
52.7165847
40
0.2838229
50
124.9742447
51
144.8960197
0
ARC
8
DEFAULT_255_1_388
10
23.9573275
20
52.7326981
40
0.2583845
50
145.2974778
51
160.2660922
0
ARC
8
DEFAULT_255_1_388
10
24.3029764
20
52.7549151
40
0.5888695
50
179.6512124
51
190.285571
0
ARC
8
DEFAULT_255_1_388
10
24.1124243
20
52.7189968
40
0.3949683
50
190.0944895
51
207.5099647
0
ARC
8
DEFAULT_255_1_388
10
24.0487825
20
52.6887177
40
0.3245464
50
207.9585471
51
216.325377
0
ARC
8
DEFAULT_255_1_388
10
24.0105462
20
52.6572712
40
0.2751259
50
215.7661336
51
232.5457193
0
ARC
8
DEFAULT_255_1_388
10
23.9674578
20
52.6025273
40
0.2054668
50
232.8005815
51
270.6605497
0
ARC
8
DEFAULT_255_1_388
10
23.9726002
20
52.6434853
40
0.2464268
50
269.3550767
51
288.474612
0
ARC
8
DEFAULT_255_1_388
10
23.9830509
20
52.6041721
40
0.2058436
50
289.1831976
51
322.9685307
0
ARC
8
DEFAULT_255_1_388
10
23.9142611
20
52.6584279
40
0.2934408
50
322.6007085
51
346.5183319
0
ARC
8
DEFAULT_255_1_388
10
23.7840367
20
52.6916434
40
0.4278249
50
346.2584622
51
358.7739592
0
ARC
8
DEFAULT_255_1_388
10
23.6688942
20
52.6978829
40
0.5430876
50
358.3757628
51
0.0082477
0
ARC
8
DEFAULT_255_1_388
10
23.7545761
20
52.7009856
40
0.4574157
50
359.6211417
51
11.28403
0
ARC
8
DEFAULT_255_1_388
10
23.8982367
20
52.7309535
40
0.3106708
50
11.0483152
51
31.8145585
0
ARC
8
DEFAULT_255_1_388
10
23.9330072
20
52.7498045
40
0.2711963
50
32.3028554
51
38.0820598
0
ARC
8
DEFAULT_255_1_388
10
23.9803305
20
52.7926717
40
0.2075566
50
36.8249851
51
85.741667
0
ARC
8
DEFAULT_255_1_388
10
23.9727718
20
52.7363065
40
0.2643487
50
85.0150021
51
90.050843
0
LINE
8
DEFAULT_255_1_388
10
22.5277376
20
61.5299898
11
22.869285
21
60.8694842
0
LINE
8
DEFAULT_255_1_388
10
22.869285
20
60.8694842
11
23.2126395
21
61.5299898
0
LINE
8
DEFAULT_255_1_388
10
23.2126395
20
61.5299898
11
23.4096166
21
61.5299898
0
LINE
8
DEFAULT_255_1_388
10
23.4096166
20
61.5299898
11
22.9560272
21
60.7050355
0
LINE
8
DEFAULT_255_1_388
10
22.9560272
20
60.7050355
11
22.9560272
21
60.2144
0
LINE
8
DEFAULT_255_1_388
10
22.9560272
20
60.2144
11
22.7825428
21
60.2144
0
LINE
8
DEFAULT_255_1_388
10
22.7825428
20
60.2144
11
22.7825428
21
60.7050355
0
LINE
8
DEFAULT_255_1_388
10
22.7825428
20
60.7050355
11
22.3289535
21
61.5299898
0
LINE
8
DEFAULT_255_1_388
10
22.3289535
20
61.5299898
11
22.5277376
21
61.5299898
0
LINE
8
DEFAULT_255_1_388
10
23.7466461
20
60.8396666
11
23.6129186
21
60.8740021
0
LINE
8
DEFAULT_255_1_388
10
23.6129186
20
60.8740021
11
23.6797823
21
61.5299898
0
LINE
8
DEFAULT_255_1_388
10
23.6797823
20
61.5299898
11
24.3538414
21
61.5299898
0
LINE
8
DEFAULT_255_1_388
10
24.3538414
20
61.5299898
11
24.3538414
21
61.3754803
0
LINE
8
DEFAULT_255_1_388
10
24.3538414
20
61.3754803
11
23.8216419
21
61.3754803
0
LINE
8
DEFAULT_255_1_388
10
23.8216419
20
61.3754803
11
23.7818851
21
61.0167652
0
LINE
8
DEFAULT_255_1_388
10
23.5659332
20
60.5604652
11
23.724057
21
60.5604652
0
LINE
8
DEFAULT_255_1_388
10
23.7909208
20
60.8758092
11
23.7466461
21
60.8396666
0
ARC
8
DEFAULT_255_1_388
10
23.9905465
20
60.6590241
40
0.4141476
50
93.7181681
51
120.253934
0
ARC
8
DEFAULT_255_1_388
10
24.0011517
20
60.5681284
40
0.5055616
50
89.9660471
51
94.2495185
0
ARC
8
DEFAULT_255_1_388
10
24.0057339
20
60.6344154
40
0.4392953
50
73.8045384
51
90.5585736
0
ARC
8
DEFAULT_255_1_388
10
24.0321596
20
60.730952
40
0.3392225
50
41.3071072
51
73.543002
0
ARC
8
DEFAULT_255_1_388
10
23.9853416
20
60.6906461
40
0.4009977
50
13.5075837
51
41.2174839
0
ARC
8
DEFAULT_255_1_388
10
23.8006514
20
60.6422907
40
0.5918864
50
1.1330171
51
13.8830737
0
ARC
8
DEFAULT_255_1_388
10
23.641016
20
60.6337522
40
0.7516787
50
359.9925091
51
1.5431298
0
ARC
8
DEFAULT_255_1_388
10
23.7854774
20
60.6291027
40
0.6072343
50
347.8572712
51
0.4294349
0
ARC
8
DEFAULT_255_1_388
10
23.9823909
20
60.5844898
40
0.4053482
50
323.6727442
51
348.1674594
0
ARC
8
DEFAULT_255_1_388
10
24.0154874
20
60.5643175
40
0.3667495
50
316.8171818
51
323.1486802
0
ARC
8
DEFAULT_255_1_388
10
24.0223997
20
60.5601612
40
0.358869
50
281.839603
51
316.5458142
0
ARC
8
DEFAULT_255_1_388
10
23.9801285
20
60.7351363
40
0.5388223
50
269.5770964
51
282.4214641
0
ARC
8
DEFAULT_255_1_388
10
23.9721206
20
60.711093
40
0.5147801
50
256.2425863
51
270.4486481
0
ARC
8
DEFAULT_255_1_388
10
23.9384733
20
60.5761124
40
0.3756708
50
228.9024379
51
256.33135
0
ARC
8
DEFAULT_255_1_388
10
23.9301714
20
60.5630054
40
0.360344
50
193.7536029
51
228.5272638
0
ARC
8
DEFAULT_255_1_388
10
24.0694279
20
60.6038463
40
0.5053599
50
184.9244437
51
194.4976052
0
ARC
8
DEFAULT_255_1_388
10
24.091092
20
60.6078722
40
0.3700839
50
187.3596909
51
198.6733728
0
ARC
8
DEFAULT_255_1_388
10
23.9730163
20
60.5669373
40
0.2451195
50
198.4453795
51
217.7945479
0
ARC
8
DEFAULT_255_1_388
10
23.9397336
20
60.5433563
40
0.2043754
50
218.2887146
51
228.5613203
0
ARC
8
DEFAULT_255_1_388
10
23.9507343
20
60.5581902
40
0.2227819
50
228.9652423
51
258.1237049
0
ARC
8
DEFAULT_255_1_388
10
23.973878
20
60.6572964
40
0.3245374
50
257.7260585
51
270.4013717
0
ARC
8
DEFAULT_255_1_388
10
23.9789278
20
60.6072255
40
0.2744726
50
269.4204315
51
286.420998
0
ARC
8
DEFAULT_255_1_388
10
23.9956334
20
60.5465705
40
0.2115721
50
286.7250065
51
320.6004665
0
ARC
8
DEFAULT_255_1_388
10
23.9525249
20
60.5815527
40
0.2670878
50
320.6712228
51
344.5440474
0
ARC
8
DEFAULT_255_1_388
10
23.8223963
20
60.6197394
40
0.4026927
50
344.241448
51
356.735803
0
ARC
8
DEFAULT_255_1_388
10
23.682027
20
60.6313656
40
0.5435085
50
356.3547471
51
0.0507222
0
ARC
8
DEFAULT_255_1_388
10
23.8322536
20
60.6348812
40
0.3932934
50
359.5579289
51
12.9534322
0
ARC
8
DEFAULT_255_1_388
10
23.9509375
20
60.6636586
40
0.2711827
50
12.6489751
51
41.608121
0
ARC
8
DEFAULT_255_1_388
10
23.9768535
20
60.6856946
40
0.2371737
50
41.7851122
51
85.9892156
0
ARC
8
DEFAULT_255_1_388
10
23.9629846
20
60.5941738
40
0.3295244
50
84.6965848
51
90.0672125
0
ARC
8
DEFAULT_255_1_388
10
23.9603413
20
60.5190118
40
0.4046926
50
89.6804991
51
99.161352
0
ARC
8
DEFAULT_255_1_388
10
23.9372422
20
60.6570848
40
0.2647044
50
98.9836248
51
113.8905702
0
ARC
8
DEFAULT_255_1_388
10
23.9114097
20
60.7180118
40
0.1985386
50
114.195234
51
127.3641866
0
LINE
8
DEFAULT_255_1_388
10
22.3954376
20
69.4674898
11
22.736985
21
68.8069842
0
LINE
8
DEFAULT_255_1_388
10
22.736985
20
68.8069842
11
23.0803395
21
69.4674898
0
LINE
8
DEFAULT_255_1_388
10
23.0803395
20
69.4674898
11
23.2773166
21
69.4674898
0
LINE
8
DEFAULT_255_1_388
10
23.2773166
20
69.4674898
11
22.8237272
21
68.6425355
0
LINE
8
DEFAULT_255_1_388
10
22.8237272
20
68.6425355
11
22.8237272
21
68.1519
0
LINE
8
DEFAULT_255_1_388
10
22.8237272
20
68.1519
11
22.6502428
21
68.1519
0
LINE
8
DEFAULT_255_1_388
10
22.6502428
20
68.1519
11
22.6502428
21
68.6425355
0
LINE
8
DEFAULT_255_1_388
10
22.6502428
20
68.6425355
11
22.1966535
21
69.4674898
0
LINE
8
DEFAULT_255_1_388
10
22.1966535
20
69.4674898
11
22.3954376
21
69.4674898
0
LINE
8
DEFAULT_255_1_388
10
24.1094994
20
69.4674898
11
24.1094994
21
68.593743
0
LINE
8
DEFAULT_255_1_388
10
24.1094994
20
68.593743
11
24.2920194
21
68.593743
0
LINE
8
DEFAULT_255_1_388
10
24.2920194
20
68.593743
11
24.2920194
21
68.4573048
0
LINE
8
DEFAULT_255_1_388
10
24.2920194
20
68.4573048
11
24.1094994
21
68.4573048
0
LINE
8
DEFAULT_255_1_388
10
24.1094994
20
68.4573048
11
24.1094994
21
68.1519
0
LINE
8
DEFAULT_255_1_388
10
24.1094994
20
68.1519
11
23.9414364
21
68.1519
0
LINE
8
DEFAULT_255_1_388
10
23.9414364
20
68.1519
11
23.9414364
21
68.4573048
0
LINE
8
DEFAULT_255_1_388
10
23.9414364
20
68.4573048
11
23.3423732
21
68.4573048
0
LINE
8
DEFAULT_255_1_388
10
23.3423732
20
68.4573048
11
23.3423732
21
68.5557933
0
LINE
8
DEFAULT_255_1_388
10
23.3423732
20
68.5557933
11
23.9314972
21
69.4674898
0
LINE
8
DEFAULT_255_1_388
10
23.9314972
20
69.4674898
11
24.1094994
21
69.4674898
0
LINE
8
DEFAULT_255_1_388
10
23.921558
20
69.2027455
11
23.5321217
21
68.593743
0
LINE
8
DEFAULT_255_1_388
10
23.5321217
20
68.593743
11
23.9414364
21
68.593743
0
LINE
8
DEFAULT_255_1_388
10
23.9414364
20
68.593743
11
23.9414364
21
69.238888
0
LINE
8
DEFAULT_255_1_388
10
23.9414364
20
69.238888
11
23.921558
21
69.2027455
0
LINE
8
DEFAULT_255_1_388
10
23.2746318
20
76.2258382
11
23.2746318
21
76.0894
0
LINE
8
DEFAULT_255_1_388
10
23.2746318
20
76.0894
11
22.4126313
21
76.0894
0
LINE
8
DEFAULT_255_1_388
10
22.4126313
20
76.0894
11
22.4126313
21
76.2095741
0
LINE
8
DEFAULT_255_1_388
10
22.4126313
20
76.2095741
11
22.8680278
21
76.7155702
0
LINE
8
DEFAULT_255_1_388
10
22.5544909
20
77.0173607
11
22.3873315
21
77.0173607
0
LINE
8
DEFAULT_255_1_388
10
22.9665163
20
76.608046
11
22.6141262
21
76.2258382
0
LINE
8
DEFAULT_255_1_388
10
22.6141262
20
76.2258382
11
23.2746318
21
76.2258382
0
ARC
8
DEFAULT_255_1_388
10
21.3504337
20
78.0575983
40
2.0258655
50
318.5132526
51
320.7829045
0
ARC
8
DEFAULT_255_1_388
10
21.9452294
20
77.5734929
40
1.2589638
50
320.7372878
51
323.9739031
0
ARC
8
DEFAULT_255_1_388
10
22.3861226
20
77.2540554
40
0.7145141
50
323.8962701
51
328.64194
0
ARC
8
DEFAULT_255_1_388
10
22.6163484
20
77.1120545
40
0.4440242
50
328.8294576
51
331.7891185
0
ARC
8
DEFAULT_255_1_388
10
22.7285804
20
77.0541374
40
0.3177517
50
331.4254512
51
352.9365785
0
ARC
8
DEFAULT_255_1_388
10
22.7438804
20
77.050705
40
0.3021496
50
353.2257659
51
0.0166158
0
ARC
8
DEFAULT_255_1_388
10
22.7675564
20
77.0532894
40
0.2784847
50
359.486299
51
15.9343185
0
ARC
8
DEFAULT_255_1_388
10
22.8245831
20
77.0686269
40
0.2194403
50
16.1712913
51
43.5286088
0
ARC
8
DEFAULT_255_1_388
10
22.8332776
20
77.0773191
40
0.2071504
50
43.4417391
51
83.1661095
0
ARC
8
DEFAULT_255_1_388
10
22.8181937
20
76.9944316
40
0.2912888
50
82.160179
51
90.1505708
0
ARC
8
DEFAULT_255_1_388
10
22.8146418
20
76.9340279
40
0.3517025
50
89.5460741
51
102.5418361
0
ARC
8
DEFAULT_255_1_388
10
22.7873138
20
77.0499933
40
0.2325748
50
102.1738499
51
129.206123
0
ARC
8
DEFAULT_255_1_388
10
22.7784592
20
77.0639664
40
0.2161591
50
129.72865
51
135.753947
0
ARC
8
DEFAULT_255_1_388
10
22.7921074
20
77.0530728
40
0.2335433
50
136.1757367
51
166.3673339
0
ARC
8
DEFAULT_255_1_388
10
22.9053762
20
77.0227148
40
0.3507873
50
165.9090694
51
178.8684636
0
ARC
8
DEFAULT_255_1_388
10
23.0029534
20
77.0174263
40
0.4484624
50
178.4391136
51
180.0083808
0
ARC
8
DEFAULT_255_1_388
10
22.8450235
20
77.0218197
40
0.4577138
50
163.2878482
51
180.5581842
0
ARC
8
DEFAULT_255_1_388
10
22.7548276
20
77.0466393
40
0.3641968
50
133.4540601
51
162.947111
0
ARC
8
DEFAULT_255_1_388
10
22.7749158
20
77.0252789
40
0.3935189
50
100.7869829
51
133.4382499
0
ARC
8
DEFAULT_255_1_388
10
22.8140403
20
76.8510399
40
0.5720313
50
89.660664
51
101.3702276
0
ARC
8
DEFAULT_255_1_388
10
22.8215012
20
76.8579263
40
0.5651495
50
78.2172678
51
90.412935
0
ARC
8
DEFAULT_255_1_388
10
22.8614478
20
77.0406511
40
0.378122
50
55.9269121
51
78.4888449
0
ARC
8
DEFAULT_255_1_388
10
22.8835193
20
77.0787187
40
0.3342379
50
47.929771
51
55.4049217
0
ARC
8
DEFAULT_255_1_388
10
22.8949723
20
77.0903618
40
0.3179217
50
4.334829
51
48.0560205
0
ARC
8
DEFAULT_255_1_388
10
22.7717525
20
77.0712487
40
0.442341
50
359.9251713
51
5.5971671
0
ARC
8
DEFAULT_255_1_388
10
22.819968
20
77.0775728
40
0.3941854
50
337.8914027
51
358.9967534
0
ARC
8
DEFAULT_255_1_388
10
22.514725
20
77.1953295
40
0.7213271
50
326.9132501
51
338.3508308
0
ARC
8
DEFAULT_255_1_388
10
22.0663362
20
77.4827105
40
1.2538973
50
319.6471833
51
327.0959558
0
ARC
8
DEFAULT_255_1_388
10
21.635002
20
77.838505
40
1.8129975
50
317.2588228
51
319.9045804
0
LINE
8
DEFAULT_255_1_388
10
24.2884311
20
76.5068468
11
24.462819
21
76.5068468
0
LINE
8
DEFAULT_255_1_388
10
23.4499233
20
76.6857525
11
23.4499233
21
76.8122516
0
LINE
8
DEFAULT_255_1_388
10
24.462819
20
76.9821217
11
24.2884311
21
76.9821217
0
LINE
8
DEFAULT_255_1_388
10
23.6243112
20
76.8077337
11
23.6243112
21
76.6803312
0
ARC
8
DEFAULT_255_1_388
10
23.8462424
20
76.5740329
40
0.6202263
50
340.1774904
51
353.7812217
0
ARC
8
DEFAULT_255_1_388
10
24.0230277
20
76.5081893
40
0.4315926
50
311.4560052
51
340.4420756
0
ARC
8
DEFAULT_255_1_388
10
24.0192817
20
76.5206665
40
0.4434573
50
282.4332229
51
310.7514507
0
ARC
8
DEFAULT_255_1_388
10
23.9698635
20
76.7248703
40
0.6535262
50
269.9358869
51
282.8096729
0
ARC
8
DEFAULT_255_1_388
10
23.9640574
20
76.8761329
40
0.8048043
50
269.9995752
51
270.3612856
0
ARC
8
DEFAULT_255_1_388
10
23.9581064
20
76.5962781
40
0.5249831
50
250.7885263
51
270.6488451
0
ARC
8
DEFAULT_255_1_388
10
23.9391889
20
76.5245853
40
0.4510942
50
219.3628377
51
250.0611024
0
ARC
8
DEFAULT_255_1_388
10
24.0324763
20
76.6038653
40
0.5735046
50
193.5480293
51
219.5755675
0
ARC
8
DEFAULT_255_1_388
10
24.2992972
20
76.673152
40
0.849146
50
181.1220183
51
193.8754971
0
ARC
8
DEFAULT_255_1_388
10
24.5316206
20
76.6855914
40
1.0816971
50
179.9914644
51
181.5398227
0
ARC
8
DEFAULT_255_1_388
10
24.3239516
20
76.8164586
40
0.8740384
50
169.5837606
51
180.275782
0
ARC
8
DEFAULT_255_1_388
10
24.1172864
20
76.8546439
40
0.6638751
50
155.0367033
51
169.6002779
0
ARC
8
DEFAULT_255_1_388
10
23.9895322
20
76.9162336
40
0.5220662
50
136.7831557
51
155.2472983
0
ARC
8
DEFAULT_255_1_388
10
23.9457113
20
76.9534577
40
0.4646502
50
121.7633063
51
136.4281161
0
ARC
8
DEFAULT_255_1_388
10
23.9608953
20
76.9254049
40
0.4964979
50
95.6460018
51
121.5489589
0
ARC
8
DEFAULT_255_1_388
10
23.9785927
20
76.8006704
40
0.6223912
50
89.9245727
51
96.1375919
0
ARC
8
DEFAULT_255_1_388
10
23.9842632
20
76.8140721
40
0.6090084
50
76.6779212
51
90.456405
0
ARC
8
DEFAULT_255_1_388
10
24.0285445
20
76.993006
40
0.42469
50
47.4858803
51
76.9287069
0
ARC
8
DEFAULT_255_1_388
10
24.0120059
20
76.9817623
40
0.4441778
50
16.5424081
51
46.8934505
0
ARC
8
DEFAULT_255_1_388
10
23.8311109
20
76.9223265
40
0.6345318
50
5.4072971
51
17.0363711
0
ARC
8
DEFAULT_255_1_388
10
23.6692834
20
76.8963304
40
0.6250632
50
7.8888693
51
15.9242022
0
ARC
8
DEFAULT_255_1_388
10
23.8927819
20
76.9612309
40
0.3923364
50
15.7650676
51
27.9410069
0
ARC
8
DEFAULT_255_1_388
10
24.0169989
20
77.0277317
40
0.2514401
50
27.8167196
51
46.4007942
0
ARC
8
DEFAULT_255_1_388
10
24.022583
20
77.0270882
40
0.2480958
50
47.4372362
51
75.0695672
0
ARC
8
DEFAULT_255_1_388
10
23.9878666
20
76.9062277
40
0.3738281
50
74.7009379
51
87.8124314
0
ARC
8
DEFAULT_255_1_388
10
23.9796283
20
76.7878659
40
0.4924321
50
87.3802571
51
90.0251599
0
ARC
8
DEFAULT_255_1_388
10
23.975293
20
76.9198997
40
0.3604218
50
89.3451886
51
108.5744412
0
ARC
8
DEFAULT_255_1_388
10
23.9598922
20
76.9776836
40
0.3007661
50
109.2998307
51
143.3037387
0
ARC
8
DEFAULT_255_1_388
10
24.0456212
20
76.9117584
40
0.4089031
50
143.075267
51
163.1918576
0
ARC
8
DEFAULT_255_1_388
10
24.2652047
20
76.8424652
40
0.6391492
50
162.9375929
51
174.6208776
0
ARC
8
DEFAULT_255_1_388
10
24.5606428
20
76.8100711
40
0.9363344
50
174.342123
51
180.1430283
0
ARC
8
DEFAULT_255_1_388
10
24.455897
20
76.6757117
40
0.8315986
50
179.6817261
51
189.150555
0
ARC
8
DEFAULT_255_1_388
10
24.1745719
20
76.6288559
40
0.5464044
50
188.9911061
51
203.5772363
0
ARC
8
DEFAULT_255_1_388
10
24.053101
20
76.5784539
40
0.4149206
50
203.9075402
51
215.1312435
0
ARC
8
DEFAULT_255_1_388
10
23.9492808
20
76.4979907
40
0.2837747
50
213.9071511
51
263.8848919
0
ARC
8
DEFAULT_255_1_388
10
23.9633801
20
76.5862519
40
0.3730641
50
263.1757928
51
270.1031044
0
ARC
8
DEFAULT_255_1_388
10
23.9669881
20
76.7265511
40
0.5133712
50
269.6722503
51
279.0606936
0
ARC
8
DEFAULT_255_1_388
10
23.9970036
20
76.545115
40
0.3294739
50
278.8749101
51
293.6349581
0
ARC
8
DEFAULT_255_1_388
10
24.033024
20
76.4605251
40
0.2375405
50
293.8553806
51
310.0518171
0
ARC
8
DEFAULT_255_1_388
10
24.0335749
20
76.4535021
40
0.2318463
50
311.0644687
51
332.0111037
0
ARC
8
DEFAULT_255_1_388
10
23.8994422
20
76.5274702
40
0.3850112
50
331.6586806
51
343.2877423
0
ARC
8
DEFAULT_255_1_388
10
23.6673888
20
76.5987806
40
0.6277712
50
343.1446576
51
351.0103568
0
ARC
8
DEFAULT_255_1_388
10
23.5041211
20
76.6287873
40
0.7937327
50
350.71248
51
351.1626997
0
LINE
8
DEFAULT_255_1_388
10
22.5277376
20
85.3424898
11
22.869285
21
84.6819842
0
LINE
8
DEFAULT_255_1_388
10
22.869285
20
84.6819842
11
23.2126395
21
85.3424898
0
LINE
8
DEFAULT_255_1_388
10
23.2126395
20
85.3424898
11
23.4096166
21
85.3424898
0
LINE
8
DEFAULT_255_1_388
10
23.4096166
20
85.3424898
11
22.9560272
21
84.5175355
0
LINE
8
DEFAULT_255_1_388
10
22.9560272
20
84.5175355
11
22.9560272
21
84.0269
0
LINE
8
DEFAULT_255_1_388
10
22.9560272
20
84.0269
11
22.7825428
21
84.0269
0
LINE
8
DEFAULT_255_1_388
10
22.7825428
20
84.0269
11
22.7825428
21
84.5175355
0
LINE
8
DEFAULT_255_1_388
10
22.7825428
20
84.5175355
11
22.3289535
21
85.3424898
0
LINE
8
DEFAULT_255_1_388
10
22.3289535
20
85.3424898
11
22.5277376
21
85.3424898
0
LINE
8
DEFAULT_255_1_388
10
23.7791744
20
84.6295775
11
23.7791744
21
84.7660157
0
LINE
8
DEFAULT_255_1_388
10
23.7791744
20
84.7660157
11
23.9047699
21
84.7660157
0
LINE
8
DEFAULT_255_1_388
10
23.6906251
20
84.9973282
11
23.5234657
21
84.9973282
0
LINE
8
DEFAULT_255_1_388
10
23.5117193
20
84.3738688
11
23.6797823
21
84.3738688
0
LINE
8
DEFAULT_255_1_388
10
23.9047699
20
84.6295775
11
23.7791744
21
84.6295775
0
ARC
8
DEFAULT_255_1_388
10
23.9014925
20
85.1476922
40
0.3816905
50
270.491971
51
281.8953028
0
ARC
8
DEFAULT_255_1_388
10
23.9286352
20
85.0237199
40
0.2547877
50
281.6690378
51
301.2943765
0
ARC
8
DEFAULT_255_1_388
10
23.9477803
20
84.9886926
40
0.2149197
50
301.7834992
51
311.754567
0
ARC
8
DEFAULT_255_1_388
10
23.9580845
20
84.977265
40
0.1995326
50
311.7325027
51
354.2803031
0
ARC
8
DEFAULT_255_1_388
10
23.8763261
20
84.991328
40
0.2823461
50
353.0941646
51
0.1174696
0
ARC
8
DEFAULT_255_1_388
10
23.8244819
20
84.9966874
40
0.3342238
50
359.1804452
51
15.0452323
0
ARC
8
DEFAULT_255_1_388
10
23.9758877
20
85.0408546
40
0.1765747
50
13.957816
51
77.6713812
0
ARC
8
DEFAULT_255_1_388
10
23.9324113
20
84.8850464
40
0.3381982
50
76.111571
51
90.7028736
0
ARC
8
DEFAULT_255_1_388
10
23.9257525
20
84.915825
40
0.3074046
50
89.5321574
51
103.5319393
0
ARC
8
DEFAULT_255_1_388
10
23.9031909
20
85.0057443
40
0.2147041
50
103.2930114
51
133.5619756
0
ARC
8
DEFAULT_255_1_388
10
23.898185
20
85.0124351
40
0.2064084
50
133.8349761
51
173.5343225
0
ARC
8
DEFAULT_255_1_388
10
23.9795508
20
84.9980144
40
0.2889266
50
172.5097183
51
180.1360699
0
ARC
8
DEFAULT_255_1_388
10
23.8725272
20
85.001888
40
0.3490913
50
155.3483706
51
180.7484035
0
ARC
8
DEFAULT_255_1_388
10
23.8670247
20
84.9986519
40
0.3454798
50
131.5745177
51
154.4799474
0
ARC
8
DEFAULT_255_1_388
10
23.902253
20
84.9630422
40
0.3955058
50
96.9874487
51
131.9690874
0
ARC
8
DEFAULT_255_1_388
10
23.9269422
20
84.8229407
40
0.537622
50
89.8592909
51
97.7827481
0
ARC
8
DEFAULT_255_1_388
10
23.9323531
20
84.793436
40
0.5671399
50
78.3654493
51
90.4132586
0
ARC
8
DEFAULT_255_1_388
10
23.9726173
20
84.9800918
40
0.3762034
50
56.6229818
51
78.6387103
0
ARC
8
DEFAULT_255_1_388
10
23.9968002
20
85.0223846
40
0.3275964
50
47.0254604
51
56.085558
0
ARC
8
DEFAULT_255_1_388
10
23.9990253
20
85.0268189
40
0.3228382
50
10.9207523
51
46.777927
0
ARC
8
DEFAULT_255_1_388
10
23.8455847
20
84.9913401
40
0.4802559
50
359.6364235
51
11.6087615
0
ARC
8
DEFAULT_255_1_388
10
24.0520012
20
84.9896404
40
0.273833
50
332.3549969
51
359.7179765
0
ARC
8
DEFAULT_255_1_388
10
23.9788413
20
85.0243285
40
0.3547505
50
325.2332381
51
332.8746682
0
ARC
8
DEFAULT_255_1_388
10
23.9959996
20
85.0123763
40
0.3338396
50
292.9803892
51
325.2391113
0
ARC
8
DEFAULT_255_1_388
10
23.9649192
20
85.0728679
40
0.4016959
50
292.542178
51
293.6931461
0
ARC
8
DEFAULT_255_1_388
10
24.0092764
20
84.3463036
40
0.372079
50
57.643292
51
72.8626085
0
ARC
8
DEFAULT_255_1_388
10
24.0491598
20
84.4109273
40
0.2961455
50
36.7246661
51
57.4701329
0
ARC
8
DEFAULT_255_1_388
10
24.0478755
20
84.412347
40
0.2963321
50
8.054535
51
36.3561529
0
ARC
8
DEFAULT_255_1_388
10
23.9508428
20
84.3949073
40
0.3948682
50
359.8316595
51
8.5873361
0
ARC
8
DEFAULT_255_1_388
10
23.9085902
20
84.389497
40
0.4371398
50
343.9831631
51
0.557075
0
ARC
8
DEFAULT_255_1_388
10
24.0082951
20
84.3621963
40
0.3337749
50
311.6358204
51
343.7652116
0
ARC
8
DEFAULT_255_1_388
10
23.9657205
20
84.4101955
40
0.3979351
50
279.7829743
51
311.625622
0
ARC
8
DEFAULT_255_1_388
10
23.931834
20
84.5718642
40
0.5630417
50
269.7285092
51
280.3857694
0
ARC
8
DEFAULT_255_1_388
10
23.9248653
20
84.5672241
40
0.5584119
50
256.6827433
51
270.4412869
0
ARC
8
DEFAULT_255_1_388
10
23.886764
20
84.4114698
40
0.3980715
50
229.4223821
51
256.8554507
0
ARC
8
DEFAULT_255_1_388
10
23.8401193
20
84.3589683
40
0.3278564
50
181.8183354
51
229.6455015
0
ARC
8
DEFAULT_255_1_388
10
23.9570803
20
84.3736825
40
0.4453611
50
179.9760419
51
183.2330638
0
ARC
8
DEFAULT_255_1_388
10
23.9377355
20
84.3713781
40
0.2579652
50
179.4467996
51
196.2871626
0
ARC
8
DEFAULT_255_1_388
10
23.8828809
20
84.3563709
40
0.2011057
50
196.5661293
51
227.7059371
0
ARC
8
DEFAULT_255_1_388
10
23.9013416
20
84.3770155
40
0.2287994
50
227.7653015
51
257.8763321
0
ARC
8
DEFAULT_255_1_388
10
23.9266499
20
84.4830961
40
0.3378385
50
257.4583525
51
270.4267406
0
ARC
8
DEFAULT_255_1_388
10
23.9317749
20
84.515723
40
0.3704652
50
269.5965319
51
280.8788143
0
ARC
8
DEFAULT_255_1_388
10
23.9575977
20
84.3867529
40
0.2389415
50
280.6347277
51
299.8594068
0
ARC
8
DEFAULT_255_1_388
10
23.9790746
20
84.3459736
40
0.19289
50
300.3575552
51
314.5515667
0
ARC
8
DEFAULT_255_1_388
10
23.9697422
20
84.3528025
40
0.204312
50
315.0730962
51
345.0429362
0
ARC
8
DEFAULT_255_1_388
10
23.8658929
20
84.3830539
40
0.31246
50
344.598526
51
357.9270698
0
ARC
8
DEFAULT_255_1_388
10
23.7649234
20
84.3899705
40
0.4136265
50
357.4755098
51
0.0224936
0
ARC
8
DEFAULT_255_1_388
10
23.8802112
20
84.3927099
40
0.2983498
50
359.5051035
51
13.4236939
0
ARC
8
DEFAULT_255_1_388
10
23.9777202
20
84.4176637
40
0.1977186
50
12.9497905
51
48.7550905
0
ARC
8
DEFAULT_255_1_388
10
23.9572124
20
84.3896373
40
0.2323321
50
49.509109
51
72.1832965
0
ARC
8
DEFAULT_255_1_388
10
23.9169592
20
84.2701632
40
0.358397
50
71.9008458
51
84.3555134
0
ARC
8
DEFAULT_255_1_388
10
23.8987987
20
84.1169712
40
0.512641
50
84.019632
51
89.3326067
0
LINE
8
DEFAULT_255_1_388
10
22.5277376
20
93.2799898
11
22.869285
21
92.6194842
0
LINE
8
DEFAULT_255_1_388
10
22.869285
20
92.6194842
11
23.2126395
21
93.2799898
0
LINE
8
DEFAULT_255_1_388
10
23.2126395
20
93.2799898
11
23.4096166
21
93.2799898
0
LINE
8
DEFAULT_255_1_388
10
23.4096166
20
93.2799898
11
22.9560272
21
92.4550355
0
LINE
8
DEFAULT_255_1_388
10
22.9560272
20
92.4550355
11
22.9560272
21
91.9644
0
LINE
8
DEFAULT_255_1_388
10
22.9560272
20
91.9644
11
22.7825428
21
91.9644
0
LINE
8
DEFAULT_255_1_388
10
22.7825428
20
91.9644
11
22.7825428
21
92.4550355
0
LINE
8
DEFAULT_255_1_388
10
22.7825428
20
92.4550355
11
22.3289535
21
93.2799898
0
LINE
8
DEFAULT_255_1_388
10
22.3289535
20
93.2799898
11
22.5277376
21
93.2799898
0
LINE
8
DEFAULT_255_1_388
10
24.3981161
20
92.1008382
11
24.3981161
21
91.9644
0
LINE
8
DEFAULT_255_1_388
10
24.3981161
20
91.9644
11
23.5361156
21
91.9644
0
LINE
8
DEFAULT_255_1_388
10
23.5361156
20
91.9644
11
23.5361156
21
92.0845741
0
LINE
8
DEFAULT_255_1_388
10
23.5361156
20
92.0845741
11
23.9915121
21
92.5905702
0
LINE
8
DEFAULT_255_1_388
10
23.6779752
20
92.8923607
11
23.5108158
21
92.8923607
0
LINE
8
DEFAULT_255_1_388
10
24.0900006
20
92.483046
11
23.7376104
21
92.1008382
0
LINE
8
DEFAULT_255_1_388
10
23.7376104
20
92.1008382
11
24.3981161
21
92.1008382
0
ARC
8
DEFAULT_255_1_388
10
22.473918
20
93.9325983
40
2.0258655
50
318.5132526
51
320.7829045
0
ARC
8
DEFAULT_255_1_388
10
23.0687137
20
93.4484929
40
1.2589638
50
320.7372878
51
323.9739031
0
ARC
8
DEFAULT_255_1_388
10
23.5096069
20
93.1290554
40
0.7145141
50
323.8962701
51
328.64194
0
ARC
8
DEFAULT_255_1_388
10
23.7398326
20
92.9870545
40
0.4440242
50
328.8294576
51
331.7891185
0
ARC
8
DEFAULT_255_1_388
10
23.8520646
20
92.9291374
40
0.3177517
50
331.4254512
51
352.9365785
0
ARC
8
DEFAULT_255_1_388
10
23.8673646
20
92.925705
40
0.3021496
50
353.2257659
51
0.0166158
0
ARC
8
DEFAULT_255_1_388
10
23.8910407
20
92.9282894
40
0.2784847
50
359.486299
51
15.9343185
0
ARC
8
DEFAULT_255_1_388
10
23.9480674
20
92.9436269
40
0.2194403
50
16.1712913
51
43.5286088
0
ARC
8
DEFAULT_255_1_388
10
23.9567618
20
92.9523191
40
0.2071504
50
43.4417391
51
83.1661095
0
ARC
8
DEFAULT_255_1_388
10
23.9416779
20
92.8694316
40
0.2912888
50
82.160179
51
90.1505708
0
ARC
8
DEFAULT_255_1_388
10
23.9381261
20
92.8090279
40
0.3517025
50
89.5460741
51
102.5418361
0
ARC
8
DEFAULT_255_1_388
10
23.9107981
20
92.9249933
40
0.2325748
50
102.1738499
51
129.206123
0
ARC
8
DEFAULT_255_1_388
10
23.9019434
20
92.9389664
40
0.2161591
50
129.72865
51
135.753947
0
ARC
8
DEFAULT_255_1_388
10
23.9155917
20
92.9280728
40
0.2335433
50
136.1757367
51
166.3673339
0
ARC
8
DEFAULT_255_1_388
10
24.0288605
20
92.8977148
40
0.3507873
50
165.9090694
51
178.8684636
0
ARC
8
DEFAULT_255_1_388
10
24.1264377
20
92.8924263
40
0.4484624
50
178.4391136
51
180.0083808
0
ARC
8
DEFAULT_255_1_388
10
23.9685078
20
92.8968197
40
0.4577138
50
163.2878482
51
180.5581842
0
ARC
8
DEFAULT_255_1_388
10
23.8783119
20
92.9216393
40
0.3641968
50
133.4540601
51
162.947111
0
ARC
8
DEFAULT_255_1_388
10
23.8984001
20
92.9002789
40
0.3935189
50
100.7869829
51
133.4382499
0
ARC
8
DEFAULT_255_1_388
10
23.9375246
20
92.7260399
40
0.5720313
50
89.660664
51
101.3702276
0
ARC
8
DEFAULT_255_1_388
10
23.9449855
20
92.7329263
40
0.5651495
50
78.2172678
51
90.412935
0
ARC
8
DEFAULT_255_1_388
10
23.9849321
20
92.9156511
40
0.378122
50
55.9269121
51
78.4888449
0
ARC
8
DEFAULT_255_1_388
10
24.0070036
20
92.9537187
40
0.3342379
50
47.929771
51
55.4049217
0
ARC
8
DEFAULT_255_1_388
10
24.0184566
20
92.9653618
40
0.3179217
50
4.334829
51
48.0560205
0
ARC
8
DEFAULT_255_1_388
10
23.8952368
20
92.9462487
40
0.442341
50
359.9251713
51
5.5971671
0
ARC
8
DEFAULT_255_1_388
10
23.9434522
20
92.9525728
40
0.3941854
50
337.8914027
51
358.9967534
0
ARC
8
DEFAULT_255_1_388
10
23.6382093
20
93.0703295
40
0.7213271
50
326.9132501
51
338.3508308
0
ARC
8
DEFAULT_255_1_388
10
23.1898204
20
93.3577105
40
1.2538973
50
319.6471833
51
327.0959558
0
ARC
8
DEFAULT_255_1_388
10
22.7584863
20
93.713505
40
1.8129975
50
317.2588228
51
319.9045804
0
LINE
8
DEFAULT_255_1_388
10
22.5360376
20
101.2174898
11
22.877585
21
100.5569842
0
LINE
8
DEFAULT_255_1_388
10
22.877585
20
100.5569842
11
23.2209395
21
101.2174898
0
LINE
8
DEFAULT_255_1_388
10
23.2209395
20
101.2174898
11
23.4179166
21
101.2174898
0
LINE
8
DEFAULT_255_1_388
10
23.4179166
20
101.2174898
11
22.9643272
21
100.3925355
0
LINE
8
DEFAULT_255_1_388
10
22.9643272
20
100.3925355
11
22.9643272
21
99.9019
0
LINE
8
DEFAULT_255_1_388
10
22.9643272
20
99.9019
11
22.7908428
21
99.9019
0
LINE
8
DEFAULT_255_1_388
10
22.7908428
20
99.9019
11
22.7908428
21
100.3925355
0
LINE
8
DEFAULT_255_1_388
10
22.7908428
20
100.3925355
11
22.3372535
21
101.2174898
0
LINE
8
DEFAULT_255_1_388
10
22.3372535
20
101.2174898
11
22.5360376
21
101.2174898
0
LINE
8
DEFAULT_255_1_388
10
24.0937828
20
101.2238148
11
24.0937828
21
99.9019
0
LINE
8
DEFAULT_255_1_388
10
24.0937828
20
99.9019
11
23.9257198
21
99.9019
0
LINE
8
DEFAULT_255_1_388
10
23.9257198
20
99.9019
11
23.9257198
21
101.015995
0
LINE
8
DEFAULT_255_1_388
10
23.9257198
20
101.015995
11
23.5886902
21
100.8922066
0
LINE
8
DEFAULT_255_1_388
10
23.5886902
20
100.8922066
11
23.5886902
21
101.0440055
0
LINE
8
DEFAULT_255_1_388
10
23.5886902
20
101.0440055
11
24.0675794
21
101.2238148
0
LINE
8
DEFAULT_255_1_388
10
24.0675794
20
101.2238148
11
24.0937828
21
101.2238148
0
LINE
8
DEFAULT_255_1_388
10
22.5277376
20
109.1549898
11
22.869285
21
108.4944842
0
LINE
8
DEFAULT_255_1_388
10
22.869285
20
108.4944842
11
23.2126395
21
109.1549898
0
LINE
8
DEFAULT_255_1_388
10
23.2126395
20
109.1549898
11
23.4096166
21
109.1549898
0
LINE
8
DEFAULT_255_1_388
10
23.4096166
20
109.1549898
11
22.9560272
21
108.3300355
0
LINE
8
DEFAULT_255_1_388
10
22.9560272
20
108.3300355
11
22.9560272
21
107.8394
0
LINE
8
DEFAULT_255_1_388
10
22.9560272
20
107.8394
11
22.7825428
21
107.8394
0
LINE
8
DEFAULT_255_1_388
10
22.7825428
20
107.8394
11
22.7825428
21
108.3300355
0
LINE
8
DEFAULT_255_1_388
10
22.7825428
20
108.3300355
11
22.3289535
21
109.1549898
0
LINE
8
DEFAULT_255_1_388
10
22.3289535
20
109.1549898
11
22.5277376
21
109.1549898
0
LINE
8
DEFAULT_255_1_388
10
24.3610699
20
108.617369
11
24.3610699
21
108.4005135
0
LINE
8
DEFAULT_255_1_388
10
23.5306942
20
108.3779244
11
23.5306942
21
108.6011048
0
LINE
8
DEFAULT_255_1_388
10
24.1939105
20
108.3553353
11
24.1939105
21
108.6291153
0
LINE
8
DEFAULT_255_1_388
10
23.6978536
20
108.6417652
11
23.6978536
21
108.3743102
0
ARC
8
DEFAULT_255_1_388
10
22.9833033
20
108.3950118
40
1.3777776
50
353.8440855
51
0.2287917
0
ARC
8
DEFAULT_255_1_388
10
23.5052051
20
108.3367414
40
0.852639
50
344.4934746
51
353.9763743
0
ARC
8
DEFAULT_255_1_388
10
23.8418858
20
108.2410191
40
0.5026273
50
329.2803599
51
344.7473406
0
ARC
8
DEFAULT_255_1_388
10
23.9534354
20
108.1798038
40
0.3754848
50
324.9361395
51
328.6153007
0
ARC
8
DEFAULT_255_1_388
10
23.9960003
20
108.1500586
40
0.3235566
50
280.5801797
51
324.9173226
0
ARC
8
DEFAULT_255_1_388
10
23.9508632
20
108.3380236
40
0.5167077
50
269.5979457
51
281.6732777
0
ARC
8
DEFAULT_255_1_388
10
23.9427535
20
108.3245113
40
0.5032026
50
256.6228565
51
270.5105488
0
ARC
8
DEFAULT_255_1_388
10
23.8975278
20
108.1503345
40
0.3233092
50
215.8618351
51
257.2787793
0
ARC
8
DEFAULT_255_1_388
10
24.0123985
20
108.2274106
40
0.4615831
50
197.9695203
51
215.2622745
0
ARC
8
DEFAULT_255_1_388
10
24.2919661
20
108.3217641
40
0.7566307
50
187.8816486
51
198.2346584
0
ARC
8
DEFAULT_255_1_388
10
24.7372899
20
108.3860453
40
1.2065653
50
180.8977266
51
188.0054894
0
ARC
8
DEFAULT_255_1_388
10
25.0423113
20
108.39754
40
1.5117443
50
180.7434591
51
181.152202
0
ARC
8
DEFAULT_255_1_388
10
24.8748109
20
108.6065371
40
1.3441277
50
173.7674302
51
180.2315596
0
ARC
8
DEFAULT_255_1_388
10
24.3665978
20
108.6639779
40
0.8326847
50
164.3058537
51
173.9000553
0
ARC
8
DEFAULT_255_1_388
10
24.0389978
20
108.7583652
40
0.4917711
50
148.7922028
51
164.5682288
0
ARC
8
DEFAULT_255_1_388
10
23.9320715
20
108.8180457
40
0.3694204
50
144.5883979
51
148.1161588
0
ARC
8
DEFAULT_255_1_388
10
23.893346
20
108.8450667
40
0.322202
50
101.6440149
51
144.5142619
0
ARC
8
DEFAULT_255_1_388
10
23.9411653
20
108.6550337
40
0.5180451
50
89.528284
51
102.5820197
0
ARC
8
DEFAULT_255_1_388
10
23.9500645
20
108.6506376
40
0.5224441
50
77.0437914
51
90.508231
0
ARC
8
DEFAULT_255_1_388
10
23.9952898
20
108.8354272
40
0.3322297
50
48.2777708
51
77.4996087
0
ARC
8
DEFAULT_255_1_388
10
24.0034638
20
108.8499557
40
0.315966
50
36.3141586
51
47.6307332
0
ARC
8
DEFAULT_255_1_388
10
23.905736
20
108.7841159
40
0.4337313
50
18.2931065
51
35.6770203
0
ARC
8
DEFAULT_255_1_388
10
23.6196201
20
108.6859107
40
0.7362203
50
8.0246996
51
18.5605636
0
ARC
8
DEFAULT_255_1_388
10
23.1512557
20
108.6167432
40
1.2096583
50
1.127539
51
8.1718423
0
ARC
8
DEFAULT_255_1_388
10
22.786369
20
108.6024374
40
1.5747719
50
0.5432713
51
1.38669
0
ARC
8
DEFAULT_255_1_388
10
22.9921069
20
108.6331163
40
1.2018103
50
359.8092569
51
4.9408001
0
ARC
8
DEFAULT_255_1_388
10
23.465765
20
108.67539
40
0.7262727
50
4.8364937
51
12.2906017
0
ARC
8
DEFAULT_255_1_388
10
23.7757115
20
108.7444485
40
0.4087324
50
12.0806994
51
23.8171225
0
ARC
8
DEFAULT_255_1_388
10
23.9077511
20
108.8003508
40
0.2653719
50
24.2874621
51
31.3934353
0
ARC
8
DEFAULT_255_1_388
10
23.9667947
20
108.8389822
40
0.1948607
50
30.7407708
51
82.4658033
0
ARC
8
DEFAULT_255_1_388
10
23.9465608
20
108.7396017
40
0.2961198
50
81.1057101
51
90.2187368
0
ARC
8
DEFAULT_255_1_388
10
23.9425419
20
108.7686421
40
0.2670929
50
89.380395
51
105.6763916
0
ARC
8
DEFAULT_255_1_388
10
23.9219141
20
108.843632
40
0.1893189
50
105.7980655
51
149.7387869
0
ARC
8
DEFAULT_255_1_388
10
24.0416282
20
108.7716719
40
0.3289892
50
149.4208441
51
163.628295
0
ARC
8
DEFAULT_255_1_388
10
24.2768511
20
108.6999345
40
0.5749004
50
163.3764549
51
172.141138
0
ARC
8
DEFAULT_255_1_388
10
24.6481233
20
108.6467582
40
0.9499585
50
172.0258462
51
178.0705453
0
ARC
8
DEFAULT_255_1_388
10
24.9902785
20
108.6305682
40
1.2924734
50
177.8639301
51
179.5036263
0
ARC
8
DEFAULT_255_1_388
10
24.8683804
20
108.3702151
40
1.170534
50
179.7995545
51
185.246089
0
ARC
8
DEFAULT_255_1_388
10
24.4135397
20
108.3271404
40
0.7136613
50
185.1411911
51
193.0082205
0
ARC
8
DEFAULT_255_1_388
10
24.1161658
20
108.2568441
40
0.4080987
50
192.7897338
51
205.2507384
0
ARC
8
DEFAULT_255_1_388
10
23.9983868
20
108.2042538
40
0.2791522
50
205.8001921
51
211.2545876
0
ARC
8
DEFAULT_255_1_388
10
23.9395407
20
108.1648132
40
0.2084074
50
210.3789935
51
238.4007996
0
ARC
8
DEFAULT_255_1_388
10
23.9373493
20
108.1700786
40
0.2117943
50
239.6521916
51
265.9793852
0
ARC
8
DEFAULT_255_1_388
10
23.9469342
20
108.2457358
40
0.2879689
50
265.1324455
51
270.0603288
0
ARC
8
DEFAULT_255_1_388
10
23.9501719
20
108.2092418
40
0.2514919
50
269.3314378
51
287.2180039
0
ARC
8
DEFAULT_255_1_388
10
23.9656801
20
108.1526291
40
0.1928357
50
287.7957942
51
329.0808983
0
ARC
8
DEFAULT_255_1_388
10
23.8579558
20
108.2198651
40
0.319808
50
328.6635261
51
343.3325043
0
ARC
8
DEFAULT_255_1_388
10
23.6135017
20
108.2960195
40
0.5758408
50
343.0498092
51
351.9392499
0
ARC
8
DEFAULT_255_1_388
10
23.2234338
20
108.3535205
40
0.9701202
50
351.8071632
51
357.7957897
0
ARC
8
DEFAULT_255_1_388
10
22.8599815
20
108.3723724
40
1.3340376
50
357.5870923
51
359.2682493
0
LINE
8
DEFAULT_255_1_388
10
22.9619985
20
117.0988148
11
22.9619985
21
115.7769
0
LINE
8
DEFAULT_255_1_388
10
22.9619985
20
115.7769
11
22.7939355
21
115.7769
0
LINE
8
DEFAULT_255_1_388
10
22.7939355
20
115.7769
11
22.7939355
21
116.890995
0
LINE
8
DEFAULT_255_1_388
10
22.7939355
20
116.890995
11
22.456906
21
116.7672066
0
LINE
8
DEFAULT_255_1_388
10
22.456906
20
116.7672066
11
22.456906
21
116.9190055
0
LINE
8
DEFAULT_255_1_388
10
22.456906
20
116.9190055
11
22.9357951
21
117.0988148
0
LINE
8
DEFAULT_255_1_388
10
22.9357951
20
117.0988148
11
22.9619985
21
117.0988148
0
LINE
8
DEFAULT_255_1_388
10
24.2884311
20
116.1943468
11
24.462819
21
116.1943468
0
LINE
8
DEFAULT_255_1_388
10
23.4499233
20
116.3732525
11
23.4499233
21
116.4997516
0
LINE
8
DEFAULT_255_1_388
10
24.462819
20
116.6696217
11
24.2884311
21
116.6696217
0
LINE
8
DEFAULT_255_1_388
10
23.6243112
20
116.4952337
11
23.6243112
21
116.3678312
0
ARC
8
DEFAULT_255_1_388
10
23.8462424
20
116.2615329
40
0.6202263
50
340.1774904
51
353.7812217
0
ARC
8
DEFAULT_255_1_388
10
24.0230277
20
116.1956893
40
0.4315926
50
311.4560052
51
340.4420756
0
ARC
8
DEFAULT_255_1_388
10
24.0192817
20
116.2081665
40
0.4434573
50
282.4332229
51
310.7514507
0
ARC
8
DEFAULT_255_1_388
10
23.9698635
20
116.4123703
40
0.6535262
50
269.9358869
51
282.8096729
0
ARC
8
DEFAULT_255_1_388
10
23.9640574
20
116.5636329
40
0.8048043
50
269.9995752
51
270.3612856
0
ARC
8
DEFAULT_255_1_388
10
23.9581064
20
116.2837781
40
0.5249831
50
250.7885263
51
270.6488451
0
ARC
8
DEFAULT_255_1_388
10
23.9391889
20
116.2120853
40
0.4510942
50
219.3628377
51
250.0611024
0
ARC
8
DEFAULT_255_1_388
10
24.0324763
20
116.2913653
40
0.5735046
50
193.5480293
51
219.5755675
0
ARC
8
DEFAULT_255_1_388
10
24.2992972
20
116.360652
40
0.849146
50
181.1220183
51
193.8754971
0
ARC
8
DEFAULT_255_1_388
10
24.5316206
20
116.3730914
40
1.0816971
50
179.9914644
51
181.5398227
0
ARC
8
DEFAULT_255_1_388
10
24.3239516
20
116.5039586
40
0.8740384
50
169.5837606
51
180.275782
0
ARC
8
DEFAULT_255_1_388
10
24.1172864
20
116.5421439
40
0.6638751
50
155.0367033
51
169.6002779
0
ARC
8
DEFAULT_255_1_388
10
23.9895322
20
116.6037336
40
0.5220662
50
136.7831557
51
155.2472983
0
ARC
8
DEFAULT_255_1_388
10
23.9457113
20
116.6409577
40
0.4646502
50
121.7633063
51
136.4281161
0
ARC
8
DEFAULT_255_1_388
10
23.9608953
20
116.6129049
40
0.4964979
50
95.6460018
51
121.5489589
0
ARC
8
DEFAULT_255_1_388
10
23.9785927
20
116.4881704
40
0.6223912
50
89.9245727
51
96.1375919
0
ARC
8
DEFAULT_255_1_388
10
23.9842632
20
116.5015721
40
0.6090084
50
76.6779212
51
90.456405
0
ARC
8
DEFAULT_255_1_388
10
24.0285445
20
116.680506
40
0.42469
50
47.4858803
51
76.9287069
0
ARC
8
DEFAULT_255_1_388
10
24.0120059
20
116.6692623
40
0.4441778
50
16.5424081
51
46.8934505
0
ARC
8
DEFAULT_255_1_388
10
23.8311109
20
116.6098265
40
0.6345318
50
5.4072971
51
17.0363711
0
ARC
8
DEFAULT_255_1_388
10
23.6692834
20
116.5838304
40
0.6250632
50
7.8888693
51
15.9242022
0
ARC
8
DEFAULT_255_1_388
10
23.8927819
20
116.6487309
40
0.3923364
50
15.7650676
51
27.9410069
0
ARC
8
DEFAULT_255_1_388
10
24.0169989
20
116.7152317
40
0.2514401
50
27.8167196
51
46.4007942
0
ARC
8
DEFAULT_255_1_388
10
24.022583
20
116.7145882
40
0.2480958
50
47.4372362
51
75.0695672
0
ARC
8
DEFAULT_255_1_388
10
23.9878666
20
116.5937277
40
0.3738281
50
74.7009379
51
87.8124314
0
ARC
8
DEFAULT_255_1_388
10
23.9796283
20
116.4753659
40
0.4924321
50
87.3802571
51
90.0251599
0
ARC
8
DEFAULT_255_1_388
10
23.975293
20
116.6073997
40
0.3604218
50
89.3451886
51
108.5744412
0
ARC
8
DEFAULT_255_1_388
10
23.9598922
20
116.6651836
40
0.3007661
50
109.2998307
51
143.3037387
0
ARC
8
DEFAULT_255_1_388
10
24.0456212
20
116.5992584
40
0.4089031
50
143.075267
51
163.1918576
0
ARC
8
DEFAULT_255_1_388
10
24.2652047
20
116.5299652
40
0.6391492
50
162.9375929
51
174.6208776
0
ARC
8
DEFAULT_255_1_388
10
24.5606428
20
116.4975711
40
0.9363344
50
174.342123
51
180.1430283
0
ARC
8
DEFAULT_255_1_388
10
24.455897
20
116.3632117
40
0.8315986
50
179.6817261
51
189.150555
0
ARC
8
DEFAULT_255_1_388
10
24.1745719
20
116.3163559
40
0.5464044
50
188.9911061
51
203.5772363
0
ARC
8
DEFAULT_255_1_388
10
24.053101
20
116.2659539
40
0.4149206
50
203.9075402
51
215.1312435
0
ARC
8
DEFAULT_255_1_388
10
23.9492808
20
116.1854907
40
0.2837747
50
213.9071511
51
263.8848919
0
ARC
8
DEFAULT_255_1_388
10
23.9633801
20
116.2737519
40
0.3730641
50
263.1757928
51
270.1031044
0
ARC
8
DEFAULT_255_1_388
10
23.9669881
20
116.4140511
40
0.5133712
50
269.6722503
51
279.0606936
0
ARC
8
DEFAULT_255_1_388
10
23.9970036
20
116.232615
40
0.3294739
50
278.8749101
51
293.6349581
0
ARC
8
DEFAULT_255_1_388
10
24.033024
20
116.1480251
40
0.2375405
50
293.8553806
51
310.0518171
0
ARC
8
DEFAULT_255_1_388
10
24.0335749
20
116.1410021
40
0.2318463
50
311.0644687
51
332.0111037
0
ARC
8
DEFAULT_255_1_388
10
23.8994422
20
116.2149702
40
0.3850112
50
331.6586806
51
343.2877423
0
ARC
8
DEFAULT_255_1_388
10
23.6673888
20
116.2862806
40
0.6277712
50
343.1446576
51
351.0103568
0
ARC
8
DEFAULT_255_1_388
10
23.5041211
20
116.3162873
40
0.7937327
50
350.71248
51
351.1626997
0
ENDSEC
0
EOF