0
SECTION
2
HEADER
9
$MEASUREMENT
70
1
0
ENDSEC
0
SECTION
2
TABLES
0
TABLE
2
LTYPE
0
LTYPE
72
65
70
64
2
CONTINUOUS
3
______
73
0
40
0
0
ENDTAB
0
TABLE
2
LAYER
0
LAYER
2
DEFAULT_255_2_778
70
0
62
255
6
CONTINUOUS
0
LAYER
2
DEFAULT_255_1_234
70
0
62
255
6
CONTINUOUS
0
ENDTAB
0
ENDSEC
0
SECTION
2
ENTITIES
0
ARC
8
DEFAULT_255_2_778
10
3.7023693
20
131.3676523
40
0.7914215
50
129.1312896
51
180.1450914
0
ARC
8
DEFAULT_255_2_778
10
3.7026345
20
131.3681394
40
0.7912112
50
89.854026
51
129.1684493
0
ARC
8
DEFAULT_255_2_778
10
25.9316937
20
131.3678259
40
0.7915249
50
39.4792447
51
90.147911
0
ARC
8
DEFAULT_255_2_778
10
25.9322935
20
131.3676726
40
0.7911595
50
359.8533901
51
39.5154338
0
ARC
8
DEFAULT_255_2_778
10
25.9319693
20
-1.9864
40
0.7914836
50
309.4761667
51
0.1482649
0
ARC
8
DEFAULT_255_2_778
10
25.931698
20
-1.9868311
40
0.7913235
50
269.8517415
51
309.511178
0
ARC
8
DEFAULT_255_2_778
10
3.702642
20
-1.9867729
40
0.7913815
50
219.1282118
51
270.1454017
0
ARC
8
DEFAULT_255_2_778
10
3.7023247
20
-1.9863904
40
0.7913769
50
179.8524075
51
219.1641908
0
LINE
8
DEFAULT_255_2_778
10
3.7046503
20
132.1593481
11
25.9296503
21
132.1593481
0
LINE
8
DEFAULT_255_2_778
10
26.7234503
20
131.3656481
11
26.7234503
21
-1.9843519
0
LINE
8
DEFAULT_255_2_778
10
25.9296503
20
-2.7781519
11
3.7046503
21
-2.7781519
0
LINE
8
DEFAULT_255_2_778
10
2.9109503
20
-1.9843519
11
2.9109503
21
131.3656481
0
LINE
8
DEFAULT_255_1_234
10
11.1810392
20
-0.6513
11
10.7754364
21
-0.6513
0
LINE
8
DEFAULT_255_1_234
10
10.7754364
20
-0.6513
11
10.7754364
21
0.5181211
0
LINE
8
DEFAULT_255_1_234
10
10.7754364
20
0.5181211
11
11.1577471
21
0.5181211
0
LINE
8
DEFAULT_255_1_234
10
11.1866614
20
-0.1043386
11
10.9296458
21
-0.1043386
0
LINE
8
DEFAULT_255_1_234
10
10.9296458
20
-0.1043386
11
10.9296458
21
-0.5252017
0
LINE
8
DEFAULT_255_1_234
10
10.9296458
20
-0.5252017
11
11.1842519
21
-0.5252017
0
LINE
8
DEFAULT_255_1_234
10
10.9296458
20
0.3912196
11
10.9296458
21
0.0193501
0
LINE
8
DEFAULT_255_1_234
10
10.9296458
20
0.0193501
11
11.1625662
21
0.0193501
0
LINE
8
DEFAULT_255_1_234
10
11.1577471
20
0.3912196
11
10.9296458
21
0.3912196
0
ARC
8
DEFAULT_255_1_234
10
11.161518
20
-0.2186099
40
0.7367406
50
82.1257326
51
90.2932599
0
ARC
8
DEFAULT_255_1_234
10
11.2004135
20
0.0532013
40
0.4621653
50
69.9044149
51
82.2857423
0
ARC
8
DEFAULT_255_1_234
10
11.2574813
20
0.2074637
40
0.2976871
50
51.1838526
51
70.0181538
0
ARC
8
DEFAULT_255_1_234
10
11.2829779
20
0.244524
40
0.2528517
50
12.1017251
51
50.4214761
0
ARC
8
DEFAULT_255_1_234
10
11.1445653
20
0.2097676
40
0.3955061
50
359.5251267
51
12.8211707
0
ARC
8
DEFAULT_255_1_234
10
11.3025579
20
0.2028344
40
0.2375281
50
323.4908128
51
0.8817314
0
ARC
8
DEFAULT_255_1_234
10
11.2607266
20
0.235155
40
0.2903817
50
298.6825083
51
323.2756573
0
ARC
8
DEFAULT_255_1_234
10
11.2245629
20
0.2952649
40
0.3604842
50
293.1999386
51
299.1396394
0
ARC
8
DEFAULT_255_1_234
10
11.2918602
20
-0.3132874
40
0.2871098
50
54.0011765
51
74.9167975
0
ARC
8
DEFAULT_255_1_234
10
11.3034961
20
-0.2935668
40
0.2643248
50
36.3580696
51
53.5291921
0
ARC
8
DEFAULT_255_1_234
10
11.2908203
20
-0.3026002
40
0.2798884
50
4.8189881
51
36.3089977
0
ARC
8
DEFAULT_255_1_234
10
11.2129038
20
-0.313573
40
0.358478
50
359.9370252
51
5.5204067
0
ARC
8
DEFAULT_255_1_234
10
11.180456
20
-0.3176333
40
0.3909429
50
344.7478609
51
0.5373281
0
ARC
8
DEFAULT_255_1_234
10
11.2795531
20
-0.3443456
40
0.2883093
50
311.1786488
51
344.6886812
0
ARC
8
DEFAULT_255_1_234
10
11.2503578
20
-0.3080013
40
0.3348923
50
286.0418249
51
310.8441291
0
ARC
8
DEFAULT_255_1_234
10
11.199641
20
-0.1433193
40
0.5071869
50
274.1042341
51
286.4071509
0
ARC
8
DEFAULT_255_1_234
10
11.1819666
20
0.0450229
40
0.6963234
50
269.9236873
51
274.445647
0
ARC
8
DEFAULT_255_1_234
10
11.1865667
20
-0.1889463
40
0.3362634
50
269.6055768
51
281.3740047
0
ARC
8
DEFAULT_255_1_234
10
11.2096305
20
-0.2982647
40
0.224546
50
281.1055983
51
302.5132223
0
ARC
8
DEFAULT_255_1_234
10
11.2243204
20
-0.3246177
40
0.1944357
50
303.0368945
51
311.8811219
0
ARC
8
DEFAULT_255_1_234
10
11.2314611
20
-0.333111
40
0.1833454
50
311.9916004
51
351.7143462
0
ARC
8
DEFAULT_255_1_234
10
11.1497841
20
-0.316607
40
0.2665871
50
350.7339597
51
0.2221581
0
ARC
8
DEFAULT_255_1_234
10
11.1390287
20
-0.3109533
40
0.2773789
50
359.0456241
51
17.2296242
0
ARC
8
DEFAULT_255_1_234
10
11.2429404
20
-0.2800837
40
0.1689915
50
17.6685481
51
78.9940892
0
ARC
8
DEFAULT_255_1_234
10
11.1912568
20
-0.4655776
40
0.3612658
50
76.5635957
51
90.6980921
0
LINE
8
DEFAULT_255_1_234
10
11.1868552
20
-0.1043387
11
11.1866614
21
-0.1043386
0
ARC
8
DEFAULT_255_1_234
10
11.1648228
20
0.3479036
40
0.3285612
50
269.6064736
51
281.4533503
0
ARC
8
DEFAULT_255_1_234
10
11.1871048
20
0.2427688
40
0.2210975
50
281.2041486
51
302.5148063
0
ARC
8
DEFAULT_255_1_234
10
11.2007898
20
0.2181241
40
0.1929674
50
303.021671
51
309.8369575
0
ARC
8
DEFAULT_255_1_234
10
11.2191359
20
0.1975488
40
0.1654181
50
309.5228395
51
356.9509836
0
ARC
8
DEFAULT_255_1_234
10
11.1527942
20
0.2070932
40
0.2322512
50
355.4701227
51
0.0492546
0
ARC
8
DEFAULT_255_1_234
10
11.1249033
20
0.2093094
40
0.2601498
50
359.5558597
51
11.2096359
0
ARC
8
DEFAULT_255_1_234
10
11.2206323
20
0.229123
40
0.1623975
50
10.9182341
51
31.3230275
0
ARC
8
DEFAULT_255_1_234
10
11.2492056
20
0.2450214
40
0.1297302
50
31.8852677
51
52.1412565
0
ARC
8
DEFAULT_255_1_234
10
11.2217789
20
0.206275
40
0.1771663
50
52.8285564
51
71.9850297
0
ARC
8
DEFAULT_255_1_234
10
11.1841965
20
0.0956664
40
0.2939794
50
71.6863486
51
82.8455995
0
ARC
8
DEFAULT_255_1_234
10
11.1602501
20
-0.0852851
40
0.476506
50
82.6984714
51
90.1729175
0
ARC
8
DEFAULT_255_1_234
10
11.1580136
20
0.0370623
40
0.3541573
50
89.8708275
51
90.0431131
0
LINE
8
DEFAULT_255_1_234
10
11.8990766
20
0.5181211
11
12.1809906
21
0.0699501
0
LINE
8
DEFAULT_255_1_234
10
12.1809906
20
0.0699501
11
12.4612982
21
0.5181211
0
LINE
8
DEFAULT_255_1_234
10
12.4612982
20
0.5181211
11
12.6428155
21
0.5181211
0
LINE
8
DEFAULT_255_1_234
10
12.6428155
20
0.5181211
11
12.2733556
21
-0.0617704
0
LINE
8
DEFAULT_255_1_234
10
12.2733556
20
-0.0617704
11
12.6516504
21
-0.6513
0
LINE
8
DEFAULT_255_1_234
10
12.6516504
20
-0.6513
11
12.4685268
21
-0.6513
0
LINE
8
DEFAULT_255_1_234
10
12.4685268
20
-0.6513
11
12.1809906
21
-0.1950973
0
LINE
8
DEFAULT_255_1_234
10
12.1809906
20
-0.1950973
11
11.891848
21
-0.6513
0
LINE
8
DEFAULT_255_1_234
10
11.891848
20
-0.6513
11
11.7095275
21
-0.6513
0
LINE
8
DEFAULT_255_1_234
10
11.7095275
20
-0.6513
11
12.0886256
21
-0.0617704
0
LINE
8
DEFAULT_255_1_234
10
12.0886256
20
-0.0617704
11
11.7183625
21
0.5181211
0
LINE
8
DEFAULT_255_1_234
10
11.7183625
20
0.5181211
11
11.8990766
21
0.5181211
0
LINE
8
DEFAULT_255_1_234
10
13.0797421
20
-0.0938974
11
13.0797421
21
-0.2151766
0
LINE
8
DEFAULT_255_1_234
10
13.0797421
20
-0.2151766
11
12.6877933
21
-0.2151766
0
LINE
8
DEFAULT_255_1_234
10
12.6877933
20
-0.2151766
11
12.6877933
21
-0.0938974
0
LINE
8
DEFAULT_255_1_234
10
12.6877933
20
-0.0938974
11
13.0797421
21
-0.0938974
0
LINE
8
DEFAULT_255_1_234
10
13.6973828
20
0.5237433
11
13.6973828
21
-0.6513
0
LINE
8
DEFAULT_255_1_234
10
13.6973828
20
-0.6513
11
13.5479924
21
-0.6513
0
LINE
8
DEFAULT_255_1_234
10
13.5479924
20
-0.6513
11
13.5479924
21
0.3390133
0
LINE
8
DEFAULT_255_1_234
10
13.5479924
20
0.3390133
11
13.2484086
21
0.2289785
0
LINE
8
DEFAULT_255_1_234
10
13.2484086
20
0.2289785
11
13.2484086
21
0.3639117
0
LINE
8
DEFAULT_255_1_234
10
13.2484086
20
0.3639117
11
13.6740907
21
0.5237433
0
LINE
8
DEFAULT_255_1_234
10
13.6740907
20
0.5237433
11
13.6973828
21
0.5237433
0
LINE
8
DEFAULT_255_1_234
10
14.8989308
20
-0.5300208
11
14.8989308
21
-0.6513
0
LINE
8
DEFAULT_255_1_234
10
14.8989308
20
-0.6513
11
14.132703
21
-0.6513
0
LINE
8
DEFAULT_255_1_234
10
14.132703
20
-0.6513
11
14.132703
21
-0.5444779
0
LINE
8
DEFAULT_255_1_234
10
14.132703
20
-0.5444779
11
14.5375026
21
-0.0947005
0
LINE
8
DEFAULT_255_1_234
10
14.2588013
20
0.1735595
11
14.1102141
21
0.1735595
0
LINE
8
DEFAULT_255_1_234
10
14.6250485
20
-0.1902782
11
14.3118107
21
-0.5300208
0
LINE
8
DEFAULT_255_1_234
10
14.3118107
20
-0.5300208
11
14.8989308
21
-0.5300208
0
ARC
8
DEFAULT_255_1_234
10
13.1884859
20
1.0982527
40
1.8008286
50
318.5132453
51
320.7828378
0
ARC
8
DEFAULT_255_1_234
10
13.7171834
20
0.6679426
40
1.1191493
50
320.7372736
51
323.9737074
0
ARC
8
DEFAULT_255_1_234
10
14.109169
20
0.3839361
40
0.6350923
50
323.8961724
51
328.6421089
0
ARC
8
DEFAULT_255_1_234
10
14.3138285
20
0.2577031
40
0.3946393
50
328.8299013
51
331.789948
0
ARC
8
DEFAULT_255_1_234
10
14.4135464
20
0.2062509
40
0.2824501
50
331.4255242
51
352.9364833
0
ARC
8
DEFAULT_255_1_234
10
14.4271965
20
0.2031976
40
0.2685315
50
353.2248685
51
0.0169286
0
ARC
8
DEFAULT_255_1_234
10
14.4481841
20
0.205495
40
0.2475536
50
359.4866256
51
15.9339782
0
ARC
8
DEFAULT_255_1_234
10
14.4988827
20
0.2191286
40
0.1950618
50
16.1714718
51
43.5284424
0
ARC
8
DEFAULT_255_1_234
10
14.5066135
20
0.2268573
40
0.184134
50
43.4415429
51
83.1661404
0
ARC
8
DEFAULT_255_1_234
10
14.4932053
20
0.1531771
40
0.258926
50
82.160215
51
90.1505798
0
ARC
8
DEFAULT_255_1_234
10
14.4900481
20
0.0994865
40
0.3126255
50
89.5460705
51
102.5418777
0
ARC
8
DEFAULT_255_1_234
10
14.4657567
20
0.2025665
40
0.2067346
50
102.1739365
51
129.2061916
0
ARC
8
DEFAULT_255_1_234
10
14.4578639
20
0.2150094
40
0.1921118
50
129.7279328
51
135.7542026
0
ARC
8
DEFAULT_255_1_234
10
14.4700166
20
0.2053045
40
0.2075944
50
136.175737
51
166.3674722
0
ARC
8
DEFAULT_255_1_234
10
14.5707086
20
0.1783182
40
0.3118201
50
165.9092917
51
178.8683903
0
ARC
8
DEFAULT_255_1_234
10
14.6571947
20
0.1736179
40
0.3983935
50
178.438168
51
180.0083905
0
ARC
8
DEFAULT_255_1_234
10
14.5170549
20
0.1775231
40
0.4068601
50
163.2878735
51
180.5581814
0
ARC
8
DEFAULT_255_1_234
10
14.436881
20
0.199584
40
0.3237344
50
133.454115
51
162.9470031
0
ARC
8
DEFAULT_255_1_234
10
14.4547352
20
0.1806
40
0.349795
50
100.7869394
51
133.4384016
0
ARC
8
DEFAULT_255_1_234
10
14.4895123
20
0.0257319
40
0.5084616
50
89.6605301
51
101.3704185
0
ARC
8
DEFAULT_255_1_234
10
14.4961462
20
0.0318496
40
0.502348
50
78.2171172
51
90.4130393
0
ARC
8
DEFAULT_255_1_234
10
14.531654
20
0.1942637
40
0.3361092
50
55.9268222
51
78.4888551
0
ARC
8
DEFAULT_255_1_234
10
14.551298
20
0.2281324
40
0.2970617
50
47.9292255
51
55.4054003
0
ARC
8
DEFAULT_255_1_234
10
14.5614541
20
0.2384502
40
0.2825983
50
4.3347696
51
48.0560701
0
ARC
8
DEFAULT_255_1_234
10
14.4518935
20
0.2214601
40
0.393225
50
359.925209
51
5.5967654
0
ARC
8
DEFAULT_255_1_234
10
14.4947826
20
0.2270816
40
0.3503892
50
337.8914096
51
358.9967724
0
ARC
8
DEFAULT_255_1_234
10
14.2234239
20
0.3317706
40
0.6412172
50
326.9135351
51
338.3505194
0
ARC
8
DEFAULT_255_1_234
10
13.8248542
20
0.5872284
40
1.1146189
50
319.6472867
51
327.095818
0
ARC
8
DEFAULT_255_1_234
10
13.4415545
20
0.9034
40
1.6114559
50
317.2586784
51
319.9046139
0
LINE
8
DEFAULT_255_1_234
10
15.9028981
20
0.5181211
11
15.9028981
21
0.3912196
0
LINE
8
DEFAULT_255_1_234
10
15.9028981
20
0.3912196
11
15.5270127
21
0.3912196
0
LINE
8
DEFAULT_255_1_234
10
15.5270127
20
0.3912196
11
15.5270127
21
-0.6513
0
LINE
8
DEFAULT_255_1_234
10
15.5270127
20
-0.6513
11
15.3736065
21
-0.6513
0
LINE
8
DEFAULT_255_1_234
10
15.3736065
20
-0.6513
11
15.3736065
21
0.3912196
0
LINE
8
DEFAULT_255_1_234
10
15.3736065
20
0.3912196
11
14.9985244
21
0.3912196
0
LINE
8
DEFAULT_255_1_234
10
14.9985244
20
0.3912196
11
14.9985244
21
0.5181211
0
LINE
8
DEFAULT_255_1_234
10
14.9985244
20
0.5181211
11
15.9028981
21
0.5181211
0
LINE
8
DEFAULT_255_1_234
10
16.4000627
20
-0.6513
11
16.0763836
21
-0.6513
0
LINE
8
DEFAULT_255_1_234
10
16.0763836
20
-0.6513
11
16.0763836
21
0.5181211
0
LINE
8
DEFAULT_255_1_234
10
16.0763836
20
0.5181211
11
16.4064881
21
0.5181211
0
LINE
8
DEFAULT_255_1_234
10
16.9221257
20
-0.0272339
11
16.9221257
21
-0.1019291
0
LINE
8
DEFAULT_255_1_234
10
16.410504
20
0.3912196
11
16.230593
21
0.3912196
0
LINE
8
DEFAULT_255_1_234
10
16.230593
20
0.3912196
11
16.230593
21
-0.5252017
0
LINE
8
DEFAULT_255_1_234
10
16.230593
20
-0.5252017
11
16.3928341
21
-0.5252017
0
LINE
8
DEFAULT_255_1_234
10
16.7695227
20
-0.0987164
11
16.7695227
21
-0.0304466
0
ARC
8
DEFAULT_255_1_234
10
16.4103823
20
-0.0684106
40
0.5865446
50
75.4101064
51
90.3804066
0
ARC
8
DEFAULT_255_1_234
10
16.4333337
20
0.0272492
40
0.4881916
50
60.145586
51
75.1888407
0
ARC
8
DEFAULT_255_1_234
10
16.4492112
20
0.0549199
40
0.4562893
50
26.5253612
51
60.1450928
0
ARC
8
DEFAULT_255_1_234
10
16.3371862
20
-0.0044842
40
0.5830602
50
7.4030428
51
26.8320788
0
ARC
8
DEFAULT_255_1_234
10
16.1777618
20
-0.0293196
40
0.7443669
50
0.1605367
51
7.7176192
0
ARC
8
DEFAULT_255_1_234
10
16.1941523
20
-0.1057566
40
0.7279835
50
348.7289388
51
0.3012466
0
ARC
8
DEFAULT_255_1_234
10
16.3597953
20
-0.1386614
40
0.559104
50
333.0706509
51
348.7181832
0
ARC
8
DEFAULT_255_1_234
10
16.4564711
20
-0.1911681
40
0.4491417
50
299.2531685
51
333.4571258
0
ARC
8
DEFAULT_255_1_234
10
16.4203851
20
-0.1226172
40
0.5265881
50
278.107187
51
299.0339503
0
ARC
8
DEFAULT_255_1_234
10
16.394793
20
0.0281216
40
0.679442
50
270.4443897
51
278.4511052
0
ARC
8
DEFAULT_255_1_234
10
16.3968759
20
-0.0647787
40
0.4604407
50
269.4970433
51
284.0205042
0
ARC
8
DEFAULT_255_1_234
10
16.432406
20
-0.2013022
40
0.3193797
50
283.7700273
51
318.1555492
0
ARC
8
DEFAULT_255_1_234
10
16.3986819
20
-0.1760633
40
0.3613588
50
318.7415601
51
343.6873628
0
ARC
8
DEFAULT_255_1_234
10
16.2182842
20
-0.1197168
40
0.5503313
50
343.3325091
51
355.8548958
0
ARC
8
DEFAULT_255_1_234
10
16.0084526
20
-0.0997681
40
0.7610708
50
355.4988528
51
0.0791727
0
ARC
8
DEFAULT_255_1_234
10
16.0867149
20
-0.026222
40
0.6828208
50
359.6455037
51
9.8607896
0
ARC
8
DEFAULT_255_1_234
10
16.3227847
20
0.0164099
40
0.4429406
50
9.6571907
51
26.1932807
0
ARC
8
DEFAULT_255_1_234
10
16.4155835
20
0.0595118
40
0.3406537
50
26.5777228
51
40.1532208
0
ARC
8
DEFAULT_255_1_234
10
16.4411562
20
0.0794619
40
0.308246
50
40.3840491
51
80.1431104
0
ARC
8
DEFAULT_255_1_234
10
16.4084679
20
-0.0654667
40
0.4566909
50
79.2152159
51
89.7445637
0
LINE
8
DEFAULT_255_1_234
10
17.8827216
20
-0.5300208
11
17.8827216
21
-0.6513
0
LINE
8
DEFAULT_255_1_234
10
17.8827216
20
-0.6513
11
17.1164938
21
-0.6513
0
LINE
8
DEFAULT_255_1_234
10
17.1164938
20
-0.6513
11
17.1164938
21
-0.5444779
0
LINE
8
DEFAULT_255_1_234
10
17.1164938
20
-0.5444779
11
17.5212934
21
-0.0947005
0
LINE
8
DEFAULT_255_1_234
10
17.242592
20
0.1735595
11
17.0940049
21
0.1735595
0
LINE
8
DEFAULT_255_1_234
10
17.6088393
20
-0.1902782
11
17.2956015
21
-0.5300208
0
LINE
8
DEFAULT_255_1_234
10
17.2956015
20
-0.5300208
11
17.8827216
21
-0.5300208
0
ARC
8
DEFAULT_255_1_234
10
16.1722767
20
1.0982527
40
1.8008286
50
318.5132453
51
320.7828378
0
ARC
8
DEFAULT_255_1_234
10
16.7009741
20
0.6679426
40
1.1191493
50
320.7372736
51
323.9737074
0
ARC
8
DEFAULT_255_1_234
10
17.0929598
20
0.3839361
40
0.6350923
50
323.8961724
51
328.6421089
0
ARC
8
DEFAULT_255_1_234
10
17.2976193
20
0.2577031
40
0.3946393
50
328.8299013
51
331.789948
0
ARC
8
DEFAULT_255_1_234
10
17.3973372
20
0.2062509
40
0.2824501
50
331.4255242
51
352.9364833
0
ARC
8
DEFAULT_255_1_234
10
17.4109872
20
0.2031976
40
0.2685315
50
353.2248685
51
0.0169286
0
ARC
8
DEFAULT_255_1_234
10
17.4319749
20
0.205495
40
0.2475536
50
359.4866256
51
15.9339782
0
ARC
8
DEFAULT_255_1_234
10
17.4826734
20
0.2191286
40
0.1950618
50
16.1714718
51
43.5284424
0
ARC
8
DEFAULT_255_1_234
10
17.4904043
20
0.2268573
40
0.184134
50
43.4415429
51
83.1661404
0
ARC
8
DEFAULT_255_1_234
10
17.4769961
20
0.1531771
40
0.258926
50
82.160215
51
90.1505798
0
ARC
8
DEFAULT_255_1_234
10
17.4738389
20
0.0994865
40
0.3126255
50
89.5460705
51
102.5418777
0
ARC
8
DEFAULT_255_1_234
10
17.4495475
20
0.2025665
40
0.2067346
50
102.1739365
51
129.2061916
0
ARC
8
DEFAULT_255_1_234
10
17.4416546
20
0.2150094
40
0.1921118
50
129.7279328
51
135.7542026
0
ARC
8
DEFAULT_255_1_234
10
17.4538074
20
0.2053045
40
0.2075944
50
136.175737
51
166.3674722
0
ARC
8
DEFAULT_255_1_234
10
17.5544993
20
0.1783182
40
0.3118201
50
165.9092917
51
178.8683903
0
ARC
8
DEFAULT_255_1_234
10
17.6409855
20
0.1736179
40
0.3983935
50
178.438168
51
180.0083905
0
ARC
8
DEFAULT_255_1_234
10
17.5008457
20
0.1775231
40
0.4068601
50
163.2878735
51
180.5581814
0
ARC
8
DEFAULT_255_1_234
10
17.4206718
20
0.199584
40
0.3237344
50
133.454115
51
162.9470031
0
ARC
8
DEFAULT_255_1_234
10
17.438526
20
0.1806
40
0.349795
50
100.7869394
51
133.4384016
0
ARC
8
DEFAULT_255_1_234
10
17.4733031
20
0.0257319
40
0.5084616
50
89.6605301
51
101.3704185
0
ARC
8
DEFAULT_255_1_234
10
17.479937
20
0.0318496
40
0.502348
50
78.2171172
51
90.4130393
0
ARC
8
DEFAULT_255_1_234
10
17.5154448
20
0.1942637
40
0.3361092
50
55.9268222
51
78.4888551
0
ARC
8
DEFAULT_255_1_234
10
17.5350888
20
0.2281324
40
0.2970617
50
47.9292255
51
55.4054003
0
ARC
8
DEFAULT_255_1_234
10
17.5452449
20
0.2384502
40
0.2825983
50
4.3347696
51
48.0560701
0
ARC
8
DEFAULT_255_1_234
10
17.4356842
20
0.2214601
40
0.393225
50
359.925209
51
5.5967654
0
ARC
8
DEFAULT_255_1_234
10
17.4785734
20
0.2270816
40
0.3503892
50
337.8914096
51
358.9967724
0
ARC
8
DEFAULT_255_1_234
10
17.2072146
20
0.3317706
40
0.6412172
50
326.9135351
51
338.3505194
0
ARC
8
DEFAULT_255_1_234
10
16.808645
20
0.5872284
40
1.1146189
50
319.6472867
51
327.095818
0
ARC
8
DEFAULT_255_1_234
10
16.4253453
20
0.9034
40
1.6114559
50
317.2586784
51
319.9046139
0
ARC
8
DEFAULT_255_2_778
10
20.3857188
20
128.5491525
40
0.3580657
50
89.9945037
51
180.0054963
0
ARC
8
DEFAULT_255_2_778
10
20.3857875
20
128.5491525
40
0.3580657
50
359.9945037
51
90.0054963
0
ARC
8
DEFAULT_255_2_778
10
20.3857875
20
128.5490838
40
0.3580657
50
269.9945037
51
0.0054963
0
ARC
8
DEFAULT_255_2_778
10
20.3857188
20
128.5490838
40
0.3580657
50
179.9945037
51
270.0054963
0
ARC
8
DEFAULT_255_2_778
10
23.0945406
20
128.280782
40
2.3282817
50
111.9150345
51
128.7655504
0
ARC
8
DEFAULT_255_2_778
10
23.0114007
20
128.412852
40
2.1733214
50
129.2366206
51
154.7721516
0
ARC
8
DEFAULT_255_2_778
10
23.612957
20
128.1170583
40
2.8435961
50
154.5467617
51
165.9285636
0
ARC
8
DEFAULT_255_2_778
10
24.0969902
20
127.9796212
40
3.3465569
50
165.6609748
51
166.525375
0
ARC
8
DEFAULT_255_2_778
10
21.6605291
20
129.1978171
40
1.414623
50
156.0627036
51
175.7189082
0
ARC
8
DEFAULT_255_2_778
10
22.2487502
20
128.944283
40
2.0551309
50
144.7505594
51
156.2560535
0
ARC
8
DEFAULT_255_2_778
10
23.0184799
20
128.4089863
40
2.9926766
50
137.345293
51
144.8863205
0
ARC
8
DEFAULT_255_2_778
10
23.9454446
20
127.5598407
40
4.2497776
50
131.6389266
51
137.393651
0
ARC
8
DEFAULT_255_2_778
10
24.6716492
20
126.7631248
40
5.3277326
50
130.1334351
51
131.7826198
0
LINE
8
DEFAULT_255_2_778
10
20.0276532
20
128.5491182
11
20.0276532
21
128.5491182
0
LINE
8
DEFAULT_255_2_778
10
21.2375532
20
130.8364182
11
22.2255532
21
130.4408182
0
LINE
8
DEFAULT_255_2_778
10
20.8425532
20
128.7594182
11
20.2498532
21
129.3034182
0
LINE
8
DEFAULT_255_2_778
10
21.2375532
20
130.8364182
11
21.2375532
21
130.8364182
0
ARC
8
DEFAULT_255_2_778
10
13.8917907
20
129.3726437
40
0.8717226
50
88.9281645
51
133.9885749
0
ARC
8
DEFAULT_255_2_778
10
13.9080454
20
129.1475604
40
1.0966534
50
88.9487005
51
89.9972984
0
ARC
8
DEFAULT_255_2_778
10
13.9276
20
129.4430011
40
0.8010283
50
72.1310318
51
89.9594908
0
ARC
8
DEFAULT_255_2_778
10
14.0028373
20
129.7000083
40
0.5333823
50
60.6505783
51
71.3519493
0
ARC
8
DEFAULT_255_2_778
10
14.0866387
20
129.8271349
40
0.3816498
50
20.3938858
51
62.2625554
0
ARC
8
DEFAULT_255_2_778
10
15.1027645
20
129.3391628
40
0.9050345
50
89.7568633
51
136.6758865
0
ARC
8
DEFAULT_255_2_778
10
15.1065773
20
129.2215709
40
1.0226182
50
88.9864436
51
89.9984426
0
ARC
8
DEFAULT_255_2_778
10
15.124548
20
129.460692
40
0.7833372
50
71.373585
51
89.9913488
0
ARC
8
DEFAULT_255_2_778
10
15.2164803
20
129.739542
40
0.489734
50
42.2193789
51
71.1458349
0
ARC
8
DEFAULT_255_2_778
10
15.1913908
20
129.7320658
40
0.5134635
50
8.5226311
51
40.9558105
0
ARC
8
DEFAULT_255_2_778
10
14.8690896
20
129.6668045
40
0.8420446
50
359.6942069
51
9.6641803
0
ARC
8
DEFAULT_255_2_778
10
14.5795507
20
129.6638277
40
1.1315727
50
355.5855084
51
359.923173
0
ARC
8
DEFAULT_255_2_778
10
14.3825845
20
129.6361289
40
0.7547163
50
352.4548626
51
359.7652122
0
ARC
8
DEFAULT_255_2_778
10
14.5401893
20
129.6332192
40
0.5971052
50
359.9824407
51
2.1700815
0
ARC
8
DEFAULT_255_2_778
10
14.9490551
20
129.6490752
40
0.1879327
50
2.0595693
51
88.944897
0
ARC
8
DEFAULT_255_2_778
10
14.8852878
20
129.3617725
40
0.4799353
50
81.9476992
51
88.9638763
0
ARC
8
DEFAULT_255_2_778
10
14.8964352
20
129.3556844
40
0.4859511
50
90.2910974
51
140.7094043
0
ARC
8
DEFAULT_255_2_778
10
15.082723
20
129.1628111
40
0.7529164
50
138.3264016
51
141.8088804
0
ARC
8
DEFAULT_255_2_778
10
13.1434845
20
129.6327289
40
0.7547163
50
352.4548626
51
359.7652122
0
ARC
8
DEFAULT_255_2_778
10
13.3010893
20
129.6298192
40
0.5971052
50
359.9824407
51
2.1700815
0
ARC
8
DEFAULT_255_2_778
10
13.7090327
20
129.6466775
40
0.1888212
50
1.7455696
51
88.6065628
0
ARC
8
DEFAULT_255_2_778
10
13.6474974
20
129.3703897
40
0.469731
50
81.9072271
51
88.8693446
0
ARC
8
DEFAULT_255_2_778
10
13.6449914
20
129.3303568
40
0.5098084
50
88.6765396
51
89.9981553
0
ARC
8
DEFAULT_255_2_778
10
13.6502114
20
129.3339569
40
0.5062351
50
90.5889431
51
134.9317856
0
ARC
8
DEFAULT_255_2_778
10
13.8031307
20
129.1435835
40
0.749469
50
132.9288129
51
135.7848647
0
LINE
8
DEFAULT_255_2_778
10
12.8005663
20
130.2099292
11
13.3328663
21
130.2115292
0
LINE
8
DEFAULT_255_2_778
10
13.3328663
20
130.2115292
11
13.2863663
21
129.9998292
0
LINE
8
DEFAULT_255_2_778
10
15.7077663
20
129.5767292
11
15.7038663
21
129.5339292
0
LINE
8
DEFAULT_255_2_778
10
15.7038663
20
129.5339292
11
15.4709663
21
128.3485292
0
LINE
8
DEFAULT_255_2_778
10
15.4709663
20
128.3485292
11
14.8978663
21
128.3485292
0
LINE
8
DEFAULT_255_2_778
10
14.8978663
20
128.3485292
11
15.1307663
21
129.5370292
0
LINE
8
DEFAULT_255_2_778
10
14.4909663
20
129.6283292
11
14.4848663
21
129.5889292
0
LINE
8
DEFAULT_255_2_778
10
14.4848663
20
129.5889292
11
14.2298663
21
128.3485292
0
LINE
8
DEFAULT_255_2_778
10
14.2298663
20
128.3485292
11
13.6588663
21
128.3485292
0
LINE
8
DEFAULT_255_2_778
10
13.6588663
20
128.3485292
11
13.8916663
21
129.5336292
0
LINE
8
DEFAULT_255_2_778
10
13.2659663
20
129.6662292
11
12.9926663
21
128.3485292
0
LINE
8
DEFAULT_255_2_778
10
12.9926663
20
128.3485292
11
12.4216663
21
128.3485292
0
LINE
8
DEFAULT_255_2_778
10
12.4216663
20
128.3485292
11
12.8002663
21
130.2096292
0
LINE
8
DEFAULT_255_2_778
10
12.8002663
20
130.2096292
11
12.8005663
21
130.2099292
0
ARC
8
DEFAULT_255_2_778
10
16.7523073
20
129.0589296
40
1.1835327
50
72.5038745
51
90.0092706
0
ARC
8
DEFAULT_255_2_778
10
16.8269065
20
129.3215618
40
0.9106565
50
60.3350098
51
72.012487
0
ARC
8
DEFAULT_255_2_778
10
16.9072673
20
129.4427924
40
0.7656054
50
24.9513793
51
61.0705157
0
ARC
8
DEFAULT_255_2_778
10
16.8147605
20
129.4014225
40
0.8669314
50
359.4887328
51
24.8512384
0
ARC
8
DEFAULT_255_2_778
10
16.6084349
20
129.3950746
40
1.0732233
50
353.5741487
51
359.9259073
0
ARC
8
DEFAULT_255_2_778
10
16.6041898
20
129.3642512
40
1.0744425
50
309.8322789
51
355.2330791
0
ARC
8
DEFAULT_255_2_778
10
16.5454004
20
129.4311469
40
1.1634726
50
274.0073872
51
309.9453537
0
ARC
8
DEFAULT_255_2_778
10
16.4941863
20
129.7996028
40
1.5348158
50
269.9462811
51
274.9533663
0
ARC
8
DEFAULT_255_2_778
10
16.4927814
20
129.9233871
40
1.6585995
50
269.1686307
51
269.9988202
0
ARC
8
DEFAULT_255_2_778
10
16.4688833
20
129.4358263
40
1.170864
50
252.1092944
51
269.9918014
0
ARC
8
DEFAULT_255_2_778
10
16.3966716
20
129.1855397
40
0.9105332
50
240.5370236
51
251.5952644
0
ARC
8
DEFAULT_255_2_778
10
16.3174932
20
129.0637089
40
0.7655666
50
205.2400495
51
241.211713
0
ARC
8
DEFAULT_255_2_778
10
16.3967058
20
129.1008751
40
0.8530649
50
179.5368594
51
205.2293562
0
ARC
8
DEFAULT_255_2_778
10
16.5834104
20
129.1064748
40
1.0397424
50
173.5174505
51
179.9285896
0
ARC
8
DEFAULT_255_2_778
10
16.7714803
20
129.0951758
40
1.2279263
50
153.4099026
51
173.9843619
0
ARC
8
DEFAULT_255_2_778
10
16.611874
20
129.1629448
40
1.0549233
50
129.6863931
51
152.8211827
0
ARC
8
DEFAULT_255_2_778
10
16.6739695
20
129.092442
40
1.1488354
50
92.7647679
51
129.8242239
0
ARC
8
DEFAULT_255_2_778
10
16.7164385
20
128.7495159
40
1.493635
50
89.9700537
51
93.7575078
0
ARC
8
DEFAULT_255_2_778
10
16.7171078
20
128.6480121
40
1.5951388
50
88.7352629
51
89.9960004
0
ARC
8
DEFAULT_255_2_778
10
16.5723633
20
129.039103
40
0.4277578
50
179.6036168
51
209.4859363
0
ARC
8
DEFAULT_255_2_778
10
16.471718
20
128.9921836
40
0.3171735
50
211.0570865
51
223.1755117
0
ARC
8
DEFAULT_255_2_778
10
16.4796332
20
129.0101793
40
0.3353476
50
224.4925211
51
268.7887171
0
ARC
8
DEFAULT_255_2_778
10
16.5097447
20
129.2228866
40
0.5492412
50
266.1163412
51
268.8180997
0
ARC
8
DEFAULT_255_2_778
10
16.5158472
20
129.3512917
40
0.6777536
50
268.526223
51
269.9955091
0
ARC
8
DEFAULT_255_2_778
10
16.5313701
20
129.1611572
40
0.4878678
50
268.1704265
51
325.4339242
0
ARC
8
DEFAULT_255_2_778
10
16.3027695
20
129.3278589
40
0.7707306
50
324.8706977
51
351.0886768
0
ARC
8
DEFAULT_255_2_778
10
15.8946184
20
129.406759
40
1.1862684
50
350.3775551
51
0.2885744
0
ARC
8
DEFAULT_255_2_778
10
15.6040188
20
129.4124545
40
1.4768528
50
0.0108339
51
1.7075744
0
ARC
8
DEFAULT_255_2_778
10
16.6260032
20
129.4473496
40
0.454304
50
1.1493477
51
31.2464652
0
ARC
8
DEFAULT_255_2_778
10
16.7201626
20
129.4940769
40
0.3496776
50
32.703807
51
41.7810929
0
ARC
8
DEFAULT_255_2_778
10
16.7419519
20
129.5034534
40
0.3272685
50
43.0987922
51
88.7571407
0
ARC
8
DEFAULT_255_2_778
10
16.7112548
20
129.2911359
40
0.5408314
50
85.992647
51
88.8704975
0
ARC
8
DEFAULT_255_2_778
10
16.7048639
20
129.1892668
40
0.6428217
50
88.4799611
51
89.9943311
0
ARC
8
DEFAULT_255_2_778
10
16.6938528
20
129.3425787
40
0.4896349
50
88.7039519
51
145.0513377
0
ARC
8
DEFAULT_255_2_778
10
16.8919356
20
129.1892936
40
0.7399051
50
144.1087108
51
170.2824956
0
ARC
8
DEFAULT_255_2_778
10
17.3184952
20
129.1021764
40
1.1751307
50
169.6063184
51
180.3528002
0
ARC
8
DEFAULT_255_2_778
10
17.654568
20
129.0953441
40
1.5111813
50
180.0153016
51
182.009194
0
LINE
8
DEFAULT_255_2_778
10
16.7523158
20
130.2427623
11
16.7521158
21
130.2424623
0
LINE
8
DEFAULT_255_2_778
10
16.1443158
20
129.0423623
11
16.1446158
21
129.0420623
0
ARC
8
DEFAULT_255_2_778
10
18.720237
20
128.1205854
40
1.642039
50
81.2830361
51
86.628458
0
ARC
8
DEFAULT_255_2_778
10
18.7752757
20
128.9590313
40
0.8018272
50
87.0310432
51
89.8986713
0
ARC
8
DEFAULT_255_2_778
10
18.7565064
20
128.8703997
40
0.8906863
50
88.7012797
51
89.9954117
0
ARC
8
DEFAULT_255_2_778
10
18.7426452
20
129.1146623
40
0.6465738
50
88.765285
51
116.6201427
0
ARC
8
DEFAULT_255_2_778
10
18.7125548
20
129.1986694
40
0.5580924
50
117.7228833
51
138.7756782
0
ARC
8
DEFAULT_255_2_778
10
18.8913475
20
129.5648707
40
0.6980151
50
116.489914
51
143.0810972
0
ARC
8
DEFAULT_255_2_778
10
18.8376938
20
129.6449223
40
0.6025621
50
89.4580016
51
115.3188873
0
ARC
8
DEFAULT_255_2_778
10
18.8288205
20
129.3101885
40
0.9373821
50
77.9674605
51
89.1092017
0
ARC
8
DEFAULT_255_2_778
10
18.7351478
20
128.7796466
40
1.4759175
50
78.008513
51
78.7045202
0
LINE
8
DEFAULT_255_2_778
10
19.0417938
20
130.2236573
11
18.9690938
21
129.7436573
0
LINE
8
DEFAULT_255_2_778
10
18.2927938
20
129.5664573
11
18.0395938
21
128.3485573
0
LINE
8
DEFAULT_255_2_778
10
18.0395938
20
128.3485573
11
17.4685938
21
128.3485573
0
LINE
8
DEFAULT_255_2_778
10
17.4685938
20
128.3485573
11
17.8492938
21
130.2096573
0
LINE
8
DEFAULT_255_2_778
10
17.8492938
20
130.2096573
11
18.3858938
21
130.2112573
0
LINE
8
DEFAULT_255_2_778
10
18.3858938
20
130.2112573
11
18.3332938
21
129.9841573
0
LINE
8
DEFAULT_255_2_778
10
19.0417938
20
130.2233573
11
19.0417938
21
130.2236573
0
ARC
8
DEFAULT_255_2_778
10
19.2894128
20
129.4350762
40
1.1700739
50
250.1384534
51
270.3253519
0
ARC
8
DEFAULT_255_2_778
10
19.2341273
20
129.2542495
40
0.9812659
50
242.0400724
51
249.5873206
0
ARC
8
DEFAULT_255_2_778
10
19.133831
20
129.0958015
40
0.794417
50
208.3292132
51
243.0715083
0
ARC
8
DEFAULT_255_2_778
10
19.1260252
20
129.0867929
40
0.7832826
50
179.5739013
51
208.0201199
0
ARC
8
DEFAULT_255_2_778
10
19.2727713
20
129.0918153
40
0.9300073
50
174.3657638
51
179.9505495
0
ARC
8
DEFAULT_255_2_778
10
19.455269
20
129.1331913
40
1.1082855
50
145.24933
51
173.7565404
0
ARC
8
DEFAULT_255_2_778
10
19.4366239
20
129.1581177
40
1.0788028
50
116.4826416
51
145.7726174
0
ARC
8
DEFAULT_255_2_778
10
19.4671976
20
129.0884316
40
1.1548163
50
89.3335424
51
116.2986099
0
ARC
8
DEFAULT_255_2_778
10
19.4805483
20
128.8460133
40
1.3971563
50
88.7200635
51
89.9966493
0
ARC
8
DEFAULT_255_2_778
10
19.5062264
20
129.1304187
40
1.1124162
50
73.6937809
51
89.7151452
0
ARC
8
DEFAULT_255_2_778
10
19.6174962
20
129.5023827
40
0.7241771
50
40.439997
51
73.880282
0
ARC
8
DEFAULT_255_2_778
10
19.5837712
20
129.4804387
40
0.7640962
50
0.3370816
51
40.0519836
0
ARC
8
DEFAULT_255_2_778
10
19.3460457
20
129.456813
40
1.0022031
50
359.994028
51
1.6078833
0
ARC
8
DEFAULT_255_2_778
10
19.2169833
20
129.4589808
40
1.1312679
50
353.167063
51
359.8849147
0
ARC
8
DEFAULT_255_2_778
10
19.0729155
20
129.4737227
40
1.2760687
50
352.3939633
51
353.279462
0
ARC
8
DEFAULT_255_2_778
10
19.2853478
20
129.0350308
40
0.3604224
50
171.5294964
51
179.9003766
0
ARC
8
DEFAULT_255_2_778
10
19.2582641
20
129.0392602
40
0.3333577
50
180.6192204
51
227.8732743
0
ARC
8
DEFAULT_255_2_778
10
19.3362834
20
129.3000848
40
0.5908529
50
239.3033103
51
268.7295305
0
ARC
8
DEFAULT_255_2_778
10
19.3594224
20
129.5340887
40
0.8255073
50
267.4839269
51
270.0168707
0
ARC
8
DEFAULT_255_2_778
10
19.3591753
20
129.6189158
40
0.9103345
50
270.0308514
51
273.2230324
0
ARC
8
DEFAULT_255_2_778
10
19.3865379
20
128.9577649
40
0.2488861
50
275.4917641
51
302.3582203
0
ARC
8
DEFAULT_255_2_778
10
19.4523418
20
128.8418063
40
0.115896
50
305.561706
51
314.7657745
0
ARC
8
DEFAULT_255_2_778
10
19.4418773
20
128.8746064
40
0.1473882
50
308.6632861
51
359.3837416
0
ARC
8
DEFAULT_255_2_778
10
17.939525
20
130.5972828
40
2.962762
50
318.8021847
51
324.4102292
0
ARC
8
DEFAULT_255_2_778
10
18.9248821
20
129.7289505
40
1.6494092
50
310.4033061
51
318.953359
0
ARC
8
DEFAULT_255_2_778
10
19.4511808
20
129.1023187
40
0.831118
50
295.9312381
51
310.7744109
0
ARC
8
DEFAULT_255_2_778
10
19.5730027
20
128.8734771
40
0.5721233
50
294.3678437
51
294.9811966
0
ARC
8
DEFAULT_255_2_778
10
19.3263828
20
129.6404614
40
1.3756016
50
269.5724547
51
290.5412856
0
ARC
8
DEFAULT_255_2_778
10
19.3161577
20
129.8587488
40
1.5938505
50
269.2881822
51
269.9985732
0
ARC
8
DEFAULT_255_2_778
10
19.4713649
20
129.2721819
40
0.5598634
50
88.7931239
51
89.9984438
0
ARC
8
DEFAULT_255_2_778
10
19.4649983
20
129.3690553
40
0.463034
50
89.2102909
51
125.5845733
0
ARC
8
DEFAULT_255_2_778
10
19.5331068
20
129.2973825
40
0.5611219
50
126.9818839
51
147.669232
0
ARC
8
DEFAULT_255_2_778
10
20.008659
20
128.9776894
40
1.1340353
50
146.870707
51
156.2884785
0
ARC
8
DEFAULT_255_2_778
10
19.3674279
20
129.5555109
40
0.4275542
50
349.7487379
51
359.8271594
0
ARC
8
DEFAULT_255_2_778
10
19.4298857
20
129.554782
40
0.3650948
50
359.9119884
51
9.2266083
0
ARC
8
DEFAULT_255_2_778
10
19.5456961
20
129.5698643
40
0.2483918
50
10.0759194
51
54.8339385
0
ARC
8
DEFAULT_255_2_778
10
19.4916417
20
129.4737413
40
0.3582778
50
56.6210187
51
91.3472693
0
LINE
8
DEFAULT_255_2_778
10
18.3472569
20
129.1831211
11
18.3535569
21
129.2537211
0
LINE
8
DEFAULT_255_2_778
10
20.3377569
20
129.3048211
11
20.3046569
21
129.0881211
0
LINE
8
DEFAULT_255_2_778
10
20.3046569
20
129.0881211
11
18.9288569
21
129.0881211
0
LINE
8
DEFAULT_255_2_778
10
19.5892569
20
128.8730211
11
20.3488569
21
128.8730211
0
LINE
8
DEFAULT_255_2_778
10
18.9703569
20
129.4337211
11
19.7757569
21
129.4337211
0
LINE
8
DEFAULT_255_2_778
10
19.7757569
20
129.4337211
11
19.7881569
21
129.4794211
0
LINE
8
DEFAULT_255_2_778
10
11.5575281
20
130.0205177
11
12.9404281
21
129.2045177
0
LINE
8
DEFAULT_255_2_778
10
12.9404281
20
129.2045177
11
11.4093281
21
128.6111177
0
LINE
8
DEFAULT_255_2_778
10
11.4093281
20
128.6111177
11
11.7302281
21
129.3281177
0
LINE
8
DEFAULT_255_2_778
10
11.7302281
20
129.3281177
11
11.5575281
21
130.0205177
0
ARC
8
DEFAULT_255_2_778
10
7.9956492
20
129.7401349
40
1.734445
50
345.0500681
51
0.450213
0
ARC
8
DEFAULT_255_2_778
10
8.2747128
20
129.6759315
40
1.4482985
50
339.8011311
51
344.6559926
0
ARC
8
DEFAULT_255_2_778
10
8.3564959
20
129.6304595
40
1.3559213
50
318.9869254
51
340.4112117
0
ARC
8
DEFAULT_255_2_778
10
8.4726786
20
129.5425223
40
1.2105876
50
317.7755753
51
318.5188915
0
ARC
8
DEFAULT_255_2_778
10
8.5000776
20
129.5166224
40
1.1728926
50
293.4453171
51
317.8130059
0
ARC
8
DEFAULT_255_2_778
10
8.4704728
20
129.5948502
40
1.2564472
50
269.4376299
51
293.2645473
0
ARC
8
DEFAULT_255_2_778
10
8.7713116
20
129.8029305
40
1.0182316
50
68.112945
51
90.7974227
0
ARC
8
DEFAULT_255_2_778
10
8.8150218
20
129.9382759
40
0.8764035
50
66.6600337
51
67.4660887
0
ARC
8
DEFAULT_255_2_778
10
8.8273616
20
129.9500129
40
0.860764
50
41.8199578
51
67.1046866
0
ARC
8
DEFAULT_255_2_778
10
8.7262144
20
129.8737866
40
0.9870277
50
18.4442061
51
41.2024761
0
ARC
8
DEFAULT_255_2_778
10
8.4236394
20
129.7701986
40
1.3068358
50
359.9236227
51
18.5554774
0
ARC
8
DEFAULT_255_2_778
10
8.1090371
20
129.7537824
40
1.6215036
50
359.9993331
51
0.5185192
0
ARC
8
DEFAULT_255_2_778
10
8.2484265
20
129.7599191
40
1.1556879
50
359.3527282
51
15.3461488
0
ARC
8
DEFAULT_255_2_778
10
8.4878709
20
129.8150091
40
0.9102591
50
15.9909101
51
17.2384514
0
ARC
8
DEFAULT_255_2_778
10
8.6538656
20
129.8784942
40
0.7329962
50
16.3441173
51
39.0583428
0
ARC
8
DEFAULT_255_2_778
10
8.7708861
20
129.9640513
40
0.5882641
50
39.7694118
51
66.0014919
0
ARC
8
DEFAULT_255_2_778
10
8.7375911
20
129.8710083
40
0.6868457
50
66.6208799
51
90.9301944
0
ARC
8
DEFAULT_255_2_778
10
8.4997619
20
129.4660777
40
0.865983
50
269.2774049
51
294.6427005
0
ARC
8
DEFAULT_255_2_778
10
8.5132787
20
129.4180801
40
0.8167574
50
295.184769
51
321.1699914
0
ARC
8
DEFAULT_255_2_778
10
8.321121
20
129.5645326
40
1.0582969
50
321.5163412
51
341.7776814
0
ARC
8
DEFAULT_255_2_778
10
8.0263618
20
129.6800931
40
1.374523
50
341.044332
51
342.4824039
0
ARC
8
DEFAULT_255_2_778
10
7.9221077
20
129.7017334
40
1.4804949
50
342.8981919
51
356.6952858
0
ARC
8
DEFAULT_255_2_778
10
7.4185441
20
129.7454849
40
1.9857973
50
356.2725814
51
0.0484329
0
LINE
8
DEFAULT_255_2_778
10
8.4581407
20
128.3384635
11
7.4088407
21
128.3141635
0
LINE
8
DEFAULT_255_2_778
10
7.4088407
20
128.3141635
11
7.9181407
21
130.8210635
0
LINE
8
DEFAULT_255_2_778
10
7.9181407
20
130.8210635
11
8.7571407
21
130.8210635
0
LINE
8
DEFAULT_255_2_778
10
9.7305407
20
129.7537635
11
9.7300407
21
129.7537635
0
LINE
8
DEFAULT_255_2_778
10
8.7264407
20
130.5577635
11
8.1285407
21
130.5397635
0
LINE
8
DEFAULT_255_2_778
10
8.1285407
20
130.5397635
11
7.7686407
21
128.5615635
0
LINE
8
DEFAULT_255_2_778
10
7.7686407
20
128.5615635
11
8.4888407
21
128.6001635
0
LINE
8
DEFAULT_255_2_778
10
9.4043407
20
129.7471635
11
9.4040407
21
129.7468635
0
ARC
8
DEFAULT_255_2_778
10
10.434674
20
129.142419
40
0.5777251
50
269.3131992
51
298.9193317
0
ARC
8
DEFAULT_255_2_778
10
10.3745898
20
129.2470114
40
0.6983333
50
299.0845099
51
323.1838183
0
ARC
8
DEFAULT_255_2_778
10
10.2053419
20
129.3709915
40
0.9081244
50
323.3206017
51
342.9705556
0
ARC
8
DEFAULT_255_2_778
10
10.0399255
20
129.4284416
40
1.0831324
50
342.6274164
51
0.2324268
0
ARC
8
DEFAULT_255_2_778
10
10.3756391
20
129.4455185
40
0.7475175
50
359.0278167
51
16.1300251
0
ARC
8
DEFAULT_255_2_778
10
10.6995449
20
129.5386392
40
0.4104922
50
16.2042834
51
41.9480466
0
ARC
8
DEFAULT_255_2_778
10
10.7119118
20
129.5304262
40
0.4070383
50
43.9719544
51
85.3997935
0
ARC
8
DEFAULT_255_2_778
10
10.6645186
20
129.2547297
40
0.686108
50
83.300847
51
90.1477804
0
ARC
8
DEFAULT_255_2_778
10
10.6542616
20
129.3594474
40
0.58145
50
89.163628
51
118.6648078
0
ARC
8
DEFAULT_255_2_778
10
10.713379
20
129.2624564
40
0.6949321
50
119.1056578
51
143.2104754
0
ARC
8
DEFAULT_255_2_778
10
10.8865438
20
129.1354766
40
0.9096571
50
143.3373192
51
162.9538381
0
ARC
8
DEFAULT_255_2_778
10
11.0503519
20
129.0784321
40
1.0830106
50
162.6089297
51
180.2167337
0
ARC
8
DEFAULT_255_2_778
10
10.722432
20
129.0616465
40
0.7551896
50
179.037255
51
196.0102976
0
ARC
8
DEFAULT_255_2_778
10
10.3946689
20
128.9681213
40
0.4143448
50
196.0798237
51
221.5429745
0
ARC
8
DEFAULT_255_2_778
10
10.3758386
20
128.9697741
40
0.4015819
50
223.501568
51
264.945498
0
ARC
8
DEFAULT_255_2_778
10
10.4257062
20
129.249923
40
0.6854906
50
262.8561454
51
270.170743
0
ARC
8
DEFAULT_255_2_778
10
10.3819801
20
129.3076733
40
0.993603
50
251.4783364
51
270.6555979
0
ARC
8
DEFAULT_255_2_778
10
10.2994823
20
129.0619369
40
0.7343883
50
228.2272369
51
251.4910714
0
ARC
8
DEFAULT_255_2_778
10
10.2621392
20
129.0112077
40
0.671704
50
202.6960886
51
227.720176
0
ARC
8
DEFAULT_255_2_778
10
10.3818562
20
129.0565656
40
0.7996635
50
179.6456167
51
202.3846702
0
ARC
8
DEFAULT_255_2_778
10
10.6496927
20
129.0727351
40
1.0675438
50
179.9999853
51
180.6023814
0
ARC
8
DEFAULT_255_2_778
10
10.6859721
20
129.079723
40
1.1038452
50
157.230675
51
180.3627006
0
ARC
8
DEFAULT_255_2_778
10
10.7166324
20
129.0701196
40
1.135837
50
135.6908415
51
157.3825693
0
ARC
8
DEFAULT_255_2_778
10
10.6869282
20
129.096815
40
1.0959349
50
113.1058727
51
135.604761
0
ARC
8
DEFAULT_255_2_778
10
10.6874078
20
129.1010049
40
1.0922713
50
89.5047522
51
113.2152626
0
ARC
8
DEFAULT_255_2_778
10
10.7082287
20
129.1979295
40
0.9953709
50
71.5130801
51
90.6550541
0
ARC
8
DEFAULT_255_2_778
10
10.7896575
20
129.4437115
40
0.7364524
50
48.2602918
51
71.4580165
0
ARC
8
DEFAULT_255_2_778
10
10.8279984
20
129.4971961
40
0.6710546
50
22.5497085
51
47.6627683
0
ARC
8
DEFAULT_255_2_778
10
10.6993556
20
129.4478328
40
0.8088011
50
359.0650515
51
22.2845409
0
ARC
8
DEFAULT_255_2_778
10
10.4090028
20
129.4285709
40
1.0990629
50
337.1812514
51
0.316152
0
ARC
8
DEFAULT_255_2_778
10
10.3735655
20
129.4391512
40
1.135837
50
315.6908415
51
337.3825693
0
ARC
8
DEFAULT_255_2_778
10
10.3954229
20
129.4211107
40
1.1075969
50
293.2336194
51
315.5688359
0
ARC
8
DEFAULT_255_2_778
10
10.401174
20
129.4004991
40
1.0863919
50
269.5873092
51
293.383724
0
LINE
8
DEFAULT_255_2_778
10
10.427749
20
128.5644354
11
10.427749
21
128.5647354
0
LINE
8
DEFAULT_255_2_778
10
10.393349
20
128.3141354
11
10.393349
21
128.3141354
0
LINE
8
DEFAULT_255_1_234
10
10.8337392
20
125.6872
11
10.4281364
21
125.6872
0
LINE
8
DEFAULT_255_1_234
10
10.4281364
20
125.6872
11
10.4281364
21
126.8566211
0
LINE
8
DEFAULT_255_1_234
10
10.4281364
20
126.8566211
11
10.8104471
21
126.8566211
0
LINE
8
DEFAULT_255_1_234
10
10.8393614
20
126.2341614
11
10.5823458
21
126.2341614
0
LINE
8
DEFAULT_255_1_234
10
10.5823458
20
126.2341614
11
10.5823458
21
125.8132983
0
LINE
8
DEFAULT_255_1_234
10
10.5823458
20
125.8132983
11
10.8369519
21
125.8132983
0
LINE
8
DEFAULT_255_1_234
10
10.5823458
20
126.7297196
11
10.5823458
21
126.3578501
0
LINE
8
DEFAULT_255_1_234
10
10.5823458
20
126.3578501
11
10.8152662
21
126.3578501
0
LINE
8
DEFAULT_255_1_234
10
10.8104471
20
126.7297196
11
10.5823458
21
126.7297196
0
ARC
8
DEFAULT_255_1_234
10
10.814218
20
126.1198901
40
0.7367406
50
82.1257326
51
90.2932599
0
ARC
8
DEFAULT_255_1_234
10
10.8531135
20
126.3917013
40
0.4621653
50
69.9044149
51
82.2857423
0
ARC
8
DEFAULT_255_1_234
10
10.9101813
20
126.5459637
40
0.2976871
50
51.1838526
51
70.0181538
0
ARC
8
DEFAULT_255_1_234
10
10.9356779
20
126.583024
40
0.2528517
50
12.1017251
51
50.4214761
0
ARC
8
DEFAULT_255_1_234
10
10.7972653
20
126.5482676
40
0.3955061
50
359.5251267
51
12.8211707
0
ARC
8
DEFAULT_255_1_234
10
10.9552579
20
126.5413344
40
0.2375281
50
323.4908128
51
0.8817314
0
ARC
8
DEFAULT_255_1_234
10
10.9134266
20
126.573655
40
0.2903817
50
298.6825083
51
323.2756573
0
ARC
8
DEFAULT_255_1_234
10
10.8772629
20
126.6337649
40
0.3604842
50
293.1999386
51
299.1396394
0
ARC
8
DEFAULT_255_1_234
10
10.9445602
20
126.0252126
40
0.2871098
50
54.0011765
51
74.9167975
0
ARC
8
DEFAULT_255_1_234
10
10.9561961
20
126.0449332
40
0.2643248
50
36.3580696
51
53.5291921
0
ARC
8
DEFAULT_255_1_234
10
10.9435203
20
126.0358998
40
0.2798884
50
4.8189881
51
36.3089977
0
ARC
8
DEFAULT_255_1_234
10
10.8656038
20
126.024927
40
0.358478
50
359.9370252
51
5.5204067
0
ARC
8
DEFAULT_255_1_234
10
10.833156
20
126.0208667
40
0.3909429
50
344.7478609
51
0.5373281
0
ARC
8
DEFAULT_255_1_234
10
10.9322531
20
125.9941544
40
0.2883093
50
311.1786488
51
344.6886812
0
ARC
8
DEFAULT_255_1_234
10
10.9030578
20
126.0304987
40
0.3348923
50
286.0418249
51
310.8441291
0
ARC
8
DEFAULT_255_1_234
10
10.852341
20
126.1951807
40
0.5071869
50
274.1042341
51
286.4071509
0
ARC
8
DEFAULT_255_1_234
10
10.8346666
20
126.3835229
40
0.6963234
50
269.9236873
51
274.445647
0
ARC
8
DEFAULT_255_1_234
10
10.8392667
20
126.1495537
40
0.3362634
50
269.6055768
51
281.3740047
0
ARC
8
DEFAULT_255_1_234
10
10.8623305
20
126.0402353
40
0.224546
50
281.1055983
51
302.5132223
0
ARC
8
DEFAULT_255_1_234
10
10.8770204
20
126.0138823
40
0.1944357
50
303.0368945
51
311.8811219
0
ARC
8
DEFAULT_255_1_234
10
10.8841611
20
126.005389
40
0.1833454
50
311.9916004
51
351.7143462
0
ARC
8
DEFAULT_255_1_234
10
10.8024841
20
126.021893
40
0.2665871
50
350.7339597
51
0.2221581
0
ARC
8
DEFAULT_255_1_234
10
10.7917287
20
126.0275467
40
0.2773789
50
359.0456241
51
17.2296242
0
ARC
8
DEFAULT_255_1_234
10
10.8956404
20
126.0584163
40
0.1689915
50
17.6685481
51
78.9940892
0
ARC
8
DEFAULT_255_1_234
10
10.8439568
20
125.8729224
40
0.3612658
50
76.5635957
51
90.6980921
0
LINE
8
DEFAULT_255_1_234
10
10.8395552
20
126.2341613
11
10.8393614
21
126.2341614
0
ARC
8
DEFAULT_255_1_234
10
10.8175228
20
126.6864036
40
0.3285612
50
269.6064736
51
281.4533503
0
ARC
8
DEFAULT_255_1_234
10
10.8398048
20
126.5812688
40
0.2210975
50
281.2041486
51
302.5148063
0
ARC
8
DEFAULT_255_1_234
10
10.8534898
20
126.5566241
40
0.1929674
50
303.021671
51
309.8369575
0
ARC
8
DEFAULT_255_1_234
10
10.8718359
20
126.5360488
40
0.1654181
50
309.5228395
51
356.9509836
0
ARC
8
DEFAULT_255_1_234
10
10.8054942
20
126.5455932
40
0.2322512
50
355.4701227
51
0.0492546
0
ARC
8
DEFAULT_255_1_234
10
10.7776033
20
126.5478094
40
0.2601498
50
359.5558597
51
11.2096359
0
ARC
8
DEFAULT_255_1_234
10
10.8733323
20
126.567623
40
0.1623975
50
10.9182341
51
31.3230275
0
ARC
8
DEFAULT_255_1_234
10
10.9019056
20
126.5835214
40
0.1297302
50
31.8852677
51
52.1412565
0
ARC
8
DEFAULT_255_1_234
10
10.8744789
20
126.544775
40
0.1771663
50
52.8285564
51
71.9850297
0
ARC
8
DEFAULT_255_1_234
10
10.8368965
20
126.4341664
40
0.2939794
50
71.6863486
51
82.8455995
0
ARC
8
DEFAULT_255_1_234
10
10.8129501
20
126.2532149
40
0.476506
50
82.6984714
51
90.1729175
0
ARC
8
DEFAULT_255_1_234
10
10.8107136
20
126.3755623
40
0.3541573
50
89.8708275
51
90.0431131
0
LINE
8
DEFAULT_255_1_234
10
12.1348808
20
125.6872
11
11.8810778
21
126.1602694
0
LINE
8
DEFAULT_255_1_234
10
11.8810778
20
126.1602694
11
11.6063924
21
126.1602694
0
LINE
8
DEFAULT_255_1_234
10
11.6063924
20
126.1602694
11
11.6063924
21
125.6872
0
LINE
8
DEFAULT_255_1_234
10
11.6063924
20
125.6872
11
11.4513798
21
125.6872
0
LINE
8
DEFAULT_255_1_234
10
11.4513798
20
125.6872
11
11.4513798
21
126.8566211
0
LINE
8
DEFAULT_255_1_234
10
11.4513798
20
126.8566211
11
11.8385096
21
126.8566211
0
LINE
8
DEFAULT_255_1_234
10
12.0256491
20
126.1931995
11
12.3003346
21
125.6968381
0
LINE
8
DEFAULT_255_1_234
10
12.3003346
20
125.6968381
11
12.3003346
21
125.6872
0
LINE
8
DEFAULT_255_1_234
10
12.3003346
20
125.6872
11
12.1348808
21
125.6872
0
LINE
8
DEFAULT_255_1_234
10
11.6063924
20
126.7297196
11
11.6063924
21
126.2863677
0
LINE
8
DEFAULT_255_1_234
10
11.6063924
20
126.2863677
11
11.8433287
21
126.2863677
0
LINE
8
DEFAULT_255_1_234
10
11.8425255
20
126.7297196
11
11.6063924
21
126.7297196
0
ARC
8
DEFAULT_255_1_234
10
11.8426736
20
126.1604761
40
0.6961575
50
80.653586
51
90.3427061
0
ARC
8
DEFAULT_255_1_234
10
11.884621
20
126.4067348
40
0.4463577
50
65.6987447
51
80.8329603
0
ARC
8
DEFAULT_255_1_234
10
11.9323851
20
126.5162322
40
0.3269094
50
50.0017161
51
65.4305835
0
ARC
8
DEFAULT_255_1_234
10
11.9542315
20
126.5457482
40
0.2902647
50
11.628416
51
49.5603263
0
ARC
8
DEFAULT_255_1_234
10
11.8006651
20
126.5082299
40
0.4482792
50
359.5655735
51
12.3691
0
ARC
8
DEFAULT_255_1_234
10
11.9083511
20
126.5019644
40
0.3405924
50
341.9983148
51
0.4822259
0
ARC
8
DEFAULT_255_1_234
10
11.9478351
20
126.4912471
40
0.2997359
50
323.8609373
51
341.61416
0
ARC
8
DEFAULT_255_1_234
10
11.9176595
20
126.5145484
40
0.3378487
50
296.7018614
51
323.6876402
0
ARC
8
DEFAULT_255_1_234
10
11.8735491
20
126.5934235
40
0.4281516
50
290.8086567
51
297.2323311
0
ARC
8
DEFAULT_255_1_234
10
11.845902
20
126.6457351
40
0.3593766
50
269.589728
51
281.8058135
0
ARC
8
DEFAULT_255_1_234
10
11.8709919
20
126.5309743
40
0.2419125
50
281.5501019
51
303.9357432
0
ARC
8
DEFAULT_255_1_234
10
11.8847107
20
126.5071936
40
0.2145323
50
304.4415616
51
311.2106213
0
ARC
8
DEFAULT_255_1_234
10
11.8979212
20
126.4932632
40
0.1953505
50
310.9875673
51
356.2715578
0
ARC
8
DEFAULT_255_1_234
10
11.8222861
20
126.5045422
40
0.2716331
50
354.9348262
51
0.0609027
0
ARC
8
DEFAULT_255_1_234
10
11.8035735
20
126.5072435
40
0.2903554
50
359.5239371
51
12.8808918
0
ARC
8
DEFAULT_255_1_234
10
11.9013291
20
126.5311728
40
0.1897315
50
12.4173452
51
43.1022135
0
ARC
8
DEFAULT_255_1_234
10
11.9074895
20
126.5348724
40
0.1827118
50
43.5751728
51
48.203944
0
ARC
8
DEFAULT_255_1_234
10
11.8905387
20
126.5127302
40
0.2105272
50
48.7809703
51
72.6969569
0
ARC
8
DEFAULT_255_1_234
10
11.8551012
20
126.405182
40
0.3237537
50
72.3702241
51
84.8791103
0
ARC
8
DEFAULT_255_1_234
10
11.8403488
20
126.2709769
40
0.4587478
50
84.5400526
51
89.7281406
0
LINE
8
DEFAULT_255_1_234
10
12.5645788
20
126.8566211
11
12.8464928
21
126.4084501
0
LINE
8
DEFAULT_255_1_234
10
12.8464928
20
126.4084501
11
13.1268004
21
126.8566211
0
LINE
8
DEFAULT_255_1_234
10
13.1268004
20
126.8566211
11
13.3083177
21
126.8566211
0
LINE
8
DEFAULT_255_1_234
10
13.3083177
20
126.8566211
11
12.9388578
21
126.2767296
0
LINE
8
DEFAULT_255_1_234
10
12.9388578
20
126.2767296
11
13.3171526
21
125.6872
0
LINE
8
DEFAULT_255_1_234
10
13.3171526
20
125.6872
11
13.134029
21
125.6872
0
LINE
8
DEFAULT_255_1_234
10
13.134029
20
125.6872
11
12.8464928
21
126.1434027
0
LINE
8
DEFAULT_255_1_234
10
12.8464928
20
126.1434027
11
12.5573502
21
125.6872
0
LINE
8
DEFAULT_255_1_234
10
12.5573502
20
125.6872
11
12.3750297
21
125.6872
0
LINE
8
DEFAULT_255_1_234
10
12.3750297
20
125.6872
11
12.7541278
21
126.2767296
0
LINE
8
DEFAULT_255_1_234
10
12.7541278
20
126.2767296
11
12.3838646
21
126.8566211
0
LINE
8
DEFAULT_255_1_234
10
12.3838646
20
126.8566211
11
12.5645788
21
126.8566211
0
LINE
8
DEFAULT_255_1_234
10
14.6793354
20
126.5184849
11
14.5243229
21
126.5184849
0
LINE
8
DEFAULT_255_1_234
10
13.8319871
20
126.0261394
11
13.9869996
21
126.0261394
0
ARC
8
DEFAULT_255_1_234
10
14.5902042
20
127.4131768
40
1.252368
50
248.9199003
51
254.1439814
0
ARC
8
DEFAULT_255_1_234
10
14.4221537
20
126.9805234
40
0.788226
50
241.633709
51
249.0064503
0
ARC
8
DEFAULT_255_1_234
10
14.2692931
20
126.7004317
40
0.4691427
50
230.498225
51
241.8087113
0
ARC
8
DEFAULT_255_1_234
10
14.1908505
20
126.6004906
40
0.3421437
50
227.4064532
51
229.9881192
0
ARC
8
DEFAULT_255_1_234
10
14.1421026
20
126.5529088
40
0.2741476
50
200.6781896
51
228.1763934
0
ARC
8
DEFAULT_255_1_234
10
14.1493337
20
126.5514077
40
0.2804109
50
179.5061581
51
199.8694617
0
ARC
8
DEFAULT_255_1_234
10
14.1484088
20
126.558821
40
0.2795204
50
132.4834203
51
181.0242172
0
ARC
8
DEFAULT_255_1_234
10
14.2079671
20
126.5025704
40
0.3612768
50
129.2532479
51
133.4242687
0
ARC
8
DEFAULT_255_1_234
10
14.222612
20
126.4805965
40
0.3875675
50
101.98776
51
128.8742646
0
ARC
8
DEFAULT_255_1_234
10
14.2624731
20
126.3084741
40
0.5642249
50
89.5906553
51
102.3169264
0
ARC
8
DEFAULT_255_1_234
10
14.2695223
20
126.3403148
40
0.5323783
50
77.2360837
51
90.3248275
0
ARC
8
DEFAULT_255_1_234
10
14.2902302
20
126.43704
40
0.4334697
50
63.837784
51
77.0809408
0
ARC
8
DEFAULT_255_1_234
10
14.3180064
20
126.4887911
40
0.3747796
50
45.9864267
51
64.1607727
0
ARC
8
DEFAULT_255_1_234
10
14.3440945
20
126.5185866
40
0.3352302
50
32.2747395
51
45.6547121
0
ARC
8
DEFAULT_255_1_234
10
14.3507386
20
126.520488
40
0.328603
50
359.6507365
51
32.6130309
0
ARC
8
DEFAULT_255_1_234
10
14.2564481
20
126.520966
40
0.2678863
50
359.469343
51
14.9832209
0
ARC
8
DEFAULT_255_1_234
10
14.3269544
20
126.5398539
40
0.1948938
50
14.9781179
51
48.2004265
0
ARC
8
DEFAULT_255_1_234
10
14.3105188
20
126.5191983
40
0.2212521
50
48.5927837
51
74.1241538
0
ARC
8
DEFAULT_255_1_234
10
14.2771677
20
126.4091248
40
0.3362561
50
73.7888341
51
86.6652678
0
ARC
8
DEFAULT_255_1_234
10
14.2669243
20
126.2883881
40
0.4573953
50
86.2640471
51
90.0526343
0
ARC
8
DEFAULT_255_1_234
10
14.2640955
20
126.3279192
40
0.4178709
50
89.6697524
51
99.2309573
0
ARC
8
DEFAULT_255_1_234
10
14.2398406
20
126.4723964
40
0.2713749
50
99.069534
51
113.7658566
0
ARC
8
DEFAULT_255_1_234
10
14.2124597
20
126.5369677
40
0.2012469
50
114.0401004
51
127.9850673
0
ARC
8
DEFAULT_255_1_234
10
14.1884161
20
126.566573
40
0.1631167
50
127.7287463
51
176.7105154
0
ARC
8
DEFAULT_255_1_234
10
14.2562879
20
126.5564693
40
0.2315392
50
175.1779447
51
180.0581938
0
ARC
8
DEFAULT_255_1_234
10
14.1719726
20
126.5552428
40
0.1472271
50
179.6142195
51
228.1246017
0
ARC
8
DEFAULT_255_1_234
10
14.2161394
20
126.5961308
40
0.2072299
50
226.5779593
51
230.8800004
0
ARC
8
DEFAULT_255_1_234
10
14.2632473
20
126.6586636
40
0.2854818
50
231.4635071
51
241.9260842
0
ARC
8
DEFAULT_255_1_234
10
14.3829651
20
126.87898
40
0.53622
50
241.7178533
51
248.3259551
0
ARC
8
DEFAULT_255_1_234
10
14.5215023
20
127.2222064
40
0.9063478
50
248.2007737
51
252.4528373
0
ARC
8
DEFAULT_255_1_234
10
14.6418748
20
127.5943441
40
1.2974635
50
252.3391078
51
254.3469452
0
ARC
8
DEFAULT_255_1_234
10
13.887645
20
124.8966148
40
1.5037162
50
71.0197183
51
74.4087047
0
ARC
8
DEFAULT_255_1_234
10
14.0571136
20
125.3858111
40
0.9859993
50
66.1847285
51
71.086374
0
ARC
8
DEFAULT_255_1_234
10
14.2127448
20
125.73622
40
0.6025855
50
59.3536294
51
66.2691831
0
ARC
8
DEFAULT_255_1_234
10
14.30161
20
125.8865609
40
0.4279449
50
49.1020879
51
59.3293958
0
ARC
8
DEFAULT_255_1_234
10
14.383484
20
125.9798834
40
0.3038015
50
32.7919921
51
49.2505539
0
ARC
8
DEFAULT_255_1_234
10
14.415593
20
126.0027191
40
0.264448
50
31.1181161
51
32.4005348
0
ARC
8
DEFAULT_255_1_234
10
14.4067468
20
125.9991779
40
0.2738556
50
8.1116974
51
30.7958831
0
ARC
8
DEFAULT_255_1_234
10
14.3257136
20
125.9853753
40
0.3560327
50
359.8389159
51
8.4706516
0
ARC
8
DEFAULT_255_1_234
10
14.3882927
20
125.9805137
40
0.2934776
50
337.4731098
51
0.7537279
0
ARC
8
DEFAULT_255_1_234
10
14.4061622
20
125.9785387
40
0.2762607
50
307.5917067
51
336.4315538
0
ARC
8
DEFAULT_255_1_234
10
14.360145
20
126.0298102
40
0.3449979
50
307.6551545
51
308.4529766
0
ARC
8
DEFAULT_255_1_234
10
14.3371169
20
126.065325
40
0.3871988
50
284.3734338
51
307.1424381
0
ARC
8
DEFAULT_255_1_234
10
14.2875999
20
126.2474932
40
0.5759636
50
272.4382747
51
284.646547
0
ARC
8
DEFAULT_255_1_234
10
14.2749208
20
126.4274893
40
0.7563528
50
269.9708387
51
272.8178037
0
ARC
8
DEFAULT_255_1_234
10
14.2706248
20
126.2236716
40
0.5525489
50
248.2707594
51
270.4055579
0
ARC
8
DEFAULT_255_1_234
10
14.2651989
20
126.2046192
40
0.5328452
50
246.1383403
51
248.0542782
0
ARC
8
DEFAULT_255_1_234
10
14.2233368
20
126.1166843
40
0.4355005
50
233.1670131
51
246.4950969
0
ARC
8
DEFAULT_255_1_234
10
14.1679273
20
126.0418812
40
0.3424126
50
215.3403242
51
233.0843104
0
ARC
8
DEFAULT_255_1_234
10
14.1406704
20
126.0220549
40
0.3087104
50
179.2419209
51
215.2648451
0
ARC
8
DEFAULT_255_1_234
10
14.2174298
20
126.0234666
40
0.2304457
50
179.335461
51
199.1045811
0
ARC
8
DEFAULT_255_1_234
10
14.1841974
20
126.0147766
40
0.1962176
50
199.8828939
51
232.7063202
0
ARC
8
DEFAULT_255_1_234
10
14.2314243
20
126.0741788
40
0.2720938
50
232.3738199
51
255.5136649
0
ARC
8
DEFAULT_255_1_234
10
14.2655109
20
126.1985835
40
0.4010747
50
255.2446292
51
267.5320849
0
ARC
8
DEFAULT_255_1_234
10
14.2742733
20
126.3218702
40
0.5246356
50
267.1557994
51
270.0286766
0
ARC
8
DEFAULT_255_1_234
10
14.2770505
20
126.277495
40
0.4802668
50
269.7000017
51
278.1660162
0
ARC
8
DEFAULT_255_1_234
10
14.302651
20
126.1044515
40
0.3053425
50
278.0231263
51
290.625471
0
ARC
8
DEFAULT_255_1_234
10
14.3374197
20
126.0117025
40
0.206291
50
290.6619762
51
307.0370976
0
ARC
8
DEFAULT_255_1_234
10
14.3674586
20
125.9748504
40
0.1587906
50
306.3943566
51
355.3030547
0
ARC
8
DEFAULT_255_1_234
10
14.3162518
20
125.9825113
40
0.2104809
50
354.3660432
51
0.0698737
0
ARC
8
DEFAULT_255_1_234
10
14.3304863
20
125.9847617
40
0.1962563
50
359.417946
51
16.1971788
0
ARC
8
DEFAULT_255_1_234
10
14.3760173
20
125.9972418
40
0.149053
50
16.4723299
51
52.6262157
0
ARC
8
DEFAULT_255_1_234
10
14.2939227
20
125.8888433
40
0.2850296
50
52.7386432
51
62.4979148
0
ARC
8
DEFAULT_255_1_234
10
14.1554304
20
125.6282283
40
0.5801521
50
62.2515216
51
68.1220564
0
ARC
8
DEFAULT_255_1_234
10
13.9834215
20
125.2054872
40
1.0365451
50
68.0062803
51
71.8053402
0
ARC
8
DEFAULT_255_1_234
10
13.8038586
20
124.6669758
40
1.6042013
50
71.7183119
51
73.9258742
0
LINE
8
DEFAULT_255_1_234
10
14.8182845
20
126.0976218
11
14.8182845
21
126.1249297
0
LINE
8
DEFAULT_255_1_234
10
15.5555981
20
126.1409932
11
15.5555981
21
126.0791488
0
LINE
8
DEFAULT_255_1_234
10
15.5555981
20
126.0791488
11
14.9668717
21
126.0791488
0
LINE
8
DEFAULT_255_1_234
10
15.453595
20
125.9096792
11
15.5443537
21
125.8389999
0
LINE
8
DEFAULT_255_1_234
10
14.9716907
20
126.2012313
11
15.4070109
21
126.2012313
0
LINE
8
DEFAULT_255_1_234
10
15.4070109
20
126.2012313
11
15.4070109
21
126.2124757
0
ARC
8
DEFAULT_255_1_234
10
15.212221
20
126.1087332
40
0.4376191
50
252.3266134
51
270.5810217
0
ARC
8
DEFAULT_255_1_234
10
15.1917299
20
126.0346644
40
0.3608374
50
223.3000567
51
251.8561855
0
ARC
8
DEFAULT_255_1_234
10
15.212866
20
126.0551937
40
0.3902993
50
190.9374509
51
223.3654032
0
ARC
8
DEFAULT_255_1_234
10
15.3853632
20
126.0941885
40
0.5670891
50
179.6531105
51
191.4989439
0
ARC
8
DEFAULT_255_1_234
10
15.3975645
20
126.1281417
40
0.5792888
50
167.4007466
51
180.3176909
0
ARC
8
DEFAULT_255_1_234
10
15.2923706
20
126.1503885
40
0.471777
50
154.1835823
51
167.250763
0
ARC
8
DEFAULT_255_1_234
10
15.2292174
20
126.1836417
40
0.4004528
50
134.3149965
51
154.5315275
0
ARC
8
DEFAULT_255_1_234
10
15.2074669
20
126.2027228
40
0.371612
50
122.8616532
51
133.9707695
0
ARC
8
DEFAULT_255_1_234
10
15.1971243
20
126.2249703
40
0.3473289
50
89.8249009
51
123.4199222
0
ARC
8
DEFAULT_255_1_234
10
15.2021284
20
126.1602967
40
0.4120197
50
74.7876118
51
90.5482747
0
ARC
8
DEFAULT_255_1_234
10
15.2315027
20
126.268803
40
0.2996077
50
39.8178249
51
74.7633718
0
ARC
8
DEFAULT_255_1_234
10
15.1802347
20
126.2288351
40
0.3645855
50
16.8990863
51
39.4829761
0
ARC
8
DEFAULT_255_1_234
10
14.9907644
20
126.1681526
40
0.5635218
50
4.9636328
51
17.2026414
0
ARC
8
DEFAULT_255_1_234
10
14.7489714
20
126.142634
40
0.8066286
50
359.8834553
51
5.2834307
0
ARC
8
DEFAULT_255_1_234
10
15.3527238
20
126.0857803
40
0.3859091
50
180.9846213
51
194.9401313
0
ARC
8
DEFAULT_255_1_234
10
15.2477516
20
126.0570849
40
0.2770883
50
194.80314
51
222.0412631
0
ARC
8
DEFAULT_255_1_234
10
15.2173398
20
126.0269116
40
0.2343055
50
221.5417084
51
268.8614402
0
ARC
8
DEFAULT_255_1_234
10
15.2246393
20
126.0945686
40
0.3021528
50
267.732405
51
270.0097136
0
ARC
8
DEFAULT_255_1_234
10
15.2264203
20
126.1147105
40
0.3222994
50
269.6924892
51
280.4117579
0
ARC
8
DEFAULT_255_1_234
10
15.2440609
20
126.0228193
40
0.2287344
50
280.2255091
51
298.6338936
0
ARC
8
DEFAULT_255_1_234
10
15.2557401
20
125.9984223
40
0.2017294
50
299.0430333
51
300.4643464
0
ARC
8
DEFAULT_255_1_234
10
15.1877407
20
126.1118038
40
0.3339357
50
300.6577328
51
322.0378878
0
ARC
8
DEFAULT_255_1_234
10
15.1526946
20
126.1422021
40
0.3802736
50
321.6750233
51
322.3046845
0
ARC
8
DEFAULT_255_1_234
10
15.2457907
20
126.025537
40
0.3520454
50
276.9728461
51
328.0035423
0
ARC
8
DEFAULT_255_1_234
10
15.218096
20
126.1735841
40
0.5024498
50
269.8361028
51
278.0581756
0
ARC
8
DEFAULT_255_1_234
10
15.1953698
20
126.2480757
40
0.202159
50
89.2018686
51
117.2851756
0
ARC
8
DEFAULT_255_1_234
10
15.2006867
20
126.2438752
40
0.2083484
50
118.0551165
51
137.4540413
0
ARC
8
DEFAULT_255_1_234
10
15.2381607
20
126.2098304
40
0.2589774
50
137.5109581
51
158.8516286
0
ARC
8
DEFAULT_255_1_234
10
15.3519442
20
126.1639074
40
0.38167
50
158.5845963
51
170.1721436
0
ARC
8
DEFAULT_255_1_234
10
15.4688831
20
126.1406823
40
0.5008657
50
169.8376422
51
173.0566086
0
ARC
8
DEFAULT_255_1_234
10
14.9991905
20
126.1917509
40
0.4083467
50
2.9091802
51
12.8847116
0
ARC
8
DEFAULT_255_1_234
10
15.1362582
20
126.2240101
40
0.2675383
50
12.6957781
51
28.6404489
0
ARC
8
DEFAULT_255_1_234
10
15.1904253
20
126.2520458
40
0.2065654
50
29.0169854
51
41.1487595
0
ARC
8
DEFAULT_255_1_234
10
15.2107038
20
126.2697003
40
0.1796786
50
41.1646065
51
85.0013516
0
ARC
8
DEFAULT_255_1_234
10
15.1986134
20
126.1962431
40
0.2539726
50
83.7280015
51
90.0964893
0
LINE
8
DEFAULT_255_1_234
10
16.1475372
20
126.5610531
11
16.1475372
21
126.4229072
0
LINE
8
DEFAULT_255_1_234
10
15.8760645
20
126.3040375
11
15.8760645
21
125.6872
0
LINE
8
DEFAULT_255_1_234
10
15.8760645
20
125.6872
11
15.7274773
21
125.6872
0
LINE
8
DEFAULT_255_1_234
10
15.7274773
20
125.6872
11
15.7274773
21
126.5562341
0
LINE
8
DEFAULT_255_1_234
10
15.7274773
20
126.5562341
11
15.8720486
21
126.5562341
0
LINE
8
DEFAULT_255_1_234
10
15.8720486
20
126.5562341
11
15.8744581
21
126.4558374
0
ARC
8
DEFAULT_255_1_234
10
16.0808778
20
126.0169342
40
0.4114092
50
80.6754243
51
86.8932892
0
ARC
8
DEFAULT_255_1_234
10
16.0748312
20
125.92017
40
0.5083596
50
86.8038578
51
90.0431435
0
ARC
8
DEFAULT_255_1_234
10
16.0711293
20
126.1658866
40
0.2626638
50
89.2759698
51
106.6213787
0
ARC
8
DEFAULT_255_1_234
10
16.0506857
20
126.240183
40
0.1856317
50
107.1346045
51
157.6458115
0
ARC
8
DEFAULT_255_1_234
10
16.1198458
20
126.2018311
40
0.2643398
50
155.6586782
51
157.2539184
0
ARC
8
DEFAULT_255_1_234
10
16.099366
20
126.3187157
40
0.2634121
50
127.8165941
51
148.6302098
0
ARC
8
DEFAULT_255_1_234
10
16.0740129
20
126.3447218
40
0.2273596
50
91.3329982
51
126.7875809
0
ARC
8
DEFAULT_255_1_234
10
16.081607
20
126.2732195
40
0.299078
50
89.986594
51
92.4688449
0
ARC
8
DEFAULT_255_1_234
10
16.0824465
20
126.3007078
40
0.2715908
50
85.3589899
51
90.1623399
0
ARC
8
DEFAULT_255_1_234
10
16.090898
20
126.4011164
40
0.1708278
50
78.401942
51
85.4594656
0
ARC
8
DEFAULT_255_1_234
10
16.1053864
20
126.4702236
40
0.1002194
50
67.7858312
51
78.5728455
0
ARC
8
DEFAULT_255_1_234
10
16.1161717
20
126.4981887
40
0.0702548
50
63.4835954
51
67.3062642
0
LINE
8
DEFAULT_255_1_234
10
16.4455147
20
126.5562341
11
16.4455147
21
125.6872
0
LINE
8
DEFAULT_255_1_234
10
16.4455147
20
125.6872
11
16.2969275
21
125.6872
0
LINE
8
DEFAULT_255_1_234
10
16.2969275
20
125.6872
11
16.2969275
21
126.5562341
0
LINE
8
DEFAULT_255_1_234
10
16.2969275
20
126.5562341
11
16.4455147
21
126.5562341
0
ARC
8
DEFAULT_255_1_234
10
16.3827424
20
126.7876889
40
0.097867
50
161.415052
51
180.5526306
0
ARC
8
DEFAULT_255_1_234
10
16.3703202
20
126.7911077
40
0.0850062
50
138.1827368
51
160.9307106
0
ARC
8
DEFAULT_255_1_234
10
16.3593148
20
126.8006588
40
0.0704362
50
104.6368899
51
138.0039868
0
ARC
8
DEFAULT_255_1_234
10
16.3700303
20
126.7639963
40
0.1086221
50
92.0600725
51
105.2189128
0
ARC
8
DEFAULT_255_1_234
10
16.3723651
20
126.7297117
40
0.1429728
50
89.9756393
51
92.5012496
0
ARC
8
DEFAULT_255_1_234
10
16.373367
20
126.7522731
40
0.1204151
50
78.0235316
51
90.4478182
0
ARC
8
DEFAULT_255_1_234
10
16.3825762
20
126.7936295
40
0.0780493
50
55.051506
51
78.3369085
0
ARC
8
DEFAULT_255_1_234
10
16.3876037
20
126.8020711
40
0.0682538
50
42.0501187
51
54.4513741
0
ARC
8
DEFAULT_255_1_234
10
16.3740904
20
126.7896798
40
0.0865878
50
1.7497075
51
42.1496013
0
ARC
8
DEFAULT_255_1_234
10
16.3486237
20
126.7867738
40
0.1121515
50
359.9852656
51
2.8364544
0
ARC
8
DEFAULT_255_1_234
10
16.3652229
20
126.7858229
40
0.0955566
50
342.1070653
51
0.552888
0
ARC
8
DEFAULT_255_1_234
10
16.3794926
20
126.7818904
40
0.0807713
50
316.7107116
51
341.6516965
0
ARC
8
DEFAULT_255_1_234
10
16.3861963
20
126.7758823
40
0.0717724
50
285.4397031
51
316.5324284
0
ARC
8
DEFAULT_255_1_234
10
16.375188
20
126.8124554
40
0.1099597
50
272.3547054
51
285.8953117
0
ARC
8
DEFAULT_255_1_234
10
16.3725038
20
126.8490048
40
0.1465932
50
269.9695369
51
272.8160237
0
ARC
8
DEFAULT_255_1_234
10
16.371522
20
126.8270863
40
0.1246779
50
258.8431134
51
270.4153935
0
ARC
8
DEFAULT_255_1_234
10
16.3625262
20
126.7835414
40
0.0802162
50
238.5431189
51
259.1288175
0
ARC
8
DEFAULT_255_1_234
10
16.3557147
20
126.7711856
40
0.0661247
50
222.5062634
51
237.9906969
0
ARC
8
DEFAULT_255_1_234
10
16.3684734
20
126.7827889
40
0.0833707
50
184.1069131
51
222.460413
0
ARC
8
DEFAULT_255_1_234
10
16.3953975
20
126.7866349
40
0.1105176
50
179.9429482
51
185.0960898
0
LINE
8
DEFAULT_255_1_234
10
16.645505
20
126.0976218
11
16.645505
21
126.1249297
0
LINE
8
DEFAULT_255_1_234
10
17.3828186
20
126.1409932
11
17.3828186
21
126.0791488
0
LINE
8
DEFAULT_255_1_234
10
17.3828186
20
126.0791488
11
16.7940921
21
126.0791488
0
LINE
8
DEFAULT_255_1_234
10
17.2808155
20
125.9096792
11
17.3715741
21
125.8389999
0
LINE
8
DEFAULT_255_1_234
10
16.7989112
20
126.2012313
11
17.2342314
21
126.2012313
0
LINE
8
DEFAULT_255_1_234
10
17.2342314
20
126.2012313
11
17.2342314
21
126.2124757
0
ARC
8
DEFAULT_255_1_234
10
17.0394415
20
126.1087332
40
0.4376191
50
252.3266134
51
270.5810217
0
ARC
8
DEFAULT_255_1_234
10
17.0189504
20
126.0346644
40
0.3608374
50
223.3000567
51
251.8561855
0
ARC
8
DEFAULT_255_1_234
10
17.0400865
20
126.0551937
40
0.3902993
50
190.9374509
51
223.3654032
0
ARC
8
DEFAULT_255_1_234
10
17.2125837
20
126.0941885
40
0.5670891
50
179.6531105
51
191.4989439
0
ARC
8
DEFAULT_255_1_234
10
17.2247849
20
126.1281417
40
0.5792888
50
167.4007466
51
180.3176909
0
ARC
8
DEFAULT_255_1_234
10
17.1195911
20
126.1503885
40
0.471777
50
154.1835823
51
167.250763
0
ARC
8
DEFAULT_255_1_234
10
17.0564378
20
126.1836417
40
0.4004528
50
134.3149965
51
154.5315275
0
ARC
8
DEFAULT_255_1_234
10
17.0346873
20
126.2027228
40
0.371612
50
122.8616532
51
133.9707695
0
ARC
8
DEFAULT_255_1_234
10
17.0243447
20
126.2249703
40
0.3473289
50
89.8249009
51
123.4199222
0
ARC
8
DEFAULT_255_1_234
10
17.0293488
20
126.1602967
40
0.4120197
50
74.7876118
51
90.5482747
0
ARC
8
DEFAULT_255_1_234
10
17.0587232
20
126.268803
40
0.2996077
50
39.8178249
51
74.7633718
0
ARC
8
DEFAULT_255_1_234
10
17.0074552
20
126.2288351
40
0.3645855
50
16.8990863
51
39.4829761
0
ARC
8
DEFAULT_255_1_234
10
16.8179848
20
126.1681526
40
0.5635218
50
4.9636328
51
17.2026414
0
ARC
8
DEFAULT_255_1_234
10
16.5761918
20
126.142634
40
0.8066286
50
359.8834553
51
5.2834307
0
ARC
8
DEFAULT_255_1_234
10
17.1799443
20
126.0857803
40
0.3859091
50
180.9846213
51
194.9401313
0
ARC
8
DEFAULT_255_1_234
10
17.0749721
20
126.0570849
40
0.2770883
50
194.80314
51
222.0412631
0
ARC
8
DEFAULT_255_1_234
10
17.0445603
20
126.0269116
40
0.2343055
50
221.5417084
51
268.8614402
0
ARC
8
DEFAULT_255_1_234
10
17.0518597
20
126.0945686
40
0.3021528
50
267.732405
51
270.0097136
0
ARC
8
DEFAULT_255_1_234
10
17.0536407
20
126.1147105
40
0.3222994
50
269.6924892
51
280.4117579
0
ARC
8
DEFAULT_255_1_234
10
17.0712814
20
126.0228193
40
0.2287344
50
280.2255091
51
298.6338936
0
ARC
8
DEFAULT_255_1_234
10
17.0829606
20
125.9984223
40
0.2017294
50
299.0430333
51
300.4643464
0
ARC
8
DEFAULT_255_1_234
10
17.0149611
20
126.1118038
40
0.3339357
50
300.6577328
51
322.0378878
0
ARC
8
DEFAULT_255_1_234
10
16.9799151
20
126.1422021
40
0.3802736
50
321.6750233
51
322.3046845
0
ARC
8
DEFAULT_255_1_234
10
17.0730112
20
126.025537
40
0.3520454
50
276.9728461
51
328.0035423
0
ARC
8
DEFAULT_255_1_234
10
17.0453165
20
126.1735841
40
0.5024498
50
269.8361028
51
278.0581756
0
ARC
8
DEFAULT_255_1_234
10
17.0225902
20
126.2480757
40
0.202159
50
89.2018686
51
117.2851756
0
ARC
8
DEFAULT_255_1_234
10
17.0279071
20
126.2438752
40
0.2083484
50
118.0551165
51
137.4540413
0
ARC
8
DEFAULT_255_1_234
10
17.0653811
20
126.2098304
40
0.2589774
50
137.5109581
51
158.8516286
0
ARC
8
DEFAULT_255_1_234
10
17.1791647
20
126.1639074
40
0.38167
50
158.5845963
51
170.1721436
0
ARC
8
DEFAULT_255_1_234
10
17.2961036
20
126.1406823
40
0.5008657
50
169.8376422
51
173.0566086
0
ARC
8
DEFAULT_255_1_234
10
16.826411
20
126.1917509
40
0.4083467
50
2.9091802
51
12.8847116
0
ARC
8
DEFAULT_255_1_234
10
16.9634786
20
126.2240101
40
0.2675383
50
12.6957781
51
28.6404489
0
ARC
8
DEFAULT_255_1_234
10
17.0176457
20
126.2520458
40
0.2065654
50
29.0169854
51
41.1487595
0
ARC
8
DEFAULT_255_1_234
10
17.0379242
20
126.2697003
40
0.1796786
50
41.1646065
51
85.0013516
0
ARC
8
DEFAULT_255_1_234
10
17.0258339
20
126.1962431
40
0.2539726
50
83.7280015
51
90.0964893
0
LINE
8
DEFAULT_255_1_234
10
18.2012527
20
126.3008248
11
18.0518624
21
126.3008248
0
LINE
8
DEFAULT_255_1_234
10
17.5185549
20
125.9546569
11
17.6671421
21
125.9546569
0
ARC
8
DEFAULT_255_1_234
10
17.9330442
20
125.9191959
40
0.1276617
50
359.3334982
51
18.5871358
0
ARC
8
DEFAULT_255_1_234
10
17.9539079
20
125.9247133
40
0.1061371
50
19.3540742
51
54.6485071
0
ARC
8
DEFAULT_255_1_234
10
17.9034981
20
125.8551919
40
0.1920087
50
54.3827097
51
65.0622807
0
ARC
8
DEFAULT_255_1_234
10
17.8266378
20
125.69349
40
0.3710447
50
64.8282493
51
71.4200025
0
ARC
8
DEFAULT_255_1_234
10
17.7364253
20
125.4288107
40
0.6506741
50
71.3164301
51
75.8006402
0
ARC
8
DEFAULT_255_1_234
10
17.6523073
20
125.1047561
40
0.9854641
50
75.6809531
51
78.0061883
0
ARC
8
DEFAULT_255_1_234
10
18.0971606
20
127.202677
40
1.1591028
50
254.6901892
51
258.0466452
0
ARC
8
DEFAULT_255_1_234
10
17.9933515
20
126.8267781
40
0.7691345
50
249.9010773
51
254.755261
0
ARC
8
DEFAULT_255_1_234
10
17.8929857
20
126.5541982
40
0.478665
50
243.3097214
51
249.9709442
0
ARC
8
DEFAULT_255_1_234
10
17.8300878
20
126.4287778
40
0.3383568
50
234.4047477
51
243.2862168
0
ARC
8
DEFAULT_255_1_234
10
17.7678401
20
126.3428232
40
0.2322322
50
220.8667099
51
234.5493881
0
ARC
8
DEFAULT_255_1_234
10
17.7336342
20
126.3116817
40
0.1859923
50
214.3062465
51
220.5065136
0
ARC
8
DEFAULT_255_1_234
10
17.7310422
20
126.308588
40
0.1821108
50
186.912965
51
213.9618616
0
ARC
8
DEFAULT_255_1_234
10
17.7842516
20
126.3172009
40
0.2359799
50
179.8808832
51
187.4339886
0
ARC
8
DEFAULT_255_1_234
10
17.768765
20
126.3192088
40
0.2204978
50
132.005434
51
180.3942919
0
ARC
8
DEFAULT_255_1_234
10
17.8344263
20
126.2586083
40
0.3095791
50
129.2319861
51
133.5302299
0
ARC
8
DEFAULT_255_1_234
10
17.8397771
20
126.2491928
40
0.3202615
50
100.4410011
51
128.9081242
0
ARC
8
DEFAULT_255_1_234
10
17.8671655
20
126.1206455
40
0.4516583
50
89.6985377
51
100.9026564
0
ARC
8
DEFAULT_255_1_234
10
17.8728697
20
126.1046166
40
0.4676928
50
77.6965325
51
90.4076836
0
ARC
8
DEFAULT_255_1_234
10
17.9059681
20
126.2473413
40
0.3211988
50
50.7276602
51
78.0399361
0
ARC
8
DEFAULT_255_1_234
10
17.950414
20
126.2991296
40
0.2529778
50
25.7545084
51
51.0957453
0
ARC
8
DEFAULT_255_1_234
10
17.9505364
20
126.3041206
40
0.250738
50
359.2468627
51
24.7394243
0
ARC
8
DEFAULT_255_1_234
10
17.9220816
20
126.3012664
40
0.1297815
50
359.8050318
51
45.1544908
0
ARC
8
DEFAULT_255_1_234
10
17.8813958
20
126.2664794
40
0.1831883
50
43.8047702
51
49.6271585
0
ARC
8
DEFAULT_255_1_234
10
17.882186
20
126.2665678
40
0.18261
50
49.7980766
51
82.1218353
0
ARC
8
DEFAULT_255_1_234
10
17.8702831
20
126.2018998
40
0.2483163
50
81.4465357
51
90.1710293
0
ARC
8
DEFAULT_255_1_234
10
17.8678434
20
126.149288
40
0.300932
50
89.6766211
51
99.1264602
0
ARC
8
DEFAULT_255_1_234
10
17.8506896
20
126.2526537
40
0.1961547
50
98.968313
51
113.4570237
0
ARC
8
DEFAULT_255_1_234
10
17.8310981
20
126.2994965
40
0.1453859
50
113.722589
51
127.4763106
0
ARC
8
DEFAULT_255_1_234
10
17.8142627
20
126.3195124
40
0.1192639
50
126.9083309
51
150.3165862
0
ARC
8
DEFAULT_255_1_234
10
17.809496
20
126.3245981
40
0.112623
50
151.3635175
51
180.0701457
0
ARC
8
DEFAULT_255_1_234
10
17.8403745
20
126.322499
40
0.1435149
50
179.2169974
51
179.9954013
0
ARC
8
DEFAULT_255_1_234
10
17.8042802
20
126.3212056
40
0.1074286
50
179.3040112
51
198.4225446
0
ARC
8
DEFAULT_255_1_234
10
17.7850936
20
126.3162127
40
0.0876573
50
199.2895851
51
238.6034594
0
ARC
8
DEFAULT_255_1_234
10
17.8453782
20
126.410845
40
0.1998512
50
237.9846301
51
246.8744712
0
ARC
8
DEFAULT_255_1_234
10
17.9311727
20
126.6071205
40
0.4140547
50
246.6234531
51
251.8168941
0
ARC
8
DEFAULT_255_1_234
10
18.0342271
20
126.9165905
40
0.7402308
50
251.713434
51
255.0778414
0
ARC
8
DEFAULT_255_1_234
10
18.1541533
20
127.3632563
40
1.2027155
50
255.0367487
51
257.4705983
0
ARC
8
DEFAULT_255_1_234
10
17.6433543
20
125.0618863
40
1.1546601
50
73.6837552
51
77.5016755
0
ARC
8
DEFAULT_255_1_234
10
17.7522318
20
125.4318581
40
0.7690009
50
68.7044154
51
73.7249639
0
ARC
8
DEFAULT_255_1_234
10
17.8425339
20
125.6645654
40
0.5193873
50
63.590599
51
68.6626804
0
ARC
8
DEFAULT_255_1_234
10
17.9196358
20
125.8183123
40
0.3473927
50
54.7106439
51
63.7013633
0
ARC
8
DEFAULT_255_1_234
10
17.9820812
20
125.90554
40
0.2401192
50
41.0622434
51
54.8487496
0
ARC
8
DEFAULT_255_1_234
10
18.0162199
20
125.9368592
40
0.1938094
50
34.4950568
51
40.7105546
0
ARC
8
DEFAULT_255_1_234
10
18.0209006
20
125.9417078
40
0.1872106
50
9.3763373
51
34.0833615
0
ARC
8
DEFAULT_255_1_234
10
17.9555876
20
125.9291728
40
0.2536988
50
359.7694872
51
9.7663171
0
ARC
8
DEFAULT_255_1_234
10
17.9753377
20
125.9248764
40
0.2339696
50
335.8654732
51
0.8022045
0
ARC
8
DEFAULT_255_1_234
10
17.9828422
20
125.9262197
40
0.2277108
50
307.7357725
51
334.7849066
0
ARC
8
DEFAULT_255_1_234
10
17.9427597
20
125.9712645
40
0.2878951
50
307.0241536
51
308.5578354
0
ARC
8
DEFAULT_255_1_234
10
17.9169929
20
126.0098801
40
0.3342515
50
282.9362969
51
306.5646424
0
ARC
8
DEFAULT_255_1_234
10
17.8808226
20
126.1566108
40
0.4853615
50
271.1026298
51
283.2200835
0
ARC
8
DEFAULT_255_1_234
10
17.874447
20
126.2807418
40
0.6096052
50
269.9919117
51
271.4772449
0
ARC
8
DEFAULT_255_1_234
10
17.8718225
20
126.1729436
40
0.5018135
50
259.0723564
51
270.289833
0
ARC
8
DEFAULT_255_1_234
10
17.8505957
20
126.0612271
40
0.388099
50
245.4963068
51
259.0227342
0
ARC
8
DEFAULT_255_1_234
10
17.8227914
20
126.0030615
40
0.3236422
50
228.9684658
51
245.7044727
0
ARC
8
DEFAULT_255_1_234
10
17.7962357
20
125.9703575
40
0.2815426
50
214.4011705
51
228.6759915
0
ARC
8
DEFAULT_255_1_234
10
17.7673098
20
125.954529
40
0.2487548
50
179.9705531
51
215.1572795
0
ARC
8
DEFAULT_255_1_234
10
17.8373698
20
125.9618806
40
0.1703809
50
182.4299387
51
203.0329699
0
ARC
8
DEFAULT_255_1_234
10
17.8189355
20
125.9562396
40
0.1512226
50
203.798802
51
232.548466
0
ARC
8
DEFAULT_255_1_234
10
17.8465877
20
125.9913826
40
0.1959374
50
232.3782728
51
256.3934612
0
ARC
8
DEFAULT_255_1_234
10
17.8696238
20
126.0803842
40
0.2878639
50
256.104506
51
268.4626716
0
ARC
8
DEFAULT_255_1_234
10
17.8742723
20
126.1600487
40
0.3676329
50
268.0715632
51
270.0138206
0
ARC
8
DEFAULT_255_1_234
10
17.8761247
20
126.1328083
40
0.3403971
50
269.7031147
51
278.8341955
0
ARC
8
DEFAULT_255_1_234
10
17.8943341
20
126.0197876
40
0.2259217
50
278.6728789
51
292.8232582
0
ARC
8
DEFAULT_255_1_234
10
17.9143879
20
125.9696449
40
0.171929
50
293.1452328
51
303.6655899
0
ARC
8
DEFAULT_255_1_234
10
17.9408758
20
125.9320204
40
0.1259367
50
303.1248165
51
321.742847
0
ARC
8
DEFAULT_255_1_234
10
17.9594638
20
125.9157156
40
0.1012531
50
322.4748573
51
1.1291126
0
LINE
8
DEFAULT_255_2_778
10
20.1088417
20
117.6072568
11
18.7859417
21
117.6072568
0
LINE
8
DEFAULT_255_2_778
10
18.7859417
20
117.6072568
11
18.7859417
21
64.0291568
0
LINE
8
DEFAULT_255_2_778
10
18.7859417
20
58.7374568
11
18.7859417
21
5.1593568
0
LINE
8
DEFAULT_255_2_778
10
18.7859417
20
5.1593568
11
20.1088417
21
5.1593568
0
LINE
8
DEFAULT_255_2_778
10
17.4629834
20
64.0291333
11
20.1087834
21
64.0291333
0
LINE
8
DEFAULT_255_2_778
10
20.1087834
20
64.0291333
11
20.1087834
21
58.7374333
0
LINE
8
DEFAULT_255_2_778
10
20.1087834
20
58.7374333
11
17.4629834
21
58.7374333
0
LINE
8
DEFAULT_255_2_778
10
17.4629834
20
58.7374333
11
17.4629834
21
64.0291333
0
LINE
8
DEFAULT_255_2_778
10
18.2568
20
59.2666666
11
18.2568
21
63.4999666
0
LINE
8
DEFAULT_255_2_778
10
17.9922167
20
62.706275
11
18.2568167
21
63.499975
0
LINE
8
DEFAULT_255_2_778
10
18.2568167
20
63.499975
11
18.5214167
21
62.706275
0
LINE
8
DEFAULT_255_2_778
10
18.5214167
20
62.706275
11
17.9922167
21
62.706275
0
LINE
8
DEFAULT_255_2_778
10
19.3151
20
63.4999666
11
19.3151
21
59.2666666
0
LINE
8
DEFAULT_255_2_778
10
19.0505167
20
60.060375
11
19.3151167
21
59.266675
0
LINE
8
DEFAULT_255_2_778
10
19.3151167
20
59.266675
11
19.5797167
21
60.060375
0
LINE
8
DEFAULT_255_2_778
10
19.5797167
20
60.060375
11
19.0505167
21
60.060375
0
LINE
8
DEFAULT_255_1_234
10
4.3926522
20
124.8723211
11
4.7251662
21
123.9077093
0
LINE
8
DEFAULT_255_1_234
10
4.7251662
20
123.9077093
11
5.0592865
21
124.8723211
0
LINE
8
DEFAULT_255_1_234
10
5.0592865
20
124.8723211
11
5.227953
21
124.8723211
0
LINE
8
DEFAULT_255_1_234
10
5.227953
20
124.8723211
11
4.7942391
21
123.7029
0
LINE
8
DEFAULT_255_1_234
10
4.7942391
20
123.7029
11
4.6576996
21
123.7029
0
LINE
8
DEFAULT_255_1_234
10
4.6576996
20
123.7029
11
4.2247889
21
124.8723211
0
LINE
8
DEFAULT_255_1_234
10
4.2247889
20
124.8723211
11
4.3926522
21
124.8723211
0
LINE
8
DEFAULT_255_1_234
10
5.786962
20
124.6715276
11
5.786962
21
124.3301788
0
LINE
8
DEFAULT_255_1_234
10
5.786962
20
124.3301788
11
6.1130505
21
124.3301788
0
LINE
8
DEFAULT_255_1_234
10
6.1130505
20
124.3301788
11
6.1130505
21
124.1896233
0
LINE
8
DEFAULT_255_1_234
10
6.1130505
20
124.1896233
11
5.786962
21
124.1896233
0
LINE
8
DEFAULT_255_1_234
10
5.786962
20
124.1896233
11
5.786962
21
123.8201634
0
LINE
8
DEFAULT_255_1_234
10
5.786962
20
123.8201634
11
5.6375716
21
123.8201634
0
LINE
8
DEFAULT_255_1_234
10
5.6375716
20
123.8201634
11
5.6375716
21
124.1896233
0
LINE
8
DEFAULT_255_1_234
10
5.6375716
20
124.1896233
11
5.3114831
21
124.1896233
0
LINE
8
DEFAULT_255_1_234
10
5.3114831
20
124.1896233
11
5.3114831
21
124.3301788
0
LINE
8
DEFAULT_255_1_234
10
5.3114831
20
124.3301788
11
5.6375716
21
124.3301788
0
LINE
8
DEFAULT_255_1_234
10
5.6375716
20
124.3301788
11
5.6375716
21
124.6715276
0
LINE
8
DEFAULT_255_1_234
10
5.6375716
20
124.6715276
11
5.786962
21
124.6715276
0
LINE
8
DEFAULT_255_1_234
10
23.0665522
20
124.8723211
11
23.3990662
21
123.9077093
0
LINE
8
DEFAULT_255_1_234
10
23.3990662
20
123.9077093
11
23.7331865
21
124.8723211
0
LINE
8
DEFAULT_255_1_234
10
23.7331865
20
124.8723211
11
23.901853
21
124.8723211
0
LINE
8
DEFAULT_255_1_234
10
23.901853
20
124.8723211
11
23.4681391
21
123.7029
0
LINE
8
DEFAULT_255_1_234
10
23.4681391
20
123.7029
11
23.3315996
21
123.7029
0
LINE
8
DEFAULT_255_1_234
10
23.3315996
20
123.7029
11
22.8986889
21
124.8723211
0
LINE
8
DEFAULT_255_1_234
10
22.8986889
20
124.8723211
11
23.0665522
21
124.8723211
0
LINE
8
DEFAULT_255_1_234
10
24.3146843
20
124.2603026
11
24.3146843
21
124.1390234
0
LINE
8
DEFAULT_255_1_234
10
24.3146843
20
124.1390234
11
23.9227355
21
124.1390234
0
LINE
8
DEFAULT_255_1_234
10
23.9227355
20
124.1390234
11
23.9227355
21
124.2603026
0
LINE
8
DEFAULT_255_1_234
10
23.9227355
20
124.2603026
11
24.3146843
21
124.2603026
0
LINE
8
DEFAULT_255_1_234
10
21.6753458
20
5.8098211
11
21.9789456
21
5.222701
0
LINE
8
DEFAULT_255_1_234
10
21.9789456
20
5.222701
11
22.2841516
21
5.8098211
0
LINE
8
DEFAULT_255_1_234
10
22.2841516
20
5.8098211
11
22.4592435
21
5.8098211
0
LINE
8
DEFAULT_255_1_234
10
22.4592435
20
5.8098211
11
22.0560502
21
5.0765234
0
LINE
8
DEFAULT_255_1_234
10
22.0560502
20
5.0765234
11
22.0560502
21
4.6404
0
LINE
8
DEFAULT_255_1_234
10
22.0560502
20
4.6404
11
21.9018409
21
4.6404
0
LINE
8
DEFAULT_255_1_234
10
21.9018409
20
4.6404
11
21.9018409
21
5.0765234
0
LINE
8
DEFAULT_255_1_234
10
21.9018409
20
5.0765234
11
21.4986476
21
5.8098211
0
LINE
8
DEFAULT_255_1_234
10
21.4986476
20
5.8098211
11
21.6753458
21
5.8098211
0
LINE
8
DEFAULT_255_1_234
10
23.0600175
20
5.8154433
11
23.0600175
21
4.6404
0
LINE
8
DEFAULT_255_1_234
10
23.0600175
20
4.6404
11
22.9106272
21
4.6404
0
LINE
8
DEFAULT_255_1_234
10
22.9106272
20
4.6404
11
22.9106272
21
5.6307133
0
LINE
8
DEFAULT_255_1_234
10
22.9106272
20
5.6307133
11
22.6110434
21
5.5206785
0
LINE
8
DEFAULT_255_1_234
10
22.6110434
20
5.5206785
11
22.6110434
21
5.6556117
0
LINE
8
DEFAULT_255_1_234
10
22.6110434
20
5.6556117
11
23.0367255
21
5.8154433
0
LINE
8
DEFAULT_255_1_234
10
23.0367255
20
5.8154433
11
23.0600175
21
5.8154433
0
LINE
8
DEFAULT_255_1_234
10
23.9836674
20
5.8154433
11
23.9836674
21
4.6404
0
LINE
8
DEFAULT_255_1_234
10
23.9836674
20
4.6404
11
23.8342771
21
4.6404
0
LINE
8
DEFAULT_255_1_234
10
23.8342771
20
4.6404
11
23.8342771
21
5.6307133
0
LINE
8
DEFAULT_255_1_234
10
23.8342771
20
5.6307133
11
23.5346933
21
5.5206785
0
LINE
8
DEFAULT_255_1_234
10
23.5346933
20
5.5206785
11
23.5346933
21
5.6556117
0
LINE
8
DEFAULT_255_1_234
10
23.5346933
20
5.6556117
11
23.9603754
21
5.8154433
0
LINE
8
DEFAULT_255_1_234
10
23.9603754
20
5.8154433
11
23.9836674
21
5.8154433
0
LINE
8
DEFAULT_255_1_234
10
21.6674458
20
13.7473211
11
21.9710456
21
13.160201
0
LINE
8
DEFAULT_255_1_234
10
21.9710456
20
13.160201
11
22.2762516
21
13.7473211
0
LINE
8
DEFAULT_255_1_234
10
22.2762516
20
13.7473211
11
22.4513435
21
13.7473211
0
LINE
8
DEFAULT_255_1_234
10
22.4513435
20
13.7473211
11
22.0481502
21
13.0140234
0
LINE
8
DEFAULT_255_1_234
10
22.0481502
20
13.0140234
11
22.0481502
21
12.5779
0
LINE
8
DEFAULT_255_1_234
10
22.0481502
20
12.5779
11
21.8939409
21
12.5779
0
LINE
8
DEFAULT_255_1_234
10
21.8939409
20
12.5779
11
21.8939409
21
13.0140234
0
LINE
8
DEFAULT_255_1_234
10
21.8939409
20
13.0140234
11
21.4907476
21
13.7473211
0
LINE
8
DEFAULT_255_1_234
10
21.4907476
20
13.7473211
11
21.6674458
21
13.7473211
0
LINE
8
DEFAULT_255_1_234
10
23.0521175
20
13.7529433
11
23.0521175
21
12.5779
0
LINE
8
DEFAULT_255_1_234
10
23.0521175
20
12.5779
11
22.9027272
21
12.5779
0
LINE
8
DEFAULT_255_1_234
10
22.9027272
20
12.5779
11
22.9027272
21
13.5682133
0
LINE
8
DEFAULT_255_1_234
10
22.9027272
20
13.5682133
11
22.6031434
21
13.4581785
0
LINE
8
DEFAULT_255_1_234
10
22.6031434
20
13.4581785
11
22.6031434
21
13.5931117
0
LINE
8
DEFAULT_255_1_234
10
22.6031434
20
13.5931117
11
23.0288255
21
13.7529433
0
LINE
8
DEFAULT_255_1_234
10
23.0288255
20
13.7529433
11
23.0521175
21
13.7529433
0
LINE
8
DEFAULT_255_1_234
10
24.2207354
20
13.2694327
11
24.2207354
21
13.0766709
0
LINE
8
DEFAULT_255_1_234
10
23.4826187
20
13.0565916
11
23.4826187
21
13.2549755
0
LINE
8
DEFAULT_255_1_234
10
24.0721483
20
13.0365123
11
24.0721483
21
13.2798739
0
LINE
8
DEFAULT_255_1_234
10
23.6312059
20
13.2911184
11
23.6312059
21
13.0533789
0
ARC
8
DEFAULT_255_1_234
10
22.9960244
20
13.0717805
40
1.2247208
50
353.8441951
51
0.2287902
0
ARC
8
DEFAULT_255_1_234
10
23.4599748
20
13.0199806
40
0.7578929
50
344.4934747
51
353.9765454
0
ARC
8
DEFAULT_255_1_234
10
23.7592338
20
12.9348981
40
0.4467846
50
329.2803592
51
344.7472793
0
ARC
8
DEFAULT_255_1_234
10
23.8585163
20
12.8804018
40
0.3336173
50
324.9352394
51
328.6160465
0
ARC
8
DEFAULT_255_1_234
10
23.8962272
20
12.8540427
40
0.2876076
50
280.580143
51
324.9173126
0
ARC
8
DEFAULT_255_1_234
10
23.8561064
20
13.0211099
40
0.4592847
50
269.5977311
51
281.6734359
0
ARC
8
DEFAULT_255_1_234
10
23.848897
20
13.0091173
40
0.4472986
50
256.6228859
51
270.51044
0
ARC
8
DEFAULT_255_1_234
10
23.8086948
20
12.8542877
40
0.2873874
50
215.8618325
51
257.2788573
0
ARC
8
DEFAULT_255_1_234
10
23.9107979
20
12.9227977
40
0.4102928
50
197.9693508
51
215.2623606
0
ARC
8
DEFAULT_255_1_234
10
24.1593095
20
13.0066709
40
0.6725652
50
187.8816417
51
198.2346507
0
ARC
8
DEFAULT_255_1_234
10
24.5551303
20
13.0638079
40
1.0724845
50
180.8976217
51
188.0055519
0
ARC
8
DEFAULT_255_1_234
10
24.8351491
20
13.0741777
40
1.3526448
50
180.7449369
51
181.1510016
0
ARC
8
DEFAULT_255_1_234
10
24.677422
20
13.2598042
40
1.1948131
50
173.7675579
51
180.231553
0
ARC
8
DEFAULT_255_1_234
10
24.2256367
20
13.3108666
40
0.7401564
50
164.3058563
51
173.9002247
0
ARC
8
DEFAULT_255_1_234
10
23.9344436
20
13.3947656
40
0.4371288
50
148.7922025
51
164.568378
0
ARC
8
DEFAULT_255_1_234
10
23.8392888
20
13.4478929
40
0.3282386
50
144.5883898
51
148.1176286
0
ARC
8
DEFAULT_255_1_234
10
23.8049786
20
13.4718315
40
0.2864044
50
101.6440918
51
144.514236
0
ARC
8
DEFAULT_255_1_234
10
23.8474853
20
13.3029069
40
0.4604934
50
89.5284041
51
102.5819763
0
ARC
8
DEFAULT_255_1_234
10
23.855394
20
13.2990018
40
0.464401
50
77.0437873
51
90.5081339
0
ARC
8
DEFAULT_255_1_234
10
23.8955942
20
13.4632615
40
0.2953195
50
48.2778575
51
77.4994676
0
ARC
8
DEFAULT_255_1_234
10
23.9028573
20
13.4761746
40
0.2808655
50
36.3142134
51
47.6305865
0
ARC
8
DEFAULT_255_1_234
10
23.815988
20
13.4176515
40
0.3855453
50
18.2931786
51
35.6769206
0
ARC
8
DEFAULT_255_1_234
10
23.5616639
20
13.3303593
40
0.654423
50
8.024666
51
18.5605216
0
ARC
8
DEFAULT_255_1_234
10
23.1453559
20
13.2688792
40
1.0752407
50
1.1274072
51
8.1718305
0
ARC
8
DEFAULT_255_1_234
10
22.821775
20
13.2561885
40
1.3990231
50
0.5424119
51
1.3863029
0
ARC
8
DEFAULT_255_1_234
10
23.0039128
20
13.2834342
40
1.0682415
50
359.8090433
51
4.9407866
0
ARC
8
DEFAULT_255_1_234
10
23.4249142
20
13.3210113
40
0.6455691
50
4.8362157
51
12.2904523
0
ARC
8
DEFAULT_255_1_234
10
23.7004256
20
13.3823965
40
0.3633074
50
12.0805627
51
23.8173984
0
ARC
8
DEFAULT_255_1_234
10
23.8177962
20
13.4320919
40
0.2358723
50
24.2871213
51
31.3935614
0
ARC
8
DEFAULT_255_1_234
10
23.8702659
20
13.4664233
40
0.1732111
50
30.7407893
51
82.4657128
0
ARC
8
DEFAULT_255_1_234
10
23.8522793
20
13.3780691
40
0.263235
50
81.1060089
51
90.2184952
0
ARC
8
DEFAULT_255_1_234
10
23.8487092
20
13.4038924
40
0.2374236
50
89.3806855
51
105.6762551
0
ARC
8
DEFAULT_255_1_234
10
23.8303723
20
13.4705567
40
0.1682847
50
105.7981136
51
149.7388061
0
ARC
8
DEFAULT_255_1_234
10
23.9367801
20
13.406595
40
0.2924306
50
149.4208916
51
163.6286378
0
ARC
8
DEFAULT_255_1_234
10
24.1458689
20
13.342825
40
0.5110213
50
163.3763315
51
172.1410975
0
ARC
8
DEFAULT_255_1_234
10
24.4759408
20
13.2955518
40
0.8444586
50
172.0259487
51
178.0703232
0
ARC
8
DEFAULT_255_1_234
10
24.7789498
20
13.2811906
40
1.1477868
50
177.8631668
51
179.5044149
0
ARC
8
DEFAULT_255_1_234
10
24.6716902
20
13.0497389
40
1.0404907
50
179.7995573
51
185.2460446
0
ARC
8
DEFAULT_255_1_234
10
24.2673941
20
13.0114513
40
0.6343885
50
185.1411642
51
193.0079639
0
ARC
8
DEFAULT_255_1_234
10
24.0030414
20
12.9489641
40
0.3627568
50
192.7897626
51
205.2507664
0
ARC
8
DEFAULT_255_1_234
10
23.8983961
20
12.9022415
40
0.2481908
50
205.8005384
51
211.2537509
0
ARC
8
DEFAULT_255_1_234
10
23.8460401
20
12.867158
40
0.1852521
50
210.3789793
51
238.4008143
0
ARC
8
DEFAULT_255_1_234
10
23.8440923
20
12.8718376
40
0.1882621
50
239.6520629
51
265.9793761
0
ARC
8
DEFAULT_255_1_234
10
23.8526123
20
12.9390427
40
0.2559272
50
265.1315437
51
270.060332
0
ARC
8
DEFAULT_255_1_234
10
23.8554902
20
12.9066534
40
0.2235528
50
269.3314664
51
287.2178029
0
ARC
8
DEFAULT_255_1_234
10
23.8692754
20
12.8563279
40
0.1714108
50
287.7958004
51
329.080874
0
ARC
8
DEFAULT_255_1_234
10
23.7735211
20
12.916093
40
0.2842745
50
328.6634704
51
343.3325132
0
ARC
8
DEFAULT_255_1_234
10
23.5562231
20
12.9837863
40
0.5118644
50
343.0499468
51
351.9393422
0
ARC
8
DEFAULT_255_1_234
10
23.2095531
20
13.0348949
40
0.8622784
50
351.8069023
51
357.7959224
0
ARC
8
DEFAULT_255_1_234
10
22.8860087
20
13.0516721
40
1.1862365
50
357.5871873
51
359.2677531
0
LINE
8
DEFAULT_255_1_234
10
22.6504458
20
21.6848211
11
22.9540456
21
21.097701
0
LINE
8
DEFAULT_255_1_234
10
22.9540456
20
21.097701
11
23.2592516
21
21.6848211
0
LINE
8
DEFAULT_255_1_234
10
23.2592516
20
21.6848211
11
23.4343435
21
21.6848211
0
LINE
8
DEFAULT_255_1_234
10
23.4343435
20
21.6848211
11
23.0311502
21
20.9515234
0
LINE
8
DEFAULT_255_1_234
10
23.0311502
20
20.9515234
11
23.0311502
21
20.5154
0
LINE
8
DEFAULT_255_1_234
10
23.0311502
20
20.5154
11
22.8769409
21
20.5154
0
LINE
8
DEFAULT_255_1_234
10
22.8769409
20
20.5154
11
22.8769409
21
20.9515234
0
LINE
8
DEFAULT_255_1_234
10
22.8769409
20
20.9515234
11
22.4737476
21
21.6848211
0
LINE
8
DEFAULT_255_1_234
10
22.4737476
20
21.6848211
11
22.6504458
21
21.6848211
0
LINE
8
DEFAULT_255_1_234
10
24.2656284
20
21.2173739
11
24.2656284
21
21.1740025
0
LINE
8
DEFAULT_255_1_234
10
23.7234861
20
20.5145968
11
23.6945718
21
20.5145968
0
LINE
8
DEFAULT_255_1_234
10
23.6945718
20
20.5145968
11
23.6945718
21
20.6398919
0
LINE
8
DEFAULT_255_1_234
10
23.6945718
20
20.6398919
11
23.7258956
21
20.6398919
0
LINE
8
DEFAULT_255_1_234
10
24.1170413
20
21.1884597
11
24.1170413
21
21.2478945
0
ARC
8
DEFAULT_255_1_234
10
23.8376682
20
21.2630403
40
0.3635579
50
297.4037347
51
320.016758
0
ARC
8
DEFAULT_255_1_234
10
23.8666631
20
21.207324
40
0.3007486
50
270.2633101
51
297.3851877
0
ARC
8
DEFAULT_255_1_234
10
23.8632587
20
21.2536904
40
0.3471448
50
269.9966443
51
270.7900392
0
ARC
8
DEFAULT_255_1_234
10
23.8607068
20
21.2535143
40
0.3469779
50
254.5999133
51
270.4180344
0
ARC
8
DEFAULT_255_1_234
10
23.8464428
20
21.1970647
40
0.2887697
50
236.4717942
51
254.3541279
0
ARC
8
DEFAULT_255_1_234
10
23.8620645
20
21.2180711
40
0.3149125
50
208.4727207
51
236.2134933
0
ARC
8
DEFAULT_255_1_234
10
23.925942
20
21.2571455
40
0.3897115
50
204.3447514
51
209.0453999
0
ARC
8
DEFAULT_255_1_234
10
23.9938996
20
21.2859656
40
0.4635101
50
183.9375985
51
204.1276318
0
ARC
8
DEFAULT_255_1_234
10
24.0847247
20
21.2957482
40
0.5548037
50
179.9652252
51
184.3013875
0
ARC
8
DEFAULT_255_1_234
10
24.0607294
20
21.2990507
40
0.5308164
50
166.7585989
51
180.3201225
0
ARC
8
DEFAULT_255_1_234
10
23.9760907
20
21.3174488
40
0.4442163
50
154.6955053
51
166.5679793
0
ARC
8
DEFAULT_255_1_234
10
23.8907777
20
21.360421
40
0.3487299
50
136.3324195
51
155.0871442
0
ARC
8
DEFAULT_255_1_234
10
23.862685
20
21.3844954
40
0.3117924
50
121.236733
51
135.9680508
0
ARC
8
DEFAULT_255_1_234
10
23.8767348
20
21.3584743
40
0.3413302
50
96.845628
51
120.9881519
0
ARC
8
DEFAULT_255_1_234
10
23.891293
20
21.2649515
40
0.4359341
50
89.8870174
51
97.2802754
0
ARC
8
DEFAULT_255_1_234
10
23.8965368
20
21.3287095
40
0.3722009
50
70.6505584
51
90.6749113
0
ARC
8
DEFAULT_255_1_234
10
23.9096647
20
21.3800361
40
0.3194571
50
36.7492984
51
69.8219918
0
ARC
8
DEFAULT_255_1_234
10
23.8097812
20
21.3021993
40
0.4460685
50
15.39587
51
37.0840084
0
ARC
8
DEFAULT_255_1_234
10
23.5968245
20
21.2401242
40
0.6678714
50
3.9488873
51
15.6798563
0
ARC
8
DEFAULT_255_1_234
10
23.3566873
20
21.2184964
40
0.9089418
50
359.929245
51
4.2665314
0
ARC
8
DEFAULT_255_1_234
10
22.896131
20
21.1673513
40
1.3695135
50
352.8366322
51
0.2782669
0
ARC
8
DEFAULT_255_1_234
10
23.4248989
20
21.0986629
40
0.8363105
50
341.8359505
51
352.9884176
0
ARC
8
DEFAULT_255_1_234
10
23.7467708
20
20.99017
40
0.4966642
50
322.8578092
51
342.1527901
0
ARC
8
DEFAULT_255_1_234
10
23.8331664
20
20.9312384
40
0.3922466
50
319.334325
51
322.0998941
0
ARC
8
DEFAULT_255_1_234
10
23.8022001
20
20.9623209
40
0.4360033
50
285.9541367
51
318.8878087
0
ARC
8
DEFAULT_255_1_234
10
23.7295262
20
21.19336
40
0.678149
50
272.9281676
51
286.4922826
0
ARC
8
DEFAULT_255_1_234
10
23.710538
20
21.4184587
40
0.9039547
50
270.8207226
51
273.4012994
0
ARC
8
DEFAULT_255_1_234
10
23.7194231
20
21.2365666
40
0.5967098
50
270.6214993
51
281.4062806
0
ARC
8
DEFAULT_255_1_234
10
23.7624212
20
21.0309833
40
0.3866861
50
281.1852553
51
299.0621114
0
ARC
8
DEFAULT_255_1_234
10
23.7997783
20
20.9588798
40
0.3055236
50
299.5067782
51
313.1200873
0
ARC
8
DEFAULT_255_1_234
10
23.801975
20
20.9509554
40
0.2982623
50
313.8526205
51
338.5989322
0
ARC
8
DEFAULT_255_1_234
10
23.6395824
20
21.0176781
40
0.4738131
50
338.2523585
51
351.2430902
0
ARC
8
DEFAULT_255_1_234
10
23.398512
20
21.0586447
40
0.7183203
50
350.9409515
51
357.6691871
0
ARC
8
DEFAULT_255_1_234
10
23.887555
20
21.2588764
40
0.2294452
50
269.9447023
51
306.8248917
0
ARC
8
DEFAULT_255_1_234
10
23.8638465
20
21.3011898
40
0.2775994
50
305.5072438
51
327.0773448
0
ARC
8
DEFAULT_255_1_234
10
23.8756906
20
21.2917025
40
0.2625056
50
327.4104943
51
336.840169
0
ARC
8
DEFAULT_255_1_234
10
23.5662971
20
21.2511302
40
0.5507537
50
359.6633817
51
10.117533
0
ARC
8
DEFAULT_255_1_234
10
23.7416769
20
21.2835777
40
0.372403
50
9.9430141
51
26.7700076
0
ARC
8
DEFAULT_255_1_234
10
23.8013981
20
21.3111187
40
0.3066865
50
27.2015464
51
34.6829435
0
ARC
8
DEFAULT_255_1_234
10
23.8503462
20
21.3478977
40
0.245519
50
34.1250343
51
50.3070065
0
ARC
8
DEFAULT_255_1_234
10
23.8950141
20
21.4013385
40
0.1758693
50
50.3851167
51
90.6705993
0
ARC
8
DEFAULT_255_1_234
10
23.8903374
20
21.3708799
40
0.2063326
50
89.272901
51
111.9140407
0
ARC
8
DEFAULT_255_1_234
10
23.8883902
20
21.384944
40
0.1925887
50
112.9382311
51
142.5320782
0
ARC
8
DEFAULT_255_1_234
10
23.9430082
20
21.3405969
40
0.2629232
50
142.1021256
51
166.3835592
0
ARC
8
DEFAULT_255_1_234
10
24.0611387
20
21.3100915
40
0.3849193
50
166.1100289
51
178.665427
0
ARC
8
DEFAULT_255_1_234
10
24.1658977
20
21.3042117
40
0.4897989
50
178.2632126
51
180.0111093
0
ARC
8
DEFAULT_255_1_234
10
24.0857097
20
21.3013728
40
0.40962
50
179.6161962
51
191.8787166
0
ARC
8
DEFAULT_255_1_234
10
23.9636936
20
21.2743896
40
0.2846655
50
191.6191692
51
215.2972286
0
ARC
8
DEFAULT_255_1_234
10
23.9440127
20
21.2628918
40
0.2619665
50
215.7320102
51
216.5355409
0
ARC
8
DEFAULT_255_1_234
10
23.8901213
20
21.2196647
40
0.1929497
50
215.7486685
51
239.9727502
0
ARC
8
DEFAULT_255_1_234
10
23.8831129
20
21.2145894
40
0.1850822
50
241.0650169
51
269.2810483
0
ARC
8
DEFAULT_255_1_234
10
23.8873044
20
21.2636371
40
0.2342059
50
268.4062526
51
270.0071348
0
LINE
8
DEFAULT_255_1_234
10
22.6504458
20
29.6223211
11
22.9540456
21
29.035201
0
LINE
8
DEFAULT_255_1_234
10
22.9540456
20
29.035201
11
23.2592516
21
29.6223211
0
LINE
8
DEFAULT_255_1_234
10
23.2592516
20
29.6223211
11
23.4343435
21
29.6223211
0
LINE
8
DEFAULT_255_1_234
10
23.4343435
20
29.6223211
11
23.0311502
21
28.8890234
0
LINE
8
DEFAULT_255_1_234
10
23.0311502
20
28.8890234
11
23.0311502
21
28.4529
0
LINE
8
DEFAULT_255_1_234
10
23.0311502
20
28.4529
11
22.8769409
21
28.4529
0
LINE
8
DEFAULT_255_1_234
10
22.8769409
20
28.4529
11
22.8769409
21
28.8890234
0
LINE
8
DEFAULT_255_1_234
10
22.8769409
20
28.8890234
11
22.4737476
21
29.6223211
0
LINE
8
DEFAULT_255_1_234
10
22.4737476
20
29.6223211
11
22.6504458
21
29.6223211
0
ARC
8
DEFAULT_255_1_234
10
23.9737662
20
29.3145703
40
0.2822356
50
338.8763615
51
0.5166041
0
ARC
8
DEFAULT_255_1_234
10
23.9906316
20
29.3100208
40
0.2648703
50
325.8412414
51
338.4795939
0
ARC
8
DEFAULT_255_1_234
10
23.9515684
20
29.3371042
40
0.3124019
50
296.7586019
51
325.753654
0
ARC
8
DEFAULT_255_1_234
10
23.9227792
20
29.3855789
40
0.368668
50
296.0902311
51
297.3618122
0
ARC
8
DEFAULT_255_1_234
10
23.948525
20
28.7301041
40
0.3518806
50
47.9009248
51
67.1946869
0
ARC
8
DEFAULT_255_1_234
10
23.9681492
20
28.7547395
40
0.320451
50
35.236241
51
47.551371
0
ARC
8
DEFAULT_255_1_234
10
23.994311
20
28.7721993
40
0.2890103
50
359.2759738
51
35.4014081
0
ARC
8
DEFAULT_255_1_234
10
23.9198141
20
28.7648826
40
0.3635026
50
343.1294516
51
0.5776525
0
ARC
8
DEFAULT_255_1_234
10
23.9922686
20
28.744933
40
0.2883832
50
310.8497458
51
342.744803
0
ARC
8
DEFAULT_255_1_234
10
23.9504799
20
28.7926294
40
0.3517954
50
281.5473923
51
310.9169905
0
ARC
8
DEFAULT_255_1_234
10
23.9148249
20
28.9479084
40
0.5110832
50
269.6192722
51
281.9789957
0
ARC
8
DEFAULT_255_1_234
10
23.9076038
20
28.9479828
40
0.5111606
50
257.4584469
51
270.4287458
0
ARC
8
DEFAULT_255_1_234
10
23.8695181
20
28.7876344
40
0.3463762
50
228.7553743
51
257.8484423
0
ARC
8
DEFAULT_255_1_234
10
23.8385379
20
28.7503442
40
0.297916
50
184.0104442
51
228.5071787
0
ARC
8
DEFAULT_255_1_234
10
23.9548323
20
28.7680512
40
0.4152734
50
179.9315461
51
185.3254504
0
ARC
8
DEFAULT_255_1_234
10
23.8371969
20
28.7717992
40
0.2976554
50
145.6795913
51
180.6259649
0
ARC
8
DEFAULT_255_1_234
10
23.8535318
20
28.7603929
40
0.3175776
50
115.5537925
51
145.6416199
0
ARC
8
DEFAULT_255_1_234
10
23.8876249
20
28.6993028
40
0.3874232
50
113.2437915
51
116.2054627
0
ARC
8
DEFAULT_255_1_234
10
23.8723461
20
29.339158
40
0.3154751
50
222.9548379
51
244.1372485
0
ARC
8
DEFAULT_255_1_234
10
23.8601536
20
29.3254834
40
0.2972382
50
213.3439227
51
222.6271327
0
ARC
8
DEFAULT_255_1_234
10
23.8409471
20
29.3124308
40
0.274019
50
180.4316517
51
213.2713999
0
ARC
8
DEFAULT_255_1_234
10
23.8984472
20
29.317111
40
0.33158
50
179.9992944
51
181.1655061
0
ARC
8
DEFAULT_255_1_234
10
23.9393889
20
29.3205561
40
0.3725376
50
164.6186108
51
180.5292368
0
ARC
8
DEFAULT_255_1_234
10
23.8495752
20
29.3447101
40
0.2795349
50
132.2454369
51
164.5092287
0
ARC
8
DEFAULT_255_1_234
10
23.8782856
20
29.3122028
40
0.3229019
50
100.7052766
51
132.1387266
0
ARC
8
DEFAULT_255_1_234
10
23.9087828
20
29.1744086
40
0.4639835
50
89.6732617
51
101.2449487
0
ARC
8
DEFAULT_255_1_234
10
23.9150026
20
29.191899
40
0.4464999
50
76.2876631
51
90.4586123
0
ARC
8
DEFAULT_255_1_234
10
23.9456258
20
29.314122
40
0.3205023
50
47.8240157
51
76.4266918
0
ARC
8
DEFAULT_255_1_234
10
23.9678808
20
29.340159
40
0.2862661
50
6.9168658
51
47.6261438
0
ARC
8
DEFAULT_255_1_234
10
23.8492211
20
29.318237
40
0.4067708
50
359.8419705
51
7.9694496
0
ARC
8
DEFAULT_255_1_234
10
23.8834108
20
28.7741925
40
0.2513121
50
359.4454068
51
16.9256425
0
ARC
8
DEFAULT_255_1_234
10
23.9302919
20
28.7871033
40
0.2027071
50
17.292259
51
45.462717
0
ARC
8
DEFAULT_255_1_234
10
23.9248855
20
28.7824434
40
0.2098212
50
45.3028762
51
83.1921472
0
ARC
8
DEFAULT_255_1_234
10
23.9105539
20
28.7022895
40
0.2911472
50
82.2614531
51
90.143954
0
ARC
8
DEFAULT_255_1_234
10
23.9074659
20
28.725595
40
0.2678513
50
89.4959189
51
104.8579811
0
ARC
8
DEFAULT_255_1_234
10
23.8897918
20
28.792589
40
0.1985654
50
104.8855873
51
135.2448349
0
ARC
8
DEFAULT_255_1_234
10
23.8947691
20
28.7881336
40
0.2052373
50
135.3398955
51
172.104394
0
ARC
8
DEFAULT_255_1_234
10
23.9754749
20
28.7726925
40
0.2873299
50
171.2651929
51
180.1859362
0
ARC
8
DEFAULT_255_1_234
10
23.958545
20
28.7694733
40
0.2704083
50
179.515471
51
193.6466734
0
ARC
8
DEFAULT_255_1_234
10
23.8769219
20
28.7486777
40
0.1861855
50
193.3540587
51
225.8256931
0
ARC
8
DEFAULT_255_1_234
10
23.8809976
20
28.7557524
40
0.1941102
50
226.418029
51
255.8553723
0
ARC
8
DEFAULT_255_1_234
10
23.9066409
20
28.8493998
40
0.2911917
50
255.4655572
51
268.7985967
0
ARC
8
DEFAULT_255_1_234
10
23.9113601
20
28.9332491
40
0.3751331
50
268.3464808
51
270.0104874
0
ARC
8
DEFAULT_255_1_234
10
23.9136989
20
28.8648138
40
0.3067064
50
269.575914
51
282.0823146
0
ARC
8
DEFAULT_255_1_234
10
23.9361898
20
28.7653803
40
0.2047712
50
281.7522535
51
306.6056425
0
ARC
8
DEFAULT_255_1_234
10
23.9460324
20
28.7492487
40
0.1859604
50
307.1350025
51
314.0277951
0
ARC
8
DEFAULT_255_1_234
10
23.9424408
20
28.7518766
40
0.1903475
50
314.2553419
51
350.169324
0
ARC
8
DEFAULT_255_1_234
10
23.8572877
20
28.7703409
40
0.2774269
50
349.4145679
51
0.2930737
0
ARC
8
DEFAULT_255_1_234
10
23.909331
20
29.2862353
40
0.2300764
50
89.477591
51
105.729794
0
ARC
8
DEFAULT_255_1_234
10
23.8957224
20
29.3367637
40
0.1777519
50
105.922966
51
135.1662921
0
ARC
8
DEFAULT_255_1_234
10
23.8977726
20
29.3353419
40
0.1802087
50
135.3053131
51
168.9882338
0
ARC
8
DEFAULT_255_1_234
10
23.9805299
20
29.3163721
40
0.2650806
50
168.3802067
51
180.3602358
0
ARC
8
DEFAULT_255_1_234
10
23.9576878
20
29.3126041
40
0.2422425
50
179.5029707
51
194.9126783
0
ARC
8
DEFAULT_255_1_234
10
23.8991539
20
29.297211
40
0.1817188
50
194.9722181
51
224.1943972
0
ARC
8
DEFAULT_255_1_234
10
23.8963406
20
29.2949169
40
0.1781027
50
224.2961434
51
262.0157375
0
ARC
8
DEFAULT_255_1_234
10
23.9105649
20
29.3680661
40
0.2525492
50
261.1250369
51
270.1959853
0
ARC
8
DEFAULT_255_1_234
10
23.9135404
20
29.3493339
40
0.233825
50
269.4825617
51
285.0988277
0
ARC
8
DEFAULT_255_1_234
10
23.9289563
20
29.291499
40
0.1739712
50
285.1585659
51
315.9484648
0
ARC
8
DEFAULT_255_1_234
10
23.9200575
20
29.2996886
40
0.1860616
50
316.0412958
51
351.9162715
0
ARC
8
DEFAULT_255_1_234
10
23.846753
20
29.3138245
40
0.2606517
50
351.1056823
51
0.1936567
0
ARC
8
DEFAULT_255_1_234
10
23.8730359
20
29.3168369
40
0.234377
50
359.4789506
51
16.0679113
0
ARC
8
DEFAULT_255_1_234
10
23.9206318
20
29.329681
40
0.1850875
50
16.3251951
51
44.791304
0
ARC
8
DEFAULT_255_1_234
10
23.9188599
20
29.3297339
40
0.186312
50
44.3958661
51
88.2498933
0
ARC
8
DEFAULT_255_1_234
10
23.9115153
20
29.2686154
40
0.2476868
50
86.9833827
51
90.0200148
0
LINE
8
DEFAULT_255_1_234
10
22.7697378
20
36.9261169
11
22.7697378
21
37.0473962
0
LINE
8
DEFAULT_255_1_234
10
22.7697378
20
37.0473962
11
22.881379
21
37.0473962
0
LINE
8
DEFAULT_255_1_234
10
22.6910268
20
37.2530087
11
22.5424396
21
37.2530087
0
LINE
8
DEFAULT_255_1_234
10
22.5319983
20
36.6988188
11
22.6813887
21
36.6988188
0
LINE
8
DEFAULT_255_1_234
10
22.881379
20
36.9261169
11
22.7697378
21
36.9261169
0
ARC
8
DEFAULT_255_1_234
10
22.8784656
20
37.3866713
40
0.3392876
50
270.4919872
51
281.8951556
0
ARC
8
DEFAULT_255_1_234
10
22.9025918
20
37.2764702
40
0.2264817
50
281.6691735
51
301.2943132
0
ARC
8
DEFAULT_255_1_234
10
22.9196128
20
37.2453304
40
0.1910381
50
301.7833094
51
311.7545298
0
ARC
8
DEFAULT_255_1_234
10
22.9287704
20
37.2351748
40
0.1773635
50
311.7323931
51
354.2802411
0
ARC
8
DEFAULT_255_1_234
10
22.8561329
20
37.2476722
40
0.2509385
50
353.0937916
51
0.1181479
0
ARC
8
DEFAULT_255_1_234
10
22.8100114
20
37.2524386
40
0.2970898
50
359.1805295
51
15.0453146
0
ARC
8
DEFAULT_255_1_234
10
22.9445951
20
37.2916992
40
0.1569564
50
13.9577229
51
77.6713066
0
ARC
8
DEFAULT_255_1_234
10
22.905948
20
37.1531949
40
0.3006298
50
76.1116566
51
90.7026153
0
ARC
8
DEFAULT_255_1_234
10
22.9000318
20
37.1805545
40
0.2732568
50
89.5324876
51
103.531937
0
ARC
8
DEFAULT_255_1_234
10
22.8799762
20
37.2604884
40
0.1908508
50
103.2931773
51
133.5619022
0
ARC
8
DEFAULT_255_1_234
10
22.8755251
20
37.2664375
40
0.1834746
50
133.8349307
51
173.5344437
0
ARC
8
DEFAULT_255_1_234
10
22.9478294
20
37.2536213
40
0.2568033
50
172.5096846
51
180.1366907
0
ARC
8
DEFAULT_255_1_234
10
22.8527188
20
37.2570622
40
0.3103056
50
155.3484492
51
180.7484736
0
ARC
8
DEFAULT_255_1_234
10
22.8478277
20
37.2541846
40
0.3070957
50
131.5744599
51
154.4798489
0
ARC
8
DEFAULT_255_1_234
10
22.8791424
20
37.222531
40
0.3515643
50
96.9875458
51
131.9690667
0
ARC
8
DEFAULT_255_1_234
10
22.9010904
20
37.0979636
40
0.4779224
50
89.8596053
51
97.7825159
0
ARC
8
DEFAULT_255_1_234
10
22.9058967
20
37.0717616
40
0.5041361
50
78.3655447
51
90.4131539
0
ARC
8
DEFAULT_255_1_234
10
22.9416885
20
37.2376887
40
0.3344039
50
56.6229102
51
78.638727
0
ARC
8
DEFAULT_255_1_234
10
22.9631829
20
37.2752805
40
0.2912001
50
47.0253525
51
56.0854072
0
ARC
8
DEFAULT_255_1_234
10
22.9651609
20
37.2792223
40
0.2869704
50
10.9208013
51
46.7778124
0
ARC
8
DEFAULT_255_1_234
10
22.8287675
20
37.2476857
40
0.426899
50
359.6364486
51
11.6087304
0
ARC
8
DEFAULT_255_1_234
10
23.0122519
20
37.2461752
40
0.243409
50
332.3549906
51
359.7179418
0
ARC
8
DEFAULT_255_1_234
10
22.9472121
20
37.2770142
40
0.3153459
50
325.2333722
51
332.8745602
0
ARC
8
DEFAULT_255_1_234
10
22.9624744
20
37.2663828
40
0.2967456
50
292.9802137
51
325.2392345
0
ARC
8
DEFAULT_255_1_234
10
22.9350118
20
37.3197863
40
0.3566604
50
292.5402179
51
293.6924929
0
ARC
8
DEFAULT_255_1_234
10
22.9742714
20
36.6743091
40
0.3307468
50
57.6435486
51
72.8625112
0
ARC
8
DEFAULT_255_1_234
10
23.0097214
20
36.7317549
40
0.2632492
50
36.7248896
51
57.4697979
0
ARC
8
DEFAULT_255_1_234
10
23.0085847
20
36.733022
40
0.2634081
50
8.0545065
51
36.356114
0
ARC
8
DEFAULT_255_1_234
10
22.9223032
20
36.7175174
40
0.3510261
50
359.8320645
51
8.5869982
0
ARC
8
DEFAULT_255_1_234
10
22.8847808
20
36.7127101
40
0.3885653
50
343.9829931
51
0.5571613
0
ARC
8
DEFAULT_255_1_234
10
22.9734005
20
36.6884438
40
0.2966924
50
311.6359546
51
343.7651759
0
ARC
8
DEFAULT_255_1_234
10
22.9355574
20
36.7311102
40
0.3537231
50
279.7829875
51
311.6255694
0
ARC
8
DEFAULT_255_1_234
10
22.9054351
20
36.874828
40
0.5004971
50
269.7286406
51
280.3856417
0
ARC
8
DEFAULT_255_1_234
10
22.8992423
20
36.8706996
40
0.4963778
50
256.6828919
51
270.4412052
0
ARC
8
DEFAULT_255_1_234
10
22.8653719
20
36.7322394
40
0.3538406
50
229.4223008
51
256.8556159
0
ARC
8
DEFAULT_255_1_234
10
22.8239112
20
36.6855736
40
0.2914296
50
181.818294
51
229.6455059
0
ARC
8
DEFAULT_255_1_234
10
22.9279068
20
36.6986496
40
0.3959084
50
179.9755256
51
183.2323064
0
ARC
8
DEFAULT_255_1_234
10
22.9106814
20
36.6966037
40
0.2293034
50
179.4465117
51
196.2869258
0
ARC
8
DEFAULT_255_1_234
10
22.8619222
20
36.6832651
40
0.1787621
50
196.5661473
51
227.705904
0
ARC
8
DEFAULT_255_1_234
10
22.8783317
20
36.7016155
40
0.2033784
50
227.7652068
51
257.8762805
0
ARC
8
DEFAULT_255_1_234
10
22.9008287
20
36.7959156
40
0.3003081
50
257.4584385
51
270.426602
0
ARC
8
DEFAULT_255_1_234
10
22.9053853
20
36.8248996
40
0.329292
50
269.5962073
51
280.8789248
0
ARC
8
DEFAULT_255_1_234
10
22.9283382
20
36.7102685
40
0.2123908
50
280.6346389
51
299.8595945
0
ARC
8
DEFAULT_255_1_234
10
22.9474289
20
36.6740212
40
0.171457
50
300.3576302
51
314.5517981
0
ARC
8
DEFAULT_255_1_234
10
22.9391349
20
36.6800919
40
0.1816095
50
315.0728369
51
345.0431014
0
ARC
8
DEFAULT_255_1_234
10
22.8468163
20
36.7069841
40
0.2777492
50
344.5986631
51
357.9269593
0
ARC
8
DEFAULT_255_1_234
10
22.7572489
20
36.7131276
40
0.3674917
50
357.4748886
51
0.0231117
0
ARC
8
DEFAULT_255_1_234
10
22.8595599
20
36.7155679
40
0.2651907
50
359.5047933
51
13.4239635
0
ARC
8
DEFAULT_255_1_234
10
22.9462242
20
36.7377478
40
0.1757509
50
12.9498199
51
48.7551375
0
ARC
8
DEFAULT_255_1_234
10
22.9279976
20
36.71284
40
0.2065134
50
49.5088623
51
72.1836453
0
ARC
8
DEFAULT_255_1_234
10
22.8922129
20
36.6066291
40
0.3185836
50
71.9010081
51
84.3554254
0
ARC
8
DEFAULT_255_1_234
10
22.8760761
20
36.4705326
40
0.4556151
50
84.0193428
51
89.333121
0
LINE
8
DEFAULT_255_1_234
10
24.2210729
20
36.7614663
11
24.3760854
21
36.7614663
0
LINE
8
DEFAULT_255_1_234
10
23.4757276
20
36.9204947
11
23.4757276
21
37.0329391
0
LINE
8
DEFAULT_255_1_234
10
24.3760854
20
37.1839357
11
24.2210729
21
37.1839357
0
LINE
8
DEFAULT_255_1_234
10
23.6307401
20
37.0289232
11
23.6307401
21
36.9156757
0
ARC
8
DEFAULT_255_1_234
10
23.8280241
20
36.8211846
40
0.5513052
50
340.1774281
51
353.7814284
0
ARC
8
DEFAULT_255_1_234
10
23.9851594
20
36.7626582
40
0.3836379
50
311.4558989
51
340.4421614
0
ARC
8
DEFAULT_255_1_234
10
23.9818262
20
36.7737528
40
0.3941894
50
282.4333181
51
310.7513653
0
ARC
8
DEFAULT_255_1_234
10
23.9379001
20
36.9552679
40
0.5809175
50
269.9358511
51
282.809604
0
ARC
8
DEFAULT_255_1_234
10
23.9327067
20
37.1010212
40
0.7266847
50
270.0021091
51
270.3581957
0
ARC
8
DEFAULT_255_1_234
10
23.9274484
20
36.8409585
40
0.4666519
50
250.7884749
51
270.6489167
0
ARC
8
DEFAULT_255_1_234
10
23.9106319
20
36.7772319
40
0.4009729
50
219.3627325
51
250.0611886
0
ARC
8
DEFAULT_255_1_234
10
23.993553
20
36.8477042
40
0.5097822
50
193.5479632
51
219.5756669
0
ARC
8
DEFAULT_255_1_234
10
24.2307151
20
36.9092919
40
0.7547848
50
181.1218675
51
193.87563
0
ARC
8
DEFAULT_255_1_234
10
24.4377332
20
36.920358
40
0.9620055
50
179.9918545
51
181.5394234
0
ARC
8
DEFAULT_255_1_234
10
24.2526434
20
37.0366788
40
0.7769248
50
169.5837241
51
180.2757934
0
ARC
8
DEFAULT_255_1_234
10
24.0689372
20
37.0706229
40
0.590109
50
155.0365899
51
169.6003176
0
ARC
8
DEFAULT_255_1_234
10
23.9553836
20
37.1253677
40
0.4640625
50
136.783148
51
155.2472683
0
ARC
8
DEFAULT_255_1_234
10
23.9164313
20
37.1584562
40
0.4130255
50
121.7633186
51
136.428115
0
ARC
8
DEFAULT_255_1_234
10
23.9299275
20
37.1335227
40
0.4413323
50
95.6459699
51
121.5490577
0
ARC
8
DEFAULT_255_1_234
10
23.9456557
20
37.0226949
40
0.55319
50
89.924208
51
96.1377933
0
ARC
8
DEFAULT_255_1_234
10
23.950699
20
37.0345542
40
0.5413475
50
76.6779277
51
90.4563316
0
ARC
8
DEFAULT_255_1_234
10
23.9900613
20
37.1936114
40
0.3775041
50
47.485847
51
76.9287264
0
ARC
8
DEFAULT_255_1_234
10
23.9753586
20
37.1836159
40
0.3948286
50
16.5424086
51
46.8933463
0
ARC
8
DEFAULT_255_1_234
10
23.8145743
20
37.1307861
40
0.564021
50
5.4072051
51
17.0365086
0
ARC
8
DEFAULT_255_1_234
10
23.670676
20
37.1076679
40
0.5556559
50
7.8891745
51
15.9239216
0
ARC
8
DEFAULT_255_1_234
10
23.8693773
20
37.1653631
40
0.3487515
50
15.7653144
51
27.9410532
0
ARC
8
DEFAULT_255_1_234
10
23.9797991
20
37.224479
40
0.2235026
50
27.8166557
51
46.4008329
0
ARC
8
DEFAULT_255_1_234
10
23.9847634
20
37.2239082
40
0.2205286
50
47.4371857
51
75.0698205
0
ARC
8
DEFAULT_255_1_234
10
23.9539029
20
37.1164765
40
0.3322915
50
74.7008593
51
87.8124495
0
ARC
8
DEFAULT_255_1_234
10
23.9465716
20
37.0108844
40
0.4380987
50
87.3814673
51
90.0240855
0
ARC
8
DEFAULT_255_1_234
10
23.9427259
20
37.1286291
40
0.3203749
50
89.3451631
51
108.5745436
0
ARC
8
DEFAULT_255_1_234
10
23.9290365
20
37.1799908
40
0.2673494
50
109.2998449
51
143.3037509
0
ARC
8
DEFAULT_255_1_234
10
24.0052437
20
37.1213881
40
0.3634757
50
143.0753173
51
163.1916937
0
ARC
8
DEFAULT_255_1_234
10
24.2004165
20
37.0597967
40
0.5681262
50
162.9373603
51
174.6208611
0
ARC
8
DEFAULT_255_1_234
10
24.4630207
20
37.031001
40
0.8322832
50
174.3419979
51
180.1430411
0
ARC
8
DEFAULT_255_1_234
10
24.3699363
20
36.9115698
40
0.7392076
50
179.6817502
51
189.150529
0
ARC
8
DEFAULT_255_1_234
10
24.1198611
20
36.869919
40
0.4856932
50
188.9910863
51
203.5773039
0
ARC
8
DEFAULT_255_1_234
10
24.0118944
20
36.8251211
40
0.3688271
50
203.9077269
51
215.1312379
0
ARC
8
DEFAULT_255_1_234
10
23.9196038
20
36.7535941
40
0.2522457
50
213.9071664
51
263.8849284
0
ARC
8
DEFAULT_255_1_234
10
23.9321367
20
36.8320518
40
0.3316174
50
263.1758525
51
270.1031083
0
ARC
8
DEFAULT_255_1_234
10
23.9353459
20
36.9567365
40
0.4563091
50
269.6719807
51
279.0609165
0
ARC
8
DEFAULT_255_1_234
10
23.9620227
20
36.7954907
40
0.2928759
50
278.8750225
51
293.6346586
0
ARC
8
DEFAULT_255_1_234
10
23.9940435
20
36.72029
40
0.2111472
50
293.8553404
51
310.0518804
0
ARC
8
DEFAULT_255_1_234
10
23.9945289
20
36.7140516
40
0.2060917
50
311.0646779
51
332.0108348
0
ARC
8
DEFAULT_255_1_234
10
23.8753016
20
36.7797978
40
0.3422352
50
331.6588543
51
343.2878891
0
ARC
8
DEFAULT_255_1_234
10
23.6690531
20
36.8431798
40
0.5580003
50
343.1446044
51
351.010618
0
ARC
8
DEFAULT_255_1_234
10
23.5149177
20
36.8712871
40
0.7146438
50
350.7157277
51
351.1602153
0
LINE
8
DEFAULT_255_1_234
10
22.6504458
20
45.4973211
11
22.9540456
21
44.910201
0
LINE
8
DEFAULT_255_1_234
10
22.9540456
20
44.910201
11
23.2592516
21
45.4973211
0
LINE
8
DEFAULT_255_1_234
10
23.2592516
20
45.4973211
11
23.4343435
21
45.4973211
0
LINE
8
DEFAULT_255_1_234
10
23.4343435
20
45.4973211
11
23.0311502
21
44.7640234
0
LINE
8
DEFAULT_255_1_234
10
23.0311502
20
44.7640234
11
23.0311502
21
44.3279
0
LINE
8
DEFAULT_255_1_234
10
23.0311502
20
44.3279
11
22.8769409
21
44.3279
0
LINE
8
DEFAULT_255_1_234
10
22.8769409
20
44.3279
11
22.8769409
21
44.7640234
0
LINE
8
DEFAULT_255_1_234
10
22.8769409
20
44.7640234
11
22.4737476
21
45.4973211
0
LINE
8
DEFAULT_255_1_234
10
22.4737476
20
45.4973211
11
22.6504458
21
45.4973211
0
LINE
8
DEFAULT_255_1_234
10
24.3017712
20
45.4973211
11
24.3017712
21
45.413791
0
LINE
8
DEFAULT_255_1_234
10
24.3017712
20
45.413791
11
23.8174574
21
44.3279
0
LINE
8
DEFAULT_255_1_234
10
23.8174574
20
44.3279
11
23.6616417
21
44.3279
0
LINE
8
DEFAULT_255_1_234
10
23.6616417
20
44.3279
11
24.1443492
21
45.3752387
0
LINE
8
DEFAULT_255_1_234
10
24.1443492
20
45.3752387
11
23.5114482
21
45.3752387
0
LINE
8
DEFAULT_255_1_234
10
23.5114482
20
45.3752387
11
23.5114482
21
45.4973211
0
LINE
8
DEFAULT_255_1_234
10
23.5114482
20
45.4973211
11
24.3017712
21
45.4973211
0
LINE
8
DEFAULT_255_1_234
10
22.6504458
20
53.4348211
11
22.9540456
21
52.847701
0
LINE
8
DEFAULT_255_1_234
10
22.9540456
20
52.847701
11
23.2592516
21
53.4348211
0
LINE
8
DEFAULT_255_1_234
10
23.2592516
20
53.4348211
11
23.4343435
21
53.4348211
0
LINE
8
DEFAULT_255_1_234
10
23.4343435
20
53.4348211
11
23.0311502
21
52.7015234
0
LINE
8
DEFAULT_255_1_234
10
23.0311502
20
52.7015234
11
23.0311502
21
52.2654
0
LINE
8
DEFAULT_255_1_234
10
23.0311502
20
52.2654
11
22.8769409
21
52.2654
0
LINE
8
DEFAULT_255_1_234
10
22.8769409
20
52.2654
11
22.8769409
21
52.7015234
0
LINE
8
DEFAULT_255_1_234
10
22.8769409
20
52.7015234
11
22.4737476
21
53.4348211
0
LINE
8
DEFAULT_255_1_234
10
22.4737476
20
53.4348211
11
22.6504458
21
53.4348211
0
LINE
8
DEFAULT_255_1_234
10
24.1033873
20
53.4356243
11
24.129892
21
53.4356243
0
LINE
8
DEFAULT_255_1_234
10
24.129892
20
53.4356243
11
24.129892
21
53.309526
0
LINE
8
DEFAULT_255_1_234
10
24.129892
20
53.309526
11
24.1025841
21
53.309526
0
LINE
8
DEFAULT_255_1_234
10
23.5556228
20
52.7103583
11
23.5556228
21
52.7673836
0
LINE
8
DEFAULT_255_1_234
10
23.7050131
20
52.7481075
11
23.7050131
21
52.6934917
0
ARC
8
DEFAULT_255_1_234
10
24.1078189
20
52.8097455
40
0.4998079
50
90.6001036
51
104.514704
0
ARC
8
DEFAULT_255_1_234
10
24.0689705
20
52.9542131
40
0.3502176
50
104.2855254
51
133.862935
0
ARC
8
DEFAULT_255_1_234
10
24.0853462
20
52.943383
40
0.3693984
50
134.5302688
51
161.6210873
0
ARC
8
DEFAULT_255_1_234
10
24.2506651
20
52.8850895
40
0.5446739
50
161.2849839
51
174.2076652
0
ARC
8
DEFAULT_255_1_234
10
24.3913588
20
52.8656787
40
0.6866274
50
173.7810589
51
174.9254635
0
ARC
8
DEFAULT_255_1_234
10
23.936342
20
52.7273839
40
0.3033419
50
95.8330959
51
138.9954921
0
ARC
8
DEFAULT_255_1_234
10
23.9586776
20
52.5995375
40
0.4328947
50
89.8753725
51
97.0544009
0
ARC
8
DEFAULT_255_1_234
10
23.9634242
20
52.6830748
40
0.3493769
50
71.6407809
51
90.6240094
0
ARC
8
DEFAULT_255_1_234
10
23.9784815
20
52.7385082
40
0.2920396
50
39.6367836
51
71.019018
0
ARC
8
DEFAULT_255_1_234
10
23.9148288
20
52.6834998
40
0.3761538
50
10.658731
51
39.9043955
0
ARC
8
DEFAULT_255_1_234
10
23.7600371
20
52.6498686
40
0.5345136
50
359.682601
51
11.132623
0
ARC
8
DEFAULT_255_1_234
10
23.7560502
20
52.642801
40
0.5385081
50
347.2486944
51
0.4369317
0
ARC
8
DEFAULT_255_1_234
10
23.9227979
20
52.6026807
40
0.3670249
50
318.1409698
51
347.6118597
0
ARC
8
DEFAULT_255_1_234
10
23.9552972
20
52.5759702
40
0.3250007
50
275.6342139
51
317.8248465
0
ARC
8
DEFAULT_255_1_234
10
23.9332083
20
52.7059219
40
0.4565864
50
269.8874292
51
276.7917694
0
ARC
8
DEFAULT_255_1_234
10
23.9277154
20
52.6033743
40
0.3540676
50
246.9140195
51
270.7437342
0
ARC
8
DEFAULT_255_1_234
10
23.9283544
20
52.5891384
40
0.3412781
50
218.1665114
51
245.878116
0
ARC
8
DEFAULT_255_1_234
10
24.0163005
20
52.6627279
40
0.455911
50
191.4115814
51
218.6077802
0
ARC
8
DEFAULT_255_1_234
10
24.2101094
20
52.7061833
40
0.6545001
50
179.6345085
51
191.7836486
0
ARC
8
DEFAULT_255_1_234
10
24.7683431
20
52.7740697
40
1.2127388
50
171.4525249
51
180.3158839
0
ARC
8
DEFAULT_255_1_234
10
24.3288307
20
52.8424608
40
0.7679464
50
157.9802646
51
171.6246686
0
ARC
8
DEFAULT_255_1_234
10
24.1074328
20
52.9307421
40
0.5296008
50
141.4298019
51
157.854097
0
ARC
8
DEFAULT_255_1_234
10
24.0432649
20
52.9761381
40
0.4511509
50
102.8715806
51
140.8564722
0
ARC
8
DEFAULT_255_1_234
10
24.1080264
20
52.7321552
40
0.7034845
50
90.3778349
51
103.5869322
0
ARC
8
DEFAULT_255_1_234
10
23.934204
20
52.671673
40
0.2370698
50
89.8751008
51
126.2071704
0
ARC
8
DEFAULT_255_1_234
10
23.938783
20
52.6562303
40
0.2522934
50
124.9745049
51
144.895901
0
ARC
8
DEFAULT_255_1_234
10
23.9212021
20
52.670556
40
0.2296779
50
145.2974905
51
160.2660252
0
ARC
8
DEFAULT_255_1_234
10
24.2284559
20
52.6903071
40
0.5234525
50
179.6514266
51
190.2855912
0
ARC
8
DEFAULT_255_1_234
10
24.0590697
20
52.6583786
40
0.3510893
50
190.0945431
51
207.5098196
0
ARC
8
DEFAULT_255_1_234
10
24.0024966
20
52.6314623
40
0.288489
50
207.9583163
51
216.3251085
0
ARC
8
DEFAULT_255_1_234
10
23.9685074
20
52.6035105
40
0.2445587
50
215.7661442
51
232.5456785
0
ARC
8
DEFAULT_255_1_234
10
23.9302057
20
52.5548482
40
0.1826382
50
232.8005391
51
270.6605633
0
ARC
8
DEFAULT_255_1_234
10
23.9347758
20
52.5912612
40
0.2190529
50
269.35537
51
288.4744281
0
ARC
8
DEFAULT_255_1_234
10
23.9440655
20
52.5563118
40
0.1829749
50
289.1833337
51
322.9683818
0
ARC
8
DEFAULT_255_1_234
10
23.8829177
20
52.6045391
40
0.2608399
50
322.6007884
51
346.5182367
0
ARC
8
DEFAULT_255_1_234
10
23.7671773
20
52.6340616
40
0.3802777
50
346.2582162
51
358.7741648
0
ARC
8
DEFAULT_255_1_234
10
23.6653442
20
52.6395965
40
0.4822176
50
358.3755224
51
0.0098023
0
ARC
8
DEFAULT_255_1_234
10
23.7409629
20
52.6423657
40
0.4066078
50
359.6214041
51
11.2839074
0
ARC
8
DEFAULT_255_1_234
10
23.8686776
20
52.6690066
40
0.2761514
50
11.0482309
51
31.8146458
0
ARC
8
DEFAULT_255_1_234
10
23.8995819
20
52.6857584
40
0.2410679
50
32.3035391
51
38.082671
0
ARC
8
DEFAULT_255_1_234
10
23.9416479
20
52.7238662
40
0.1844966
50
36.825067
51
85.7415724
0
ARC
8
DEFAULT_255_1_234
10
23.9349312
20
52.6738301
40
0.2349122
50
85.0140713
51
90.0513278
0
LINE
8
DEFAULT_255_1_234
10
22.6504458
20
61.3723211
11
22.9540456
21
60.785201
0
LINE
8
DEFAULT_255_1_234
10
22.9540456
20
60.785201
11
23.2592516
21
61.3723211
0
LINE
8
DEFAULT_255_1_234
10
23.2592516
20
61.3723211
11
23.4343435
21
61.3723211
0
LINE
8
DEFAULT_255_1_234
10
23.4343435
20
61.3723211
11
23.0311502
21
60.6390234
0
LINE
8
DEFAULT_255_1_234
10
23.0311502
20
60.6390234
11
23.0311502
21
60.2029
0
LINE
8
DEFAULT_255_1_234
10
23.0311502
20
60.2029
11
22.8769409
21
60.2029
0
LINE
8
DEFAULT_255_1_234
10
22.8769409
20
60.2029
11
22.8769409
21
60.6390234
0
LINE
8
DEFAULT_255_1_234
10
22.8769409
20
60.6390234
11
22.4737476
21
61.3723211
0
LINE
8
DEFAULT_255_1_234
10
22.4737476
20
61.3723211
11
22.6504458
21
61.3723211
0
LINE
8
DEFAULT_255_1_234
10
23.7339273
20
60.7586963
11
23.6150576
21
60.7892169
0
LINE
8
DEFAULT_255_1_234
10
23.6150576
20
60.7892169
11
23.6744925
21
61.3723211
0
LINE
8
DEFAULT_255_1_234
10
23.6744925
20
61.3723211
11
24.2736602
21
61.3723211
0
LINE
8
DEFAULT_255_1_234
10
24.2736602
20
61.3723211
11
24.2736602
21
61.2349784
0
LINE
8
DEFAULT_255_1_234
10
24.2736602
20
61.2349784
11
23.8005908
21
61.2349784
0
LINE
8
DEFAULT_255_1_234
10
23.8005908
20
61.2349784
11
23.7652511
21
60.9161184
0
LINE
8
DEFAULT_255_1_234
10
23.5732926
20
60.5105156
11
23.713848
21
60.5105156
0
LINE
8
DEFAULT_255_1_234
10
23.7732829
20
60.7908232
11
23.7339273
21
60.7586963
0
ARC
8
DEFAULT_255_1_234
10
23.9507295
20
60.598123
40
0.3681349
50
93.7182161
51
120.2538958
0
ARC
8
DEFAULT_255_1_234
10
23.9601558
20
60.5173394
40
0.449379
50
89.9660152
51
94.2496022
0
ARC
8
DEFAULT_255_1_234
10
23.9642292
20
60.5762549
40
0.390482
50
73.8043271
51
90.5585896
0
ARC
8
DEFAULT_255_1_234
10
23.9877189
20
60.6620602
40
0.3015334
50
41.3071453
51
73.5430202
0
ARC
8
DEFAULT_255_1_234
10
23.9461016
20
60.6262324
40
0.3564457
50
13.5075983
51
41.2174222
0
ARC
8
DEFAULT_255_1_234
10
23.781922
20
60.5832486
40
0.5261351
50
1.1331335
51
13.8829381
0
ARC
8
DEFAULT_255_1_234
10
23.6407589
20
60.5756665
40
0.6674378
50
359.9919444
51
1.544251
0
ARC
8
DEFAULT_255_1_234
10
23.7684415
20
60.571528
40
0.5397702
50
347.8572367
51
0.4293338
0
ARC
8
DEFAULT_255_1_234
10
23.9434733
20
60.5318736
40
0.3603188
50
323.673004
51
348.1672506
0
ARC
8
DEFAULT_255_1_234
10
23.9729241
20
60.5139168
40
0.3259678
50
316.8171152
51
323.1492751
0
ARC
8
DEFAULT_255_1_234
10
23.979043
20
60.510246
40
0.3189975
50
281.8396411
51
316.5457803
0
ARC
8
DEFAULT_255_1_234
10
23.9414694
20
60.6657762
40
0.4789527
50
269.5770101
51
282.4214771
0
ARC
8
DEFAULT_255_1_234
10
23.9343505
20
60.6444125
40
0.45759
50
256.2427136
51
270.4486331
0
ARC
8
DEFAULT_255_1_234
10
23.9044408
20
60.5244229
40
0.3339303
50
228.9023911
51
256.3314342
0
ARC
8
DEFAULT_255_1_234
10
23.897064
20
60.5127746
40
0.32031
50
193.753695
51
228.5271154
0
ARC
8
DEFAULT_255_1_234
10
24.0208594
20
60.54908
40
0.4492253
50
184.924711
51
194.497588
0
ARC
8
DEFAULT_255_1_234
10
24.0401161
20
60.5526591
40
0.3289787
50
187.3600538
51
198.6732863
0
ARC
8
DEFAULT_255_1_234
10
23.9351455
20
60.5162674
40
0.217884
50
198.4451669
51
217.794479
0
ARC
8
DEFAULT_255_1_234
10
23.905563
20
60.4953085
40
0.1816698
50
218.2887171
51
228.5612368
0
ARC
8
DEFAULT_255_1_234
10
23.9153417
20
60.5084963
40
0.1980329
50
228.9654866
51
258.1234728
0
ARC
8
DEFAULT_255_1_234
10
23.9359127
20
60.5965833
40
0.2884748
50
257.7258293
51
270.401361
0
ARC
8
DEFAULT_255_1_234
10
23.9404014
20
60.5520821
40
0.2439788
50
269.4204404
51
286.4209037
0
ARC
8
DEFAULT_255_1_234
10
23.9552501
20
60.4981657
40
0.1880666
50
286.7251356
51
320.600362
0
ARC
8
DEFAULT_255_1_234
10
23.9169326
20
60.5292595
40
0.2374121
50
320.6712579
51
344.5441685
0
ARC
8
DEFAULT_255_1_234
10
23.8012652
20
60.5632045
40
0.3579479
50
344.2412205
51
356.7357071
0
ARC
8
DEFAULT_255_1_234
10
23.6763801
20
60.5735444
40
0.4832297
50
356.3548756
51
0.0500261
0
ARC
8
DEFAULT_255_1_234
10
23.810031
20
60.576665
40
0.3495889
50
359.5576869
51
12.953486
0
ARC
8
DEFAULT_255_1_234
10
23.9155207
20
60.6022434
40
0.2410532
50
12.6490276
51
41.6081334
0
ARC
8
DEFAULT_255_1_234
10
23.9385578
20
60.6218321
40
0.2108218
50
41.7850273
51
85.9892764
0
ARC
8
DEFAULT_255_1_234
10
23.9262315
20
60.5405462
40
0.2928454
50
84.6957577
51
90.0676183
0
ARC
8
DEFAULT_255_1_234
10
23.9238799
20
60.4736716
40
0.3597255
50
89.6804936
51
99.1614436
0
ARC
8
DEFAULT_255_1_234
10
23.903343
20
60.5964131
40
0.235281
50
98.9830931
51
113.8908934
0
ARC
8
DEFAULT_255_1_234
10
23.880384
20
60.6505587
40
0.176479
50
114.1950727
51
127.3641004
0
LINE
8
DEFAULT_255_1_234
10
22.5446458
20
69.3098211
11
22.8482456
21
68.722701
0
LINE
8
DEFAULT_255_1_234
10
22.8482456
20
68.722701
11
23.1534516
21
69.3098211
0
LINE
8
DEFAULT_255_1_234
10
23.1534516
20
69.3098211
11
23.3285435
21
69.3098211
0
LINE
8
DEFAULT_255_1_234
10
23.3285435
20
69.3098211
11
22.9253502
21
68.5765234
0
LINE
8
DEFAULT_255_1_234
10
22.9253502
20
68.5765234
11
22.9253502
21
68.1404
0
LINE
8
DEFAULT_255_1_234
10
22.9253502
20
68.1404
11
22.7711409
21
68.1404
0
LINE
8
DEFAULT_255_1_234
10
22.7711409
20
68.1404
11
22.7711409
21
68.5765234
0
LINE
8
DEFAULT_255_1_234
10
22.7711409
20
68.5765234
11
22.3679476
21
69.3098211
0
LINE
8
DEFAULT_255_1_234
10
22.3679476
20
69.3098211
11
22.5446458
21
69.3098211
0
LINE
8
DEFAULT_255_1_234
10
24.0682666
20
69.3098211
11
24.0682666
21
68.533152
0
LINE
8
DEFAULT_255_1_234
10
24.0682666
20
68.533152
11
24.2305077
21
68.533152
0
LINE
8
DEFAULT_255_1_234
10
24.2305077
20
68.533152
11
24.2305077
21
68.4118728
0
LINE
8
DEFAULT_255_1_234
10
24.2305077
20
68.4118728
11
24.0682666
21
68.4118728
0
LINE
8
DEFAULT_255_1_234
10
24.0682666
20
68.4118728
11
24.0682666
21
68.1404
0
LINE
8
DEFAULT_255_1_234
10
24.0682666
20
68.1404
11
23.9188763
21
68.1404
0
LINE
8
DEFAULT_255_1_234
10
23.9188763
20
68.1404
11
23.9188763
21
68.4118728
0
LINE
8
DEFAULT_255_1_234
10
23.9188763
20
68.4118728
11
23.386372
21
68.4118728
0
LINE
8
DEFAULT_255_1_234
10
23.386372
20
68.4118728
11
23.386372
21
68.4994187
0
LINE
8
DEFAULT_255_1_234
10
23.386372
20
68.4994187
11
23.9100414
21
69.3098211
0
LINE
8
DEFAULT_255_1_234
10
23.9100414
20
69.3098211
11
24.0682666
21
69.3098211
0
LINE
8
DEFAULT_255_1_234
10
23.9012064
20
69.0744912
11
23.5550385
21
68.533152
0
LINE
8
DEFAULT_255_1_234
10
23.5550385
20
68.533152
11
23.9188763
21
68.533152
0
LINE
8
DEFAULT_255_1_234
10
23.9188763
20
68.533152
11
23.9188763
21
69.1066181
0
LINE
8
DEFAULT_255_1_234
10
23.9188763
20
69.1066181
11
23.9012064
21
69.0744912
0
LINE
8
DEFAULT_255_1_234
10
23.3199119
20
76.1991792
11
23.3199119
21
76.0779
0
LINE
8
DEFAULT_255_1_234
10
23.3199119
20
76.0779
11
22.553684
21
76.0779
0
LINE
8
DEFAULT_255_1_234
10
22.553684
20
76.0779
11
22.553684
21
76.1847221
0
LINE
8
DEFAULT_255_1_234
10
22.553684
20
76.1847221
11
22.9584836
21
76.6344995
0
LINE
8
DEFAULT_255_1_234
10
22.6797823
20
76.9027595
11
22.5311952
21
76.9027595
0
LINE
8
DEFAULT_255_1_234
10
23.0460296
20
76.5389218
11
22.7327918
21
76.1991792
0
LINE
8
DEFAULT_255_1_234
10
22.7327918
20
76.1991792
11
23.3199119
21
76.1991792
0
ARC
8
DEFAULT_255_1_234
10
21.609467
20
77.8274527
40
1.8008286
50
318.5132453
51
320.7828378
0
ARC
8
DEFAULT_255_1_234
10
22.1381644
20
77.3971426
40
1.1191493
50
320.7372736
51
323.9737074
0
ARC
8
DEFAULT_255_1_234
10
22.5301501
20
77.1131361
40
0.6350923
50
323.8961724
51
328.6421089
0
ARC
8
DEFAULT_255_1_234
10
22.7348096
20
76.9869031
40
0.3946393
50
328.8299013
51
331.789948
0
ARC
8
DEFAULT_255_1_234
10
22.8345274
20
76.9354509
40
0.2824501
50
331.4255242
51
352.9364833
0
ARC
8
DEFAULT_255_1_234
10
22.8481775
20
76.9323976
40
0.2685315
50
353.2248685
51
0.0169286
0
ARC
8
DEFAULT_255_1_234
10
22.8691652
20
76.934695
40
0.2475536
50
359.4866256
51
15.9339782
0
ARC
8
DEFAULT_255_1_234
10
22.9198637
20
76.9483286
40
0.1950618
50
16.1714718
51
43.5284424
0
ARC
8
DEFAULT_255_1_234
10
22.9275946
20
76.9560573
40
0.184134
50
43.4415429
51
83.1661404
0
ARC
8
DEFAULT_255_1_234
10
22.9141864
20
76.8823771
40
0.258926
50
82.160215
51
90.1505798
0
ARC
8
DEFAULT_255_1_234
10
22.9110291
20
76.8286865
40
0.3126255
50
89.5460705
51
102.5418777
0
ARC
8
DEFAULT_255_1_234
10
22.8867377
20
76.9317665
40
0.2067346
50
102.1739365
51
129.2061916
0
ARC
8
DEFAULT_255_1_234
10
22.8788449
20
76.9442094
40
0.1921118
50
129.7279328
51
135.7542026
0
ARC
8
DEFAULT_255_1_234
10
22.8909977
20
76.9345045
40
0.2075944
50
136.175737
51
166.3674722
0
ARC
8
DEFAULT_255_1_234
10
22.9916896
20
76.9075182
40
0.3118201
50
165.9092917
51
178.8683903
0
ARC
8
DEFAULT_255_1_234
10
23.0781757
20
76.9028179
40
0.3983935
50
178.438168
51
180.0083905
0
ARC
8
DEFAULT_255_1_234
10
22.9380359
20
76.9067231
40
0.4068601
50
163.2878735
51
180.5581814
0
ARC
8
DEFAULT_255_1_234
10
22.8578621
20
76.928784
40
0.3237344
50
133.454115
51
162.9470031
0
ARC
8
DEFAULT_255_1_234
10
22.8757162
20
76.9098
40
0.349795
50
100.7869394
51
133.4384016
0
ARC
8
DEFAULT_255_1_234
10
22.9104934
20
76.7549319
40
0.5084616
50
89.6605301
51
101.3704185
0
ARC
8
DEFAULT_255_1_234
10
22.9171273
20
76.7610496
40
0.502348
50
78.2171172
51
90.4130393
0
ARC
8
DEFAULT_255_1_234
10
22.9526351
20
76.9234637
40
0.3361092
50
55.9268222
51
78.4888551
0
ARC
8
DEFAULT_255_1_234
10
22.9722791
20
76.9573324
40
0.2970617
50
47.9292255
51
55.4054003
0
ARC
8
DEFAULT_255_1_234
10
22.9824352
20
76.9676502
40
0.2825983
50
4.3347696
51
48.0560701
0
ARC
8
DEFAULT_255_1_234
10
22.8728745
20
76.9506601
40
0.393225
50
359.925209
51
5.5967654
0
ARC
8
DEFAULT_255_1_234
10
22.9157637
20
76.9562816
40
0.3503892
50
337.8914096
51
358.9967724
0
ARC
8
DEFAULT_255_1_234
10
22.6444049
20
77.0609706
40
0.6412172
50
326.9135351
51
338.3505194
0
ARC
8
DEFAULT_255_1_234
10
22.2458353
20
77.3164284
40
1.1146189
50
319.6472867
51
327.095818
0
ARC
8
DEFAULT_255_1_234
10
21.8625356
20
77.6326
40
1.6114559
50
317.2586784
51
319.9046139
0
LINE
8
DEFAULT_255_1_234
10
24.2210729
20
76.4489663
11
24.3760854
21
76.4489663
0
LINE
8
DEFAULT_255_1_234
10
23.4757276
20
76.6079947
11
23.4757276
21
76.7204391
0
LINE
8
DEFAULT_255_1_234
10
24.3760854
20
76.8714357
11
24.2210729
21
76.8714357
0
LINE
8
DEFAULT_255_1_234
10
23.6307401
20
76.7164232
11
23.6307401
21
76.6031757
0
ARC
8
DEFAULT_255_1_234
10
23.8280241
20
76.5086846
40
0.5513052
50
340.1774281
51
353.7814284
0
ARC
8
DEFAULT_255_1_234
10
23.9851594
20
76.4501582
40
0.3836379
50
311.4558989
51
340.4421614
0
ARC
8
DEFAULT_255_1_234
10
23.9818262
20
76.4612528
40
0.3941894
50
282.4333181
51
310.7513653
0
ARC
8
DEFAULT_255_1_234
10
23.9379001
20
76.6427679
40
0.5809175
50
269.9358511
51
282.809604
0
ARC
8
DEFAULT_255_1_234
10
23.9327067
20
76.7885212
40
0.7266847
50
270.0021091
51
270.3581957
0
ARC
8
DEFAULT_255_1_234
10
23.9274484
20
76.5284585
40
0.4666519
50
250.7884749
51
270.6489167
0
ARC
8
DEFAULT_255_1_234
10
23.9106319
20
76.4647319
40
0.4009729
50
219.3627325
51
250.0611886
0
ARC
8
DEFAULT_255_1_234
10
23.993553
20
76.5352042
40
0.5097822
50
193.5479632
51
219.5756669
0
ARC
8
DEFAULT_255_1_234
10
24.2307151
20
76.5967919
40
0.7547848
50
181.1218675
51
193.87563
0
ARC
8
DEFAULT_255_1_234
10
24.4377332
20
76.607858
40
0.9620055
50
179.9918545
51
181.5394234
0
ARC
8
DEFAULT_255_1_234
10
24.2526434
20
76.7241788
40
0.7769248
50
169.5837241
51
180.2757934
0
ARC
8
DEFAULT_255_1_234
10
24.0689372
20
76.7581229
40
0.590109
50
155.0365899
51
169.6003176
0
ARC
8
DEFAULT_255_1_234
10
23.9553836
20
76.8128677
40
0.4640625
50
136.783148
51
155.2472683
0
ARC
8
DEFAULT_255_1_234
10
23.9164313
20
76.8459562
40
0.4130255
50
121.7633186
51
136.428115
0
ARC
8
DEFAULT_255_1_234
10
23.9299275
20
76.8210227
40
0.4413323
50
95.6459699
51
121.5490577
0
ARC
8
DEFAULT_255_1_234
10
23.9456557
20
76.7101949
40
0.55319
50
89.924208
51
96.1377933
0
ARC
8
DEFAULT_255_1_234
10
23.950699
20
76.7220542
40
0.5413475
50
76.6779277
51
90.4563316
0
ARC
8
DEFAULT_255_1_234
10
23.9900613
20
76.8811114
40
0.3775041
50
47.485847
51
76.9287264
0
ARC
8
DEFAULT_255_1_234
10
23.9753586
20
76.8711159
40
0.3948286
50
16.5424086
51
46.8933463
0
ARC
8
DEFAULT_255_1_234
10
23.8145743
20
76.8182861
40
0.564021
50
5.4072051
51
17.0365086
0
ARC
8
DEFAULT_255_1_234
10
23.670676
20
76.7951679
40
0.5556559
50
7.8891745
51
15.9239216
0
ARC
8
DEFAULT_255_1_234
10
23.8693773
20
76.8528631
40
0.3487515
50
15.7653144
51
27.9410532
0
ARC
8
DEFAULT_255_1_234
10
23.9797991
20
76.911979
40
0.2235026
50
27.8166557
51
46.4008329
0
ARC
8
DEFAULT_255_1_234
10
23.9847634
20
76.9114082
40
0.2205286
50
47.4371857
51
75.0698205
0
ARC
8
DEFAULT_255_1_234
10
23.9539029
20
76.8039765
40
0.3322915
50
74.7008593
51
87.8124495
0
ARC
8
DEFAULT_255_1_234
10
23.9465716
20
76.6983844
40
0.4380987
50
87.3814673
51
90.0240855
0
ARC
8
DEFAULT_255_1_234
10
23.9427259
20
76.8161291
40
0.3203749
50
89.3451631
51
108.5745436
0
ARC
8
DEFAULT_255_1_234
10
23.9290365
20
76.8674908
40
0.2673494
50
109.2998449
51
143.3037509
0
ARC
8
DEFAULT_255_1_234
10
24.0052437
20
76.8088881
40
0.3634757
50
143.0753173
51
163.1916937
0
ARC
8
DEFAULT_255_1_234
10
24.2004165
20
76.7472967
40
0.5681262
50
162.9373603
51
174.6208611
0
ARC
8
DEFAULT_255_1_234
10
24.4630207
20
76.718501
40
0.8322832
50
174.3419979
51
180.1430411
0
ARC
8
DEFAULT_255_1_234
10
24.3699363
20
76.5990698
40
0.7392076
50
179.6817502
51
189.150529
0
ARC
8
DEFAULT_255_1_234
10
24.1198611
20
76.557419
40
0.4856932
50
188.9910863
51
203.5773039
0
ARC
8
DEFAULT_255_1_234
10
24.0118944
20
76.5126211
40
0.3688271
50
203.9077269
51
215.1312379
0
ARC
8
DEFAULT_255_1_234
10
23.9196038
20
76.4410941
40
0.2522457
50
213.9071664
51
263.8849284
0
ARC
8
DEFAULT_255_1_234
10
23.9321367
20
76.5195518
40
0.3316174
50
263.1758525
51
270.1031083
0
ARC
8
DEFAULT_255_1_234
10
23.9353459
20
76.6442365
40
0.4563091
50
269.6719807
51
279.0609165
0
ARC
8
DEFAULT_255_1_234
10
23.9620227
20
76.4829907
40
0.2928759
50
278.8750225
51
293.6346586
0
ARC
8
DEFAULT_255_1_234
10
23.9940435
20
76.40779
40
0.2111472
50
293.8553404
51
310.0518804
0
ARC
8
DEFAULT_255_1_234
10
23.9945289
20
76.4015516
40
0.2060917
50
311.0646779
51
332.0108348
0
ARC
8
DEFAULT_255_1_234
10
23.8753016
20
76.4672978
40
0.3422352
50
331.6588543
51
343.2878891
0
ARC
8
DEFAULT_255_1_234
10
23.6690531
20
76.5306798
40
0.5580003
50
343.1446044
51
351.010618
0
ARC
8
DEFAULT_255_1_234
10
23.5149177
20
76.5587871
40
0.7146438
50
350.7157277
51
351.1602153
0
LINE
8
DEFAULT_255_1_234
10
22.6504458
20
85.1848211
11
22.9540456
21
84.597701
0
LINE
8
DEFAULT_255_1_234
10
22.9540456
20
84.597701
11
23.2592516
21
85.1848211
0
LINE
8
DEFAULT_255_1_234
10
23.2592516
20
85.1848211
11
23.4343435
21
85.1848211
0
LINE
8
DEFAULT_255_1_234
10
23.4343435
20
85.1848211
11
23.0311502
21
84.4515234
0
LINE
8
DEFAULT_255_1_234
10
23.0311502
20
84.4515234
11
23.0311502
21
84.0154
0
LINE
8
DEFAULT_255_1_234
10
23.0311502
20
84.0154
11
22.8769409
21
84.0154
0
LINE
8
DEFAULT_255_1_234
10
22.8769409
20
84.0154
11
22.8769409
21
84.4515234
0
LINE
8
DEFAULT_255_1_234
10
22.8769409
20
84.4515234
11
22.4737476
21
85.1848211
0
LINE
8
DEFAULT_255_1_234
10
22.4737476
20
85.1848211
11
22.6504458
21
85.1848211
0
LINE
8
DEFAULT_255_1_234
10
23.7628416
20
84.5511169
11
23.7628416
21
84.6723962
0
LINE
8
DEFAULT_255_1_234
10
23.7628416
20
84.6723962
11
23.8744828
21
84.6723962
0
LINE
8
DEFAULT_255_1_234
10
23.6841306
20
84.8780087
11
23.5355434
21
84.8780087
0
LINE
8
DEFAULT_255_1_234
10
23.5251021
20
84.3238188
11
23.6744925
21
84.3238188
0
LINE
8
DEFAULT_255_1_234
10
23.8744828
20
84.5511169
11
23.7628416
21
84.5511169
0
ARC
8
DEFAULT_255_1_234
10
23.8715694
20
85.0116713
40
0.3392876
50
270.4919872
51
281.8951556
0
ARC
8
DEFAULT_255_1_234
10
23.8956956
20
84.9014702
40
0.2264817
50
281.6691735
51
301.2943132
0
ARC
8
DEFAULT_255_1_234
10
23.9127166
20
84.8703304
40
0.1910381
50
301.7833094
51
311.7545298
0
ARC
8
DEFAULT_255_1_234
10
23.9218742
20
84.8601748
40
0.1773635
50
311.7323931
51
354.2802411
0
ARC
8
DEFAULT_255_1_234
10
23.8492367
20
84.8726722
40
0.2509385
50
353.0937916
51
0.1181479
0
ARC
8
DEFAULT_255_1_234
10
23.8031152
20
84.8774386
40
0.2970898
50
359.1805295
51
15.0453146
0
ARC
8
DEFAULT_255_1_234
10
23.9376989
20
84.9166992
40
0.1569564
50
13.9577229
51
77.6713066
0
ARC
8
DEFAULT_255_1_234
10
23.8990518
20
84.7781949
40
0.3006298
50
76.1116566
51
90.7026153
0
ARC
8
DEFAULT_255_1_234
10
23.8931356
20
84.8055545
40
0.2732568
50
89.5324876
51
103.531937
0
ARC
8
DEFAULT_255_1_234
10
23.8730801
20
84.8854884
40
0.1908508
50
103.2931773
51
133.5619022
0
ARC
8
DEFAULT_255_1_234
10
23.8686289
20
84.8914375
40
0.1834746
50
133.8349307
51
173.5344437
0
ARC
8
DEFAULT_255_1_234
10
23.9409332
20
84.8786213
40
0.2568033
50
172.5096846
51
180.1366907
0
ARC
8
DEFAULT_255_1_234
10
23.8458226
20
84.8820622
40
0.3103056
50
155.3484492
51
180.7484736
0
ARC
8
DEFAULT_255_1_234
10
23.8409315
20
84.8791846
40
0.3070957
50
131.5744599
51
154.4798489
0
ARC
8
DEFAULT_255_1_234
10
23.8722462
20
84.847531
40
0.3515643
50
96.9875458
51
131.9690667
0
ARC
8
DEFAULT_255_1_234
10
23.8941942
20
84.7229636
40
0.4779224
50
89.8596053
51
97.7825159
0
ARC
8
DEFAULT_255_1_234
10
23.8990005
20
84.6967616
40
0.5041361
50
78.3655447
51
90.4131539
0
ARC
8
DEFAULT_255_1_234
10
23.9347923
20
84.8626887
40
0.3344039
50
56.6229102
51
78.638727
0
ARC
8
DEFAULT_255_1_234
10
23.9562867
20
84.9002805
40
0.2912001
50
47.0253525
51
56.0854072
0
ARC
8
DEFAULT_255_1_234
10
23.9582647
20
84.9042223
40
0.2869704
50
10.9208013
51
46.7778124
0
ARC
8
DEFAULT_255_1_234
10
23.8218713
20
84.8726857
40
0.426899
50
359.6364486
51
11.6087304
0
ARC
8
DEFAULT_255_1_234
10
24.0053557
20
84.8711752
40
0.243409
50
332.3549906
51
359.7179418
0
ARC
8
DEFAULT_255_1_234
10
23.9403159
20
84.9020142
40
0.3153459
50
325.2333722
51
332.8745602
0
ARC
8
DEFAULT_255_1_234
10
23.9555783
20
84.8913828
40
0.2967456
50
292.9802137
51
325.2392345
0
ARC
8
DEFAULT_255_1_234
10
23.9281157
20
84.9447863
40
0.3566604
50
292.5402179
51
293.6924929
0
ARC
8
DEFAULT_255_1_234
10
23.9673752
20
84.2993091
40
0.3307468
50
57.6435486
51
72.8625112
0
ARC
8
DEFAULT_255_1_234
10
24.0028252
20
84.3567549
40
0.2632492
50
36.7248896
51
57.4697979
0
ARC
8
DEFAULT_255_1_234
10
24.0016885
20
84.358022
40
0.2634081
50
8.0545065
51
36.356114
0
ARC
8
DEFAULT_255_1_234
10
23.915407
20
84.3425174
40
0.3510261
50
359.8320645
51
8.5869982
0
ARC
8
DEFAULT_255_1_234
10
23.8778846
20
84.3377101
40
0.3885653
50
343.9829931
51
0.5571613
0
ARC
8
DEFAULT_255_1_234
10
23.9665043
20
84.3134438
40
0.2966924
50
311.6359546
51
343.7651759
0
ARC
8
DEFAULT_255_1_234
10
23.9286613
20
84.3561102
40
0.3537231
50
279.7829875
51
311.6255694
0
ARC
8
DEFAULT_255_1_234
10
23.8985389
20
84.499828
40
0.5004971
50
269.7286406
51
280.3856417
0
ARC
8
DEFAULT_255_1_234
10
23.8923461
20
84.4956996
40
0.4963778
50
256.6828919
51
270.4412052
0
ARC
8
DEFAULT_255_1_234
10
23.8584757
20
84.3572394
40
0.3538406
50
229.4223008
51
256.8556159
0
ARC
8
DEFAULT_255_1_234
10
23.817015
20
84.3105736
40
0.2914296
50
181.818294
51
229.6455059
0
ARC
8
DEFAULT_255_1_234
10
23.9210106
20
84.3236496
40
0.3959084
50
179.9755256
51
183.2323064
0
ARC
8
DEFAULT_255_1_234
10
23.9037852
20
84.3216037
40
0.2293034
50
179.4465117
51
196.2869258
0
ARC
8
DEFAULT_255_1_234
10
23.855026
20
84.3082651
40
0.1787621
50
196.5661473
51
227.705904
0
ARC
8
DEFAULT_255_1_234
10
23.8714355
20
84.3266155
40
0.2033784
50
227.7652068
51
257.8762805
0
ARC
8
DEFAULT_255_1_234
10
23.8939325
20
84.4209156
40
0.3003081
50
257.4584385
51
270.426602
0
ARC
8
DEFAULT_255_1_234
10
23.8984891
20
84.4498996
40
0.329292
50
269.5962073
51
280.8789248
0
ARC
8
DEFAULT_255_1_234
10
23.921442
20
84.3352685
40
0.2123908
50
280.6346389
51
299.8595945
0
ARC
8
DEFAULT_255_1_234
10
23.9405327
20
84.2990212
40
0.171457
50
300.3576302
51
314.5517981
0
ARC
8
DEFAULT_255_1_234
10
23.9322387
20
84.3050919
40
0.1816095
50
315.0728369
51
345.0431014
0
ARC
8
DEFAULT_255_1_234
10
23.8399201
20
84.3319841
40
0.2777492
50
344.5986631
51
357.9269593
0
ARC
8
DEFAULT_255_1_234
10
23.7503528
20
84.3381276
40
0.3674917
50
357.4748886
51
0.0231117
0
ARC
8
DEFAULT_255_1_234
10
23.8526637
20
84.3405679
40
0.2651907
50
359.5047933
51
13.4239635
0
ARC
8
DEFAULT_255_1_234
10
23.9393281
20
84.3627478
40
0.1757509
50
12.9498199
51
48.7551375
0
ARC
8
DEFAULT_255_1_234
10
23.9211014
20
84.33784
40
0.2065134
50
49.5088623
51
72.1836453
0
ARC
8
DEFAULT_255_1_234
10
23.8853167
20
84.2316291
40
0.3185836
50
71.9010081
51
84.3554254
0
ARC
8
DEFAULT_255_1_234
10
23.8691799
20
84.0955326
40
0.4556151
50
84.0193428
51
89.333121
0
LINE
8
DEFAULT_255_1_234
10
22.6504458
20
93.1223211
11
22.9540456
21
92.535201
0
LINE
8
DEFAULT_255_1_234
10
22.9540456
20
92.535201
11
23.2592516
21
93.1223211
0
LINE
8
DEFAULT_255_1_234
10
23.2592516
20
93.1223211
11
23.4343435
21
93.1223211
0
LINE
8
DEFAULT_255_1_234
10
23.4343435
20
93.1223211
11
23.0311502
21
92.3890234
0
LINE
8
DEFAULT_255_1_234
10
23.0311502
20
92.3890234
11
23.0311502
21
91.9529
0
LINE
8
DEFAULT_255_1_234
10
23.0311502
20
91.9529
11
22.8769409
21
91.9529
0
LINE
8
DEFAULT_255_1_234
10
22.8769409
20
91.9529
11
22.8769409
21
92.3890234
0
LINE
8
DEFAULT_255_1_234
10
22.8769409
20
92.3890234
11
22.4737476
21
93.1223211
0
LINE
8
DEFAULT_255_1_234
10
22.4737476
20
93.1223211
11
22.6504458
21
93.1223211
0
LINE
8
DEFAULT_255_1_234
10
24.3130157
20
92.0741792
11
24.3130157
21
91.9529
0
LINE
8
DEFAULT_255_1_234
10
24.3130157
20
91.9529
11
23.5467878
21
91.9529
0
LINE
8
DEFAULT_255_1_234
10
23.5467878
20
91.9529
11
23.5467878
21
92.0597221
0
LINE
8
DEFAULT_255_1_234
10
23.5467878
20
92.0597221
11
23.9515875
21
92.5094995
0
LINE
8
DEFAULT_255_1_234
10
23.6728861
20
92.7777595
11
23.524299
21
92.7777595
0
LINE
8
DEFAULT_255_1_234
10
24.0391334
20
92.4139218
11
23.7258956
21
92.0741792
0
LINE
8
DEFAULT_255_1_234
10
23.7258956
20
92.0741792
11
24.3130157
21
92.0741792
0
ARC
8
DEFAULT_255_1_234
10
22.6025708
20
93.7024527
40
1.8008286
50
318.5132453
51
320.7828378
0
ARC
8
DEFAULT_255_1_234
10
23.1312682
20
93.2721426
40
1.1191493
50
320.7372736
51
323.9737074
0
ARC
8
DEFAULT_255_1_234
10
23.5232539
20
92.9881361
40
0.6350923
50
323.8961724
51
328.6421089
0
ARC
8
DEFAULT_255_1_234
10
23.7279134
20
92.8619031
40
0.3946393
50
328.8299013
51
331.789948
0
ARC
8
DEFAULT_255_1_234
10
23.8276313
20
92.8104509
40
0.2824501
50
331.4255242
51
352.9364833
0
ARC
8
DEFAULT_255_1_234
10
23.8412813
20
92.8073976
40
0.2685315
50
353.2248685
51
0.0169286
0
ARC
8
DEFAULT_255_1_234
10
23.862269
20
92.809695
40
0.2475536
50
359.4866256
51
15.9339782
0
ARC
8
DEFAULT_255_1_234
10
23.9129675
20
92.8233286
40
0.1950618
50
16.1714718
51
43.5284424
0
ARC
8
DEFAULT_255_1_234
10
23.9206984
20
92.8310573
40
0.184134
50
43.4415429
51
83.1661404
0
ARC
8
DEFAULT_255_1_234
10
23.9072902
20
92.7573771
40
0.258926
50
82.160215
51
90.1505798
0
ARC
8
DEFAULT_255_1_234
10
23.9041329
20
92.7036865
40
0.3126255
50
89.5460705
51
102.5418777
0
ARC
8
DEFAULT_255_1_234
10
23.8798416
20
92.8067665
40
0.2067346
50
102.1739365
51
129.2061916
0
ARC
8
DEFAULT_255_1_234
10
23.8719487
20
92.8192094
40
0.1921118
50
129.7279328
51
135.7542026
0
ARC
8
DEFAULT_255_1_234
10
23.8841015
20
92.8095045
40
0.2075944
50
136.175737
51
166.3674722
0
ARC
8
DEFAULT_255_1_234
10
23.9847934
20
92.7825182
40
0.3118201
50
165.9092917
51
178.8683903
0
ARC
8
DEFAULT_255_1_234
10
24.0712795
20
92.7778179
40
0.3983935
50
178.438168
51
180.0083905
0
ARC
8
DEFAULT_255_1_234
10
23.9311398
20
92.7817231
40
0.4068601
50
163.2878735
51
180.5581814
0
ARC
8
DEFAULT_255_1_234
10
23.8509659
20
92.803784
40
0.3237344
50
133.454115
51
162.9470031
0
ARC
8
DEFAULT_255_1_234
10
23.86882
20
92.7848
40
0.349795
50
100.7869394
51
133.4384016
0
ARC
8
DEFAULT_255_1_234
10
23.9035972
20
92.6299319
40
0.5084616
50
89.6605301
51
101.3704185
0
ARC
8
DEFAULT_255_1_234
10
23.9102311
20
92.6360496
40
0.502348
50
78.2171172
51
90.4130393
0
ARC
8
DEFAULT_255_1_234
10
23.9457389
20
92.7984637
40
0.3361092
50
55.9268222
51
78.4888551
0
ARC
8
DEFAULT_255_1_234
10
23.9653829
20
92.8323324
40
0.2970617
50
47.9292255
51
55.4054003
0
ARC
8
DEFAULT_255_1_234
10
23.975539
20
92.8426502
40
0.2825983
50
4.3347696
51
48.0560701
0
ARC
8
DEFAULT_255_1_234
10
23.8659783
20
92.8256601
40
0.393225
50
359.925209
51
5.5967654
0
ARC
8
DEFAULT_255_1_234
10
23.9088675
20
92.8312816
40
0.3503892
50
337.8914096
51
358.9967724
0
ARC
8
DEFAULT_255_1_234
10
23.6375087
20
92.9359706
40
0.6412172
50
326.9135351
51
338.3505194
0
ARC
8
DEFAULT_255_1_234
10
23.2389391
20
93.1914284
40
1.1146189
50
319.6472867
51
327.095818
0
ARC
8
DEFAULT_255_1_234
10
22.8556394
20
93.5076
40
1.6114559
50
317.2586784
51
319.9046139
0
LINE
8
DEFAULT_255_1_234
10
22.6592458
20
101.0598211
11
22.9628456
21
100.472701
0
LINE
8
DEFAULT_255_1_234
10
22.9628456
20
100.472701
11
23.2680516
21
101.0598211
0
LINE
8
DEFAULT_255_1_234
10
23.2680516
20
101.0598211
11
23.4431435
21
101.0598211
0
LINE
8
DEFAULT_255_1_234
10
23.4431435
20
101.0598211
11
23.0399502
21
100.3265234
0
LINE
8
DEFAULT_255_1_234
10
23.0399502
20
100.3265234
11
23.0399502
21
99.8904
0
LINE
8
DEFAULT_255_1_234
10
23.0399502
20
99.8904
11
22.8857409
21
99.8904
0
LINE
8
DEFAULT_255_1_234
10
22.8857409
20
99.8904
11
22.8857409
21
100.3265234
0
LINE
8
DEFAULT_255_1_234
10
22.8857409
20
100.3265234
11
22.4825476
21
101.0598211
0
LINE
8
DEFAULT_255_1_234
10
22.4825476
20
101.0598211
11
22.6592458
21
101.0598211
0
LINE
8
DEFAULT_255_1_234
10
24.0439175
20
101.0654433
11
24.0439175
21
99.8904
0
LINE
8
DEFAULT_255_1_234
10
24.0439175
20
99.8904
11
23.8945272
21
99.8904
0
LINE
8
DEFAULT_255_1_234
10
23.8945272
20
99.8904
11
23.8945272
21
100.8807133
0
LINE
8
DEFAULT_255_1_234
10
23.8945272
20
100.8807133
11
23.5949434
21
100.7706785
0
LINE
8
DEFAULT_255_1_234
10
23.5949434
20
100.7706785
11
23.5949434
21
100.9056117
0
LINE
8
DEFAULT_255_1_234
10
23.5949434
20
100.9056117
11
24.0206255
21
101.0654433
0
LINE
8
DEFAULT_255_1_234
10
24.0206255
20
101.0654433
11
24.0439175
21
101.0654433
0
LINE
8
DEFAULT_255_1_234
10
22.6504458
20
108.9973211
11
22.9540456
21
108.410201
0
LINE
8
DEFAULT_255_1_234
10
22.9540456
20
108.410201
11
23.2592516
21
108.9973211
0
LINE
8
DEFAULT_255_1_234
10
23.2592516
20
108.9973211
11
23.4343435
21
108.9973211
0
LINE
8
DEFAULT_255_1_234
10
23.4343435
20
108.9973211
11
23.0311502
21
108.2640234
0
LINE
8
DEFAULT_255_1_234
10
23.0311502
20
108.2640234
11
23.0311502
21
107.8279
0
LINE
8
DEFAULT_255_1_234
10
23.0311502
20
107.8279
11
22.8769409
21
107.8279
0
LINE
8
DEFAULT_255_1_234
10
22.8769409
20
107.8279
11
22.8769409
21
108.2640234
0
LINE
8
DEFAULT_255_1_234
10
22.8769409
20
108.2640234
11
22.4737476
21
108.9973211
0
LINE
8
DEFAULT_255_1_234
10
22.4737476
20
108.9973211
11
22.6504458
21
108.9973211
0
LINE
8
DEFAULT_255_1_234
10
24.2800855
20
108.5194327
11
24.2800855
21
108.3266709
0
LINE
8
DEFAULT_255_1_234
10
23.5419688
20
108.3065916
11
23.5419688
21
108.5049755
0
LINE
8
DEFAULT_255_1_234
10
24.1314984
20
108.2865123
11
24.1314984
21
108.5298739
0
LINE
8
DEFAULT_255_1_234
10
23.690556
20
108.5411184
11
23.690556
21
108.3033789
0
ARC
8
DEFAULT_255_1_234
10
23.0553745
20
108.3217805
40
1.2247208
50
353.8441951
51
0.2287902
0
ARC
8
DEFAULT_255_1_234
10
23.5193249
20
108.2699806
40
0.7578929
50
344.4934747
51
353.9765454
0
ARC
8
DEFAULT_255_1_234
10
23.8185839
20
108.1848981
40
0.4467846
50
329.2803592
51
344.7472793
0
ARC
8
DEFAULT_255_1_234
10
23.9178664
20
108.1304018
40
0.3336173
50
324.9352394
51
328.6160465
0
ARC
8
DEFAULT_255_1_234
10
23.9555773
20
108.1040427
40
0.2876076
50
280.580143
51
324.9173126
0
ARC
8
DEFAULT_255_1_234
10
23.9154565
20
108.2711099
40
0.4592847
50
269.5977311
51
281.6734359
0
ARC
8
DEFAULT_255_1_234
10
23.9082471
20
108.2591173
40
0.4472986
50
256.6228859
51
270.51044
0
ARC
8
DEFAULT_255_1_234
10
23.8680449
20
108.1042877
40
0.2873874
50
215.8618325
51
257.2788573
0
ARC
8
DEFAULT_255_1_234
10
23.970148
20
108.1727977
40
0.4102928
50
197.9693508
51
215.2623606
0
ARC
8
DEFAULT_255_1_234
10
24.2186596
20
108.2566709
40
0.6725652
50
187.8816417
51
198.2346507
0
ARC
8
DEFAULT_255_1_234
10
24.6144804
20
108.3138079
40
1.0724845
50
180.8976217
51
188.0055519
0
ARC
8
DEFAULT_255_1_234
10
24.8944992
20
108.3241777
40
1.3526448
50
180.7449369
51
181.1510016
0
ARC
8
DEFAULT_255_1_234
10
24.7367721
20
108.5098042
40
1.1948131
50
173.7675579
51
180.231553
0
ARC
8
DEFAULT_255_1_234
10
24.2849868
20
108.5608666
40
0.7401564
50
164.3058563
51
173.9002247
0
ARC
8
DEFAULT_255_1_234
10
23.9937937
20
108.6447656
40
0.4371288
50
148.7922025
51
164.568378
0
ARC
8
DEFAULT_255_1_234
10
23.8986389
20
108.6978929
40
0.3282386
50
144.5883898
51
148.1176286
0
ARC
8
DEFAULT_255_1_234
10
23.8643287
20
108.7218315
40
0.2864044
50
101.6440918
51
144.514236
0
ARC
8
DEFAULT_255_1_234
10
23.9068354
20
108.5529069
40
0.4604934
50
89.5284041
51
102.5819763
0
ARC
8
DEFAULT_255_1_234
10
23.9147441
20
108.5490018
40
0.464401
50
77.0437873
51
90.5081339
0
ARC
8
DEFAULT_255_1_234
10
23.9549443
20
108.7132615
40
0.2953195
50
48.2778575
51
77.4994676
0
ARC
8
DEFAULT_255_1_234
10
23.9622074
20
108.7261746
40
0.2808655
50
36.3142134
51
47.6305865
0
ARC
8
DEFAULT_255_1_234
10
23.8753381
20
108.6676515
40
0.3855453
50
18.2931786
51
35.6769206
0
ARC
8
DEFAULT_255_1_234
10
23.621014
20
108.5803593
40
0.654423
50
8.024666
51
18.5605216
0
ARC
8
DEFAULT_255_1_234
10
23.204706
20
108.5188792
40
1.0752407
50
1.1274072
51
8.1718305
0
ARC
8
DEFAULT_255_1_234
10
22.8811251
20
108.5061885
40
1.3990231
50
0.5424119
51
1.3863029
0
ARC
8
DEFAULT_255_1_234
10
23.0632629
20
108.5334342
40
1.0682415
50
359.8090433
51
4.9407866
0
ARC
8
DEFAULT_255_1_234
10
23.4842643
20
108.5710113
40
0.6455691
50
4.8362157
51
12.2904523
0
ARC
8
DEFAULT_255_1_234
10
23.7597757
20
108.6323965
40
0.3633074
50
12.0805627
51
23.8173984
0
ARC
8
DEFAULT_255_1_234
10
23.8771463
20
108.6820919
40
0.2358723
50
24.2871213
51
31.3935614
0
ARC
8
DEFAULT_255_1_234
10
23.929616
20
108.7164233
40
0.1732111
50
30.7407893
51
82.4657128
0
ARC
8
DEFAULT_255_1_234
10
23.9116294
20
108.6280691
40
0.263235
50
81.1060089
51
90.2184952
0
ARC
8
DEFAULT_255_1_234
10
23.9080593
20
108.6538924
40
0.2374236
50
89.3806855
51
105.6762551
0
ARC
8
DEFAULT_255_1_234
10
23.8897224
20
108.7205567
40
0.1682847
50
105.7981136
51
149.7388061
0
ARC
8
DEFAULT_255_1_234
10
23.9961302
20
108.656595
40
0.2924306
50
149.4208916
51
163.6286378
0
ARC
8
DEFAULT_255_1_234
10
24.205219
20
108.592825
40
0.5110213
50
163.3763315
51
172.1410975
0
ARC
8
DEFAULT_255_1_234
10
24.5352909
20
108.5455518
40
0.8444586
50
172.0259487
51
178.0703232
0
ARC
8
DEFAULT_255_1_234
10
24.8382999
20
108.5311906
40
1.1477868
50
177.8631668
51
179.5044149
0
ARC
8
DEFAULT_255_1_234
10
24.7310403
20
108.2997389
40
1.0404907
50
179.7995573
51
185.2460446
0
ARC
8
DEFAULT_255_1_234
10
24.3267442
20
108.2614513
40
0.6343885
50
185.1411642
51
193.0079639
0
ARC
8
DEFAULT_255_1_234
10
24.0623915
20
108.1989641
40
0.3627568
50
192.7897626
51
205.2507664
0
ARC
8
DEFAULT_255_1_234
10
23.9577462
20
108.1522415
40
0.2481908
50
205.8005384
51
211.2537509
0
ARC
8
DEFAULT_255_1_234
10
23.9053902
20
108.117158
40
0.1852521
50
210.3789793
51
238.4008143
0
ARC
8
DEFAULT_255_1_234
10
23.9034424
20
108.1218376
40
0.1882621
50
239.6520629
51
265.9793761
0
ARC
8
DEFAULT_255_1_234
10
23.9119624
20
108.1890427
40
0.2559272
50
265.1315437
51
270.060332
0
ARC
8
DEFAULT_255_1_234
10
23.9148403
20
108.1566534
40
0.2235528
50
269.3314664
51
287.2178029
0
ARC
8
DEFAULT_255_1_234
10
23.9286255
20
108.1063279
40
0.1714108
50
287.7958004
51
329.080874
0
ARC
8
DEFAULT_255_1_234
10
23.8328712
20
108.166093
40
0.2842745
50
328.6634704
51
343.3325132
0
ARC
8
DEFAULT_255_1_234
10
23.6155732
20
108.2337863
40
0.5118644
50
343.0499468
51
351.9393422
0
ARC
8
DEFAULT_255_1_234
10
23.2689032
20
108.2848949
40
0.8622784
50
351.8069023
51
357.7959224
0
ARC
8
DEFAULT_255_1_234
10
22.9453588
20
108.3016721
40
1.1862365
50
357.5871873
51
359.2677531
0
LINE
8
DEFAULT_255_1_234
10
23.0420137
20
116.9404433
11
23.0420137
21
115.7654
0
LINE
8
DEFAULT_255_1_234
10
23.0420137
20
115.7654
11
22.8926234
21
115.7654
0
LINE
8
DEFAULT_255_1_234
10
22.8926234
20
115.7654
11
22.8926234
21
116.7557133
0
LINE
8
DEFAULT_255_1_234
10
22.8926234
20
116.7557133
11
22.5930396
21
116.6456785
0
LINE
8
DEFAULT_255_1_234
10
22.5930396
20
116.6456785
11
22.5930396
21
116.7806117
0
LINE
8
DEFAULT_255_1_234
10
22.5930396
20
116.7806117
11
23.0187217
21
116.9404433
0
LINE
8
DEFAULT_255_1_234
10
23.0187217
20
116.9404433
11
23.0420137
21
116.9404433
0
LINE
8
DEFAULT_255_1_234
10
24.2210729
20
116.1364663
11
24.3760854
21
116.1364663
0
LINE
8
DEFAULT_255_1_234
10
23.4757276
20
116.2954947
11
23.4757276
21
116.4079391
0
LINE
8
DEFAULT_255_1_234
10
24.3760854
20
116.5589357
11
24.2210729
21
116.5589357
0
LINE
8
DEFAULT_255_1_234
10
23.6307401
20
116.4039232
11
23.6307401
21
116.2906757
0
ARC
8
DEFAULT_255_1_234
10
23.8280241
20
116.1961846
40
0.5513052
50
340.1774281
51
353.7814284
0
ARC
8
DEFAULT_255_1_234
10
23.9851594
20
116.1376582
40
0.3836379
50
311.4558989
51
340.4421614
0
ARC
8
DEFAULT_255_1_234
10
23.9818262
20
116.1487528
40
0.3941894
50
282.4333181
51
310.7513653
0
ARC
8
DEFAULT_255_1_234
10
23.9379001
20
116.3302679
40
0.5809175
50
269.9358511
51
282.809604
0
ARC
8
DEFAULT_255_1_234
10
23.9327067
20
116.4760212
40
0.7266847
50
270.0021091
51
270.3581957
0
ARC
8
DEFAULT_255_1_234
10
23.9274484
20
116.2159585
40
0.4666519
50
250.7884749
51
270.6489167
0
ARC
8
DEFAULT_255_1_234
10
23.9106319
20
116.1522319
40
0.4009729
50
219.3627325
51
250.0611886
0
ARC
8
DEFAULT_255_1_234
10
23.993553
20
116.2227042
40
0.5097822
50
193.5479632
51
219.5756669
0
ARC
8
DEFAULT_255_1_234
10
24.2307151
20
116.2842919
40
0.7547848
50
181.1218675
51
193.87563
0
ARC
8
DEFAULT_255_1_234
10
24.4377332
20
116.295358
40
0.9620055
50
179.9918545
51
181.5394234
0
ARC
8
DEFAULT_255_1_234
10
24.2526434
20
116.4116788
40
0.7769248
50
169.5837241
51
180.2757934
0
ARC
8
DEFAULT_255_1_234
10
24.0689372
20
116.4456229
40
0.590109
50
155.0365899
51
169.6003176
0
ARC
8
DEFAULT_255_1_234
10
23.9553836
20
116.5003677
40
0.4640625
50
136.783148
51
155.2472683
0
ARC
8
DEFAULT_255_1_234
10
23.9164313
20
116.5334562
40
0.4130255
50
121.7633186
51
136.428115
0
ARC
8
DEFAULT_255_1_234
10
23.9299275
20
116.5085227
40
0.4413323
50
95.6459699
51
121.5490577
0
ARC
8
DEFAULT_255_1_234
10
23.9456557
20
116.3976949
40
0.55319
50
89.924208
51
96.1377933
0
ARC
8
DEFAULT_255_1_234
10
23.950699
20
116.4095542
40
0.5413475
50
76.6779277
51
90.4563316
0
ARC
8
DEFAULT_255_1_234
10
23.9900613
20
116.5686114
40
0.3775041
50
47.485847
51
76.9287264
0
ARC
8
DEFAULT_255_1_234
10
23.9753586
20
116.5586159
40
0.3948286
50
16.5424086
51
46.8933463
0
ARC
8
DEFAULT_255_1_234
10
23.8145743
20
116.5057861
40
0.564021
50
5.4072051
51
17.0365086
0
ARC
8
DEFAULT_255_1_234
10
23.670676
20
116.4826679
40
0.5556559
50
7.8891745
51
15.9239216
0
ARC
8
DEFAULT_255_1_234
10
23.8693773
20
116.5403631
40
0.3487515
50
15.7653144
51
27.9410532
0
ARC
8
DEFAULT_255_1_234
10
23.9797991
20
116.599479
40
0.2235026
50
27.8166557
51
46.4008329
0
ARC
8
DEFAULT_255_1_234
10
23.9847634
20
116.5989082
40
0.2205286
50
47.4371857
51
75.0698205
0
ARC
8
DEFAULT_255_1_234
10
23.9539029
20
116.4914765
40
0.3322915
50
74.7008593
51
87.8124495
0
ARC
8
DEFAULT_255_1_234
10
23.9465716
20
116.3858844
40
0.4380987
50
87.3814673
51
90.0240855
0
ARC
8
DEFAULT_255_1_234
10
23.9427259
20
116.5036291
40
0.3203749
50
89.3451631
51
108.5745436
0
ARC
8
DEFAULT_255_1_234
10
23.9290365
20
116.5549908
40
0.2673494
50
109.2998449
51
143.3037509
0
ARC
8
DEFAULT_255_1_234
10
24.0052437
20
116.4963881
40
0.3634757
50
143.0753173
51
163.1916937
0
ARC
8
DEFAULT_255_1_234
10
24.2004165
20
116.4347967
40
0.5681262
50
162.9373603
51
174.6208611
0
ARC
8
DEFAULT_255_1_234
10
24.4630207
20
116.406001
40
0.8322832
50
174.3419979
51
180.1430411
0
ARC
8
DEFAULT_255_1_234
10
24.3699363
20
116.2865698
40
0.7392076
50
179.6817502
51
189.150529
0
ARC
8
DEFAULT_255_1_234
10
24.1198611
20
116.244919
40
0.4856932
50
188.9910863
51
203.5773039
0
ARC
8
DEFAULT_255_1_234
10
24.0118944
20
116.2001211
40
0.3688271
50
203.9077269
51
215.1312379
0
ARC
8
DEFAULT_255_1_234
10
23.9196038
20
116.1285941
40
0.2522457
50
213.9071664
51
263.8849284
0
ARC
8
DEFAULT_255_1_234
10
23.9321367
20
116.2070518
40
0.3316174
50
263.1758525
51
270.1031083
0
ARC
8
DEFAULT_255_1_234
10
23.9353459
20
116.3317365
40
0.4563091
50
269.6719807
51
279.0609165
0
ARC
8
DEFAULT_255_1_234
10
23.9620227
20
116.1704907
40
0.2928759
50
278.8750225
51
293.6346586
0
ARC
8
DEFAULT_255_1_234
10
23.9940435
20
116.09529
40
0.2111472
50
293.8553404
51
310.0518804
0
ARC
8
DEFAULT_255_1_234
10
23.9945289
20
116.0890516
40
0.2060917
50
311.0646779
51
332.0108348
0
ARC
8
DEFAULT_255_1_234
10
23.8753016
20
116.1547978
40
0.3422352
50
331.6588543
51
343.2878891
0
ARC
8
DEFAULT_255_1_234
10
23.6690531
20
116.2181798
40
0.5580003
50
343.1446044
51
351.010618
0
ARC
8
DEFAULT_255_1_234
10
23.5149177
20
116.2462871
40
0.7146438
50
350.7157277
51
351.1602153
0
ENDSEC
0
EOF